  0
SECTION
  2
HEADER
  9
$ACADVER
  1
AC1006
  9
$DWGCODEPAGE
  3
ansi_932
  9
$INSBASE
 10
0.0
 20
0.0
 30
0.0
  9
$EXTMIN
 10
0.0
 20
-900.3468367272727
  9
$EXTMAX
 10
2462.3246987861
 20
5.686136363636363
  9
$LIMMIN
 10
0.0
 20
0.0
  9
$LIMMAX
 10
12.0
 20
9.0
  9
$ORTHOMODE
 70
     0
  9
$REGENMODE
 70
     1
  9
$FILLMODE
 70
     1
  9
$QTEXTMODE
 70
     0
  9
$MIRRTEXT
 70
     1
  9
$DRAGMODE
 70
     2
  9
$LTSCALE
 40
1.0
  9
$OSMODE
 70
    37
  9
$ATTMODE
 70
     1
  9
$TEXTSIZE
 40
0.2
  9
$TRACEWID
 40
0.05
  9
$TEXTSTYLE
  7
STANDARD
  9
$CLAYER
  8
0
  9
$CELTYPE
  6
BYLAYER
  9
$CECOLOR
 62
   256
  9
$DIMSCALE
 40
1.0
  9
$DIMASZ
 40
2.4
  9
$DIMEXO
 40
0.0625
  9
$DIMDLI
 40
0.38
  9
$DIMRND
 40
0.0
  9
$DIMDLE
 40
0.0
  9
$DIMEXE
 40
1.2
  9
$DIMTP
 40
0.0
  9
$DIMTM
 40
0.0
  9
$DIMTXT
 40
8.0
  9
$DIMCEN
 40
0.09
  9
$DIMTSZ
 40
0.0
  9
$DIMTOL
 70
     0
  9
$DIMLIM
 70
     0
  9
$DIMTIH
 70
     1
  9
$DIMTOH
 70
     1
  9
$DIMSE1
 70
     0
  9
$DIMSE2
 70
     0
  9
$DIMTAD
 70
     1
  9
$DIMZIN
 70
     0
  9
$DIMBLK
  1

  9
$DIMASO
 70
     1
  9
$DIMSHO
 70
     1
  9
$DIMPOST
  1

  9
$DIMAPOST
  1

  9
$DIMALT
 70
     0
  9
$DIMALTD
 70
     2
  9
$DIMALTF
 40
25.4
  9
$DIMLFAC
 40
1.0
  9
$DIMTOFL
 70
     0
  9
$DIMTVP
 40
0.0
  9
$DIMTIX
 70
     0
  9
$DIMSOXD
 70
     0
  9
$DIMSAH
 70
     0
  9
$DIMBLK1
  1

  9
$DIMBLK2
  1

  9
$LUNITS
 70
     2
  9
$LUPREC
 70
     4
  9
$SKETCHINC
 40
0.1
  9
$FILLETRAD
 40
0.5
  9
$AUNITS
 70
     0
  9
$AUPREC
 70
     0
  9
$MENU
  1
.
  9
$ELEVATION
 40
0.0
  9
$THICKNESS
 40
0.0
  9
$LIMCHECK
 70
     0
  9
$CHAMFERA
 40
0.0
  9
$CHAMFERB
 40
0.0
  9
$SKPOLY
 70
     0
  9
$TDCREATE
 40
2460587.383433785
  9
$TDUPDATE
 40
2460587.383434155
  9
$TDINDWG
 40
0.0000000116
  9
$TDUSRTIMER
 40
0.0000000116
  9
$USRTIMER
 70
     1
  9
$ANGBASE
 50
0.0
  9
$ANGDIR
 70
     0
  9
$PDMODE
 70
     0
  9
$PDSIZE
 40
0.0
  9
$PLINEWID
 40
0.0
  9
$COORDS
 70
     1
  9
$SPLFRAME
 70
     0
  9
$SPLINETYPE
 70
     6
  9
$SPLINESEGS
 70
     8
  9
$ATTDIA
 70
     0
  9
$ATTREQ
 70
     1
  9
$HANDLING
 70
     1
  9
$HANDSEED
  5
1F2
  9
$SURFTAB1
 70
     6
  9
$SURFTAB2
 70
     6
  9
$SURFTYPE
 70
     6
  9
$SURFU
 70
     6
  9
$SURFV
 70
     6
  9
$UCSNAME
  2

  9
$UCSORG
 10
0.0
 20
0.0
 30
0.0
  9
$UCSXDIR
 10
1.0
 20
0.0
 30
0.0
  9
$UCSYDIR
 10
0.0
 20
1.0
 30
0.0
  9
$USERI1
 70
     0
  9
$USERI2
 70
     0
  9
$USERI3
 70
     0
  9
$USERI4
 70
     0
  9
$USERI5
 70
     0
  9
$USERR1
 40
0.0
  9
$USERR2
 40
0.0
  9
$USERR3
 40
0.0
  9
$USERR4
 40
0.0
  9
$USERR5
 40
0.0
  9
$WORLDVIEW
 70
     1
  0
ENDSEC
  0
SECTION
  2
TABLES
  0
TABLE
  2
VPORT
 70
     1
  0
VPORT
  2
*ACTIVE
 70
     0
 10
0.0
 20
0.0
 11
1.0
 21
1.0
 12
1231.16234939305
 22
-447.3303501818182
 13
0.0
 23
0.0
 14
0.5
 24
0.5
 15
0.5
 25
0.5
 16
0.0
 26
0.0
 36
1.0
 17
0.0
 27
0.0
 37
0.0
 40
906.0329730909091
 41
1.6
 42
50.0
 43
0.0
 44
0.0
 50
0.0
 51
0.0
 71
     0
 72
   100
 73
     1
 74
     3
 75
     0
 76
     0
 77
     0
 78
     0
  0
ENDTAB
  0
TABLE
  2
LTYPE
 70
     2
  0
LTYPE
  2
CONTINUOUS
 70
     0
  3
Solid line
 72
    65
 73
     0
 40
0.0
  0
LTYPE
  2
CENTER
 70
     0
  3

 72
    65
 73
     0
 40
0.0
  0
ENDTAB
  0
TABLE
  2
LAYER
 70
     2
  0
LAYER
  2
0
 70
     0
 62
     7
  6
CONTINUOUS
  0
LAYER
  2
1
 70
     0
 62
     7
  6
CONTINUOUS
  0
ENDTAB
  0
TABLE
  2
STYLE
 70
     2
  0
STYLE
  2
STANDARD
 70
     0
 40
0.0
 41
1.0
 50
0.0
 71
     0
 42
0.2
  3
txt
  4

  0
STYLE
  2
ＭＳ_ゴシック
 70
     0
 40
0.0
 41
1.0
 50
0.0
 71
     0
 42
0.2
  3
ＭＳ ゴシック.shx
  4

  0
ENDTAB
  0
TABLE
  2
VIEW
 70
     0
  0
ENDTAB
  0
TABLE
  2
UCS
 70
     0
  0
ENDTAB
  0
ENDSEC
  0
SECTION
  2
BLOCKS
  0
BLOCK
  8
0
  2
D_FRAME_DRAWING_21
 70
     0
 10
0.0
 20
0.0
 30
0.0
  0
LINE
  5
BF
  8
0
  6
CONTINUOUS
 62
     7
 10
0.0
 20
0.0
 30
0.0
 11
420.0
 21
0.0
 31
0.0
  0
LINE
  5
C0
  8
0
  6
CONTINUOUS
 62
     7
 10
420.0
 20
0.0
 30
0.0
 11
420.0
 21
297.0
 31
0.0
  0
LINE
  5
C1
  8
0
  6
CONTINUOUS
 62
     7
 10
420.0
 20
297.0
 30
0.0
 11
0.0
 21
297.0
 31
0.0
  0
LINE
  5
C2
  8
0
  6
CONTINUOUS
 62
     7
 10
0.0
 20
297.0
 30
0.0
 11
0.0
 21
0.0
 31
0.0
  0
LINE
  5
C3
  8
0
  6
CONTINUOUS
 62
     7
 10
10.0
 20
10.0
 30
0.0
 11
409.9999999999999
 21
10.0
 31
0.0
  0
LINE
  5
C4
  8
0
  6
CONTINUOUS
 62
     7
 10
409.9999999999999
 20
10.0
 30
0.0
 11
409.9999999999999
 21
286.9999999999999
 31
0.0
  0
LINE
  5
C5
  8
0
  6
CONTINUOUS
 62
     7
 10
409.9999999999999
 20
286.9999999999999
 30
0.0
 11
10.00000000000006
 21
286.9999999999999
 31
0.0
  0
LINE
  5
C6
  8
0
  6
CONTINUOUS
 62
     7
 10
10.0
 20
286.9999999999999
 30
0.0
 11
10.0
 21
10.00000000000001
 31
0.0
  0
LINE
  5
C7
  8
0
  6
CONTINUOUS
 62
     7
 10
210.0
 20
0.0
 30
0.0
 11
210.0
 21
10.0
 31
0.0
  0
LINE
  5
C8
  8
0
  6
CONTINUOUS
 62
     7
 10
420.0
 20
148.5
 30
0.0
 11
409.9999999999999
 21
148.5
 31
0.0
  0
LINE
  5
C9
  8
0
  6
CONTINUOUS
 62
     7
 10
210.0
 20
297.0
 30
0.0
 11
210.0
 21
286.9999999999999
 31
0.0
  0
LINE
  5
CA
  8
0
  6
CONTINUOUS
 62
     7
 10
0.0
 20
148.5
 30
0.0
 11
10.0
 21
148.5
 31
0.0
  0
POLYLINE
  5
CB
  8
0
  6
CONTINUOUS
 62
     7
 66
     1
 10
0.0
 20
0.0
 30
0.0
 70
     1
  0
VERTEX
  5
1C3
  8
0
  6
CONTINUOUS
 62
     7
 10
11.0
 20
152.5
 30
0.0
  0
VERTEX
  5
1C4
  8
0
  6
CONTINUOUS
 62
     7
 10
0.0
 20
148.5
 30
0.0
  0
VERTEX
  5
1C5
  8
0
  6
CONTINUOUS
 62
     7
 10
11.0
 20
144.5
 30
0.0
  0
VERTEX
  5
1C6
  8
0
  6
CONTINUOUS
 62
     7
 10
11.0
 20
152.5
 30
0.0
  0
SEQEND
  5
1F0
  8
0
  6
CONTINUOUS
 62
     7
  0
INSERT
  5
CC
  8
0
 62
     7
  2
*U2
 10
0.0
 20
0.0
 30
0.0
  0
POLYLINE
  5
CD
  8
0
  6
CONTINUOUS
 62
     7
 66
     1
 10
0.0
 20
0.0
 30
0.0
 70
     1
  0
VERTEX
  5
1C9
  8
0
  6
CONTINUOUS
 62
     7
 10
206.0
 20
11.0
 30
0.0
  0
VERTEX
  5
1CA
  8
0
  6
CONTINUOUS
 62
     7
 10
210.0
 20
0.0
 30
0.0
  0
VERTEX
  5
1CB
  8
0
  6
CONTINUOUS
 62
     7
 10
214.0
 20
11.0
 30
0.0
  0
VERTEX
  5
1CC
  8
0
  6
CONTINUOUS
 62
     7
 10
206.0
 20
11.0
 30
0.0
  0
SEQEND
  5
1F1
  8
0
  6
CONTINUOUS
 62
     7
  0
INSERT
  5
CE
  8
0
 62
     7
  2
*U3
 10
0.0
 20
0.0
 30
0.0
  0
LINE
  5
CF
  8
0
  6
CONTINUOUS
 62
     7
 10
367.5
 20
286.9999999999999
 30
0.0
 11
367.5
 21
292.0
 31
0.0
  0
TEXT
  5
D0
  8
0
  6
CONTINUOUS
 62
     7
 10
391.6340909090909
 20
291.8324293485057
 30
0.0
 40
3.5
  1
A
 50
270.0
  0
LINE
  5
D1
  8
0
  6
CONTINUOUS
 62
     7
 10
367.5
 20
10.0
 30
0.0
 11
367.5
 21
5.0
 31
0.0
  0
TEXT
  5
D2
  8
0
  6
CONTINUOUS
 62
     7
 10
392.9868888333125
 20
4.602272727272727
 30
0.0
 40
3.5
  1
A
  0
LINE
  5
D3
  8
0
  6
CONTINUOUS
 62
     7
 10
315.0
 20
286.9999999999999
 30
0.0
 11
315.0
 21
292.0
 31
0.0
  0
TEXT
  5
D4
  8
0
  6
CONTINUOUS
 62
     7
 10
339.1340909090909
 20
291.9745607727899
 30
0.0
 40
3.5
  1
B
 50
270.0
  0
LINE
  5
D5
  8
0
  6
CONTINUOUS
 62
     7
 10
315.0
 20
10.0
 30
0.0
 11
315.0
 21
5.0
 31
0.0
  0
TEXT
  5
D6
  8
0
  6
CONTINUOUS
 62
     7
 10
340.3447574090284
 20
4.602272727272727
 30
0.0
 40
3.5
  1
B
  0
LINE
  5
D7
  8
0
  6
CONTINUOUS
 62
     7
 10
262.5
 20
286.9999999999999
 30
0.0
 11
262.5
 21
292.0
 31
0.0
  0
TEXT
  5
D8
  8
0
  6
CONTINUOUS
 62
     7
 10
286.6327779167187
 20
291.9399305989747
 30
0.0
 40
3.5
  1
C
 50
270.0
  0
LINE
  5
D9
  8
0
  6
CONTINUOUS
 62
     7
 10
262.5
 20
10.0
 30
0.0
 11
262.5
 21
5.0
 31
0.0
  0
TEXT
  5
DA
  8
0
  6
CONTINUOUS
 62
     7
 10
287.8793875828435
 20
4.600959734900587
 30
0.0
 40
3.5
  1
C
  0
LINE
  5
DB
  8
0
  6
CONTINUOUS
 62
     7
 10
210.0
 20
286.9999999999999
 30
0.0
 11
210.0
 21
292.0
 31
0.0
  0
TEXT
  5
DC
  8
0
  6
CONTINUOUS
 62
     7
 10
234.1340909090909
 20
291.9745607727898
 30
0.0
 40
3.5
  1
D
 50
270.0
  0
LINE
  5
DD
  8
0
  6
CONTINUOUS
 62
     7
 10
157.5
 20
286.9999999999999
 30
0.0
 11
157.5
 21
292.0
 31
0.0
  0
TEXT
  5
DE
  8
0
  6
CONTINUOUS
 62
     7
 10
181.6327779167188
 20
292.027463423784
 30
0.0
 40
3.5
  1
E
 50
270.0
  0
LINE
  5
DF
  8
0
  6
CONTINUOUS
 62
     7
 10
157.5
 20
10.0
 30
0.0
 11
157.5
 21
5.0
 31
0.0
  0
LINE
  5
E0
  8
0
  6
CONTINUOUS
 62
     7
 10
105.0
 20
286.9999999999999
 30
0.0
 11
105.0
 21
292.0
 31
0.0
  0
TEXT
  5
E1
  8
0
  6
CONTINUOUS
 62
     7
 10
129.1327779167188
 20
291.9924502938602
 30
0.0
 40
3.5
  1
F
 50
270.0
  0
LINE
  5
E2
  8
0
  6
CONTINUOUS
 62
     7
 10
105.0
 20
10.0
 30
0.0
 11
105.0
 21
5.0
 31
0.0
  0
TEXT
  5
E3
  8
0
  6
CONTINUOUS
 62
     7
 10
130.326867887958
 20
4.600959734900587
 30
0.0
 40
3.5
  1
F
  0
LINE
  5
E4
  8
0
  6
CONTINUOUS
 62
     7
 10
52.50000000000004
 20
286.9999999999999
 30
0.0
 11
52.50000000000004
 21
292.0
 31
0.0
  0
TEXT
  5
E5
  8
0
  6
CONTINUOUS
 62
     7
 10
76.6327779167188
 20
291.9399305989746
 30
0.0
 40
3.5
  1
G
 50
270.0
  0
LINE
  5
E6
  8
0
  6
CONTINUOUS
 62
     7
 10
52.50000000000004
 20
10.0
 30
0.0
 11
52.50000000000004
 21
5.0
 31
0.0
  0
TEXT
  5
E7
  8
0
  6
CONTINUOUS
 62
     7
 10
77.8793875828436
 20
4.600959734900587
 30
0.0
 40
3.5
  1
G
  0
TEXT
  5
E8
  8
0
  6
CONTINUOUS
 62
     7
 10
24.13277791671879
 20
291.9749437288983
 30
0.0
 40
3.5
  1
H
 50
270.0
  0
TEXT
  5
E9
  8
0
  6
CONTINUOUS
 62
     7
 10
25.34437445291988
 20
4.600959734900587
 30
0.0
 40
3.5
  1
H
  0
LINE
  5
EA
  8
0
  6
CONTINUOUS
 62
     7
 10
409.9999999999999
 20
74.25
 30
0.0
 11
414.9999999999999
 21
74.25
 31
0.0
  0
TEXT
  5
EB
  8
0
  6
CONTINUOUS
 62
     7
 10
412.9326059772414
 20
35.00777791671877
 30
0.0
 40
3.5
  1
1
  0
LINE
  5
EC
  8
0
  6
CONTINUOUS
 62
     7
 10
10.0
 20
74.25
 30
0.0
 11
5.0
 21
74.25
 31
0.0
  0
TEXT
  5
ED
  8
0
  6
CONTINUOUS
 62
     7
 10
4.600959734900584
 20
38.26171220457671
 30
0.0
 40
3.5
  1
1
 50
270.0
  0
LINE
  5
EE
  8
0
  6
CONTINUOUS
 62
     7
 10
409.9999999999999
 20
148.5
 30
0.0
 11
414.9999999999999
 21
148.5
 31
0.0
  0
TEXT
  5
EF
  8
0
  6
CONTINUOUS
 62
     7
 10
413.163692634738
 20
109.2577779167188
 30
0.0
 40
3.5
  1
2
  0
LINE
  5
F0
  8
0
  6
CONTINUOUS
 62
     7
 10
10.0
 20
148.5
 30
0.0
 11
5.0
 21
148.5
 31
0.0
  0
TEXT
  5
F1
  8
0
  6
CONTINUOUS
 62
     7
 10
4.600959734900599
 20
112.2806255470802
 30
0.0
 40
3.5
  1
2
 50
270.0
  0
LINE
  5
F2
  8
0
  6
CONTINUOUS
 62
     7
 10
409.9999999999999
 20
222.75
 30
0.0
 11
414.9999999999999
 21
222.75
 31
0.0
  0
TEXT
  5
F3
  8
0
  6
CONTINUOUS
 62
     7
 10
413.1811991996998
 20
183.5077779167188
 30
0.0
 40
3.5
  1
3
  0
LINE
  5
F4
  8
0
  6
CONTINUOUS
 62
     7
 10
10.0
 20
222.75
 30
0.0
 11
5.0
 21
222.75
 31
0.0
  0
TEXT
  5
F5
  8
0
  6
CONTINUOUS
 62
     7
 10
4.600959734900584
 20
186.5131189821183
 30
0.0
 40
3.5
  1
3
 50
270.0
  0
TEXT
  5
F6
  8
0
  6
CONTINUOUS
 62
     7
 10
413.2351413029886
 20
257.7590909090909
 30
0.0
 40
3.5
  1
4
  0
TEXT
  5
F7
  8
0
  6
CONTINUOUS
 62
     7
 10
4.60227272727272
 20
260.7091768788295
 30
0.0
 40
3.5
  1
4
 50
270.0
  0
LINE
  5
F8
  8
0
  6
CONTINUOUS
 62
     7
 10
220.0
 20
10.0
 30
0.0
 11
220.0
 21
7.0
 31
0.0
  0
LINE
  5
F9
  8
0
  6
CONTINUOUS
 62
     7
 10
200.0
 20
10.0
 30
0.0
 11
200.0
 21
7.0
 31
0.0
  0
LINE
  5
FA
  8
0
  6
CONTINUOUS
 62
     7
 10
230.0
 20
10.0
 30
0.0
 11
230.0
 21
7.0
 31
0.0
  0
LINE
  5
FB
  8
0
  6
CONTINUOUS
 62
     7
 10
190.0
 20
10.0
 30
0.0
 11
190.0
 21
7.0
 31
0.0
  0
LINE
  5
FC
  8
0
  6
CONTINUOUS
 62
     7
 10
240.0
 20
10.0
 30
0.0
 11
240.0
 21
7.0
 31
0.0
  0
LINE
  5
FD
  8
0
  6
CONTINUOUS
 62
     7
 10
180.0
 20
10.0
 30
0.0
 11
180.0
 21
7.0
 31
0.0
  0
LINE
  5
FE
  8
0
  6
CONTINUOUS
 62
     7
 10
250.0
 20
10.0
 30
0.0
 11
250.0
 21
7.0
 31
0.0
  0
LINE
  5
FF
  8
0
  6
CONTINUOUS
 62
     7
 10
170.0
 20
10.0
 30
0.0
 11
170.0
 21
7.0
 31
0.0
  0
LINE
  5
100
  8
0
  6
CONTINUOUS
 62
     7
 10
260.0
 20
10.0
 30
0.0
 11
260.0
 21
5.0
 31
0.0
  0
LINE
  5
101
  8
0
  6
CONTINUOUS
 62
     7
 10
160.0
 20
10.0
 30
0.0
 11
160.0
 21
5.0
 31
0.0
  0
LINE
  5
102
  8
0
  6
CONTINUOUS
 62
     7
 10
260.0
 20
10.0
 30
0.0
 11
160.0
 21
10.0
 31
0.0
  0
LINE
  5
103
  8
0
  6
CONTINUOUS
 62
     7
 10
260.0
 20
7.0
 30
0.0
 11
160.0
 21
7.0
 31
0.0
  0
INSERT
  5
104
  8
0
 62
     7
  2
*U4
 10
0.0
 20
0.0
 30
0.0
  0
INSERT
  5
105
  8
0
 62
     7
  2
*U5
 10
0.0
 20
0.0
 30
0.0
  0
INSERT
  5
106
  8
0
 62
     7
  2
*U6
 10
0.0
 20
0.0
 30
0.0
  0
INSERT
  5
107
  8
0
 62
     7
  2
*U7
 10
0.0
 20
0.0
 30
0.0
  0
ENDBLK
  8
0
  0
BLOCK
  8
0
  2
*U2
 70
     1
 10
0.0
 20
0.0
 30
0.0
  0
SOLID
  5
1C8
  8
0
  6
CONTINUOUS
 62
     7
 10
11.0
 20
144.5
 30
0.0
 11
6.999999999999999
 21
148.5
 31
0.0
 12
11.0
 22
152.5
 32
0.0
 13
11.0
 23
152.5
 33
0.0
  0
ENDBLK
  8
0
  0
BLOCK
  8
0
  2
*U3
 70
     1
 10
0.0
 20
0.0
 30
0.0
  0
SOLID
  5
1CE
  8
0
  6
CONTINUOUS
 62
     7
 10
210.0
 20
6.999999999999999
 30
0.0
 11
206.0
 21
11.0
 31
0.0
 12
210.0
 22
11.0
 32
0.0
 13
210.0
 23
11.0
 33
0.0
  0
SOLID
  5
1CF
  8
0
  6
CONTINUOUS
 62
     7
 10
210.0
 20
6.999999999999999
 30
0.0
 11
210.0
 21
11.0
 31
0.0
 12
214.0
 22
11.0
 32
0.0
 13
214.0
 23
11.0
 33
0.0
  0
ENDBLK
  8
0
  0
BLOCK
  8
0
  2
*U4
 70
     1
 10
0.0
 20
0.0
 30
0.0
  0
SOLID
  5
1D1
  8
0
  6
CONTINUOUS
 62
     7
 10
0.0
 20
0.0
 30
0.0
 11
0.0
 21
10.0
 31
0.0
 12
2.0
 22
0.0
 32
0.0
 13
2.0
 23
0.0
 33
0.0
  0
SOLID
  5
1D2
  8
0
  6
CONTINUOUS
 62
     7
 10
2.0
 20
0.0
 30
0.0
 11
0.0
 21
10.0
 31
0.0
 12
2.0
 22
10.0
 32
0.0
 13
2.0
 23
10.0
 33
0.0
  0
SOLID
  5
1D3
  8
0
  6
CONTINUOUS
 62
     7
 10
2.0
 20
0.0
 30
0.0
 11
2.0
 21
2.0
 31
0.0
 12
10.0
 22
0.0
 32
0.0
 13
10.0
 23
0.0
 33
0.0
  0
SOLID
  5
1D4
  8
0
  6
CONTINUOUS
 62
     7
 10
10.0
 20
0.0
 30
0.0
 11
2.0
 21
2.0
 31
0.0
 12
10.0
 22
2.0
 32
0.0
 13
10.0
 23
2.0
 33
0.0
  0
ENDBLK
  8
0
  0
BLOCK
  8
0
  2
*U5
 70
     1
 10
0.0
 20
0.0
 30
0.0
  0
SOLID
  5
1D6
  8
0
  6
CONTINUOUS
 62
     7
 10
409.9999999999999
 20
0.0
 30
0.0
 11
409.9999999999999
 21
2.0
 31
0.0
 12
418.0
 22
0.0
 32
0.0
 13
418.0
 23
0.0
 33
0.0
  0
SOLID
  5
1D7
  8
0
  6
CONTINUOUS
 62
     7
 10
418.0
 20
0.0
 30
0.0
 11
409.9999999999999
 21
2.0
 31
0.0
 12
418.0
 22
2.0
 32
0.0
 13
418.0
 23
2.0
 33
0.0
  0
SOLID
  5
1D8
  8
0
  6
CONTINUOUS
 62
     7
 10
418.0
 20
0.0
 30
0.0
 11
418.0
 21
10.0
 31
0.0
 12
420.0
 22
0.0
 32
0.0
 13
420.0
 23
0.0
 33
0.0
  0
SOLID
  5
1D9
  8
0
  6
CONTINUOUS
 62
     7
 10
420.0
 20
0.0
 30
0.0
 11
418.0
 21
10.0
 31
0.0
 12
420.0
 22
10.0
 32
0.0
 13
420.0
 23
10.0
 33
0.0
  0
ENDBLK
  8
0
  0
BLOCK
  8
0
  2
*U6
 70
     1
 10
0.0
 20
0.0
 30
0.0
  0
SOLID
  5
1DB
  8
0
  6
CONTINUOUS
 62
     7
 10
409.9999999999999
 20
295.0
 30
0.0
 11
409.9999999999999
 21
297.0
 31
0.0
 12
418.0
 22
295.0
 32
0.0
 13
418.0
 23
295.0
 33
0.0
  0
SOLID
  5
1DC
  8
0
  6
CONTINUOUS
 62
     7
 10
418.0
 20
295.0
 30
0.0
 11
409.9999999999999
 21
297.0
 31
0.0
 12
418.0
 22
297.0
 32
0.0
 13
418.0
 23
297.0
 33
0.0
  0
SOLID
  5
1DD
  8
0
  6
CONTINUOUS
 62
     7
 10
418.0
 20
286.9999999999999
 30
0.0
 11
418.0
 21
297.0
 31
0.0
 12
420.0
 22
286.9999999999999
 32
0.0
 13
420.0
 23
286.9999999999999
 33
0.0
  0
SOLID
  5
1DE
  8
0
  6
CONTINUOUS
 62
     7
 10
420.0
 20
286.9999999999999
 30
0.0
 11
418.0
 21
297.0
 31
0.0
 12
420.0
 22
297.0
 32
0.0
 13
420.0
 23
297.0
 33
0.0
  0
ENDBLK
  8
0
  0
BLOCK
  8
0
  2
*U7
 70
     1
 10
0.0
 20
0.0
 30
0.0
  0
SOLID
  5
1E0
  8
0
  6
CONTINUOUS
 62
     7
 10
0.0
 20
286.9999999999999
 30
0.0
 11
0.0
 21
297.0
 31
0.0
 12
2.0
 22
286.9999999999999
 32
0.0
 13
2.0
 23
286.9999999999999
 33
0.0
  0
SOLID
  5
1E1
  8
0
  6
CONTINUOUS
 62
     7
 10
2.0
 20
286.9999999999999
 30
0.0
 11
0.0
 21
297.0
 31
0.0
 12
2.0
 22
297.0
 32
0.0
 13
2.0
 23
297.0
 33
0.0
  0
SOLID
  5
1E2
  8
0
  6
CONTINUOUS
 62
     7
 10
2.0
 20
295.0
 30
0.0
 11
2.0
 21
297.0
 31
0.0
 12
10.0
 22
295.0
 32
0.0
 13
10.0
 23
295.0
 33
0.0
  0
SOLID
  5
1E3
  8
0
  6
CONTINUOUS
 62
     7
 10
10.0
 20
295.0
 30
0.0
 11
2.0
 21
297.0
 31
0.0
 12
10.0
 22
297.0
 32
0.0
 13
10.0
 23
297.0
 33
0.0
  0
ENDBLK
  8
0
  0
ENDSEC
  0
SECTION
  2
ENTITIES
  0
LINE
  5
70
  8
1
  6
CONTINUOUS
 62
     7
 10
2228.8246987861
 20
-650.3815751859
 30
0.0
 11
2228.8246987861
 21
-666.3815751859
 31
0.0
  0
LINE
  5
71
  8
1
  6
CONTINUOUS
 62
     7
 10
2297.8246987861
 20
-692.7815751859
 30
0.0
 11
2297.8246987861
 21
-729.7815751859
 31
0.0
  0
LINE
  5
72
  8
1
  6
CONTINUOUS
 62
     7
 10
2386.8246987861
 20
-729.7815751859
 30
0.0
 11
2386.8246987861
 21
-692.7815751859
 31
0.0
  0
LINE
  5
73
  8
1
  6
CONTINUOUS
 62
     7
 10
2462.3246987861
 20
-648.7815751859
 30
0.0
 11
2462.3246987861
 21
-625.7815751859
 31
0.0
  0
LINE
  5
74
  8
1
  6
CONTINUOUS
 62
     7
 10
2222.3246987861
 20
-648.7815751859
 30
0.0
 11
2222.3246987861
 21
-625.7815751859
 31
0.0
  0
LINE
  5
75
  8
1
  6
CONTINUOUS
 62
     7
 10
2356.6014697861
 20
-423.7815751859
 30
0.0
 11
2460.3246987861
 21
-423.7815751859
 31
0.0
  0
ARC
  5
76
  8
1
  6
CONTINUOUS
 62
     7
 10
2460.3246987861
 20
-625.7815751859
 30
0.0
 40
2.0
 50
0.0
 51
90.0
  0
LINE
  5
77
  8
1
  6
CENTER
 62
     5
 10
2342.3246987861
 20
-866.7937545407
 30
0.0
 11
2342.3246987861
 21
-756.7937545407
 31
0.0
  0
LINE
  5
79
  8
1
  6
CONTINUOUS
 62
     7
 10
2345.3246987861
 20
-421.2815751859
 30
0.0
 11
2339.3246987861
 21
-421.2815751859
 31
0.0
  0
LINE
  5
7A
  8
1
  6
CONTINUOUS
 62
     7
 10
2356.6014697861
 20
-423.7815751859
 30
0.0
 11
2345.3246987861
 21
-421.2815751859
 31
0.0
  0
LINE
  5
7B
  8
1
  6
CONTINUOUS
 62
     7
 10
2339.3246987861
 20
-421.2815751859
 30
0.0
 11
2328.0479277861
 21
-423.7815751859
 31
0.0
  0
LINE
  5
7C
  8
1
  6
CONTINUOUS
 62
     7
 10
2245.8246987861
 20
-666.3815751859
 30
0.0
 11
2245.8246987861
 21
-650.3815751859
 31
0.0
  0
LINE
  5
7D
  8
1
  6
CENTER
 62
     5
 10
2262.3246987861
 20
-811.7937545407
 30
0.0
 11
2422.3246987861
 21
-811.7937545407
 31
0.0
  0
LINE
  5
7E
  8
1
  6
CONTINUOUS
 62
     7
 10
2222.3246987861
 20
-398.7815751859
 30
0.0
 11
2462.3246987861
 21
-398.7815751859
 31
0.0
  0
ARC
  5
7F
  8
1
  6
CONTINUOUS
 62
     7
 10
2224.3246987861
 20
-625.7815751859
 30
0.0
 40
2.0
 50
90.0
 51
180.0
  0
LINE
  5
80
  8
1
  6
CONTINUOUS
 62
     7
 10
2462.3246987861
 20
-421.7815751859
 30
0.0
 11
2462.3246987861
 21
-398.7815751859
 31
0.0
  0
ARC
  5
81
  8
1
  6
CONTINUOUS
 62
     7
 10
2460.3246987861
 20
-421.7815751859
 30
0.0
 40
2.0
 50
270.0
 51
0.0
  0
ARC
  5
82
  8
1
  6
CONTINUOUS
 62
     7
 10
2224.3246987861
 20
-421.7815751859
 30
0.0
 40
2.0
 50
180.0
 51
270.0
  0
ARC
  5
83
  8
1
  6
CONTINUOUS
 62
     7
 10
2383.8246987861
 20
-729.7815751859
 30
0.0
 40
3.0
 50
270.0
 51
0.0
  0
LINE
  5
84
  8
1
  6
CONTINUOUS
 62
     7
 10
2222.3246987861
 20
-421.7815751859
 30
0.0
 11
2222.3246987861
 21
-398.7815751859
 31
0.0
  0
LINE
  5
85
  8
1
  6
CONTINUOUS
 62
     7
 10
2224.3246987861
 20
-423.7815751859
 30
0.0
 11
2328.0479277861
 21
-423.7815751859
 31
0.0
  0
LINE
  5
86
  8
1
  6
CONTINUOUS
 62
     7
 10
2232.5746987861
 20
-423.7815751859
 30
0.0
 11
2232.5746987861
 21
-623.7815751859
 31
0.0
  0
LINE
  5
87
  8
1
  6
CONTINUOUS
 62
     7
 10
2447.3246987861
 20
-389.1815751859
 30
0.0
 11
2447.3246987861
 21
-397.1815751859
 31
0.0
  0
LINE
  5
88
  8
1
  6
CONTINUOUS
 62
     7
 10
2438.8246987861
 20
-397.1815751859
 30
0.0
 11
2438.8246987861
 21
-389.1815751859
 31
0.0
  0
LINE
  5
89
  8
1
  6
CONTINUOUS
 62
     7
 10
2228.8246987861
 20
-389.1815751859
 30
0.0
 11
2245.8246987861
 21
-389.1815751859
 31
0.0
  0
LINE
  5
8A
  8
1
  6
CONTINUOUS
 62
     7
 10
2246.3246987861
 20
-398.7815751859
 30
0.0
 11
2246.3246987861
 21
-397.1815751859
 31
0.0
  0
LINE
  5
8B
  8
1
  6
CONTINUOUS
 62
     7
 10
2438.8246987861
 20
-666.3815751859
 30
0.0
 11
2455.8246987861
 21
-666.3815751859
 31
0.0
  0
LINE
  5
8C
  8
1
  6
CONTINUOUS
 62
     7
 10
2245.8246987861
 20
-389.1815751859
 30
0.0
 11
2245.8246987861
 21
-397.1815751859
 31
0.0
  0
LINE
  5
8D
  8
1
  6
CONTINUOUS
 62
     7
 10
2452.0746987861
 20
-668.7815751859
 30
0.0
 11
2452.0746987861
 21
-666.3815751859
 31
0.0
  0
LINE
  5
8E
  8
1
  6
CONTINUOUS
 62
     7
 10
2442.5746987861
 20
-666.3815751859
 30
0.0
 11
2442.5746987861
 21
-668.7815751859
 31
0.0
  0
LINE
  5
8F
  8
1
  6
CONTINUOUS
 62
     7
 10
2455.8246987861
 20
-389.1815751859
 30
0.0
 11
2455.8246987861
 21
-397.1815751859
 31
0.0
  0
LINE
  5
90
  8
1
  6
CONTINUOUS
 62
     7
 10
2228.8246987861
 20
-389.1815751859
 30
0.0
 11
2228.8246987861
 21
-397.1815751859
 31
0.0
  0
LINE
  5
91
  8
1
  6
CONTINUOUS
 62
     7
 10
2246.3246987861
 20
-650.3815751859
 30
0.0
 11
2228.3246987861
 21
-650.3815751859
 31
0.0
  0
LINE
  5
92
  8
1
  6
CONTINUOUS
 62
     7
 10
2456.3246987861
 20
-650.3815751859
 30
0.0
 11
2438.3246987861
 21
-650.3815751859
 31
0.0
  0
LINE
  5
93
  8
1
  6
CONTINUOUS
 62
     7
 10
2246.3246987861
 20
-397.1815751859
 30
0.0
 11
2228.3246987861
 21
-397.1815751859
 31
0.0
  0
LINE
  5
94
  8
1
  6
CONTINUOUS
 62
     7
 10
2456.3246987861
 20
-650.3815751859
 30
0.0
 11
2456.3246987861
 21
-648.7815751859
 31
0.0
  0
LINE
  5
95
  8
1
  6
CONTINUOUS
 62
     7
 10
2242.0746987861
 20
-668.7815751859
 30
0.0
 11
2232.5746987861
 21
-668.7815751859
 31
0.0
  0
LINE
  5
96
  8
1
  6
CONTINUOUS
 62
     7
 10
2242.0746987861
 20
-623.7815751859
 30
0.0
 11
2242.0746987861
 21
-423.7815751859
 31
0.0
  0
LINE
  5
97
  8
1
  6
CONTINUOUS
 62
     7
 10
2438.8246987861
 20
-650.3815751859
 30
0.0
 11
2438.8246987861
 21
-666.3815751859
 31
0.0
  0
LINE
  5
98
  8
1
  6
CONTINUOUS
 62
     7
 10
2442.5746987861
 20
-423.7815751859
 30
0.0
 11
2442.5746987861
 21
-623.7815751859
 31
0.0
  0
LINE
  5
99
  8
1
  6
CONTINUOUS
 62
     7
 10
2232.5746987861
 20
-378.7815751859
 30
0.0
 11
2242.0746987861
 21
-378.7815751859
 31
0.0
  0
LINE
  5
9A
  8
1
  6
CONTINUOUS
 62
     7
 10
2452.0746987861
 20
-623.7815751859
 30
0.0
 11
2452.0746987861
 21
-423.7815751859
 31
0.0
  0
LINE
  5
9B
  8
1
  6
CONTINUOUS
 62
     7
 10
2438.3246987861
 20
-397.1815751859
 30
0.0
 11
2438.3246987861
 21
-398.7815751859
 31
0.0
  0
LINE
  5
9C
  8
1
  6
CONTINUOUS
 62
     7
 10
2245.8246987861
 20
-658.3815751859
 30
0.0
 11
2228.8246987861
 21
-658.3815751859
 31
0.0
  0
LINE
  5
9D
  8
1
  6
CONTINUOUS
 62
     7
 10
2442.5746987861
 20
-378.7815751859
 30
0.0
 11
2452.0746987861
 21
-378.7815751859
 31
0.0
  0
LINE
  5
9E
  8
1
  6
CONTINUOUS
 62
     7
 10
2246.3246987861
 20
-650.3815751859
 30
0.0
 11
2246.3246987861
 21
-648.7815751859
 31
0.0
  0
LINE
  5
9F
  8
1
  6
CONTINUOUS
 62
     7
 10
2228.3246987861
 20
-648.7815751859
 30
0.0
 11
2228.3246987861
 21
-650.3815751859
 31
0.0
  0
LINE
  5
A0
  8
1
  6
CONTINUOUS
 62
     7
 10
2455.8246987861
 20
-666.3815751859
 30
0.0
 11
2455.8246987861
 21
-650.3815751859
 31
0.0
  0
LINE
  5
A1
  8
1
  6
CONTINUOUS
 62
     7
 10
2237.3246987861
 20
-666.3815751859
 30
0.0
 11
2237.3246987861
 21
-650.3815751859
 31
0.0
  0
LINE
  5
A2
  8
1
  6
CONTINUOUS
 62
     7
 10
2438.8246987861
 20
-389.1815751859
 30
0.0
 11
2455.8246987861
 21
-389.1815751859
 31
0.0
  0
LINE
  5
A3
  8
1
  6
CONTINUOUS
 62
     7
 10
2237.3246987861
 20
-389.1815751859
 30
0.0
 11
2237.3246987861
 21
-397.1815751859
 31
0.0
  0
LINE
  5
A4
  8
1
  6
CONTINUOUS
 62
     7
 10
2456.3246987861
 20
-397.1815751859
 30
0.0
 11
2438.3246987861
 21
-397.1815751859
 31
0.0
  0
LINE
  5
A5
  8
1
  6
CONTINUOUS
 62
     7
 10
2228.3246987861
 20
-397.1815751859
 30
0.0
 11
2228.3246987861
 21
-398.7815751859
 31
0.0
  0
LINE
  5
A6
  8
1
  6
CONTINUOUS
 62
     7
 10
2228.8246987861
 20
-666.3815751859
 30
0.0
 11
2245.8246987861
 21
-666.3815751859
 31
0.0
  0
LINE
  5
A7
  8
1
  6
CONTINUOUS
 62
     7
 10
2242.0746987861
 20
-668.7815751859
 30
0.0
 11
2242.0746987861
 21
-666.3815751859
 31
0.0
  0
LINE
  5
A8
  8
1
  6
CONTINUOUS
 62
     7
 10
2232.5746987861
 20
-666.3815751859
 30
0.0
 11
2232.5746987861
 21
-668.7815751859
 31
0.0
  0
LINE
  5
A9
  8
1
  6
CONTINUOUS
 62
     7
 10
2456.3246987861
 20
-398.7815751859
 30
0.0
 11
2456.3246987861
 21
-397.1815751859
 31
0.0
  0
LINE
  5
AA
  8
1
  6
CONTINUOUS
 62
     7
 10
2455.8246987861
 20
-658.3815751859
 30
0.0
 11
2438.8246987861
 21
-658.3815751859
 31
0.0
  0
LINE
  5
AB
  8
1
  6
CONTINUOUS
 62
     7
 10
2452.0746987861
 20
-668.7815751859
 30
0.0
 11
2442.5746987861
 21
-668.7815751859
 31
0.0
  0
LINE
  5
AC
  8
1
  6
CONTINUOUS
 62
     7
 10
2447.3246987861
 20
-666.3815751859
 30
0.0
 11
2447.3246987861
 21
-650.3815751859
 31
0.0
  0
LINE
  5
AD
  8
1
  6
CONTINUOUS
 62
     7
 10
2438.3246987861
 20
-648.7815751859
 30
0.0
 11
2438.3246987861
 21
-650.3815751859
 31
0.0
  0
CIRCLE
  5
AE
  8
1
  6
CONTINUOUS
 62
     7
 10
2237.3246987861
 20
-811.7937545407
 30
0.0
 40
4.75
  0
CIRCLE
  5
AF
  8
1
  6
CONTINUOUS
 62
     7
 10
2447.3246987861
 20
-811.7937545407
 30
0.0
 40
4.75
  0
LINE
  5
B0
  8
1
  6
CONTINUOUS
 62
     7
 10
2232.5746987861
 20
-378.7815751859
 30
0.0
 11
2232.5746987861
 21
-381.1815751859
 31
0.0
  0
LINE
  5
B1
  8
1
  6
CONTINUOUS
 62
     7
 10
2242.0746987861
 20
-381.1815751859
 30
0.0
 11
2242.0746987861
 21
-378.7815751859
 31
0.0
  0
LINE
  5
B2
  8
1
  6
CONTINUOUS
 62
     7
 10
2452.0746987861
 20
-381.1815751859
 30
0.0
 11
2452.0746987861
 21
-378.7815751859
 31
0.0
  0
LINE
  5
B3
  8
1
  6
CONTINUOUS
 62
     7
 10
2442.5746987861
 20
-378.7815751859
 30
0.0
 11
2442.5746987861
 21
-381.1815751859
 31
0.0
  0
TEXT
  5
B4
  8
1
  6
CONTINUOUS
 62
     7
 10
2322.995747802864
 20
-900.9468367272727
 30
0.0
 40
6.0
  1
ＳＧＰＪ－２０
 41
0.810811
  0
LINE
  5
B5
  8
1
  6
CONTINUOUS
 62
     7
 10
2228.8246987861
 20
-381.1815751859
 30
0.0
 11
2245.8246987861
 21
-381.1815751859
 31
0.0
  0
LINE
  5
B6
  8
1
  6
CONTINUOUS
 62
     7
 10
2237.3246987861
 20
-381.1815751859
 30
0.0
 11
2237.3246987861
 21
-389.1815751858999
 31
0.0
  0
LINE
  5
B7
  8
1
  6
CONTINUOUS
 62
     7
 10
2245.8246987861
 20
-381.1815751859
 30
0.0
 11
2245.8246987861
 21
-389.1815751858999
 31
0.0
  0
LINE
  5
B8
  8
1
  6
CONTINUOUS
 62
     7
 10
2438.8246987861
 20
-389.1815751858999
 30
0.0
 11
2438.8246987861
 21
-381.1815751859
 31
0.0
  0
LINE
  5
B9
  8
1
  6
CONTINUOUS
 62
     7
 10
2447.3246987861
 20
-381.1815751859
 30
0.0
 11
2447.3246987861
 21
-389.1815751858999
 31
0.0
  0
LINE
  5
BA
  8
1
  6
CONTINUOUS
 62
     7
 10
2228.8246987861
 20
-381.1815751859
 30
0.0
 11
2228.8246987861
 21
-389.1815751858999
 31
0.0
  0
LINE
  5
BB
  8
1
  6
CONTINUOUS
 62
     7
 10
2455.8246987861
 20
-381.1815751859
 30
0.0
 11
2455.8246987861
 21
-389.1815751858999
 31
0.0
  0
LINE
  5
BC
  8
1
  6
CONTINUOUS
 62
     7
 10
2438.8246987861
 20
-381.1815751859
 30
0.0
 11
2455.8246987861
 21
-381.1815751859
 31
0.0
  0
INSERT
  5
BE
  8
0
 62
     7
  2
D_FRAME_DRAWING_21
 10
0.0
 20
0.0
 30
0.0
  0
LINE
  5
108
  8
1
  6
CONTINUOUS
 62
     7
 10
2332.5746987861
 20
-656.2897631859
 30
0.0
 11
2332.5746987861
 21
-673.4815751859
 31
0.0
  0
LINE
  5
109
  8
1
  6
CONTINUOUS
 62
     7
 10
2328.5746987861
 20
-691.7815751859
 30
0.0
 11
2328.5746987861
 21
-692.7815751859
 31
0.0
  0
ARC
  5
10A
  8
1
  6
CONTINUOUS
 62
     7
 10
2355.0746987861
 20
-691.7815751859
 30
0.0
 40
1.0
 50
0.0
 51
90.0
  0
LINE
  5
10B
  8
1
  6
CONTINUOUS
 62
     7
 10
2353.0072817861
 20
-690.7815751859
 30
0.0
 11
2354.6246987861
 21
-681.6087485222
 31
0.0
  0
ARC
  5
10C
  8
1
  6
CONTINUOUS
 62
     7
 10
2342.0746987861
 20
-656.2897631859
 30
0.0
 40
10.0
 50
0.0
 51
8.232636999999999
  0
LINE
  5
10D
  8
1
  6
CONTINUOUS
 62
     7
 10
2342.0746987861
 20
-775.7968795407
 30
0.0
 11
2342.0746987861
 21
-785.3607415407
 31
0.0
  0
ARC
  5
10E
  8
1
  6
CONTINUOUS
 62
     7
 10
2342.3246987861
 20
-811.7937545407
 30
0.0
 40
38.5
 50
60.947522
 51
119.052478
  0
ARC
  5
10F
  8
1
  6
CONTINUOUS
 62
     7
 10
2329.5746987861
 20
-691.7815751859
 30
0.0
 40
1.0
 50
90.0
 51
180.0
  0
LINE
  5
110
  8
1
  6
CONTINUOUS
 62
     7
 10
2348.8246987861
 20
-643.0287981859
 30
0.0
 11
2342.3246983531
 21
-639.2760219359
 31
0.0
  0
LINE
  5
111
  8
1
  6
CONTINUOUS
 62
     7
 10
2330.0246987861
 20
-681.6087486869
 30
0.0
 11
2330.0246987861
 21
-652.7815751859
 31
0.0
  0
ARC
  5
112
  8
1
  6
CONTINUOUS
 62
     7
 10
2300.8246987861
 20
-729.7815751859
 30
0.0
 40
3.0
 50
180.0
 51
270.0
  0
LINE
  5
113
  8
1
  6
CONTINUOUS
 62
     7
 10
2350.3246987861
 20
-807.1749525407
 30
0.0
 11
2342.3246987861
 21
-802.5561505407
 31
0.0
  0
LINE
  5
114
  8
1
  6
CONTINUOUS
 62
     7
 10
2363.5166887861
 20
-783.3771225407
 30
0.0
 11
2363.2100577861
 21
-785.1161165407
 31
0.0
  0
LINE
  5
115
  8
1
  6
CONTINUOUS
 62
     7
 10
2342.0746987861
 20
-673.1815751859
 30
0.0
 11
2332.5746987861
 21
-673.1815751859
 31
0.0
  0
ARC
  5
116
  8
1
  6
CONTINUOUS
 62
     7
 10
2342.0746987861
 20
-656.2897631859
 30
0.0
 40
7.4
 50
0.0
 51
0.8027229999999997
  0
LINE
  5
117
  8
1
  6
CONTINUOUS
 62
     7
 10
2333.7921517861
 20
-791.0086985407
 30
0.0
 11
2342.0746987861
 21
-786.2267675407
 31
0.0
  0
ARC
  5
118
  8
1
  6
CONTINUOUS
 62
     7
 10
2371.6095707861
 20
-795.5258035407
 30
0.0
 40
5.0
 50
29.052478
 51
100.0
  0
LINE
  5
119
  8
1
  6
CONTINUOUS
 62
     7
 10
2315.6470607861
 20
-832.6791135407
 30
0.0
 11
2313.9080667861
 21
-832.9857445407
 31
0.0
  0
ARC
  5
11A
  8
1
  6
CONTINUOUS
 62
     7
 10
2349.7746987861
 20
-673.4815751859
 30
0.0
 40
2.3
 50
270.0
 51
0.0
  0
ARC
  5
11B
  8
1
  6
CONTINUOUS
 62
     7
 10
2358.5926497861
 20
-782.5088825407
 30
0.0
 40
5.0
 50
349.9999999999999
 51
60.94752199999998
  0
ARC
  5
11C
  8
1
  6
CONTINUOUS
 62
     7
 10
2342.3246987861
 20
-785.7937545407
 30
0.0
 40
10.0
 50
88.567456
 51
91.432544
  0
LINE
  5
11D
  8
1
  6
CONTINUOUS
 62
     7
 10
2321.1327087861
 20
-840.2103865407
 30
0.0
 11
2321.4393397861
 21
-838.4713925407
 31
0.0
  0
LINE
  5
11E
  8
1
  6
CONTINUOUS
 62
     7
 10
2342.8246987861
 20
-785.7937545407
 30
0.0
 11
2351.1072457861
 21
-781.0118235407
 31
0.0
  0
ARC
  5
11F
  8
1
  6
CONTINUOUS
 62
     7
 10
2342.3246987861
 20
-811.7937545407
 30
0.0
 40
38.5
 50
330.947522
 51
29.05247800000001
  0
LINE
  5
120
  8
1
  6
CONTINUOUS
 62
     7
 10
2336.2780057861
 20
-690.7815751859
 30
0.0
 11
2336.2780057861
 21
-690.4815751859
 31
0.0
  0
LINE
  5
121
  8
1
  6
CONTINUOUS
 62
     7
 10
2349.7746987861
 20
-675.7815751859
 30
0.0
 11
2342.5746987861
 21
-675.7815751859
 31
0.0
  0
LINE
  5
122
  8
1
  6
CONTINUOUS
 62
     7
 10
2342.5746987861
 20
-675.7815751859
 30
0.0
 11
2342.5746987861
 21
-673.1815751859
 31
0.0
  0
LINE
  5
123
  8
1
  6
CONTINUOUS
 62
     7
 10
2334.8746987861
 20
-675.7815751859
 30
0.0
 11
2342.0746987861
 21
-675.7815751859
 31
0.0
  0
CIRCLE
  5
124
  8
1
  6
CONTINUOUS
 62
     7
 10
2368.1340967861
 20
-785.9843565407
 30
0.0
 40
2.0
  0
ARC
  5
125
  8
1
  6
CONTINUOUS
 62
     7
 10
2316.5153007861
 20
-837.6031525407
 30
0.0
 40
5.0
 50
349.9999999999999
 51
100.0
  0
LINE
  5
126
  8
1
  6
CONTINUOUS
 62
     7
 10
2331.6421157861
 20
-690.7815751859
 30
0.0
 11
2330.0246987861
 21
-681.6087485222
 31
0.0
  0
LINE
  5
127
  8
1
  6
CONTINUOUS
 62
     7
 10
2342.5746987861
 20
-673.1815751859
 30
0.0
 11
2352.0746987861
 21
-673.1815751859
 31
0.0
  0
LINE
  5
128
  8
1
  6
CONTINUOUS
 62
     7
 10
2383.8246987861
 20
-732.7815751859
 30
0.0
 11
2300.8246987861
 21
-732.7815751859
 31
0.0
  0
CIRCLE
  5
129
  8
1
  6
CONTINUOUS
 62
     7
 10
2342.3246987861
 20
-785.7937545407
 30
0.0
 40
10.75
  0
LINE
  5
12A
  8
1
  6
CONTINUOUS
 62
     7
 10
2297.8246987861
 20
-692.7815751859
 30
0.0
 11
2386.8246987861
 21
-692.7815751859
 31
0.0
  0
LINE
  5
12B
  8
1
  6
CONTINUOUS
 62
     7
 10
2354.8746987861
 20
-671.4815751859
 30
0.0
 11
2357.3746987861
 21
-671.4815751859
 31
0.0
  0
CIRCLE
  5
12C
  8
1
  6
CONTINUOUS
 62
     7
 10
2342.3246987861
 20
-811.7937545407
 30
0.0
 40
44.5
  0
ARC
  5
12D
  8
1
  6
CONTINUOUS
 62
     7
 10
2326.0567477861
 20
-782.5088825407
 30
0.0
 40
5.0
 50
119.052478
 51
190.0
  0
LINE
  5
12E
  8
1
  6
CONTINUOUS
 62
     7
 10
2357.3746987861
 20
-661.0287981859
 30
0.0
 11
2362.8746987861
 21
-661.0287981859
 31
0.0
  0
LINE
  5
12F
  8
1
  6
CONTINUOUS
 62
     7
 10
2334.3246987861
 20
-816.4125565407
 30
0.0
 11
2342.3246987861
 21
-821.0313585407
 31
0.0
  0
ARC
  5
130
  8
1
  6
CONTINUOUS
 62
     7
 10
2334.8746987861
 20
-673.4815751859
 30
0.0
 40
2.3
 50
180.0
 51
270.0
  0
LINE
  5
131
  8
1
  6
CONTINUOUS
 62
     7
 10
2357.3746987861
 20
-657.2760211859
 30
0.0
 11
2362.8746987861
 21
-657.2760211859
 31
0.0
  0
ARC
  5
132
  8
1
  6
CONTINUOUS
 62
     7
 10
2342.5746987861
 20
-656.2897631859
 30
0.0
 40
7.4
 50
179.197277
 51
180.0
  0
LINE
  5
133
  8
1
  6
CONTINUOUS
 62
     7
 10
2357.3746987861
 20
-668.5343521859
 30
0.0
 11
2362.8746987861
 21
-668.5343521859
 31
0.0
  0
LINE
  5
134
  8
1
  6
CONTINUOUS
 62
     7
 10
2462.3246987861
 20
-826.0437545407
 30
0.0
 11
2462.3246987861
 21
-797.5437545407
 31
0.0
  0
LINE
  5
135
  8
1
  6
CONTINUOUS
 62
     7
 10
2352.3246987861
 20
-681.4075245192
 30
0.0
 11
2350.7246987861
 21
-690.4815751859
 31
0.0
  0
LINE
  5
136
  8
1
  6
CONTINUOUS
 62
     7
 10
2356.0746987861
 20
-692.7815751859
 30
0.0
 11
2356.0746987861
 21
-691.7815751859
 31
0.0
  0
LINE
  5
137
  8
1
  6
CONTINUOUS
 62
     7
 10
2349.4746987861
 20
-673.1815751859
 30
0.0
 11
2349.4746987861
 21
-656.2897631859
 31
0.0
  0
LINE
  5
138
  8
1
  6
CONTINUOUS
 62
     7
 10
2363.2100577861
 20
-838.4713925407
 30
0.0
 11
2363.5166887861
 21
-840.2103865407
 31
0.0
  0
CIRCLE
  5
139
  8
1
  6
CONTINUOUS
 62
     7
 10
2368.1340967861
 20
-837.6031525407
 30
0.0
 40
2.0
  0
CIRCLE
  5
13A
  8
1
  6
CONTINUOUS
 62
     7
 10
2342.3246987861
 20
-811.7937545407
 30
0.0
 40
5.0
  0
LINE
  5
13B
  8
1
  6
CONTINUOUS
 62
     7
 10
2313.9080667861
 20
-790.6017645407
 30
0.0
 11
2315.6470607861
 21
-790.9083955407
 31
0.0
  0
LINE
  5
13C
  8
1
  6
CONTINUOUS
 62
     7
 10
2342.0746987861
 20
-675.7815751859
 30
0.0
 11
2342.0746987861
 21
-673.1815751859
 31
0.0
  0
LINE
  5
13D
  8
1
  6
CONTINUOUS
 62
     7
 10
2348.3713917861
 20
-690.4815751859
 30
0.0
 11
2348.3713917861
 21
-690.7815751859
 31
0.0
  0
LINE
  5
13E
  8
1
  6
CONTINUOUS
 62
     7
 10
2332.3246987861
 20
-654.5878221859
 30
0.0
 11
2332.3246987861
 21
-681.4075245192
 31
0.0
  0
LINE
  5
13F
  8
1
  6
CONTINUOUS
 62
     7
 10
2348.8246987861
 20
-650.5343521859
 30
0.0
 11
2348.8246987861
 21
-643.0287981859
 31
0.0
  0
ARC
  5
140
  8
1
  6
CONTINUOUS
 62
     7
 10
2342.5746987861
 20
-656.2897631859
 30
0.0
 40
10.0
 50
171.767363
 51
180.0
  0
LINE
  5
141
  8
1
  6
CONTINUOUS
 62
     7
 10
2350.3246987861
 20
-684.0815751859
 30
0.0
 11
2350.3246987861
 21
-690.4815751859
 31
0.0
  0
LINE
  5
142
  8
1
  6
CONTINUOUS
 62
     7
 10
2334.3246987861
 20
-684.0815751859
 30
0.0
 11
2334.3246987861
 21
-690.4815751859
 31
0.0
  0
ARC
  5
143
  8
1
  6
CONTINUOUS
 62
     7
 10
2316.5153007861
 20
-785.9843565407
 30
0.0
 40
5.0
 50
260.0
 51
10.0
  0
CIRCLE
  5
144
  8
1
  6
CONTINUOUS
 62
     7
 10
2316.5153007861
 20
-785.9843565407
 30
0.0
 40
2.0
  0
LINE
  5
145
  8
1
  6
CONTINUOUS
 62
     7
 10
2352.0746987861
 20
-656.2897631859
 30
0.0
 11
2352.0746987861
 21
-673.4815751859
 31
0.0
  0
LINE
  5
146
  8
1
  6
CONTINUOUS
 62
     7
 10
2335.1746987861
 20
-673.1815751859
 30
0.0
 11
2335.1746987861
 21
-656.2897631859
 31
0.0
  0
LINE
  5
147
  8
1
  6
CONTINUOUS
 62
     7
 10
2350.7246987861
 20
-690.4815751859
 30
0.0
 11
2333.9246987861
 21
-690.4815751859
 31
0.0
  0
LINE
  5
148
  8
1
  6
CONTINUOUS
 62
     7
 10
2370.0246987861
 20
-662.2815751859
 30
0.0
 11
2370.0246987861
 21
-667.2815751859
 31
0.0
  0
CIRCLE
  5
149
  8
1
  6
CONTINUOUS
 62
     7
 10
2342.3246987861
 20
-646.7815751859
 30
0.0
 40
7.5055536246
  0
LINE
  5
14A
  8
1
  6
CONTINUOUS
 62
     7
 10
2362.8746987861
 20
-672.2871281859
 30
0.0
 11
2362.8746987861
 21
-657.2760211859
 31
0.0
  0
LINE
  5
14B
  8
1
  6
CONTINUOUS
 62
     7
 10
2324.5246987861
 20
-671.2815751859
 30
0.0
 11
2330.0246987861
 21
-671.2815751859
 31
0.0
  0
LINE
  5
14C
  8
1
  6
CONTINUOUS
 62
     7
 10
2350.3246987861
 20
-816.4125565407
 30
0.0
 11
2350.3246987861
 21
-807.1749525407
 31
0.0
  0
LINE
  5
14D
  8
1
  6
CONTINUOUS
 62
     7
 10
2368.5246987861
 20
-668.7815751859
 30
0.0
 11
2362.8746987861
 21
-668.7815751859
 31
0.0
  0
LINE
  5
14E
  8
1
  6
CONTINUOUS
 62
     7
 10
2324.5246987861
 20
-658.2815751859
 30
0.0
 11
2324.5246987861
 21
-671.2815751859
 31
0.0
  0
LINE
  5
14F
  8
1
  6
CONTINUOUS
 62
     7
 10
2362.8746987861
 20
-660.7815751859
 30
0.0
 11
2368.5246987861
 21
-660.7815751859
 31
0.0
  0
CIRCLE
  5
150
  8
1
  6
CONTINUOUS
 62
     7
 10
2342.3246987861
 20
-646.7815751859
 30
0.0
 40
4.0
  0
LINE
  5
151
  8
1
  6
CONTINUOUS
 62
     7
 10
2324.5246987861
 20
-664.7815751859
 30
0.0
 11
2330.0246987861
 21
-664.7815751859
 31
0.0
  0
LINE
  5
152
  8
1
  6
CONTINUOUS
 62
     7
 10
2368.5246987861
 20
-660.7815751859
 30
0.0
 11
2370.0246987861
 21
-662.2815751859
 31
0.0
  0
LINE
  5
153
  8
1
  6
CONTINUOUS
 62
     7
 10
2370.0246987861
 20
-667.2815751859
 30
0.0
 11
2368.5246987861
 21
-668.7815751859
 31
0.0
  0
LINE
  5
154
  8
1
  6
CONTINUOUS
 62
     7
 10
2324.5246987861
 20
-658.2815751859
 30
0.0
 11
2330.0246987861
 21
-658.2815751859
 31
0.0
  0
LINE
  5
155
  8
1
  6
CONTINUOUS
 62
     7
 10
2342.3246987861
 20
-802.5561505407
 30
0.0
 11
2334.3246987861
 21
-807.1749525407
 31
0.0
  0
ARC
  5
156
  8
1
  6
CONTINUOUS
 62
     7
 10
2313.0398267861
 20
-828.0617055407
 30
0.0
 40
5.0
 50
209.052478
 51
280.0
  0
LINE
  5
157
  8
1
  6
CONTINUOUS
 62
     7
 10
2325.6615267861
 20
-645.2815751859
 30
0.0
 11
2320.3246987861
 21
-645.2815751859
 31
0.0
  0
LINE
  5
158
  8
1
  6
CONTINUOUS
 62
     7
 10
2244.4912397861
 20
-806.6937545407
 30
0.0
 11
2257.3246987861
 21
-806.6937545407
 31
0.0
  0
LINE
  5
159
  8
1
  6
CONTINUOUS
 62
     7
 10
2328.0479277861
 20
-623.7815751859
 30
0.0
 11
2339.3246987861
 21
-626.2815751859
 31
0.0
  0
LINE
  5
15A
  8
1
  6
CONTINUOUS
 62
     7
 10
2356.6014697861
 20
-623.7815751859
 30
0.0
 11
2460.3246987861
 21
-623.7815751859
 31
0.0
  0
LINE
  5
15B
  8
1
  6
CONTINUOUS
 62
     7
 10
2345.3246987861
 20
-626.2815751859
 30
0.0
 11
2356.6014697861
 21
-623.7815751859
 31
0.0
  0
LINE
  5
15C
  8
1
  6
CONTINUOUS
 62
     7
 10
2364.8246987861
 20
-648.7815751859
 30
0.0
 11
2462.3246987861
 21
-648.7815751859
 31
0.0
  0
LINE
  5
15D
  8
1
  6
CONTINUOUS
 62
     7
 10
2364.8246987861
 20
-648.7815751859
 30
0.0
 11
2364.8246987861
 21
-645.7815751859
 31
0.0
  0
LINE
  5
15E
  8
1
  6
CONTINUOUS
 62
     7
 10
2317.8246987861
 20
-629.2815751859
 30
0.0
 11
2366.8246987861
 21
-629.2815751859
 31
0.0
  0
LINE
  5
15F
  8
1
  6
CONTINUOUS
 62
     7
 10
2364.8145967861
 20
-645.6815751859
 30
0.0
 11
2364.8246987861
 21
-645.7815751859
 31
0.0
  0
LINE
  5
160
  8
1
  6
CONTINUOUS
 62
     7
 10
2222.3246987861
 20
-648.7815751859
 30
0.0
 11
2319.8246987861
 21
-648.7815751859
 31
0.0
  0
LINE
  5
161
  8
1
  6
CONTINUOUS
 62
     7
 10
2319.8246987861
 20
-645.7815751859
 30
0.0
 11
2319.8246987861
 21
-648.7815751859
 31
0.0
  0
LINE
  5
162
  8
1
  6
CONTINUOUS
 62
     7
 10
2334.3246987861
 20
-807.1749525407
 30
0.0
 11
2334.3246987861
 21
-816.4125565407
 31
0.0
  0
ARC
  5
163
  8
1
  6
CONTINUOUS
 62
     7
 10
2317.8246987861
 20
-632.2815751859
 30
0.0
 40
3.0
 50
90.0
 51
180.0
  0
LINE
  5
164
  8
1
  6
CONTINUOUS
 62
     7
 10
2319.8246987861
 20
-645.7815751859
 30
0.0
 11
2319.8348007861
 21
-645.6815751859
 31
0.0
  0
ARC
  5
165
  8
1
  6
CONTINUOUS
 62
     7
 10
2342.3246987861
 20
-646.7815751859
 30
0.0
 40
9.0
 50
45.32539000000001
 51
134.67461
  0
ARC
  5
166
  8
1
  6
CONTINUOUS
 62
     7
 10
2338.5746987861
 20
-646.7815751859
 30
0.0
 40
10.0
 50
186.62581
 51
270.0
  0
ARC
  5
167
  8
1
  6
CONTINUOUS
 62
     7
 10
2427.3246987861
 20
-811.7937545407
 30
0.0
 40
5.1
 50
90.0
 51
270.0
  0
LINE
  5
168
  8
1
  6
CONTINUOUS
 62
     7
 10
2357.3746987861
 20
-658.0815751859
 30
0.0
 11
2354.8746987861
 21
-658.0815751859
 31
0.0
  0
ARC
  5
169
  8
1
  6
CONTINUOUS
 62
     7
 10
2325.6615267861
 20
-648.2815751859
 30
0.0
 40
3.0
 50
6.625810000000001
 51
90.0
  0
LINE
  5
16A
  8
1
  6
CONTINUOUS
 62
     7
 10
2342.3246987861
 20
-684.0815751859
 30
0.0
 11
2342.3246987861
 21
-690.4815751859
 31
0.0
  0
ARC
  5
16B
  8
1
  6
CONTINUOUS
 62
     7
 10
2342.3246987861
 20
-811.7937545407
 30
0.0
 40
38.5
 50
150.947522
 51
209.052478
  0
LINE
  5
16C
  8
1
  6
CONTINUOUS
 62
     7
 10
2352.3246987861
 20
-654.5878221859
 30
0.0
 11
2352.3246987861
 21
-681.4075245192
 31
0.0
  0
ARC
  5
16D
  8
1
  6
CONTINUOUS
 62
     7
 10
2313.0398267861
 20
-795.5258035407
 30
0.0
 40
5.0
 50
80.0
 51
150.947522
  0
LINE
  5
16E
  8
1
  6
CONTINUOUS
 62
     7
 10
2354.8746987861
 20
-658.0815751859
 30
0.0
 11
2354.8746987861
 21
-671.4815751859
 31
0.0
  0
LINE
  5
16F
  8
1
  6
CONTINUOUS
 62
     7
 10
2342.3246987861
 20
-639.2760211859
 30
0.0
 11
2335.8246992191
 21
-643.0287989359
 31
0.0
  0
ARC
  5
170
  8
1
  6
CONTINUOUS
 62
     7
 10
2368.1340967861
 20
-837.6031525407
 30
0.0
 40
5.0
 50
80.0
 51
190.0
  0
ARC
  5
171
  8
1
  6
CONTINUOUS
 62
     7
 10
2257.3246987861
 20
-811.7937545407
 30
0.0
 40
5.1
 50
270.0
 51
90.0
  0
LINE
  5
172
  8
1
  6
CONTINUOUS
 62
     7
 10
2427.3246987861
 20
-816.8937545407
 30
0.0
 11
2440.1581577861
 21
-816.8937545407
 31
0.0
  0
LINE
  5
173
  8
1
  6
CONTINUOUS
 62
     7
 10
2357.3746987861
 20
-657.2760211859
 30
0.0
 11
2357.3746987861
 21
-672.2871281859
 31
0.0
  0
LINE
  5
174
  8
1
  6
CONTINUOUS
 62
     7
 10
2370.7413307861
 20
-832.9857445407
 30
0.0
 11
2369.0023367861
 21
-832.6791135407
 31
0.0
  0
LINE
  5
175
  8
1
  6
CONTINUOUS
 62
     7
 10
2314.8246987861
 20
-637.3815751859
 30
0.0
 11
2314.8246987861
 21
-632.2815751859
 31
0.0
  0
LINE
  5
176
  8
1
  6
CONTINUOUS
 62
     7
 10
2335.1746987861
 20
-668.7815751859
 30
0.0
 11
2349.4746987861
 21
-668.7815751859
 31
0.0
  0
ARC
  5
177
  8
1
  6
CONTINUOUS
 62
     7
 10
2368.1340967861
 20
-785.9843565407
 30
0.0
 40
5.0
 50
170.0
 51
280.0
  0
LINE
  5
178
  8
1
  6
CONTINUOUS
 62
     7
 10
2335.9969817861
 20
-640.3815751859
 30
0.0
 11
2317.8246987861
 21
-640.3815751859
 31
0.0
  0
LINE
  5
179
  8
1
  6
CONTINUOUS
 62
     7
 10
2439.3246987861
 20
-807.1749525407
 30
0.0
 11
2447.3246987861
 21
-802.5561505407
 31
0.0
  0
LINE
  5
17A
  8
1
  6
CONTINUOUS
 62
     7
 10
2334.3246987861
 20
-684.0815751859
 30
0.0
 11
2350.3246987861
 21
-684.0815751859
 31
0.0
  0
LINE
  5
17B
  8
1
  6
CONTINUOUS
 62
     7
 10
2257.3246987861
 20
-816.8937545407
 30
0.0
 11
2244.4912397861
 21
-816.8937545407
 31
0.0
  0
ARC
  5
17C
  8
1
  6
CONTINUOUS
 62
     7
 10
2371.6095707861
 20
-828.0617055407
 30
0.0
 40
5.0
 50
260.0
 51
330.947522
  0
ARC
  5
17D
  8
1
  6
CONTINUOUS
 62
     7
 10
2364.3246987861
 20
-645.7815751859
 30
0.0
 40
0.5
 50
11.536959
 51
90.0
  0
LINE
  5
17E
  8
1
  6
CONTINUOUS
 62
     7
 10
2364.3246987861
 20
-645.2815751859
 30
0.0
 11
2358.9878707861
 21
-645.2815751859
 31
0.0
  0
ARC
  5
17F
  8
1
  6
CONTINUOUS
 62
     7
 10
2358.5926497861
 20
-841.0786265407
 30
0.0
 40
5.0
 50
299.052478
 51
10.0
  0
ARC
  5
180
  8
1
  6
CONTINUOUS
 62
     7
 10
2358.9878707861
 20
-648.2815751859
 30
0.0
 40
3.0
 50
90.0
 51
173.37419
  0
LINE
  5
181
  8
1
  6
CONTINUOUS
 62
     7
 10
2366.8246987861
 20
-640.3815751859
 30
0.0
 11
2348.6524157861
 21
-640.3815751859
 31
0.0
  0
LINE
  5
182
  8
1
  6
CONTINUOUS
 62
     7
 10
2321.4393397861
 20
-785.1161165407
 30
0.0
 11
2321.1327087861
 21
-783.3771225407
 31
0.0
  0
LINE
  5
183
  8
1
  6
CONTINUOUS
 62
     7
 10
2338.5746987861
 20
-656.7815751859
 30
0.0
 11
2346.0746987861
 21
-656.7815751859
 31
0.0
  0
ARC
  5
184
  8
1
  6
CONTINUOUS
 62
     7
 10
2320.3246987861
 20
-645.7815751859
 30
0.0
 40
0.5
 50
90.0
 51
168.463041
  0
LINE
  5
185
  8
1
  6
CONTINUOUS
 62
     7
 10
2342.3246987861
 20
-821.0313585407
 30
0.0
 11
2350.3246987861
 21
-816.4125565407
 31
0.0
  0
LINE
  5
186
  8
1
  6
CONTINUOUS
 62
     7
 10
2224.3246987861
 20
-623.7815751859
 30
0.0
 11
2328.0479277861
 21
-623.7815751859
 31
0.0
  0
LINE
  5
187
  8
1
  6
CONTINUOUS
 62
     7
 10
2339.3246987861
 20
-626.2815751859
 30
0.0
 11
2345.3246987861
 21
-626.2815751859
 31
0.0
  0
ARC
  5
188
  8
1
  6
CONTINUOUS
 62
     7
 10
2366.8246987861
 20
-632.2815751859
 30
0.0
 40
3.0
 50
0.0
 51
90.0
  0
ARC
  5
189
  8
1
  6
CONTINUOUS
 62
     7
 10
2346.0746987861
 20
-646.7815751859
 30
0.0
 40
10.0
 50
270.0
 51
353.3741900000001
  0
LINE
  5
18A
  8
1
  6
CONTINUOUS
 62
     7
 10
2384.4814007861
 20
-797.5437545407
 30
0.0
 11
2462.3246987861
 21
-797.5437545407
 31
0.0
  0
LINE
  5
18B
  8
1
  6
CONTINUOUS
 62
     7
 10
2349.4746987861
 20
-660.7815751859
 30
0.0
 11
2335.1746987861
 21
-660.7815751859
 31
0.0
  0
LINE
  5
18C
  8
1
  6
CONTINUOUS
 62
     7
 10
2330.5746987861
 20
-652.7815751859
 30
0.0
 11
2330.0246987861
 21
-652.7815751859
 31
0.0
  0
LINE
  5
18D
  8
1
  6
CONTINUOUS
 62
     7
 10
2357.3746987861
 20
-672.2871281859
 30
0.0
 11
2362.8746987861
 21
-672.2871281859
 31
0.0
  0
LINE
  5
18E
  8
1
  6
CONTINUOUS
 62
     7
 10
2354.6246987861
 20
-681.6087486869
 30
0.0
 11
2354.6246987861
 21
-652.7815751859
 31
0.0
  0
LINE
  5
18F
  8
1
  6
CONTINUOUS
 62
     7
 10
2222.3246987861
 20
-826.0437545407
 30
0.0
 11
2222.3246987861
 21
-797.5437545407
 31
0.0
  0
LINE
  5
190
  8
1
  6
CONTINUOUS
 62
     7
 10
2369.0023367861
 20
-790.9083955407
 30
0.0
 11
2370.7413307861
 21
-790.6017645407
 31
0.0
  0
LINE
  5
191
  8
1
  6
CONTINUOUS
 62
     7
 10
2354.0746987861
 20
-652.7815751859
 30
0.0
 11
2354.6246987861
 21
-652.7815751859
 31
0.0
  0
ARC
  5
192
  8
1
  6
CONTINUOUS
 62
     7
 10
2326.0567477861
 20
-841.0786265407
 30
0.0
 40
5.0
 50
170.0
 51
240.947522
  0
ARC
  5
193
  8
1
  6
CONTINUOUS
 62
     7
 10
2366.8246987861
 20
-637.3815751859
 30
0.0
 40
3.0
 50
270.0
 51
0.0
  0
LINE
  5
194
  8
1
  6
CONTINUOUS
 62
     7
 10
2369.8246987861
 20
-632.2815751859
 30
0.0
 11
2369.8246987861
 21
-637.3815751859
 31
0.0
  0
ARC
  5
195
  8
1
  6
CONTINUOUS
 62
     7
 10
2317.8246987861
 20
-637.3815751859
 30
0.0
 40
3.0
 50
180.0
 51
270.0
  0
ARC
  5
196
  8
1
  6
CONTINUOUS
 62
     7
 10
2342.3246987861
 20
-811.7937545407
 30
0.0
 40
38.5
 50
240.947522
 51
299.052478
  0
LINE
  5
197
  8
1
  6
CONTINUOUS
 62
     7
 10
2237.3246987861
 20
-821.0313585407
 30
0.0
 11
2229.3246987861
 21
-816.4125565407
 31
0.0
  0
LINE
  5
198
  8
1
  6
CONTINUOUS
 62
     7
 10
2342.5746987861
 20
-795.7906295407
 30
0.0
 11
2342.5746987861
 21
-786.2267675407
 31
0.0
  0
LINE
  5
199
  8
1
  6
CONTINUOUS
 62
     7
 10
2439.3246987861
 20
-816.4125565407
 30
0.0
 11
2439.3246987861
 21
-807.1749525407
 31
0.0
  0
LINE
  5
19A
  8
1
  6
CONTINUOUS
 62
     7
 10
2335.8246987861
 20
-650.5343521859
 30
0.0
 11
2342.3246987861
 21
-654.2871281859
 31
0.0
  0
LINE
  5
19B
  8
1
  6
CONTINUOUS
 62
     7
 10
2447.3246987861
 20
-802.5561505407
 30
0.0
 11
2455.3246987861
 21
-807.1749525407
 31
0.0
  0
LINE
  5
19C
  8
1
  6
CONTINUOUS
 62
     7
 10
2333.5421517861
 20
-781.0118235407
 30
0.0
 11
2341.8246987861
 21
-785.7937545407
 31
0.0
  0
LINE
  5
19D
  8
1
  6
CONTINUOUS
 62
     7
 10
2440.1581577861
 20
-806.6937545407
 30
0.0
 11
2427.3246987861
 21
-806.6937545407
 31
0.0
  0
LINE
  5
19E
  8
1
  6
CONTINUOUS
 62
     7
 10
2329.5746987861
 20
-690.7815751859
 30
0.0
 11
2355.0746987861
 21
-690.7815751859
 31
0.0
  0
LINE
  5
19F
  8
1
  6
CONTINUOUS
 62
     7
 10
2229.3246987861
 20
-816.4125565407
 30
0.0
 11
2229.3246987861
 21
-807.1749525407
 31
0.0
  0
LINE
  5
1A0
  8
1
  6
CONTINUOUS
 62
     7
 10
2222.3246987861
 20
-826.0437545407
 30
0.0
 11
2300.1679967861
 21
-826.0437545407
 31
0.0
  0
LINE
  5
1A1
  8
1
  6
CONTINUOUS
 62
     7
 10
2335.8246987861
 20
-643.0287981859
 30
0.0
 11
2335.8246987861
 21
-650.5343521859
 31
0.0
  0
LINE
  5
1A2
  8
1
  6
CONTINUOUS
 62
     7
 10
2222.3246987861
 20
-797.5437545407
 30
0.0
 11
2300.1679967861
 21
-797.5437545407
 31
0.0
  0
LINE
  5
1A3
  8
1
  6
CONTINUOUS
 62
     7
 10
2384.4814007861
 20
-826.0437545407
 30
0.0
 11
2462.3246987861
 21
-826.0437545407
 31
0.0
  0
LINE
  5
1A4
  8
1
  6
CONTINUOUS
 62
     7
 10
2342.5746987861
 20
-786.2267675407
 30
0.0
 11
2350.8572457861
 21
-791.0086985407
 31
0.0
  0
LINE
  5
1A5
  8
1
  6
CONTINUOUS
 62
     7
 10
2245.3246987861
 20
-807.1749525407
 30
0.0
 11
2245.3246987861
 21
-816.4125565407
 31
0.0
  0
LINE
  5
1A6
  8
1
  6
CONTINUOUS
 62
     7
 10
2237.3246987861
 20
-802.5561505407
 30
0.0
 11
2245.3246987861
 21
-807.1749525407
 31
0.0
  0
LINE
  5
1A7
  8
1
  6
CONTINUOUS
 62
     7
 10
2229.3246987861
 20
-807.1749525407
 30
0.0
 11
2237.3246987861
 21
-802.5561505407
 31
0.0
  0
ARC
  5
1A8
  8
1
  6
CONTINUOUS
 62
     7
 10
2342.3246987861
 20
-785.7937545407
 30
0.0
 40
10.0
 50
328.567456
 51
331.432544
  0
CIRCLE
  5
1A9
  8
1
  6
CONTINUOUS
 62
     7
 10
2316.5153007861
 20
-837.6031525407
 30
0.0
 40
2.0
  0
LINE
  5
1AA
  8
1
  6
CONTINUOUS
 62
     7
 10
2342.0746987861
 20
-785.3607415407
 30
0.0
 11
2333.7921517861
 21
-780.5788105407
 31
0.0
  0
ARC
  5
1AB
  8
1
  6
CONTINUOUS
 62
     7
 10
2342.3246987861
 20
-785.7937545407
 30
0.0
 40
10.0
 50
148.567456
 51
151.432544
  0
ARC
  5
1AC
  8
1
  6
CONTINUOUS
 62
     7
 10
2342.3246987861
 20
-785.7937545407
 30
0.0
 40
10.0
 50
208.567456
 51
211.432544
  0
LINE
  5
1AD
  8
1
  6
CONTINUOUS
 62
     7
 10
2447.3246987861
 20
-821.0313585407
 30
0.0
 11
2439.3246987861
 21
-816.4125565407
 31
0.0
  0
LINE
  5
1AE
  8
1
  6
CONTINUOUS
 62
     7
 10
2455.3246987861
 20
-807.1749525407
 30
0.0
 11
2455.3246987861
 21
-816.4125565407
 31
0.0
  0
LINE
  5
1AF
  8
1
  6
CONTINUOUS
 62
     7
 10
2455.3246987861
 20
-816.4125565407
 30
0.0
 11
2447.3246987861
 21
-821.0313585407
 31
0.0
  0
LINE
  5
1B0
  8
1
  6
CONTINUOUS
 62
     7
 10
2350.8572457861
 20
-780.5788105407
 30
0.0
 11
2342.5746987861
 21
-785.3607415407
 31
0.0
  0
LINE
  5
1B1
  8
1
  6
CONTINUOUS
 62
     7
 10
2342.5746987861
 20
-785.3607415407
 30
0.0
 11
2342.5746987861
 21
-775.7968795407
 31
0.0
  0
LINE
  5
1B2
  8
1
  6
CONTINUOUS
 62
     7
 10
2342.3246987861
 20
-654.2871281859
 30
0.0
 11
2348.8246987861
 21
-650.5343521859
 31
0.0
  0
LINE
  5
1B3
  8
1
  6
CONTINUOUS
 62
     7
 10
2341.8246987861
 20
-785.7937545407
 30
0.0
 11
2333.5421517861
 21
-790.5756855407
 31
0.0
  0
LINE
  5
1B4
  8
1
  6
CONTINUOUS
 62
     7
 10
2342.0746987861
 20
-786.2267675407
 30
0.0
 11
2342.0746987861
 21
-795.7906295407
 31
0.0
  0
LINE
  5
1B5
  8
1
  6
CONTINUOUS
 62
     7
 10
2332.3246987861
 20
-681.4075245192
 30
0.0
 11
2333.9246987861
 21
-690.4815751859
 31
0.0
  0
LINE
  5
1B6
  8
1
  6
CONTINUOUS
 62
     7
 10
2351.1072457861
 20
-790.5756855407
 30
0.0
 11
2342.8246987861
 21
-785.7937545407
 31
0.0
  0
ARC
  5
1B7
  8
1
  6
CONTINUOUS
 62
     7
 10
2342.3246987861
 20
-785.7937545407
 30
0.0
 40
10.0
 50
28.567456
 51
31.432544
  0
ARC
  5
1B8
  8
1
  6
CONTINUOUS
 62
     7
 10
2342.3246987861
 20
-785.7937545407
 30
0.0
 40
10.0
 50
268.567456
 51
271.432544
  0
LINE
  5
1B9
  8
1
  6
CONTINUOUS
 62
     7
 10
2245.3246987861
 20
-816.4125565407
 30
0.0
 11
2237.3246987861
 21
-821.0313585407
 31
0.0
  0
ENDSEC
  0
EOF
