  0
SECTION
  2
HEADER
  9
$ACADVER
  1
AC1006
  9
$DWGCODEPAGE
  3
ansi_932
  9
$INSBASE
 10
0.0
 20
0.0
 30
0.0
  9
$EXTMIN
 10
0.0
 20
-901.834721
  9
$EXTMAX
 10
2767.3246987861
 20
5.686136363636363
  9
$LIMMIN
 10
0.0
 20
0.0
  9
$LIMMAX
 10
12.0
 20
9.0
  9
$ORTHOMODE
 70
     0
  9
$REGENMODE
 70
     1
  9
$FILLMODE
 70
     1
  9
$QTEXTMODE
 70
     0
  9
$MIRRTEXT
 70
     1
  9
$DRAGMODE
 70
     2
  9
$LTSCALE
 40
1.0
  9
$OSMODE
 70
    37
  9
$ATTMODE
 70
     1
  9
$TEXTSIZE
 40
0.2
  9
$TRACEWID
 40
0.05
  9
$TEXTSTYLE
  7
STANDARD
  9
$CLAYER
  8
0
  9
$CELTYPE
  6
BYLAYER
  9
$CECOLOR
 62
   256
  9
$DIMSCALE
 40
1.0
  9
$DIMASZ
 40
2.4
  9
$DIMEXO
 40
0.0625
  9
$DIMDLI
 40
0.38
  9
$DIMRND
 40
0.0
  9
$DIMDLE
 40
0.0
  9
$DIMEXE
 40
1.2
  9
$DIMTP
 40
0.0
  9
$DIMTM
 40
0.0
  9
$DIMTXT
 40
8.0
  9
$DIMCEN
 40
0.09
  9
$DIMTSZ
 40
0.0
  9
$DIMTOL
 70
     0
  9
$DIMLIM
 70
     0
  9
$DIMTIH
 70
     1
  9
$DIMTOH
 70
     1
  9
$DIMSE1
 70
     0
  9
$DIMSE2
 70
     0
  9
$DIMTAD
 70
     1
  9
$DIMZIN
 70
     0
  9
$DIMBLK
  1

  9
$DIMASO
 70
     1
  9
$DIMSHO
 70
     1
  9
$DIMPOST
  1

  9
$DIMAPOST
  1

  9
$DIMALT
 70
     0
  9
$DIMALTD
 70
     2
  9
$DIMALTF
 40
25.4
  9
$DIMLFAC
 40
1.0
  9
$DIMTOFL
 70
     0
  9
$DIMTVP
 40
0.0
  9
$DIMTIX
 70
     0
  9
$DIMSOXD
 70
     0
  9
$DIMSAH
 70
     0
  9
$DIMBLK1
  1

  9
$DIMBLK2
  1

  9
$LUNITS
 70
     2
  9
$LUPREC
 70
     4
  9
$SKETCHINC
 40
0.1
  9
$FILLETRAD
 40
0.5
  9
$AUNITS
 70
     0
  9
$AUPREC
 70
     0
  9
$MENU
  1
.
  9
$ELEVATION
 40
0.0
  9
$THICKNESS
 40
0.0
  9
$LIMCHECK
 70
     0
  9
$CHAMFERA
 40
0.0
  9
$CHAMFERB
 40
0.0
  9
$SKPOLY
 70
     0
  9
$TDCREATE
 40
2460587.385484734
  9
$TDUPDATE
 40
2460587.385485116
  9
$TDINDWG
 40
0.0000000116
  9
$TDUSRTIMER
 40
0.0000000116
  9
$USRTIMER
 70
     1
  9
$ANGBASE
 50
0.0
  9
$ANGDIR
 70
     0
  9
$PDMODE
 70
     0
  9
$PDSIZE
 40
0.0
  9
$PLINEWID
 40
0.0
  9
$COORDS
 70
     1
  9
$SPLFRAME
 70
     0
  9
$SPLINETYPE
 70
     6
  9
$SPLINESEGS
 70
     8
  9
$ATTDIA
 70
     0
  9
$ATTREQ
 70
     1
  9
$HANDLING
 70
     1
  9
$HANDSEED
  5
1E9
  9
$SURFTAB1
 70
     6
  9
$SURFTAB2
 70
     6
  9
$SURFTYPE
 70
     6
  9
$SURFU
 70
     6
  9
$SURFV
 70
     6
  9
$UCSNAME
  2

  9
$UCSORG
 10
0.0
 20
0.0
 30
0.0
  9
$UCSXDIR
 10
1.0
 20
0.0
 30
0.0
  9
$UCSYDIR
 10
0.0
 20
1.0
 30
0.0
  9
$USERI1
 70
     0
  9
$USERI2
 70
     0
  9
$USERI3
 70
     0
  9
$USERI4
 70
     0
  9
$USERI5
 70
     0
  9
$USERR1
 40
0.0
  9
$USERR2
 40
0.0
  9
$USERR3
 40
0.0
  9
$USERR4
 40
0.0
  9
$USERR5
 40
0.0
  9
$WORLDVIEW
 70
     1
  0
ENDSEC
  0
SECTION
  2
TABLES
  0
TABLE
  2
VPORT
 70
     1
  0
VPORT
  2
*ACTIVE
 70
     0
 10
0.0
 20
0.0
 11
1.0
 21
1.0
 12
1383.66234939305
 22
-448.0742923181818
 13
0.0
 23
0.0
 14
0.5
 24
0.5
 15
0.5
 25
0.5
 16
0.0
 26
0.0
 36
1.0
 17
0.0
 27
0.0
 37
0.0
 40
907.5208573636363
 41
1.6
 42
50.0
 43
0.0
 44
0.0
 50
0.0
 51
0.0
 71
     0
 72
   100
 73
     1
 74
     3
 75
     0
 76
     0
 77
     0
 78
     0
  0
ENDTAB
  0
TABLE
  2
LTYPE
 70
     1
  0
LTYPE
  2
CONTINUOUS
 70
     0
  3
Solid line
 72
    65
 73
     0
 40
0.0
  0
ENDTAB
  0
TABLE
  2
LAYER
 70
     2
  0
LAYER
  2
0
 70
     0
 62
     7
  6
CONTINUOUS
  0
LAYER
  2
1
 70
     0
 62
     7
  6
CONTINUOUS
  0
ENDTAB
  0
TABLE
  2
STYLE
 70
     2
  0
STYLE
  2
STANDARD
 70
     0
 40
0.0
 41
1.0
 50
0.0
 71
     0
 42
0.2
  3
txt
  4

  0
STYLE
  2
ＭＳ_ゴシック
 70
     0
 40
0.0
 41
1.0
 50
0.0
 71
     0
 42
0.2
  3
ＭＳ ゴシック.shx
  4

  0
ENDTAB
  0
TABLE
  2
VIEW
 70
     0
  0
ENDTAB
  0
TABLE
  2
UCS
 70
     0
  0
ENDTAB
  0
ENDSEC
  0
SECTION
  2
BLOCKS
  0
BLOCK
  8
0
  2
D_FRAME_DRAWING_21
 70
     0
 10
0.0
 20
0.0
 30
0.0
  0
LINE
  5
C4
  8
0
  6
CONTINUOUS
 62
     7
 10
0.0
 20
0.0
 30
0.0
 11
420.0
 21
0.0
 31
0.0
  0
LINE
  5
C5
  8
0
  6
CONTINUOUS
 62
     7
 10
420.0
 20
0.0
 30
0.0
 11
420.0
 21
297.0
 31
0.0
  0
LINE
  5
C6
  8
0
  6
CONTINUOUS
 62
     7
 10
420.0
 20
297.0
 30
0.0
 11
0.0
 21
297.0
 31
0.0
  0
LINE
  5
C7
  8
0
  6
CONTINUOUS
 62
     7
 10
0.0
 20
297.0
 30
0.0
 11
0.0
 21
0.0
 31
0.0
  0
LINE
  5
C8
  8
0
  6
CONTINUOUS
 62
     7
 10
10.0
 20
10.0
 30
0.0
 11
409.9999999999999
 21
10.0
 31
0.0
  0
LINE
  5
C9
  8
0
  6
CONTINUOUS
 62
     7
 10
409.9999999999999
 20
10.0
 30
0.0
 11
409.9999999999999
 21
286.9999999999999
 31
0.0
  0
LINE
  5
CA
  8
0
  6
CONTINUOUS
 62
     7
 10
409.9999999999999
 20
286.9999999999999
 30
0.0
 11
10.00000000000006
 21
286.9999999999999
 31
0.0
  0
LINE
  5
CB
  8
0
  6
CONTINUOUS
 62
     7
 10
10.0
 20
286.9999999999999
 30
0.0
 11
10.0
 21
10.00000000000001
 31
0.0
  0
LINE
  5
CC
  8
0
  6
CONTINUOUS
 62
     7
 10
210.0
 20
0.0
 30
0.0
 11
210.0
 21
10.0
 31
0.0
  0
LINE
  5
CD
  8
0
  6
CONTINUOUS
 62
     7
 10
420.0
 20
148.5
 30
0.0
 11
409.9999999999999
 21
148.5
 31
0.0
  0
LINE
  5
CE
  8
0
  6
CONTINUOUS
 62
     7
 10
210.0
 20
297.0
 30
0.0
 11
210.0
 21
286.9999999999999
 31
0.0
  0
LINE
  5
CF
  8
0
  6
CONTINUOUS
 62
     7
 10
0.0
 20
148.5
 30
0.0
 11
10.0
 21
148.5
 31
0.0
  0
POLYLINE
  5
D0
  8
0
  6
CONTINUOUS
 62
     7
 66
     1
 10
0.0
 20
0.0
 30
0.0
 70
     1
  0
VERTEX
  5
1BA
  8
0
  6
CONTINUOUS
 62
     7
 10
11.0
 20
152.5
 30
0.0
  0
VERTEX
  5
1BB
  8
0
  6
CONTINUOUS
 62
     7
 10
0.0
 20
148.5
 30
0.0
  0
VERTEX
  5
1BC
  8
0
  6
CONTINUOUS
 62
     7
 10
11.0
 20
144.5
 30
0.0
  0
VERTEX
  5
1BD
  8
0
  6
CONTINUOUS
 62
     7
 10
11.0
 20
152.5
 30
0.0
  0
SEQEND
  5
1E7
  8
0
  6
CONTINUOUS
 62
     7
  0
INSERT
  5
D1
  8
0
 62
     7
  2
*U2
 10
0.0
 20
0.0
 30
0.0
  0
POLYLINE
  5
D2
  8
0
  6
CONTINUOUS
 62
     7
 66
     1
 10
0.0
 20
0.0
 30
0.0
 70
     1
  0
VERTEX
  5
1C0
  8
0
  6
CONTINUOUS
 62
     7
 10
206.0
 20
11.0
 30
0.0
  0
VERTEX
  5
1C1
  8
0
  6
CONTINUOUS
 62
     7
 10
210.0
 20
0.0
 30
0.0
  0
VERTEX
  5
1C2
  8
0
  6
CONTINUOUS
 62
     7
 10
214.0
 20
11.0
 30
0.0
  0
VERTEX
  5
1C3
  8
0
  6
CONTINUOUS
 62
     7
 10
206.0
 20
11.0
 30
0.0
  0
SEQEND
  5
1E8
  8
0
  6
CONTINUOUS
 62
     7
  0
INSERT
  5
D3
  8
0
 62
     7
  2
*U3
 10
0.0
 20
0.0
 30
0.0
  0
LINE
  5
D4
  8
0
  6
CONTINUOUS
 62
     7
 10
367.5
 20
286.9999999999999
 30
0.0
 11
367.5
 21
292.0
 31
0.0
  0
TEXT
  5
D5
  8
0
  6
CONTINUOUS
 62
     7
 10
391.6340909090909
 20
291.8324293485057
 30
0.0
 40
3.5
  1
A
 50
270.0
  0
LINE
  5
D6
  8
0
  6
CONTINUOUS
 62
     7
 10
367.5
 20
10.0
 30
0.0
 11
367.5
 21
5.0
 31
0.0
  0
TEXT
  5
D7
  8
0
  6
CONTINUOUS
 62
     7
 10
392.9868888333125
 20
4.602272727272727
 30
0.0
 40
3.5
  1
A
  0
LINE
  5
D8
  8
0
  6
CONTINUOUS
 62
     7
 10
315.0
 20
286.9999999999999
 30
0.0
 11
315.0
 21
292.0
 31
0.0
  0
TEXT
  5
D9
  8
0
  6
CONTINUOUS
 62
     7
 10
339.1340909090909
 20
291.9745607727899
 30
0.0
 40
3.5
  1
B
 50
270.0
  0
LINE
  5
DA
  8
0
  6
CONTINUOUS
 62
     7
 10
315.0
 20
10.0
 30
0.0
 11
315.0
 21
5.0
 31
0.0
  0
TEXT
  5
DB
  8
0
  6
CONTINUOUS
 62
     7
 10
340.3447574090284
 20
4.602272727272727
 30
0.0
 40
3.5
  1
B
  0
LINE
  5
DC
  8
0
  6
CONTINUOUS
 62
     7
 10
262.5
 20
286.9999999999999
 30
0.0
 11
262.5
 21
292.0
 31
0.0
  0
TEXT
  5
DD
  8
0
  6
CONTINUOUS
 62
     7
 10
286.6327779167187
 20
291.9399305989747
 30
0.0
 40
3.5
  1
C
 50
270.0
  0
LINE
  5
DE
  8
0
  6
CONTINUOUS
 62
     7
 10
262.5
 20
10.0
 30
0.0
 11
262.5
 21
5.0
 31
0.0
  0
TEXT
  5
DF
  8
0
  6
CONTINUOUS
 62
     7
 10
287.8793875828435
 20
4.600959734900587
 30
0.0
 40
3.5
  1
C
  0
LINE
  5
E0
  8
0
  6
CONTINUOUS
 62
     7
 10
210.0
 20
286.9999999999999
 30
0.0
 11
210.0
 21
292.0
 31
0.0
  0
TEXT
  5
E1
  8
0
  6
CONTINUOUS
 62
     7
 10
234.1340909090909
 20
291.9745607727898
 30
0.0
 40
3.5
  1
D
 50
270.0
  0
LINE
  5
E2
  8
0
  6
CONTINUOUS
 62
     7
 10
157.5
 20
286.9999999999999
 30
0.0
 11
157.5
 21
292.0
 31
0.0
  0
TEXT
  5
E3
  8
0
  6
CONTINUOUS
 62
     7
 10
181.6327779167188
 20
292.027463423784
 30
0.0
 40
3.5
  1
E
 50
270.0
  0
LINE
  5
E4
  8
0
  6
CONTINUOUS
 62
     7
 10
157.5
 20
10.0
 30
0.0
 11
157.5
 21
5.0
 31
0.0
  0
LINE
  5
E5
  8
0
  6
CONTINUOUS
 62
     7
 10
105.0
 20
286.9999999999999
 30
0.0
 11
105.0
 21
292.0
 31
0.0
  0
TEXT
  5
E6
  8
0
  6
CONTINUOUS
 62
     7
 10
129.1327779167188
 20
291.9924502938602
 30
0.0
 40
3.5
  1
F
 50
270.0
  0
LINE
  5
E7
  8
0
  6
CONTINUOUS
 62
     7
 10
105.0
 20
10.0
 30
0.0
 11
105.0
 21
5.0
 31
0.0
  0
TEXT
  5
E8
  8
0
  6
CONTINUOUS
 62
     7
 10
130.326867887958
 20
4.600959734900587
 30
0.0
 40
3.5
  1
F
  0
LINE
  5
E9
  8
0
  6
CONTINUOUS
 62
     7
 10
52.50000000000004
 20
286.9999999999999
 30
0.0
 11
52.50000000000004
 21
292.0
 31
0.0
  0
TEXT
  5
EA
  8
0
  6
CONTINUOUS
 62
     7
 10
76.6327779167188
 20
291.9399305989746
 30
0.0
 40
3.5
  1
G
 50
270.0
  0
LINE
  5
EB
  8
0
  6
CONTINUOUS
 62
     7
 10
52.50000000000004
 20
10.0
 30
0.0
 11
52.50000000000004
 21
5.0
 31
0.0
  0
TEXT
  5
EC
  8
0
  6
CONTINUOUS
 62
     7
 10
77.8793875828436
 20
4.600959734900587
 30
0.0
 40
3.5
  1
G
  0
TEXT
  5
ED
  8
0
  6
CONTINUOUS
 62
     7
 10
24.13277791671879
 20
291.9749437288983
 30
0.0
 40
3.5
  1
H
 50
270.0
  0
TEXT
  5
EE
  8
0
  6
CONTINUOUS
 62
     7
 10
25.34437445291988
 20
4.600959734900587
 30
0.0
 40
3.5
  1
H
  0
LINE
  5
EF
  8
0
  6
CONTINUOUS
 62
     7
 10
409.9999999999999
 20
74.25
 30
0.0
 11
414.9999999999999
 21
74.25
 31
0.0
  0
TEXT
  5
F0
  8
0
  6
CONTINUOUS
 62
     7
 10
412.9326059772414
 20
35.00777791671877
 30
0.0
 40
3.5
  1
1
  0
LINE
  5
F1
  8
0
  6
CONTINUOUS
 62
     7
 10
10.0
 20
74.25
 30
0.0
 11
5.0
 21
74.25
 31
0.0
  0
TEXT
  5
F2
  8
0
  6
CONTINUOUS
 62
     7
 10
4.600959734900584
 20
38.26171220457671
 30
0.0
 40
3.5
  1
1
 50
270.0
  0
LINE
  5
F3
  8
0
  6
CONTINUOUS
 62
     7
 10
409.9999999999999
 20
148.5
 30
0.0
 11
414.9999999999999
 21
148.5
 31
0.0
  0
TEXT
  5
F4
  8
0
  6
CONTINUOUS
 62
     7
 10
413.163692634738
 20
109.2577779167188
 30
0.0
 40
3.5
  1
2
  0
LINE
  5
F5
  8
0
  6
CONTINUOUS
 62
     7
 10
10.0
 20
148.5
 30
0.0
 11
5.0
 21
148.5
 31
0.0
  0
TEXT
  5
F6
  8
0
  6
CONTINUOUS
 62
     7
 10
4.600959734900599
 20
112.2806255470802
 30
0.0
 40
3.5
  1
2
 50
270.0
  0
LINE
  5
F7
  8
0
  6
CONTINUOUS
 62
     7
 10
409.9999999999999
 20
222.75
 30
0.0
 11
414.9999999999999
 21
222.75
 31
0.0
  0
TEXT
  5
F8
  8
0
  6
CONTINUOUS
 62
     7
 10
413.1811991996998
 20
183.5077779167188
 30
0.0
 40
3.5
  1
3
  0
LINE
  5
F9
  8
0
  6
CONTINUOUS
 62
     7
 10
10.0
 20
222.75
 30
0.0
 11
5.0
 21
222.75
 31
0.0
  0
TEXT
  5
FA
  8
0
  6
CONTINUOUS
 62
     7
 10
4.600959734900584
 20
186.5131189821183
 30
0.0
 40
3.5
  1
3
 50
270.0
  0
TEXT
  5
FB
  8
0
  6
CONTINUOUS
 62
     7
 10
413.2351413029886
 20
257.7590909090909
 30
0.0
 40
3.5
  1
4
  0
TEXT
  5
FC
  8
0
  6
CONTINUOUS
 62
     7
 10
4.60227272727272
 20
260.7091768788295
 30
0.0
 40
3.5
  1
4
 50
270.0
  0
LINE
  5
FD
  8
0
  6
CONTINUOUS
 62
     7
 10
220.0
 20
10.0
 30
0.0
 11
220.0
 21
7.0
 31
0.0
  0
LINE
  5
FE
  8
0
  6
CONTINUOUS
 62
     7
 10
200.0
 20
10.0
 30
0.0
 11
200.0
 21
7.0
 31
0.0
  0
LINE
  5
FF
  8
0
  6
CONTINUOUS
 62
     7
 10
230.0
 20
10.0
 30
0.0
 11
230.0
 21
7.0
 31
0.0
  0
LINE
  5
100
  8
0
  6
CONTINUOUS
 62
     7
 10
190.0
 20
10.0
 30
0.0
 11
190.0
 21
7.0
 31
0.0
  0
LINE
  5
101
  8
0
  6
CONTINUOUS
 62
     7
 10
240.0
 20
10.0
 30
0.0
 11
240.0
 21
7.0
 31
0.0
  0
LINE
  5
102
  8
0
  6
CONTINUOUS
 62
     7
 10
180.0
 20
10.0
 30
0.0
 11
180.0
 21
7.0
 31
0.0
  0
LINE
  5
103
  8
0
  6
CONTINUOUS
 62
     7
 10
250.0
 20
10.0
 30
0.0
 11
250.0
 21
7.0
 31
0.0
  0
LINE
  5
104
  8
0
  6
CONTINUOUS
 62
     7
 10
170.0
 20
10.0
 30
0.0
 11
170.0
 21
7.0
 31
0.0
  0
LINE
  5
105
  8
0
  6
CONTINUOUS
 62
     7
 10
260.0
 20
10.0
 30
0.0
 11
260.0
 21
5.0
 31
0.0
  0
LINE
  5
106
  8
0
  6
CONTINUOUS
 62
     7
 10
160.0
 20
10.0
 30
0.0
 11
160.0
 21
5.0
 31
0.0
  0
LINE
  5
107
  8
0
  6
CONTINUOUS
 62
     7
 10
260.0
 20
10.0
 30
0.0
 11
160.0
 21
10.0
 31
0.0
  0
LINE
  5
108
  8
0
  6
CONTINUOUS
 62
     7
 10
260.0
 20
7.0
 30
0.0
 11
160.0
 21
7.0
 31
0.0
  0
INSERT
  5
109
  8
0
 62
     7
  2
*U4
 10
0.0
 20
0.0
 30
0.0
  0
INSERT
  5
10A
  8
0
 62
     7
  2
*U5
 10
0.0
 20
0.0
 30
0.0
  0
INSERT
  5
10B
  8
0
 62
     7
  2
*U6
 10
0.0
 20
0.0
 30
0.0
  0
INSERT
  5
10C
  8
0
 62
     7
  2
*U7
 10
0.0
 20
0.0
 30
0.0
  0
ENDBLK
  8
0
  0
BLOCK
  8
0
  2
*U2
 70
     1
 10
0.0
 20
0.0
 30
0.0
  0
SOLID
  5
1BF
  8
0
  6
CONTINUOUS
 62
     7
 10
11.0
 20
144.5
 30
0.0
 11
6.999999999999999
 21
148.5
 31
0.0
 12
11.0
 22
152.5
 32
0.0
 13
11.0
 23
152.5
 33
0.0
  0
ENDBLK
  8
0
  0
BLOCK
  8
0
  2
*U3
 70
     1
 10
0.0
 20
0.0
 30
0.0
  0
SOLID
  5
1C5
  8
0
  6
CONTINUOUS
 62
     7
 10
210.0
 20
6.999999999999999
 30
0.0
 11
206.0
 21
11.0
 31
0.0
 12
210.0
 22
11.0
 32
0.0
 13
210.0
 23
11.0
 33
0.0
  0
SOLID
  5
1C6
  8
0
  6
CONTINUOUS
 62
     7
 10
210.0
 20
6.999999999999999
 30
0.0
 11
210.0
 21
11.0
 31
0.0
 12
214.0
 22
11.0
 32
0.0
 13
214.0
 23
11.0
 33
0.0
  0
ENDBLK
  8
0
  0
BLOCK
  8
0
  2
*U4
 70
     1
 10
0.0
 20
0.0
 30
0.0
  0
SOLID
  5
1C8
  8
0
  6
CONTINUOUS
 62
     7
 10
0.0
 20
0.0
 30
0.0
 11
0.0
 21
10.0
 31
0.0
 12
2.0
 22
0.0
 32
0.0
 13
2.0
 23
0.0
 33
0.0
  0
SOLID
  5
1C9
  8
0
  6
CONTINUOUS
 62
     7
 10
2.0
 20
0.0
 30
0.0
 11
0.0
 21
10.0
 31
0.0
 12
2.0
 22
10.0
 32
0.0
 13
2.0
 23
10.0
 33
0.0
  0
SOLID
  5
1CA
  8
0
  6
CONTINUOUS
 62
     7
 10
2.0
 20
0.0
 30
0.0
 11
2.0
 21
2.0
 31
0.0
 12
10.0
 22
0.0
 32
0.0
 13
10.0
 23
0.0
 33
0.0
  0
SOLID
  5
1CB
  8
0
  6
CONTINUOUS
 62
     7
 10
10.0
 20
0.0
 30
0.0
 11
2.0
 21
2.0
 31
0.0
 12
10.0
 22
2.0
 32
0.0
 13
10.0
 23
2.0
 33
0.0
  0
ENDBLK
  8
0
  0
BLOCK
  8
0
  2
*U5
 70
     1
 10
0.0
 20
0.0
 30
0.0
  0
SOLID
  5
1CD
  8
0
  6
CONTINUOUS
 62
     7
 10
409.9999999999999
 20
0.0
 30
0.0
 11
409.9999999999999
 21
2.0
 31
0.0
 12
418.0
 22
0.0
 32
0.0
 13
418.0
 23
0.0
 33
0.0
  0
SOLID
  5
1CE
  8
0
  6
CONTINUOUS
 62
     7
 10
418.0
 20
0.0
 30
0.0
 11
409.9999999999999
 21
2.0
 31
0.0
 12
418.0
 22
2.0
 32
0.0
 13
418.0
 23
2.0
 33
0.0
  0
SOLID
  5
1CF
  8
0
  6
CONTINUOUS
 62
     7
 10
418.0
 20
0.0
 30
0.0
 11
418.0
 21
10.0
 31
0.0
 12
420.0
 22
0.0
 32
0.0
 13
420.0
 23
0.0
 33
0.0
  0
SOLID
  5
1D0
  8
0
  6
CONTINUOUS
 62
     7
 10
420.0
 20
0.0
 30
0.0
 11
418.0
 21
10.0
 31
0.0
 12
420.0
 22
10.0
 32
0.0
 13
420.0
 23
10.0
 33
0.0
  0
ENDBLK
  8
0
  0
BLOCK
  8
0
  2
*U6
 70
     1
 10
0.0
 20
0.0
 30
0.0
  0
SOLID
  5
1D2
  8
0
  6
CONTINUOUS
 62
     7
 10
409.9999999999999
 20
295.0
 30
0.0
 11
409.9999999999999
 21
297.0
 31
0.0
 12
418.0
 22
295.0
 32
0.0
 13
418.0
 23
295.0
 33
0.0
  0
SOLID
  5
1D3
  8
0
  6
CONTINUOUS
 62
     7
 10
418.0
 20
295.0
 30
0.0
 11
409.9999999999999
 21
297.0
 31
0.0
 12
418.0
 22
297.0
 32
0.0
 13
418.0
 23
297.0
 33
0.0
  0
SOLID
  5
1D4
  8
0
  6
CONTINUOUS
 62
     7
 10
418.0
 20
286.9999999999999
 30
0.0
 11
418.0
 21
297.0
 31
0.0
 12
420.0
 22
286.9999999999999
 32
0.0
 13
420.0
 23
286.9999999999999
 33
0.0
  0
SOLID
  5
1D5
  8
0
  6
CONTINUOUS
 62
     7
 10
420.0
 20
286.9999999999999
 30
0.0
 11
418.0
 21
297.0
 31
0.0
 12
420.0
 22
297.0
 32
0.0
 13
420.0
 23
297.0
 33
0.0
  0
ENDBLK
  8
0
  0
BLOCK
  8
0
  2
*U7
 70
     1
 10
0.0
 20
0.0
 30
0.0
  0
SOLID
  5
1D7
  8
0
  6
CONTINUOUS
 62
     7
 10
0.0
 20
286.9999999999999
 30
0.0
 11
0.0
 21
297.0
 31
0.0
 12
2.0
 22
286.9999999999999
 32
0.0
 13
2.0
 23
286.9999999999999
 33
0.0
  0
SOLID
  5
1D8
  8
0
  6
CONTINUOUS
 62
     7
 10
2.0
 20
286.9999999999999
 30
0.0
 11
0.0
 21
297.0
 31
0.0
 12
2.0
 22
297.0
 32
0.0
 13
2.0
 23
297.0
 33
0.0
  0
SOLID
  5
1D9
  8
0
  6
CONTINUOUS
 62
     7
 10
2.0
 20
295.0
 30
0.0
 11
2.0
 21
297.0
 31
0.0
 12
10.0
 22
295.0
 32
0.0
 13
10.0
 23
295.0
 33
0.0
  0
SOLID
  5
1DA
  8
0
  6
CONTINUOUS
 62
     7
 10
10.0
 20
295.0
 30
0.0
 11
2.0
 21
297.0
 31
0.0
 12
10.0
 22
297.0
 32
0.0
 13
10.0
 23
297.0
 33
0.0
  0
ENDBLK
  8
0
  0
ENDSEC
  0
SECTION
  2
ENTITIES
  0
CIRCLE
  5
70
  8
1
  6
CONTINUOUS
 62
     7
 10
2542.3246987861
 20
-804.5437545407
 30
0.0
 40
4.75
  0
LINE
  5
71
  8
1
  6
CONTINUOUS
 62
     7
 10
2767.3246987861
 20
-655.7815751859
 30
0.0
 11
2767.3246987861
 21
-632.7815751859
 31
0.0
  0
LINE
  5
72
  8
1
  6
CONTINUOUS
 62
     7
 10
2767.3246987861
 20
-428.7815751859
 30
0.0
 11
2767.3246987861
 21
-405.7815751859
 31
0.0
  0
LINE
  5
73
  8
1
  6
CONTINUOUS
 62
     7
 10
2760.3246987861
 20
-809.1625565407
 30
0.0
 11
2752.3246987861
 21
-813.7813585407
 31
0.0
  0
LINE
  5
74
  8
1
  6
CONTINUOUS
 62
     7
 10
2752.3246987861
 20
-813.7813585407
 30
0.0
 11
2744.3246987861
 21
-809.1625565407
 31
0.0
  0
LINE
  5
75
  8
1
  6
CONTINUOUS
 62
     7
 10
2722.3246987861
 20
-680.7815751859
 30
0.0
 11
2572.3246987861
 21
-680.7815751859
 31
0.0
  0
ARC
  5
76
  8
1
  6
CONTINUOUS
 62
     7
 10
2529.3246987861
 20
-632.7815751859
 30
0.0
 40
2.0
 50
90.0
 51
180.0
  0
ARC
  5
77
  8
1
  6
CONTINUOUS
 62
     7
 10
2765.3246987861
 20
-428.7815751859
 30
0.0
 40
2.0
 50
270.0
 51
0.0
  0
LINE
  5
78
  8
1
  6
CONTINUOUS
 62
     7
 10
2527.3246987861
 20
-655.7815751859
 30
0.0
 11
2527.3246987861
 21
-632.7815751859
 31
0.0
  0
LINE
  5
79
  8
1
  6
CONTINUOUS
 62
     7
 10
2549.4912397861
 20
-799.4437545407
 30
0.0
 11
2562.3246987861
 21
-799.4437545407
 31
0.0
  0
LINE
  5
7A
  8
1
  6
CONTINUOUS
 62
     7
 10
2752.3246987861
 20
-795.3061505407
 30
0.0
 11
2760.3246987861
 21
-799.9249525407
 31
0.0
  0
LINE
  5
7B
  8
1
  6
CONTINUOUS
 62
     7
 10
2744.3246987861
 20
-799.9249525407
 30
0.0
 11
2752.3246987861
 21
-795.3061505407
 31
0.0
  0
ARC
  5
7C
  8
1
  6
CONTINUOUS
 62
     7
 10
2765.3246987861
 20
-632.7815751859
 30
0.0
 40
2.0
 50
0.0
 51
90.0
  0
LINE
  5
7D
  8
1
  6
CONTINUOUS
 62
     7
 10
2527.3246987861
 20
-818.7937545407
 30
0.0
 11
2572.3246987861
 21
-818.7937545407
 31
0.0
  0
LINE
  5
7E
  8
1
  6
CONTINUOUS
 62
     7
 10
2722.3246987861
 20
-818.7937545407
 30
0.0
 11
2767.3246987861
 21
-818.7937545407
 31
0.0
  0
LINE
  5
7F
  8
1
  6
CONTINUOUS
 62
     7
 10
2744.3246987861
 20
-809.1625565407
 30
0.0
 11
2744.3246987861
 21
-799.9249525407
 31
0.0
  0
LINE
  5
80
  8
1
  6
CONTINUOUS
 62
     7
 10
2550.3246987861
 20
-809.1625565407
 30
0.0
 11
2542.3246987861
 21
-813.7813585407
 31
0.0
  0
LINE
  5
81
  8
1
  6
CONTINUOUS
 62
     7
 10
2534.3246987861
 20
-799.9249525407
 30
0.0
 11
2542.3246987861
 21
-795.3061505407
 31
0.0
  0
LINE
  5
82
  8
1
  6
CONTINUOUS
 62
     7
 10
2542.3246987861
 20
-795.3061505407
 30
0.0
 11
2550.3246987861
 21
-799.9249525407
 31
0.0
  0
LINE
  5
83
  8
1
  6
CONTINUOUS
 62
     7
 10
2550.3246987861
 20
-799.9249525407
 30
0.0
 11
2550.3246987861
 21
-809.1625565407
 31
0.0
  0
LINE
  5
84
  8
1
  6
CONTINUOUS
 62
     7
 10
2542.3246987861
 20
-813.7813585407
 30
0.0
 11
2534.3246987861
 21
-809.1625565407
 31
0.0
  0
LINE
  5
85
  8
1
  6
CONTINUOUS
 62
     7
 10
2534.3246987861
 20
-809.1625565407
 30
0.0
 11
2534.3246987861
 21
-799.9249525407
 31
0.0
  0
CIRCLE
  5
86
  8
1
  6
CONTINUOUS
 62
     7
 10
2752.3246987861
 20
-804.5437545407
 30
0.0
 40
4.75
  0
LINE
  5
87
  8
1
  6
CONTINUOUS
 62
     7
 10
2752.3246987861
 20
-388.1815751858999
 30
0.0
 11
2752.3246987861
 21
-396.1815751859
 31
0.0
  0
LINE
  5
88
  8
1
  6
CONTINUOUS
 62
     7
 10
2550.8246987861
 20
-388.1815751858999
 30
0.0
 11
2550.8246987861
 21
-396.1815751859
 31
0.0
  0
LINE
  5
89
  8
1
  6
CONTINUOUS
 62
     7
 10
2743.8246987861
 20
-396.1815751859
 30
0.0
 11
2743.8246987861
 21
-388.1815751858999
 31
0.0
  0
LINE
  5
8A
  8
1
  6
CONTINUOUS
 62
     7
 10
2760.8246987861
 20
-388.1815751858999
 30
0.0
 11
2760.8246987861
 21
-396.1815751859
 31
0.0
  0
LINE
  5
8B
  8
1
  6
CONTINUOUS
 62
     7
 10
2743.8246987861
 20
-388.1815751858999
 30
0.0
 11
2760.8246987861
 21
-388.1815751858999
 31
0.0
  0
POINT
  5
8C
  8
1
 62
     7
 10
2653.8246987861
 20
-657.5343521859
 30
0.0
  0
LINE
  5
8D
  8
1
  6
CONTINUOUS
 62
     7
 10
2533.8246987861
 20
-396.1815751859
 30
0.0
 11
2550.8246987861
 21
-396.1815751859
 31
0.0
  0
LINE
  5
8E
  8
1
  6
CONTINUOUS
 62
     7
 10
2533.8246987861
 20
-396.1815751859
 30
0.0
 11
2533.8246987861
 21
-404.1815751859
 31
0.0
  0
LINE
  5
8F
  8
1
  6
CONTINUOUS
 62
     7
 10
2743.3246987861
 20
-404.1815751859
 30
0.0
 11
2743.3246987861
 21
-405.7815751859
 31
0.0
  0
LINE
  5
90
  8
1
  6
CONTINUOUS
 62
     7
 10
2761.3246987861
 20
-405.7815751859
 30
0.0
 11
2761.3246987861
 21
-404.1815751859
 31
0.0
  0
LINE
  5
91
  8
1
  6
CONTINUOUS
 62
     7
 10
2547.0746987861
 20
-675.7815751859
 30
0.0
 11
2537.5746987861
 21
-675.7815751859
 31
0.0
  0
LINE
  5
92
  8
1
  6
CONTINUOUS
 62
     7
 10
2757.0746987861
 20
-630.7815751859
 30
0.0
 11
2757.0746987861
 21
-430.7815751859
 31
0.0
  0
LINE
  5
93
  8
1
  6
CONTINUOUS
 62
     7
 10
2537.5746987861
 20
-385.7815751859
 30
0.0
 11
2547.0746987861
 21
-385.7815751859
 31
0.0
  0
LINE
  5
94
  8
1
  6
CONTINUOUS
 62
     7
 10
2551.3246987861
 20
-657.3815751859
 30
0.0
 11
2533.3246987861
 21
-657.3815751859
 31
0.0
  0
LINE
  5
95
  8
1
  6
CONTINUOUS
 62
     7
 10
2551.3246987861
 20
-404.1815751859
 30
0.0
 11
2533.3246987861
 21
-404.1815751859
 31
0.0
  0
LINE
  5
96
  8
1
  6
CONTINUOUS
 62
     7
 10
2752.3246987861
 20
-396.1815751859
 30
0.0
 11
2752.3246987861
 21
-404.1815751859
 31
0.0
  0
LINE
  5
97
  8
1
  6
CONTINUOUS
 62
     7
 10
2533.8246987861
 20
-673.3815751859
 30
0.0
 11
2550.8246987861
 21
-673.3815751859
 31
0.0
  0
ARC
  5
98
  8
1
  6
CONTINUOUS
 62
     7
 10
2529.3246987861
 20
-428.7815751859
 30
0.0
 40
2.0
 50
180.0
 51
270.0
  0
LINE
  5
99
  8
1
  6
CONTINUOUS
 62
     7
 10
2644.3246987861
 20
-428.2815751859
 30
0.0
 11
2633.0479277861
 21
-430.7815751859
 31
0.0
  0
LINE
  5
9A
  8
1
  6
CONTINUOUS
 62
     7
 10
2650.3246987861
 20
-428.2815751859
 30
0.0
 11
2644.3246987861
 21
-428.2815751859
 31
0.0
  0
LINE
  5
9B
  8
1
  6
CONTINUOUS
 62
     7
 10
2542.3246987861
 20
-673.3815751859
 30
0.0
 11
2542.3246987861
 21
-657.3815751859
 31
0.0
  0
LINE
  5
9C
  8
1
  6
CONTINUOUS
 62
     7
 10
2761.3246987861
 20
-404.1815751859
 30
0.0
 11
2743.3246987861
 21
-404.1815751859
 31
0.0
  0
LINE
  5
9D
  8
1
  6
CONTINUOUS
 62
     7
 10
2529.3246987861
 20
-430.7815751859
 30
0.0
 11
2633.0479277861
 21
-430.7815751859
 31
0.0
  0
LINE
  5
9E
  8
1
  6
CONTINUOUS
 62
     7
 10
2661.6014697861
 20
-430.7815751859
 30
0.0
 11
2650.3246987861
 21
-428.2815751859
 31
0.0
  0
LINE
  5
9F
  8
1
  6
CONTINUOUS
 62
     7
 10
2550.8246987861
 20
-665.3815751859
 30
0.0
 11
2533.8246987861
 21
-665.3815751859
 31
0.0
  0
LINE
  5
A0
  8
1
  6
CONTINUOUS
 62
     7
 10
2527.3246987861
 20
-405.7815751859
 30
0.0
 11
2767.3246987861
 21
-405.7815751859
 31
0.0
  0
LINE
  5
A1
  8
1
  6
CONTINUOUS
 62
     7
 10
2743.8246987861
 20
-404.1815751859
 30
0.0
 11
2743.8246987861
 21
-396.1815751859
 31
0.0
  0
LINE
  5
A2
  8
1
  6
CONTINUOUS
 62
     7
 10
2743.8246987861
 20
-396.1815751859
 30
0.0
 11
2760.8246987861
 21
-396.1815751859
 31
0.0
  0
LINE
  5
A3
  8
1
  6
CONTINUOUS
 62
     7
 10
2661.6014697861
 20
-430.7815751859
 30
0.0
 11
2765.3246987861
 21
-430.7815751859
 31
0.0
  0
LINE
  5
A4
  8
1
  6
CONTINUOUS
 62
     7
 10
2542.3246987861
 20
-396.1815751859
 30
0.0
 11
2542.3246987861
 21
-404.1815751859
 31
0.0
  0
LINE
  5
A5
  8
1
  6
CONTINUOUS
 62
     7
 10
2550.8246987861
 20
-396.1815751859
 30
0.0
 11
2550.8246987861
 21
-404.1815751859
 31
0.0
  0
LINE
  5
A6
  8
1
  6
CONTINUOUS
 62
     7
 10
2760.8246987861
 20
-396.1815751859
 30
0.0
 11
2760.8246987861
 21
-404.1815751859
 31
0.0
  0
LINE
  5
A7
  8
1
  6
CONTINUOUS
 62
     7
 10
2533.8246987861
 20
-657.3815751859
 30
0.0
 11
2533.8246987861
 21
-673.3815751859
 31
0.0
  0
LINE
  5
A8
  8
1
  6
CONTINUOUS
 62
     7
 10
2527.3246987861
 20
-428.7815751859
 30
0.0
 11
2527.3246987861
 21
-405.7815751859
 31
0.0
  0
LINE
  5
A9
  8
1
  6
CONTINUOUS
 62
     7
 10
2550.8246987861
 20
-673.3815751859
 30
0.0
 11
2550.8246987861
 21
-657.3815751859
 31
0.0
  0
LINE
  5
AA
  8
1
  6
CONTINUOUS
 62
     7
 10
2747.5746987861
 20
-385.7815751859
 30
0.0
 11
2757.0746987861
 21
-385.7815751859
 31
0.0
  0
LINE
  5
AB
  8
1
  6
CONTINUOUS
 62
     7
 10
2760.8246987861
 20
-673.3815751859
 30
0.0
 11
2760.8246987861
 21
-657.3815751859
 31
0.0
  0
LINE
  5
AC
  8
1
  6
CONTINUOUS
 62
     7
 10
2752.3246987861
 20
-673.3815751859
 30
0.0
 11
2752.3246987861
 21
-657.3815751859
 31
0.0
  0
LINE
  5
AD
  8
1
  6
CONTINUOUS
 62
     7
 10
2537.5746987861
 20
-430.7815751859
 30
0.0
 11
2537.5746987861
 21
-630.7815751859
 31
0.0
  0
LINE
  5
AE
  8
1
  6
CONTINUOUS
 62
     7
 10
2537.5746987861
 20
-673.3815751859
 30
0.0
 11
2537.5746987861
 21
-675.7815751859
 31
0.0
  0
LINE
  5
AF
  8
1
  6
CONTINUOUS
 62
     7
 10
2562.3246987861
 20
-809.6437545407
 30
0.0
 11
2549.4912397861
 21
-809.6437545407
 31
0.0
  0
LINE
  5
B0
  8
1
  6
CONTINUOUS
 62
     7
 10
2743.8246987861
 20
-673.3815751859
 30
0.0
 11
2760.8246987861
 21
-673.3815751859
 31
0.0
  0
LINE
  5
B1
  8
1
  6
CONTINUOUS
 62
     7
 10
2760.8246987861
 20
-665.3815751859
 30
0.0
 11
2743.8246987861
 21
-665.3815751859
 31
0.0
  0
LINE
  5
B2
  8
1
  6
CONTINUOUS
 62
     7
 10
2743.8246987861
 20
-657.3815751859
 30
0.0
 11
2743.8246987861
 21
-673.3815751859
 31
0.0
  0
LINE
  5
B3
  8
1
  6
CONTINUOUS
 62
     7
 10
2551.3246987861
 20
-405.7815751859
 30
0.0
 11
2551.3246987861
 21
-404.1815751859
 31
0.0
  0
LINE
  5
B4
  8
1
  6
CONTINUOUS
 62
     7
 10
2747.5746987861
 20
-430.7815751859
 30
0.0
 11
2747.5746987861
 21
-630.7815751859
 31
0.0
  0
LINE
  5
B5
  8
1
  6
CONTINUOUS
 62
     7
 10
2533.3246987861
 20
-404.1815751859
 30
0.0
 11
2533.3246987861
 21
-405.7815751859
 31
0.0
  0
LINE
  5
B6
  8
1
  6
CONTINUOUS
 62
     7
 10
2547.0746987861
 20
-630.7815751859
 30
0.0
 11
2547.0746987861
 21
-430.7815751859
 31
0.0
  0
LINE
  5
B7
  8
1
  6
CONTINUOUS
 62
     7
 10
2533.3246987861
 20
-655.7815751859
 30
0.0
 11
2533.3246987861
 21
-657.3815751859
 31
0.0
  0
LINE
  5
B8
  8
1
  6
CONTINUOUS
 62
     7
 10
2547.0746987861
 20
-675.7815751859
 30
0.0
 11
2547.0746987861
 21
-673.3815751859
 31
0.0
  0
LINE
  5
B9
  8
1
  6
CONTINUOUS
 62
     7
 10
2551.3246987861
 20
-657.3815751859
 30
0.0
 11
2551.3246987861
 21
-655.7815751859
 31
0.0
  0
LINE
  5
BA
  8
1
  6
CONTINUOUS
 62
     7
 10
2747.5746987861
 20
-385.7815751859
 30
0.0
 11
2747.5746987861
 21
-388.1815751858999
 31
0.0
  0
LINE
  5
BB
  8
1
  6
CONTINUOUS
 62
     7
 10
2537.5746987861
 20
-385.7815751859
 30
0.0
 11
2537.5746987861
 21
-388.1815751858999
 31
0.0
  0
LINE
  5
BC
  8
1
  6
CONTINUOUS
 62
     7
 10
2547.0746987861
 20
-388.1815751858999
 30
0.0
 11
2547.0746987861
 21
-385.7815751859
 31
0.0
  0
LINE
  5
BD
  8
1
  6
CONTINUOUS
 62
     7
 10
2757.0746987861
 20
-388.1815751858999
 30
0.0
 11
2757.0746987861
 21
-385.7815751859
 31
0.0
  0
TEXT
  5
BE
  8
1
  6
CONTINUOUS
 62
     7
 10
2623.854377802864
 20
-902.4619937272727
 30
0.0
 40
6.0
  1
ＳＧＰＫ－２０
 41
0.810811
  0
LINE
  5
BF
  8
1
  6
CONTINUOUS
 62
     7
 10
2533.8246987861
 20
-388.1815751858999
 30
0.0
 11
2550.8246987861
 21
-388.1815751858999
 31
0.0
  0
LINE
  5
C0
  8
1
  6
CONTINUOUS
 62
     7
 10
2533.8246987861
 20
-388.1815751858999
 30
0.0
 11
2533.8246987861
 21
-396.1815751859
 31
0.0
  0
LINE
  5
C1
  8
1
  6
CONTINUOUS
 62
     7
 10
2542.3246987861
 20
-388.1815751858999
 30
0.0
 11
2542.3246987861
 21
-396.1815751859
 31
0.0
  0
INSERT
  5
C3
  8
0
 62
     7
  2
D_FRAME_DRAWING_21
 10
0.0
 20
0.0
 30
0.0
  0
ARC
  5
10D
  8
1
  6
CONTINUOUS
 62
     7
 10
2647.3246987861
 20
-854.0601755407
 30
0.0
 40
6.25
 50
180.0
 51
0.0
  0
LINE
  5
10E
  8
1
  6
CONTINUOUS
 62
     7
 10
2671.8246987861
 20
-647.3815751859
 30
0.0
 11
2653.6524157861
 21
-647.3815751859
 31
0.0
  0
ARC
  5
10F
  8
1
  6
CONTINUOUS
 62
     7
 10
2624.3437287861
 20
-827.0411455407
 30
0.0
 40
3.25
 50
315.0
 51
135.0
  0
LINE
  5
110
  8
1
  6
CONTINUOUS
 62
     7
 10
2606.4892817861
 20
-849.4917865407
 30
0.0
 11
2626.6418257861
 21
-829.3392425407
 31
0.0
  0
LINE
  5
111
  8
1
  6
CONTINUOUS
 62
     7
 10
2635.5980727861
 20
-789.3650535407
 30
0.0
 11
2620.4192127861
 21
-791.7062645407
 31
0.0
  0
LINE
  5
112
  8
1
  6
CONTINUOUS
 62
     7
 10
2662.3746987861
 20
-679.2871281859
 30
0.0
 11
2667.8746987861
 21
-679.2871281859
 31
0.0
  0
LINE
  5
113
  8
1
  6
CONTINUOUS
 62
     7
 10
2622.8246987861
 20
-636.2815751859
 30
0.0
 11
2671.8246987861
 21
-636.2815751859
 31
0.0
  0
ARC
  5
114
  8
1
  6
CONTINUOUS
 62
     7
 10
2624.3437287861
 20
-781.0792055407
 30
0.0
 40
3.25
 50
225.0
 51
45.0
  0
LINE
  5
115
  8
1
  6
CONTINUOUS
 62
     7
 10
2601.8930877861
 20
-763.2247585407
 30
0.0
 11
2622.0456317861
 21
-783.3773025407
 31
0.0
  0
LINE
  5
116
  8
1
  6
CONTINUOUS
 62
     7
 10
2761.3246987861
 20
-657.3815751859
 30
0.0
 11
2761.3246987861
 21
-655.7815751859
 31
0.0
  0
LINE
  5
117
  8
1
  6
CONTINUOUS
 62
     7
 10
2587.2206227861
 20
-751.0271665407
 30
0.0
 11
2590.7561567861
 21
-754.5627005407
 31
0.0
  0
ARC
  5
118
  8
1
  6
CONTINUOUS
 62
     7
 10
2690.4582127861
 20
-760.9266615407
 30
0.0
 40
3.25
 50
315.0
 51
135.0
  0
LINE
  5
119
  8
1
  6
CONTINUOUS
 62
     7
 10
2626.6418257861
 20
-778.7811085407
 30
0.0
 11
2606.4892817861
 21
-758.6285645407
 31
0.0
  0
LINE
  5
11A
  8
1
  6
CONTINUOUS
 62
     7
 10
2757.0746987861
 20
-675.7815751859
 30
0.0
 11
2757.0746987861
 21
-673.3815751859
 31
0.0
  0
LINE
  5
11B
  8
1
  6
CONTINUOUS
 62
     7
 10
2688.1601157861
 20
-758.6285645407
 30
0.0
 11
2668.0075717861
 21
-778.7811085407
 31
0.0
  0
ARC
  5
11C
  8
1
  6
CONTINUOUS
 62
     7
 10
2670.3056687861
 20
-827.0411455407
 30
0.0
 40
3.25
 50
45.0
 51
225.0
  0
LINE
  5
11D
  8
1
  6
CONTINUOUS
 62
     7
 10
2527.3246987861
 20
-790.2937545407
 30
0.0
 11
2572.3246987861
 21
-790.2937545407
 31
0.0
  0
LINE
  5
11E
  8
1
  6
CONTINUOUS
 62
     7
 10
2760.3246987861
 20
-799.9249525407
 30
0.0
 11
2760.3246987861
 21
-809.1625565407
 31
0.0
  0
LINE
  5
11F
  8
1
  6
CONTINUOUS
 62
     7
 10
2622.0456317861
 20
-824.7430485407
 30
0.0
 11
2601.8930877861
 21
-844.8955925407
 31
0.0
  0
LINE
  5
120
  8
1
  6
CONTINUOUS
 62
     7
 10
2641.0746987861
 20
-754.0601755407
 30
0.0
 11
2641.0746987861
 21
-759.0601755407
 31
0.0
  0
ARC
  5
121
  8
1
  6
CONTINUOUS
 62
     7
 10
2647.3246987861
 20
-849.0601755407
 30
0.0
 40
6.25
 50
0.0
 51
180.0
  0
ARC
  5
122
  8
1
  6
CONTINUOUS
 62
     7
 10
2622.3246987861
 20
-804.0601755407
 30
0.0
 40
12.5
 50
98.768292
 51
261.231708
  0
LINE
  5
123
  8
1
  6
CONTINUOUS
 62
     7
 10
2659.0513247861
 20
-818.7552975407
 30
0.0
 11
2674.2301847861
 21
-816.4140865407
 31
0.0
  0
LINE
  5
124
  8
1
  6
CONTINUOUS
 62
     7
 10
2674.2301847861
 20
-791.7062645407
 30
0.0
 11
2659.0513247861
 21
-789.3650535407
 31
0.0
  0
LINE
  5
125
  8
1
  6
CONTINUOUS
 62
     7
 10
2624.8246987861
 20
-652.7815751859
 30
0.0
 11
2624.8348007861
 21
-652.6815751859
 31
0.0
  0
LINE
  5
126
  8
1
  6
CONTINUOUS
 62
     7
 10
2640.1746987861
 20
-675.7815751859
 30
0.0
 11
2654.4746987861
 21
-675.7815751859
 31
0.0
  0
LINE
  5
127
  8
1
  6
CONTINUOUS
 62
     7
 10
2527.3246987861
 20
-818.7937545407
 30
0.0
 11
2527.3246987861
 21
-790.2937545407
 31
0.0
  0
CIRCLE
  5
128
  8
1
  6
CONTINUOUS
 62
     7
 10
2697.3246987861
 20
-804.0601755407
 30
0.0
 40
6.25
  0
LINE
  5
129
  8
1
  6
CONTINUOUS
 62
     7
 10
2572.3246987861
 20
-690.7815751859
 30
0.0
 11
2572.3246987861
 21
-680.7815751859
 31
0.0
  0
LINE
  5
12A
  8
1
  6
CONTINUOUS
 62
     7
 10
2722.3246987861
 20
-790.2937545407
 30
0.0
 11
2767.3246987861
 21
-790.2937545407
 31
0.0
  0
LINE
  5
12B
  8
1
  6
CONTINUOUS
 62
     7
 10
2732.3246987861
 20
-809.6437545407
 30
0.0
 11
2745.1581577861
 21
-809.6437545407
 31
0.0
  0
ARC
  5
12C
  8
1
  6
CONTINUOUS
 62
     7
 10
2732.3246987861
 20
-804.5437545407
 30
0.0
 40
5.1
 50
90.0
 51
270.0
  0
ARC
  5
12D
  8
1
  6
CONTINUOUS
 62
     7
 10
2670.3056687861
 20
-781.0792055407
 30
0.0
 40
3.25
 50
135.0
 51
315.0
  0
ARC
  5
12E
  8
1
  6
CONTINUOUS
 62
     7
 10
2647.3246987861
 20
-759.0601755407
 30
0.0
 40
6.25
 50
180.0
 51
0.0
  0
ARC
  5
12F
  8
1
  6
CONTINUOUS
 62
     7
 10
2671.8246987861
 20
-644.3815751859
 30
0.0
 40
3.0
 50
270.0
 51
0.0
  0
CIRCLE
  5
130
  8
1
  6
CONTINUOUS
 62
     7
 10
2709.8246987861
 20
-836.5601755407
 30
0.0
 40
2.6
  0
CIRCLE
  5
131
  8
1
  6
CONTINUOUS
 62
     7
 10
2709.8246987861
 20
-771.5601755407
 30
0.0
 40
2.6
  0
LINE
  5
132
  8
1
  6
CONTINUOUS
 62
     7
 10
2653.5746987861
 20
-849.0601755407
 30
0.0
 11
2653.5746987861
 21
-854.0601755407
 31
0.0
  0
LINE
  5
133
  8
1
  6
CONTINUOUS
 62
     7
 10
2672.6037657861
 20
-783.3773025407
 30
0.0
 11
2692.7563097861
 21
-763.2247585407
 31
0.0
  0
LINE
  5
134
  8
1
  6
CONTINUOUS
 62
     7
 10
2692.7563097861
 20
-844.8955925407
 30
0.0
 11
2672.6037657861
 21
-824.7430485407
 31
0.0
  0
LINE
  5
135
  8
1
  6
CONTINUOUS
 62
     7
 10
2641.0746987861
 20
-854.0601755407
 30
0.0
 11
2641.0746987861
 21
-849.0601755407
 31
0.0
  0
LINE
  5
136
  8
1
  6
CONTINUOUS
 62
     7
 10
2624.8246987861
 20
-652.7815751859
 30
0.0
 11
2624.8246987861
 21
-655.7815751859
 31
0.0
  0
ARC
  5
137
  8
1
  6
CONTINUOUS
 62
     7
 10
2690.4582127861
 20
-847.1936895407
 30
0.0
 40
3.25
 50
225.0
 51
45.0
  0
LINE
  5
138
  8
1
  6
CONTINUOUS
 62
     7
 10
2662.3746987861
 20
-668.0287981859
 30
0.0
 11
2667.8746987861
 21
-668.0287981859
 31
0.0
  0
ARC
  5
139
  8
1
  6
CONTINUOUS
 62
     7
 10
2647.3246987861
 20
-754.0601755407
 30
0.0
 40
6.25
 50
0.0
 51
180.0
  0
LINE
  5
13A
  8
1
  6
CONTINUOUS
 62
     7
 10
2761.3246987861
 20
-657.3815751859
 30
0.0
 11
2743.3246987861
 21
-657.3815751859
 31
0.0
  0
LINE
  5
13B
  8
1
  6
CONTINUOUS
 62
     7
 10
2620.4192127861
 20
-816.4140865407
 30
0.0
 11
2635.5980727861
 21
-818.7552975407
 31
0.0
  0
LINE
  5
13C
  8
1
  6
CONTINUOUS
 62
     7
 10
2668.0075717861
 20
-829.3392425407
 30
0.0
 11
2688.1601157861
 21
-849.4917865407
 31
0.0
  0
ARC
  5
13D
  8
1
  6
CONTINUOUS
 62
     7
 10
2604.1911847861
 20
-760.9266615407
 30
0.0
 40
3.25
 50
45.0
 51
225.0
  0
LINE
  5
13E
  8
1
  6
CONTINUOUS
 62
     7
 10
2745.1581577861
 20
-799.4437545407
 30
0.0
 11
2732.3246987861
 21
-799.4437545407
 31
0.0
  0
ARC
  5
13F
  8
1
  6
CONTINUOUS
 62
     7
 10
2604.1911847861
 20
-847.1936895407
 30
0.0
 40
3.25
 50
135.0
 51
315.0
  0
LINE
  5
140
  8
1
  6
CONTINUOUS
 62
     7
 10
2767.3246987861
 20
-818.7937545407
 30
0.0
 11
2767.3246987861
 21
-790.2937545407
 31
0.0
  0
ARC
  5
141
  8
1
  6
CONTINUOUS
 62
     7
 10
2562.3246987861
 20
-804.5437545407
 30
0.0
 40
5.1
 50
270.0
 51
90.0
  0
LINE
  5
142
  8
1
  6
CONTINUOUS
 62
     7
 10
2653.5746987861
 20
-759.0601755407
 30
0.0
 11
2653.5746987861
 21
-754.0601755407
 31
0.0
  0
LINE
  5
143
  8
1
  6
CONTINUOUS
 62
     7
 10
2662.3746987861
 20
-675.5343521859
 30
0.0
 11
2667.8746987861
 21
-675.5343521859
 31
0.0
  0
ARC
  5
144
  8
1
  6
CONTINUOUS
 62
     7
 10
2671.8246987861
 20
-639.2815751859
 30
0.0
 40
3.0
 50
0.0
 51
90.0
  0
ARC
  5
145
  8
1
  6
CONTINUOUS
 62
     7
 10
2672.3246987861
 20
-804.0601755407
 30
0.0
 40
12.5
 50
278.768292
 51
81.23170800000004
  0
LINE
  5
146
  8
1
  6
CONTINUOUS
 62
     7
 10
2757.0746987861
 20
-675.7815751859
 30
0.0
 11
2747.5746987861
 21
-675.7815751859
 31
0.0
  0
CIRCLE
  5
147
  8
1
  6
CONTINUOUS
 62
     7
 10
2614.8246987861
 20
-865.0601755407
 30
0.0
 40
2.6
  0
CIRCLE
  5
148
  8
1
  6
CONTINUOUS
 62
     7
 10
2597.3246987861
 20
-804.0601755407
 30
0.0
 40
6.25
  0
LINE
  5
149
  8
1
  6
CONTINUOUS
 62
     7
 10
2743.3246987861
 20
-655.7815751859
 30
0.0
 11
2743.3246987861
 21
-657.3815751859
 31
0.0
  0
LINE
  5
14A
  8
1
  6
CONTINUOUS
 62
     7
 10
2747.5746987861
 20
-673.3815751859
 30
0.0
 11
2747.5746987861
 21
-675.7815751859
 31
0.0
  0
LINE
  5
14B
  8
1
  6
CONTINUOUS
 62
     7
 10
2707.4287747861
 20
-857.0931845407
 30
0.0
 11
2703.8932407861
 21
-853.5576505407
 31
0.0
  0
LINE
  5
14C
  8
1
  6
CONTINUOUS
 62
     7
 10
2527.3246987861
 20
-655.7815751859
 30
0.0
 11
2624.8246987861
 21
-655.7815751859
 31
0.0
  0
CIRCLE
  5
14D
  8
1
  6
CONTINUOUS
 62
     7
 10
2647.3246987861
 20
-653.7815751859
 30
0.0
 40
7.5055536246
  0
LINE
  5
14E
  8
1
  6
CONTINUOUS
 62
     7
 10
2673.5246987861
 20
-675.7815751859
 30
0.0
 11
2667.8746987861
 21
-675.7815751859
 31
0.0
  0
LINE
  5
14F
  8
1
  6
CONTINUOUS
 62
     7
 10
2629.5246987861
 20
-671.7815751859
 30
0.0
 11
2635.0246987861
 21
-671.7815751859
 31
0.0
  0
LINE
  5
150
  8
1
  6
CONTINUOUS
 62
     7
 10
2629.5246987861
 20
-665.2815751859
 30
0.0
 11
2635.0246987861
 21
-665.2815751859
 31
0.0
  0
LINE
  5
151
  8
1
  6
CONTINUOUS
 62
     7
 10
2673.5246987861
 20
-667.7815751859
 30
0.0
 11
2675.0246987861
 21
-669.2815751859
 31
0.0
  0
LINE
  5
152
  8
1
  6
CONTINUOUS
 62
     7
 10
2675.0246987861
 20
-669.2815751859
 30
0.0
 11
2675.0246987861
 21
-674.2815751859
 31
0.0
  0
LINE
  5
153
  8
1
  6
CONTINUOUS
 62
     7
 10
2629.5246987861
 20
-665.2815751859
 30
0.0
 11
2629.5246987861
 21
-678.2815751859
 31
0.0
  0
LINE
  5
154
  8
1
  6
CONTINUOUS
 62
     7
 10
2629.5246987861
 20
-678.2815751859
 30
0.0
 11
2635.0246987861
 21
-678.2815751859
 31
0.0
  0
LINE
  5
155
  8
1
  6
CONTINUOUS
 62
     7
 10
2667.8746987861
 20
-667.7815751859
 30
0.0
 11
2673.5246987861
 21
-667.7815751859
 31
0.0
  0
LINE
  5
156
  8
1
  6
CONTINUOUS
 62
     7
 10
2675.0246987861
 20
-674.2815751859
 30
0.0
 11
2673.5246987861
 21
-675.7815751859
 31
0.0
  0
LINE
  5
157
  8
1
  6
CONTINUOUS
 62
     7
 10
2667.8746987861
 20
-679.2871281859
 30
0.0
 11
2667.8746987861
 21
-664.2760211859
 31
0.0
  0
CIRCLE
  5
158
  8
1
  6
CONTINUOUS
 62
     7
 10
2647.3246987861
 20
-653.7815751859
 30
0.0
 40
4.0
  0
LINE
  5
159
  8
1
  6
CONTINUOUS
 62
     7
 10
2572.3246987861
 20
-874.0601755407
 30
0.0
 11
2572.3246987861
 21
-734.0601755407
 31
0.0
  0
LINE
  5
15A
  8
1
  6
CONTINUOUS
 62
     7
 10
2722.3246987861
 20
-734.0601755407
 30
0.0
 11
2722.3246987861
 21
-874.0601755407
 31
0.0
  0
CIRCLE
  5
15B
  8
1
  6
CONTINUOUS
 62
     7
 10
2614.8246987861
 20
-743.0601755407
 30
0.0
 40
2.6
  0
ARC
  5
15C
  8
1
  6
CONTINUOUS
 62
     7
 10
2590.7561567861
 20
-860.6287175407
 30
0.0
 40
5.0
 50
135.0
 51
315.0
  0
LINE
  5
15D
  8
1
  6
CONTINUOUS
 62
     7
 10
2637.5746987861
 20
-663.2897631859
 30
0.0
 11
2637.5746987861
 21
-680.4815751859
 31
0.0
  0
LINE
  5
15E
  8
1
  6
CONTINUOUS
 62
     7
 10
2619.8246987861
 20
-644.3815751859
 30
0.0
 11
2619.8246987861
 21
-639.2815751859
 31
0.0
  0
ARC
  5
15F
  8
1
  6
CONTINUOUS
 62
     7
 10
2647.3246987861
 20
-653.7815751859
 30
0.0
 40
9.0
 50
45.32539000000001
 51
134.67461
  0
LINE
  5
160
  8
1
  6
CONTINUOUS
 62
     7
 10
2674.8246987861
 20
-639.2815751859
 30
0.0
 11
2674.8246987861
 21
-644.3815751859
 31
0.0
  0
ARC
  5
161
  8
1
  6
CONTINUOUS
 62
     7
 10
2647.5746987861
 20
-663.2897631859
 30
0.0
 40
7.4
 50
179.197277
 51
180.0
  0
LINE
  5
162
  8
1
  6
CONTINUOUS
 62
     7
 10
2647.0746987861
 20
-680.7815751859
 30
0.0
 11
2647.0746987861
 21
-680.1815751859
 31
0.0
  0
LINE
  5
163
  8
1
  6
CONTINUOUS
 62
     7
 10
2722.3246987861
 20
-680.7815751859
 30
0.0
 11
2722.3246987861
 21
-690.7815751859
 31
0.0
  0
CIRCLE
  5
164
  8
1
  6
CONTINUOUS
 62
     7
 10
2584.8246987861
 20
-836.5601755407
 30
0.0
 40
2.6
  0
CIRCLE
  5
165
  8
1
  6
CONTINUOUS
 62
     7
 10
2584.8246987861
 20
-771.5601755407
 30
0.0
 40
2.6
  0
LINE
  5
166
  8
1
  6
CONTINUOUS
 62
     7
 10
2669.8145967861
 20
-652.6815751859
 30
0.0
 11
2669.8246987861
 21
-652.7815751859
 31
0.0
  0
LINE
  5
167
  8
1
  6
CONTINUOUS
 62
     7
 10
2647.5746987861
 20
-680.1815751859
 30
0.0
 11
2657.0746987861
 21
-680.1815751859
 31
0.0
  0
LINE
  5
168
  8
1
  6
CONTINUOUS
 62
     7
 10
2669.8246987861
 20
-655.7815751859
 30
0.0
 11
2669.8246987861
 21
-652.7815751859
 31
0.0
  0
LINE
  5
169
  8
1
  6
CONTINUOUS
 62
     7
 10
2703.8932407861
 20
-754.5627005407
 30
0.0
 11
2707.4287747861
 21
-751.0271665407
 31
0.0
  0
ARC
  5
16A
  8
1
  6
CONTINUOUS
 62
     7
 10
2647.5746987861
 20
-663.2897631859
 30
0.0
 40
10.0
 50
171.767363
 51
180.0
  0
LINE
  5
16B
  8
1
  6
CONTINUOUS
 62
     7
 10
2635.5746987861
 20
-659.7815751859
 30
0.0
 11
2635.0246987861
 21
-659.7815751859
 31
0.0
  0
LINE
  5
16C
  8
1
  6
CONTINUOUS
 62
     7
 10
2594.2916897861
 20
-864.1642515407
 30
0.0
 11
2597.8272237861
 21
-860.6287175407
 31
0.0
  0
LINE
  5
16D
  8
1
  6
CONTINUOUS
 62
     7
 10
2669.3246987861
 20
-652.2815751859
 30
0.0
 11
2663.9878707861
 21
-652.2815751859
 31
0.0
  0
ARC
  5
16E
  8
1
  6
CONTINUOUS
 62
     7
 10
2622.8246987861
 20
-639.2815751859
 30
0.0
 40
3.0
 50
90.0
 51
180.0
  0
CIRCLE
  5
16F
  8
1
  6
CONTINUOUS
 62
     7
 10
2636.3246987861
 20
-743.0601755407
 30
0.0
 40
2.6
  0
ARC
  5
170
  8
1
  6
CONTINUOUS
 62
     7
 10
2630.6615267861
 20
-655.2815751859
 30
0.0
 40
3.0
 50
6.625810000000001
 51
90.0
  0
CIRCLE
  5
171
  8
1
  6
CONTINUOUS
 62
     7
 10
2658.3246987861
 20
-743.0601755407
 30
0.0
 40
2.6
  0
LINE
  5
172
  8
1
  6
CONTINUOUS
 62
     7
 10
2633.0479277861
 20
-630.7815751859
 30
0.0
 11
2644.3246987861
 21
-633.2815751859
 31
0.0
  0
CIRCLE
  5
173
  8
1
  6
CONTINUOUS
 62
     7
 10
2679.8246987861
 20
-743.0601755407
 30
0.0
 40
2.6
  0
ARC
  5
174
  8
1
  6
CONTINUOUS
 62
     7
 10
2594.2916897861
 20
-751.0271665407
 30
0.0
 40
5.0
 50
225.0
 51
45.0
  0
LINE
  5
175
  8
1
  6
CONTINUOUS
 62
     7
 10
2590.7561567861
 20
-853.5576505407
 30
0.0
 11
2587.2206227861
 21
-857.0931845407
 31
0.0
  0
ARC
  5
176
  8
1
  6
CONTINUOUS
 62
     7
 10
2703.8932407861
 20
-747.4916325407
 30
0.0
 40
5.0
 50
315.0
 51
135.0
  0
LINE
  5
177
  8
1
  6
CONTINUOUS
 62
     7
 10
2640.9969817861
 20
-647.3815751859
 30
0.0
 11
2622.8246987861
 21
-647.3815751859
 31
0.0
  0
LINE
  5
178
  8
1
  6
CONTINUOUS
 62
     7
 10
2657.3246987861
 20
-661.5878221859
 30
0.0
 11
2657.3246987861
 21
-680.7815751859
 31
0.0
  0
ARC
  5
179
  8
1
  6
CONTINUOUS
 62
     7
 10
2594.2916897861
 20
-857.0931845407
 30
0.0
 40
5.0
 50
315.0
 51
135.0
  0
LINE
  5
17A
  8
1
  6
CONTINUOUS
 62
     7
 10
2657.0746987861
 20
-663.2897631859
 30
0.0
 11
2657.0746987861
 21
-680.4815751859
 31
0.0
  0
LINE
  5
17B
  8
1
  6
CONTINUOUS
 62
     7
 10
2722.3246987861
 20
-690.7815751859
 30
0.0
 11
2572.3246987861
 21
-690.7815751859
 31
0.0
  0
LINE
  5
17C
  8
1
  6
CONTINUOUS
 62
     7
 10
2654.4746987861
 20
-667.7815751859
 30
0.0
 11
2640.1746987861
 21
-667.7815751859
 31
0.0
  0
CIRCLE
  5
17D
  8
1
  6
CONTINUOUS
 62
     7
 10
2679.8246987861
 20
-865.0601755407
 30
0.0
 40
2.6
  0
ARC
  5
17E
  8
1
  6
CONTINUOUS
 62
     7
 10
2700.3577077861
 20
-751.0271665407
 30
0.0
 40
5.0
 50
135.0
 51
315.0
  0
LINE
  5
17F
  8
1
  6
CONTINUOUS
 62
     7
 10
2700.3577077861
 20
-743.9560995407
 30
0.0
 11
2696.8221737861
 21
-747.4916325407
 31
0.0
  0
CIRCLE
  5
180
  8
1
  6
CONTINUOUS
 62
     7
 10
2658.3246987861
 20
-865.0601755407
 30
0.0
 40
2.6
  0
ARC
  5
181
  8
1
  6
CONTINUOUS
 62
     7
 10
2669.3246987861
 20
-652.7815751859
 30
0.0
 40
0.5
 50
11.536959
 51
90.0
  0
LINE
  5
182
  8
1
  6
CONTINUOUS
 62
     7
 10
2654.4746987861
 20
-680.1815751859
 30
0.0
 11
2654.4746987861
 21
-663.2897631859
 31
0.0
  0
LINE
  5
183
  8
1
  6
CONTINUOUS
 62
     7
 10
2647.0746987861
 20
-680.1815751859
 30
0.0
 11
2637.5746987861
 21
-680.1815751859
 31
0.0
  0
LINE
  5
184
  8
1
  6
CONTINUOUS
 62
     7
 10
2637.3246987861
 20
-661.5878221859
 30
0.0
 11
2637.3246987861
 21
-680.7815751859
 31
0.0
  0
LINE
  5
185
  8
1
  6
CONTINUOUS
 62
     7
 10
2529.3246987861
 20
-630.7815751859
 30
0.0
 11
2633.0479277861
 21
-630.7815751859
 31
0.0
  0
LINE
  5
186
  8
1
  6
CONTINUOUS
 62
     7
 10
2630.6615267861
 20
-652.2815751859
 30
0.0
 11
2625.3246987861
 21
-652.2815751859
 31
0.0
  0
ARC
  5
187
  8
1
  6
CONTINUOUS
 62
     7
 10
2663.9878707861
 20
-655.2815751859
 30
0.0
 40
3.0
 50
90.0
 51
173.37419
  0
LINE
  5
188
  8
1
  6
CONTINUOUS
 62
     7
 10
2640.1746987861
 20
-680.1815751859
 30
0.0
 11
2640.1746987861
 21
-663.2897631859
 31
0.0
  0
LINE
  5
189
  8
1
  6
CONTINUOUS
 62
     7
 10
2669.8246987861
 20
-655.7815751859
 30
0.0
 11
2767.3246987861
 21
-655.7815751859
 31
0.0
  0
LINE
  5
18A
  8
1
  6
CONTINUOUS
 62
     7
 10
2650.3246987861
 20
-633.2815751859
 30
0.0
 11
2661.6014697861
 21
-630.7815751859
 31
0.0
  0
ARC
  5
18B
  8
1
  6
CONTINUOUS
 62
     7
 10
2647.0746987861
 20
-663.2897631859
 30
0.0
 40
10.0
 50
0.0
 51
8.232636999999999
  0
LINE
  5
18C
  8
1
  6
CONTINUOUS
 62
     7
 10
2635.0246987861
 20
-680.7815751859
 30
0.0
 11
2635.0246987861
 21
-659.7815751859
 31
0.0
  0
CIRCLE
  5
18D
  8
1
  6
CONTINUOUS
 62
     7
 10
2636.3246987861
 20
-865.0601755407
 30
0.0
 40
2.6
  0
LINE
  5
18E
  8
1
  6
CONTINUOUS
 62
     7
 10
2659.6246987861
 20
-680.7815751859
 30
0.0
 11
2659.6246987861
 21
-659.7815751859
 31
0.0
  0
ARC
  5
18F
  8
1
  6
CONTINUOUS
 62
     7
 10
2647.0746987861
 20
-663.2897631859
 30
0.0
 40
7.4
 50
0.0
 51
0.8027229999999997
  0
LINE
  5
190
  8
1
  6
CONTINUOUS
 62
     7
 10
2662.3746987861
 20
-664.2760211859
 30
0.0
 11
2667.8746987861
 21
-664.2760211859
 31
0.0
  0
LINE
  5
191
  8
1
  6
CONTINUOUS
 62
     7
 10
2647.5746987861
 20
-680.7815751859
 30
0.0
 11
2647.5746987861
 21
-680.1815751859
 31
0.0
  0
LINE
  5
192
  8
1
  6
CONTINUOUS
 62
     7
 10
2659.8746987861
 20
-678.4815751859
 30
0.0
 11
2662.3746987861
 21
-678.4815751859
 31
0.0
  0
LINE
  5
193
  8
1
  6
CONTINUOUS
 62
     7
 10
2661.6014697861
 20
-630.7815751859
 30
0.0
 11
2765.3246987861
 21
-630.7815751859
 31
0.0
  0
ARC
  5
194
  8
1
  6
CONTINUOUS
 62
     7
 10
2625.3246987861
 20
-652.7815751859
 30
0.0
 40
0.5
 50
90.0
 51
168.463041
  0
ARC
  5
195
  8
1
  6
CONTINUOUS
 62
     7
 10
2643.5746987861
 20
-653.7815751859
 30
0.0
 40
10.0
 50
186.62581
 51
270.0
  0
LINE
  5
196
  8
1
  6
CONTINUOUS
 62
     7
 10
2643.5746987861
 20
-663.7815751859
 30
0.0
 11
2651.0746987861
 21
-663.7815751859
 31
0.0
  0
ARC
  5
197
  8
1
  6
CONTINUOUS
 62
     7
 10
2651.0746987861
 20
-653.7815751859
 30
0.0
 40
10.0
 50
270.0
 51
353.3741900000001
  0
LINE
  5
198
  8
1
  6
CONTINUOUS
 62
     7
 10
2659.0746987861
 20
-659.7815751859
 30
0.0
 11
2659.6246987861
 21
-659.7815751859
 31
0.0
  0
ARC
  5
199
  8
1
  6
CONTINUOUS
 62
     7
 10
2622.8246987861
 20
-644.3815751859
 30
0.0
 40
3.0
 50
180.0
 51
270.0
  0
LINE
  5
19A
  8
1
  6
CONTINUOUS
 62
     7
 10
2662.3746987861
 20
-665.0815751859
 30
0.0
 11
2659.8746987861
 21
-665.0815751859
 31
0.0
  0
LINE
  5
19B
  8
1
  6
CONTINUOUS
 62
     7
 10
2644.3246987861
 20
-633.2815751859
 30
0.0
 11
2650.3246987861
 21
-633.2815751859
 31
0.0
  0
LINE
  5
19C
  8
1
  6
CONTINUOUS
 62
     7
 10
2572.3246987861
 20
-734.0601755407
 30
0.0
 11
2722.3246987861
 21
-734.0601755407
 31
0.0
  0
LINE
  5
19D
  8
1
  6
CONTINUOUS
 62
     7
 10
2659.3746987861
 20
-789.4149315407
 30
0.0
 11
2659.3746987861
 21
-818.7054195407
 31
0.0
  0
LINE
  5
19E
  8
1
  6
CONTINUOUS
 62
     7
 10
2635.5924307861
 20
-818.7544275407
 30
0.0
 11
2637.5746987861
 21
-818.7544275407
 31
0.0
  0
LINE
  5
19F
  8
1
  6
CONTINUOUS
 62
     7
 10
2659.8746987861
 20
-665.0815751859
 30
0.0
 11
2659.8746987861
 21
-678.4815751859
 31
0.0
  0
LINE
  5
1A0
  8
1
  6
CONTINUOUS
 62
     7
 10
2635.2746987861
 20
-818.7054195407
 30
0.0
 11
2635.2746987861
 21
-789.4149315407
 31
0.0
  0
LINE
  5
1A1
  8
1
  6
CONTINUOUS
 62
     7
 10
2653.8246987861
 20
-650.0287981859
 30
0.0
 11
2647.3246983531
 21
-646.2760219359
 31
0.0
  0
LINE
  5
1A2
  8
1
  6
CONTINUOUS
 62
     7
 10
2653.8246987861
 20
-657.5343521859
 30
0.0
 11
2653.8246987861
 21
-650.0287981859
 31
0.0
  0
LINE
  5
1A3
  8
1
  6
CONTINUOUS
 62
     7
 10
2647.3246987861
 20
-661.2871281859
 30
0.0
 11
2653.8246987861
 21
-657.5343521859
 31
0.0
  0
LINE
  5
1A4
  8
1
  6
CONTINUOUS
 62
     7
 10
2640.8246987861
 20
-657.5343521859
 30
0.0
 11
2647.3246987861
 21
-661.2871281859
 31
0.0
  0
LINE
  5
1A5
  8
1
  6
CONTINUOUS
 62
     7
 10
2640.8246987861
 20
-650.0287981859
 30
0.0
 11
2640.8246987861
 21
-657.5343521859
 31
0.0
  0
LINE
  5
1A6
  8
1
  6
CONTINUOUS
 62
     7
 10
2635.5924307861
 20
-789.3659235407
 30
0.0
 11
2637.5746987861
 21
-789.3659235407
 31
0.0
  0
LINE
  5
1A7
  8
1
  6
CONTINUOUS
 62
     7
 10
2597.8272237861
 20
-747.4916325407
 30
0.0
 11
2594.2916897861
 21
-743.9560995407
 31
0.0
  0
ARC
  5
1A8
  8
1
  6
CONTINUOUS
 62
     7
 10
2590.7561567861
 20
-747.4916325407
 30
0.0
 40
5.0
 50
45.0
 51
225.0
  0
LINE
  5
1A9
  8
1
  6
CONTINUOUS
 62
     7
 10
2696.8221737861
 20
-860.6287175407
 30
0.0
 11
2700.3577077861
 21
-864.1642515407
 31
0.0
  0
LINE
  5
1AA
  8
1
  6
CONTINUOUS
 62
     7
 10
2659.0569667861
 20
-818.7544275407
 30
0.0
 11
2657.0746987861
 21
-818.7544275407
 31
0.0
  0
LINE
  5
1AB
  8
1
  6
CONTINUOUS
 62
     7
 10
2647.3246987861
 20
-646.2760211859
 30
0.0
 11
2640.8246992191
 21
-650.0287989359
 31
0.0
  0
LINE
  5
1AC
  8
1
  6
CONTINUOUS
 62
     7
 10
2662.3746987861
 20
-664.2760211859
 30
0.0
 11
2662.3746987861
 21
-679.2871281859
 31
0.0
  0
LINE
  5
1AD
  8
1
  6
CONTINUOUS
 62
     7
 10
2722.3246987861
 20
-874.0601755407
 30
0.0
 11
2572.3246987861
 21
-874.0601755407
 31
0.0
  0
LINE
  5
1AE
  8
1
  6
CONTINUOUS
 62
     7
 10
2659.0569667861
 20
-789.3659235407
 30
0.0
 11
2657.0746987861
 21
-789.3659235407
 31
0.0
  0
ARC
  5
1AF
  8
1
  6
CONTINUOUS
 62
     7
 10
2700.3577077861
 20
-857.0931845407
 30
0.0
 40
5.0
 50
45.0
 51
225.0
  0
ARC
  5
1B0
  8
1
  6
CONTINUOUS
 62
     7
 10
2703.8932407861
 20
-860.6287175407
 30
0.0
 40
5.0
 50
225.0
 51
45.0
  0
ENDSEC
  0
EOF
