  0
SECTION
  2
HEADER
  9
$ACADVER
  1
AC1006
  9
$DWGCODEPAGE
  3
ansi_932
  9
$INSBASE
 10
0.0
 20
0.0
 30
0.0
  9
$EXTMIN
 10
-95.80455235234372
 20
89.39027856351447
  9
$EXTMAX
 10
104.5590805033163
 20
168.5706941513754
  9
$LIMMIN
 10
0.0
 20
0.0
  9
$LIMMAX
 10
12.0
 20
9.0
  9
$ORTHOMODE
 70
     0
  9
$REGENMODE
 70
     1
  9
$FILLMODE
 70
     1
  9
$QTEXTMODE
 70
     0
  9
$MIRRTEXT
 70
     1
  9
$DRAGMODE
 70
     2
  9
$LTSCALE
 40
1.0
  9
$OSMODE
 70
    37
  9
$ATTMODE
 70
     1
  9
$TEXTSIZE
 40
0.2
  9
$TRACEWID
 40
0.05
  9
$TEXTSTYLE
  7
STANDARD
  9
$CLAYER
  8
0
  9
$CELTYPE
  6
BYLAYER
  9
$CECOLOR
 62
   256
  9
$DIMSCALE
 40
1.0
  9
$DIMASZ
 40
3.0
  9
$DIMEXO
 40
0.0625
  9
$DIMDLI
 40
0.38
  9
$DIMRND
 40
0.0
  9
$DIMDLE
 40
0.0
  9
$DIMEXE
 40
1.5
  9
$DIMTP
 40
0.0
  9
$DIMTM
 40
0.0
  9
$DIMTXT
 40
3.0
  9
$DIMCEN
 40
0.09
  9
$DIMTSZ
 40
0.0
  9
$DIMTOL
 70
     0
  9
$DIMLIM
 70
     0
  9
$DIMTIH
 70
     1
  9
$DIMTOH
 70
     1
  9
$DIMSE1
 70
     0
  9
$DIMSE2
 70
     0
  9
$DIMTAD
 70
     1
  9
$DIMZIN
 70
     0
  9
$DIMBLK
  1

  9
$DIMASO
 70
     1
  9
$DIMSHO
 70
     1
  9
$DIMPOST
  1

  9
$DIMAPOST
  1

  9
$DIMALT
 70
     0
  9
$DIMALTD
 70
     2
  9
$DIMALTF
 40
25.4
  9
$DIMLFAC
 40
1.0
  9
$DIMTOFL
 70
     0
  9
$DIMTVP
 40
0.0
  9
$DIMTIX
 70
     0
  9
$DIMSOXD
 70
     0
  9
$DIMSAH
 70
     0
  9
$DIMBLK1
  1

  9
$DIMBLK2
  1

  9
$LUNITS
 70
     2
  9
$LUPREC
 70
     4
  9
$SKETCHINC
 40
0.1
  9
$FILLETRAD
 40
0.5
  9
$AUNITS
 70
     0
  9
$AUPREC
 70
     0
  9
$MENU
  1
.
  9
$ELEVATION
 40
0.0
  9
$THICKNESS
 40
0.0
  9
$LIMCHECK
 70
     0
  9
$CHAMFERA
 40
0.0
  9
$CHAMFERB
 40
0.0
  9
$SKPOLY
 70
     0
  9
$TDCREATE
 40
2459270.616548622
  9
$TDUPDATE
 40
2459270.616548889
  9
$TDINDWG
 40
0.0000000116
  9
$TDUSRTIMER
 40
0.0000000116
  9
$USRTIMER
 70
     1
  9
$ANGBASE
 50
0.0
  9
$ANGDIR
 70
     0
  9
$PDMODE
 70
     0
  9
$PDSIZE
 40
0.0
  9
$PLINEWID
 40
0.0
  9
$COORDS
 70
     1
  9
$SPLFRAME
 70
     0
  9
$SPLINETYPE
 70
     6
  9
$SPLINESEGS
 70
     8
  9
$ATTDIA
 70
     0
  9
$ATTREQ
 70
     1
  9
$HANDLING
 70
     1
  9
$HANDSEED
  5
389
  9
$SURFTAB1
 70
     6
  9
$SURFTAB2
 70
     6
  9
$SURFTYPE
 70
     6
  9
$SURFU
 70
     6
  9
$SURFV
 70
     6
  9
$UCSNAME
  2

  9
$UCSORG
 10
0.0
 20
0.0
 30
0.0
  9
$UCSXDIR
 10
1.0
 20
0.0
 30
0.0
  9
$UCSYDIR
 10
0.0
 20
1.0
 30
0.0
  9
$USERI1
 70
     0
  9
$USERI2
 70
     0
  9
$USERI3
 70
     0
  9
$USERI4
 70
     0
  9
$USERI5
 70
     0
  9
$USERR1
 40
0.0
  9
$USERR2
 40
0.0
  9
$USERR3
 40
0.0
  9
$USERR4
 40
0.0
  9
$USERR5
 40
0.0
  9
$WORLDVIEW
 70
     1
  0
ENDSEC
  0
SECTION
  2
TABLES
  0
TABLE
  2
VPORT
 70
     1
  0
VPORT
  2
*ACTIVE
 70
     0
 10
0.0
 20
0.0
 11
1.0
 21
1.0
 12
4.377264075486288
 22
128.9804863574449
 13
0.0
 23
0.0
 14
0.5
 24
0.5
 15
0.5
 25
0.5
 16
0.0
 26
0.0
 36
1.0
 17
0.0
 27
0.0
 37
0.0
 40
79.18041558786092
 41
1.6
 42
50.0
 43
0.0
 44
0.0
 50
0.0
 51
0.0
 71
     0
 72
   100
 73
     1
 74
     3
 75
     0
 76
     0
 77
     0
 78
     0
  0
ENDTAB
  0
TABLE
  2
LTYPE
 70
     2
  0
LTYPE
  2
CONTINUOUS
 70
     0
  3
Solid line
 72
    65
 73
     0
 40
0.0
  0
LTYPE
  2
CENTER
 70
     0
  3

 72
    65
 73
     0
 40
0.0
  0
ENDTAB
  0
TABLE
  2
LAYER
 70
     1
  0
LAYER
  2
0
 70
     0
 62
     7
  6
CONTINUOUS
  0
ENDTAB
  0
TABLE
  2
STYLE
 70
     2
  0
STYLE
  2
STANDARD
 70
     0
 40
0.0
 41
1.0
 50
0.0
 71
     0
 42
0.2
  3
txt
  4

  0
STYLE
  2
ＭＳ_ゴシック
 70
     0
 40
0.0
 41
1.0
 50
0.0
 71
     0
 42
0.2
  3
ＭＳ ゴシック.shx
  4

  0
ENDTAB
  0
TABLE
  2
VIEW
 70
     0
  0
ENDTAB
  0
TABLE
  2
UCS
 70
     0
  0
ENDTAB
  0
ENDSEC
  0
SECTION
  2
BLOCKS
  0
BLOCK
  8
0
  2
D_FRAME_VIEW_15555
 70
     0
 10
0.0
 20
0.0
 30
0.0
  0
ENDBLK
  8
0
  0
BLOCK
  8
0
  2
D_FRAME_VIEW_15112
 70
     0
 10
0.0
 20
0.0
 30
0.0
  0
ENDBLK
  8
0
  0
BLOCK
  8
0
  2
D_FRAME_VIEW_8775
 70
     0
 10
0.0
 20
0.0
 30
0.0
  0
ENDBLK
  8
0
  0
ENDSEC
  0
SECTION
  2
ENTITIES
  0
LINE
  5
6F
  8
0
  6
CONTINUOUS
 62
     7
 10
65.15908050331632
 20
97.67069415137532
 30
0.0
 11
83.9590805033163
 21
97.67069415137532
 31
0.0
  0
LINE
  5
70
  8
0
  6
CONTINUOUS
 62
     7
 10
65.2590805033163
 20
100.6706941513753
 30
0.0
 11
83.8590805033163
 21
100.6706941513753
 31
0.0
  0
LINE
  5
71
  8
0
  6
CONTINUOUS
 62
     7
 10
-62.30455235234375
 20
134.1706941513841
 30
0.0
 11
-40.80455235234371
 21
134.1706941513841
 31
0.0
  0
LINE
  5
72
  8
0
  6
CONTINUOUS
 62
     7
 10
-13.30455235234376
 20
135.1706941513841
 30
0.0
 11
-7.904067185573446
 21
135.1706941513841
 31
0.0
  0
LINE
  5
73
  8
0
  6
CONTINUOUS
 62
     7
 10
13.89544764765618
 20
126.770694151384
 30
0.0
 11
-6.704552352343794
 21
126.770694151384
 31
0.0
  0
LINE
  5
74
  8
0
  6
CONTINUOUS
 62
     7
 10
23.09544764781593
 20
134.1706941539845
 30
0.0
 11
13.59544764781615
 21
134.1706941533746
 31
0.0
  0
LINE
  5
75
  8
0
  6
CONTINUOUS
 62
     7
 10
99.5590805033163
 20
164.1706941534938
 30
0.0
 11
49.55908050331631
 21
164.1706941534938
 31
0.0
  0
LINE
  5
76
  8
0
  6
CONTINUOUS
 62
     7
 10
65.0090805033163
 20
99.67069415137532
 30
0.0
 11
84.1090805033163
 21
99.67069415137532
 31
0.0
  0
LINE
  5
77
  8
0
  6
CONTINUOUS
 62
     7
 10
84.25908050331631
 20
99.52069415137532
 30
0.0
 11
64.85908050331632
 21
99.52069415137532
 31
0.0
  0
LINE
  5
78
  8
0
  6
CONTINUOUS
 62
     7
 10
-90.80455235234372
 20
164.1706941538556
 30
0.0
 11
-68.51761374252861
 21
164.1706941538556
 31
0.0
  0
LINE
  5
79
  8
0
  6
CONTINUOUS
 62
     7
 10
-8.40455235234383
 20
162.9601618053002
 30
0.0
 11
-8.40455235234383
 21
165.0706941513841
 31
0.0
  0
LINE
  5
7A
  8
0
  6
CONTINUOUS
 62
     7
 10
15.59544764781613
 20
134.1706941535031
 30
0.0
 11
15.59544764589009
 21
164.1706941535024
 31
0.0
  0
LINE
  5
7B
  8
0
  6
CONTINUOUS
 62
     7
 10
13.59544764781616
 20
134.1706941533747
 30
0.0
 11
13.59544764589011
 21
164.1706941533739
 31
0.0
  0
LINE
  5
7C
  8
0
  6
CONTINUOUS
 62
     7
 10
-76.05455235234373
 20
107.220694151384
 30
0.0
 11
-55.55455235234376
 21
107.220694151384
 31
0.0
  0
LINE
  5
7D
  8
0
  6
CONTINUOUS
 62
     7
 10
23.09544764588984
 20
164.1706941561599
 30
0.0
 11
11.09544764765588
 21
164.1706941513842
 31
0.0
  0
LINE
  5
7E
  8
0
  6
CONTINUOUS
 62
     7
 10
-76.10455235234373
 20
121.770694151384
 30
0.0
 11
-55.50455235234375
 21
121.770694151384
 31
0.0
  0
LINE
  5
7F
  8
0
  6
CONTINUOUS
 62
     7
 10
-7.904552352343802
 20
135.1710926477101
 30
0.0
 11
-7.904552352343802
 21
131.2706941513841
 31
0.0
  0
LINE
  5
80
  8
0
  6
CONTINUOUS
 62
     7
 10
-6.404552352343829
 20
165.0706941513841
 30
0.0
 11
-6.404552352343829
 21
162.9601618053002
 31
0.0
  0
LINE
  5
81
  8
0
  6
CONTINUOUS
 62
     7
 10
-8.40455235234383
 20
146.7518965530716
 30
0.0
 11
-8.40455235234383
 21
151.5894917496965
 31
0.0
  0
LINE
  5
82
  8
0
  6
CONTINUOUS
 62
     7
 10
-6.704552352343796
 20
121.770694151384
 30
0.0
 11
13.89544764765618
 21
121.770694151384
 31
0.0
  0
LINE
  5
83
  8
0
  6
CONTINUOUS
 62
     7
 10
-55.50455235234372
 20
126.770694151384
 30
0.0
 11
-76.10455235234372
 21
126.770694151384
 31
0.0
  0
LINE
  5
84
  8
0
  6
CONTINUOUS
 62
     7
 10
-54.80455235234374
 20
121.070694151384
 30
0.0
 11
-76.80455235234375
 21
121.070694151384
 31
0.0
  0
LINE
  5
85
  8
0
  6
CONTINUOUS
 62
     7
 10
-63.09149096215907
 20
164.1706941538556
 30
0.0
 11
-40.80455235234373
 21
164.1706941538556
 31
0.0
  0
LINE
  5
86
  8
0
  6
CONTINUOUS
 62
     7
 10
-6.404552352343829
 20
151.5894917496965
 30
0.0
 11
-6.404552352343829
 21
146.7518965530716
 31
0.0
  0
LINE
  5
87
  8
0
  6
CONTINUOUS
 62
     7
 10
-60.35455235234375
 20
96.67069415138401
 30
0.0
 11
-71.25455235234375
 21
96.67069415138401
 31
0.0
  0
LINE
  5
88
  8
0
  6
CONTINUOUS
 62
     7
 10
49.55908050331631
 20
134.1706941534943
 30
0.0
 11
99.5590805033163
 21
134.1706941534943
 31
0.0
  0
LINE
  5
89
  8
0
  6
CONTINUOUS
 62
     7
 10
-90.80455235234373
 20
134.1706941513841
 30
0.0
 11
-69.30455235234372
 21
134.1706941513841
 31
0.0
  0
LINE
  5
8A
  8
0
  6
CONTINUOUS
 62
     7
 10
-55.55455235234371
 20
107.220694151384
 30
0.0
 11
-55.55455235234371
 21
113.4074243442994
 31
0.0
  0
LINE
  5
8B
  8
0
  6
CONTINUOUS
 62
     7
 10
-76.60455235234373
 20
131.170694151384
 30
0.0
 11
-76.80455235234373
 21
130.970694151384
 31
0.0
  0
ARC
  5
8C
  8
0
  6
CONTINUOUS
 62
     7
 10
-55.80455235234371
 20
135.1706941513841
 30
0.0
 40
1.000000000000001
 50
180.0
 51
270.0
  0
LINE
  5
8D
  8
0
  6
CONTINUOUS
 62
     7
 10
-75.50455235234374
 20
99.520694151384
 30
0.0
 11
-75.50455235234374
 21
98.670694151384
 31
0.0
  0
LINE
  5
8E
  8
0
  6
CONTINUOUS
 62
     7
 10
-54.30455235234374
 20
131.2706941513841
 30
0.0
 11
-54.30455235234374
 21
133.1706941513841
 31
0.0
  0
LINE
  5
8F
  8
0
  6
CONTINUOUS
 62
     7
 10
-56.10455235234371
 20
99.520694151384
 30
0.0
 11
-56.25455235234371
 21
99.670694151384
 31
0.0
  0
LINE
  5
90
  8
0
  6
CONTINUOUS
 62
     7
 10
-75.50455235234374
 20
101.670694151384
 30
0.0
 11
-75.10455235234373
 21
100.670694151384
 31
0.0
  0
LINE
  5
91
  8
0
  6
CONTINUOUS
 62
     7
 10
-77.3045523523437
 20
133.1706941513841
 30
0.0
 11
-77.3045523523437
 21
131.2706941513841
 31
0.0
  0
ARC
  5
92
  8
0
  6
CONTINUOUS
 62
     7
 10
-55.30455235234374
 20
133.1706941513841
 30
0.0
 40
1.000000000000001
 50
0.0
 51
90.00000000000011
  0
LINE
  5
93
  8
0
  6
CONTINUOUS
 62
     7
 10
-56.10455235234371
 20
98.670694151384
 30
0.0
 11
-56.10455235234371
 21
99.520694151384
 31
0.0
  0
LINE
  5
94
  8
0
  6
CONTINUOUS
 62
     7
 10
-69.32800188396968
 20
162.7182712679646
 30
0.0
 11
-68.67779885868214
 21
163.2626929922704
 31
0.0
  0
LINE
  5
95
  8
0
  6
CONTINUOUS
 62
     7
 10
-59.05455235234372
 20
149.1506718796415
 30
0.0
 11
-60.05455235234372
 21
149.1506718796415
 31
0.0
  0
ARC
  5
96
  8
0
  6
CONTINUOUS
 62
     7
 10
-65.80455235234372
 20
149.1706941513841
 30
0.0
 40
7.499999999999997
 50
219.9445051898149
 51
320.0554948101851
  0
LINE
  5
97
  8
0
  6
CONTINUOUS
 62
     7
 10
-76.80455235234373
 20
127.470694151384
 30
0.0
 11
-76.10455235234373
 21
126.770694151384
 31
0.0
  0
LINE
  5
98
  8
0
  6
CONTINUOUS
 62
     7
 10
-76.80455235234373
 20
117.231302215975
 30
0.0
 11
-76.65762614448465
 21
116.8276257775561
 31
0.0
  0
LINE
  5
99
  8
0
  6
CONTINUOUS
 62
     7
 10
-56.50455235234372
 20
100.670694151384
 30
0.0
 11
-56.10455235234372
 21
101.670694151384
 31
0.0
  0
LINE
  5
9A
  8
0
  6
CONTINUOUS
 62
     7
 10
-62.93052407276664
 20
163.2621439492176
 30
0.0
 11
-62.28151214607036
 21
162.7186777625331
 31
0.0
  0
ARC
  5
9B
  8
0
  6
CONTINUOUS
 62
     7
 10
-60.35455235234375
 20
97.47069415138401
 30
0.0
 40
0.7999999999999952
 50
270.0
 51
0.0
  0
LINE
  5
9C
  8
0
  6
CONTINUOUS
 62
     7
 10
-72.05455235234373
 20
97.670694151384
 30
0.0
 11
-72.05455235234373
 21
97.47069415138401
 31
0.0
  0
LINE
  5
9D
  8
0
  6
CONTINUOUS
 62
     7
 10
-77.3045523523437
 20
131.2706941513841
 30
0.0
 11
-77.2045523523437
 21
131.1706941513841
 31
0.0
  0
LINE
  5
9E
  8
0
  6
CONTINUOUS
 62
     7
 10
-76.80455235234373
 20
130.970694151384
 30
0.0
 11
-76.80455235234373
 21
127.470694151384
 31
0.0
  0
LINE
  5
9F
  8
0
  6
CONTINUOUS
 62
     7
 10
-54.80455235234374
 20
121.070694151384
 30
0.0
 11
-55.50455235234374
 21
121.770694151384
 31
0.0
  0
ARC
  5
A0
  8
0
  6
CONTINUOUS
 62
     7
 10
-56.35455235234374
 20
99.820694151384
 30
0.0
 40
0.1500000000000112
 50
180.0
 51
270.0
  0
ARC
  5
A1
  8
0
  6
CONTINUOUS
 62
     7
 10
-75.80455235234373
 20
135.1706941513841
 30
0.0
 40
1.000000000000001
 50
270.0
 51
0.0
  0
LINE
  5
A2
  8
0
  6
CONTINUOUS
 62
     7
 10
-54.80455235234374
 20
130.970694151384
 30
0.0
 11
-55.00455235234375
 21
131.170694151384
 31
0.0
  0
LINE
  5
A3
  8
0
  6
CONTINUOUS
 62
     7
 10
-56.40455235234374
 20
97.670694151384
 30
0.0
 11
-56.10455235234374
 21
98.670694151384
 31
0.0
  0
ARC
  5
A4
  8
0
  6
CONTINUOUS
 62
     7
 10
-71.25455235234374
 20
97.47069415138401
 30
0.0
 40
0.7999999999999952
 50
180.0
 51
270.0
  0
ARC
  5
A5
  8
0
  6
CONTINUOUS
 62
     7
 10
-65.80455235234372
 20
149.1599797825437
 30
0.0
 40
5.750007533652151
 50
359.907251637115
 51
180.092748362885
  0
ARC
  5
A6
  8
0
  6
CONTINUOUS
 62
     7
 10
-45.55455235234373
 20
113.4074243442994
 30
0.0
 40
10.0
 50
160.0
 51
180.0
  0
LINE
  5
A7
  8
0
  6
CONTINUOUS
 62
     7
 10
-56.10455235234374
 20
106.670694151384
 30
0.0
 11
-55.55455235234373
 21
107.220694151384
 31
0.0
  0
LINE
  5
A8
  8
0
  6
CONTINUOUS
 62
     7
 10
-54.40455235234373
 20
131.1706941513841
 30
0.0
 11
-54.30455235234373
 21
131.2706941513841
 31
0.0
  0
LINE
  5
A9
  8
0
  6
CONTINUOUS
 62
     7
 10
-75.50455235234374
 20
98.670694151384
 30
0.0
 11
-75.20455235234374
 21
97.670694151384
 31
0.0
  0
LINE
  5
AA
  8
0
  6
CONTINUOUS
 62
     7
 10
-56.50455235234372
 20
99.820694151384
 30
0.0
 11
-56.50455235234372
 21
100.670694151384
 31
0.0
  0
LINE
  5
AB
  8
0
  6
CONTINUOUS
 62
     7
 10
-76.80455235234373
 20
121.070694151384
 30
0.0
 11
-76.80455235234373
 21
117.231302215975
 31
0.0
  0
LINE
  5
AC
  8
0
  6
CONTINUOUS
 62
     7
 10
-76.10455235234373
 20
121.770694151384
 30
0.0
 11
-76.80455235234373
 21
121.070694151384
 31
0.0
  0
LINE
  5
AD
  8
0
  6
CONTINUOUS
 62
     7
 10
-55.50455235234372
 20
126.770694151384
 30
0.0
 11
-54.80455235234373
 21
127.470694151384
 31
0.0
  0
LINE
  5
AE
  8
0
  6
CONTINUOUS
 62
     7
 10
-75.50455235234374
 20
106.670694151384
 30
0.0
 11
-75.50455235234374
 21
101.670694151384
 31
0.0
  0
LINE
  5
AF
  8
0
  6
CONTINUOUS
 62
     7
 10
-56.10455235234371
 20
101.670694151384
 30
0.0
 11
-56.10455235234371
 21
106.670694151384
 31
0.0
  0
LINE
  5
B0
  8
0
  6
CONTINUOUS
 62
     7
 10
-54.80455235234374
 20
127.470694151384
 30
0.0
 11
-54.80455235234374
 21
130.970694151384
 31
0.0
  0
ARC
  5
B1
  8
0
  6
CONTINUOUS
 62
     7
 10
-75.25455235234374
 20
99.820694151384
 30
0.0
 40
0.1500000000000112
 50
270.0
 51
0.0
  0
LINE
  5
B2
  8
0
  6
CONTINUOUS
 62
     7
 10
-54.95147856020282
 20
116.8276257775561
 30
0.0
 11
-54.80455235234373
 21
117.231302215975
 31
0.0
  0
LINE
  5
B3
  8
0
  6
CONTINUOUS
 62
     7
 10
-76.05455235234373
 20
107.220694151384
 30
0.0
 11
-75.50455235234372
 21
106.670694151384
 31
0.0
  0
LINE
  5
B4
  8
0
  6
CONTINUOUS
 62
     7
 10
-59.55455235234372
 20
97.47069415138401
 30
0.0
 11
-59.55455235234372
 21
97.670694151384
 31
0.0
  0
LINE
  5
B5
  8
0
  6
CONTINUOUS
 62
     7
 10
-75.10455235234373
 20
100.670694151384
 30
0.0
 11
-75.10455235234373
 21
99.820694151384
 31
0.0
  0
LINE
  5
B6
  8
0
  6
CONTINUOUS
 62
     7
 10
-76.05455235234373
 20
113.4074243442994
 30
0.0
 11
-76.05455235234373
 21
107.220694151384
 31
0.0
  0
LINE
  5
B7
  8
0
  6
CONTINUOUS
 62
     7
 10
-75.35455235234373
 20
99.670694151384
 30
0.0
 11
-75.50455235234374
 21
99.520694151384
 31
0.0
  0
ARC
  5
B8
  8
0
  6
CONTINUOUS
 62
     7
 10
-76.3045523523437
 20
133.1706941513841
 30
0.0
 40
1.000000000000001
 50
90.0
 51
180.0
  0
LINE
  5
B9
  8
0
  6
CONTINUOUS
 62
     7
 10
-54.80455235234374
 20
117.231302215975
 30
0.0
 11
-54.80455235234374
 21
121.070694151384
 31
0.0
  0
LINE
  5
BA
  8
0
  6
CONTINUOUS
 62
     7
 10
-56.80455235234372
 20
135.1706941513841
 30
0.0
 11
-56.80455235234372
 21
138.4468888566205
 31
0.0
  0
LINE
  5
BB
  8
0
  6
CONTINUOUS
 62
     7
 10
-74.80455235234373
 20
138.4468888566205
 30
0.0
 11
-74.80455235234373
 21
135.1706941513841
 31
0.0
  0
ARC
  5
BC
  8
0
  6
CONTINUOUS
 62
     7
 10
-86.05455235234375
 20
113.4074243442994
 30
0.0
 40
10.00000000000001
 50
0.0
 51
19.99999999999994
  0
LINE
  5
BD
  8
0
  6
CENTER
 62
     1
 10
74.55908050331634
 20
93.67069415137533
 30
0.0
 11
74.55908050331634
 21
168.5706941513754
 31
0.0
  0
LINE
  5
BF
  8
0
  6
CONTINUOUS
 62
     7
 10
64.85908050331632
 20
101.6706941513753
 30
0.0
 11
84.25908050331631
 21
101.6706941513753
 31
0.0
  0
LINE
  5
C0
  8
0
  6
CONTINUOUS
 62
     7
 10
64.2590805033163
 20
121.7706941513753
 30
0.0
 11
84.8590805033163
 21
121.7706941513753
 31
0.0
  0
LINE
  5
C1
  8
0
  6
CONTINUOUS
 62
     7
 10
63.55908050331632
 20
117.2313022159663
 30
0.0
 11
85.55908050331631
 21
117.2313022159663
 31
0.0
  0
LINE
  5
C2
  8
0
  6
CONTINUOUS
 62
     7
 10
64.85908050331632
 20
98.67069415137532
 30
0.0
 11
84.25908050331631
 21
98.67069415137532
 31
0.0
  0
LINE
  5
C3
  8
0
  6
CONTINUOUS
 62
     7
 10
64.85908050331629
 20
106.6706941513753
 30
0.0
 11
84.25908050331631
 21
106.6706941513753
 31
0.0
  0
LINE
  5
C4
  8
0
  6
CONTINUOUS
 62
     7
 10
84.8590805033163
 20
126.7706941513753
 30
0.0
 11
64.2590805033163
 21
126.7706941513753
 31
0.0
  0
LINE
  5
C5
  8
0
  6
CONTINUOUS
 62
     7
 10
63.55908050331632
 20
127.4706941513753
 30
0.0
 11
85.55908050331631
 21
127.4706941513753
 31
0.0
  0
LINE
  5
C6
  8
0
  6
CONTINUOUS
 62
     7
 10
85.55908050331631
 20
130.9706941513753
 30
0.0
 11
63.55908050331632
 21
130.9706941513753
 31
0.0
  0
ARC
  5
C7
  8
0
  6
CONTINUOUS
 62
     7
 10
-65.80455235234372
 20
149.1706941513841
 30
0.0
 40
16.4
 50
352.5175899986578
 51
7.482410001342032
  0
CIRCLE
  5
C8
  8
0
  6
CONTINUOUS
 62
     7
 10
-65.80455235234375
 20
124.270694151384
 30
0.0
 40
2.500000000000002
  0
LINE
  5
C9
  8
0
  6
CONTINUOUS
 62
     7
 10
-7.404552352343815
 20
127.470694151384
 30
0.0
 11
14.59544764765619
 21
127.470694151384
 31
0.0
  0
ARC
  5
CA
  8
0
  6
CONTINUOUS
 62
     7
 10
-16.69708327674957
 20
124.270694151384
 30
0.0
 40
10.30051815566603
 50
345.9536801191331
 51
14.04631988086658
  0
LINE
  5
CB
  8
0
  6
CONTINUOUS
 62
     7
 10
-6.704552352343809
 20
126.770694151384
 30
0.0
 11
-6.702101762589279
 21
126.7605784572197
 31
0.0
  0
LINE
  5
CC
  8
0
  6
CONTINUOUS
 62
     7
 10
-8.40455235234383
 20
151.2412209166829
 30
0.0
 11
-8.40455235234383
 21
151.5894917496965
 31
0.0
  0
POLYLINE
  5
CD
  8
0
  6
CONTINUOUS
 62
     7
 66
     1
 10
0.0
 20
0.0
 30
0.0
  0
VERTEX
  5
260
  8
0
  6
CONTINUOUS
 62
     7
 10
-6.904552352343829
 20
152.1153030829407
 30
0.0
  0
VERTEX
  5
261
  8
0
  6
CONTINUOUS
 62
     7
 10
-6.884968225391807
 20
152.114898117347
 30
0.0
  0
VERTEX
  5
262
  8
0
  6
CONTINUOUS
 62
     7
 10
-6.865384098439786
 20
152.1136813640926
 30
0.0
  0
VERTEX
  5
263
  8
0
  6
CONTINUOUS
 62
     7
 10
-6.845764486858391
 20
152.1116427779019
 30
0.0
  0
VERTEX
  5
264
  8
0
  6
CONTINUOUS
 62
     7
 10
-6.826215844535743
 20
152.1087861564904
 30
0.0
  0
VERTEX
  5
265
  8
0
  6
CONTINUOUS
 62
     7
 10
-6.806410209200448
 20
152.1050378466879
 30
0.0
  0
VERTEX
  5
266
  8
0
  6
CONTINUOUS
 62
     7
 10
-6.786751745732733
 20
152.1004488476806
 30
0.0
  0
VERTEX
  5
267
  8
0
  6
CONTINUOUS
 62
     7
 10
-6.767204623986084
 20
152.0950047556788
 30
0.0
  0
VERTEX
  5
268
  8
0
  6
CONTINUOUS
 62
     7
 10
-6.747879336727657
 20
152.08873087428
 30
0.0
  0
VERTEX
  5
269
  8
0
  6
CONTINUOUS
 62
     7
 10
-6.72956425158791
 20
152.0819362987619
 30
0.0
  0
VERTEX
  5
26A
  8
0
  6
CONTINUOUS
 62
     7
 10
-6.711518787423376
 20
152.0744000183411
 30
0.0
  0
VERTEX
  5
26B
  8
0
  6
CONTINUOUS
 62
     7
 10
-6.693713517536421
 20
152.0661067036478
 30
0.0
  0
VERTEX
  5
26C
  8
0
  6
CONTINUOUS
 62
     7
 10
-6.676238734566173
 20
152.0570957420781
 30
0.0
  0
VERTEX
  5
26D
  8
0
  6
CONTINUOUS
 62
     7
 10
-6.658832938193859
 20
152.0472115790826
 30
0.0
  0
VERTEX
  5
26E
  8
0
  6
CONTINUOUS
 62
     7
 10
-6.641825784759678
 20
152.0366205309981
 30
0.0
  0
VERTEX
  5
26F
  8
0
  6
CONTINUOUS
 62
     7
 10
-6.625189597601555
 20
152.0253035012982
 30
0.0
  0
VERTEX
  5
270
  8
0
  6
CONTINUOUS
 62
     7
 10
-6.609007842128062
 20
152.0133156077692
 30
0.0
  0
VERTEX
  5
271
  8
0
  6
CONTINUOUS
 62
     7
 10
-6.593361325215374
 20
152.0007256777871
 30
0.0
  0
VERTEX
  5
272
  8
0
  6
CONTINUOUS
 62
     7
 10
-6.578213712431641
 20
151.9875137904946
 30
0.0
  0
VERTEX
  5
273
  8
0
  6
CONTINUOUS
 62
     7
 10
-6.56354155213748
 20
151.9736583659721
 30
0.0
  0
VERTEX
  5
274
  8
0
  6
CONTINUOUS
 62
     7
 10
-6.549414274368156
 20
151.9592237907139
 30
0.0
  0
VERTEX
  5
275
  8
0
  6
CONTINUOUS
 62
     7
 10
-6.53564010332397
 20
151.9439909958878
 30
0.0
  0
VERTEX
  5
276
  8
0
  6
CONTINUOUS
 62
     7
 10
-6.522467720967331
 20
151.928210687801
 30
0.0
  0
VERTEX
  5
277
  8
0
  6
CONTINUOUS
 62
     7
 10
-6.509877447273104
 20
151.9118574770368
 30
0.0
  0
VERTEX
  5
278
  8
0
  6
CONTINUOUS
 62
     7
 10
-6.497928405264419
 20
151.8950059184119
 30
0.0
  0
VERTEX
  5
279
  8
0
  6
CONTINUOUS
 62
     7
 10
-6.486275147762663
 20
151.8771024967154
 30
0.0
  0
VERTEX
  5
27A
  8
0
  6
CONTINUOUS
 62
     7
 10
-6.475339901836547
 20
151.8587244232226
 30
0.0
  0
VERTEX
  5
27B
  8
0
  6
CONTINUOUS
 62
     7
 10
-6.465107300686515
 20
151.8398408688098
 30
0.0
  0
VERTEX
  5
27C
  8
0
  6
CONTINUOUS
 62
     7
 10
-6.455628292512588
 20
151.8205396397404
 30
0.0
  0
VERTEX
  5
27D
  8
0
  6
CONTINUOUS
 62
     7
 10
-6.446782111006965
 20
151.8005287112072
 30
0.0
  0
VERTEX
  5
27E
  8
0
  6
CONTINUOUS
 62
     7
 10
-6.438742416479057
 20
151.7801491892852
 30
0.0
  0
VERTEX
  5
27F
  8
0
  6
CONTINUOUS
 62
     7
 10
-6.431500452166366
 20
151.7593662891935
 30
0.0
  0
VERTEX
  5
280
  8
0
  6
CONTINUOUS
 62
     7
 10
-6.42509557519591
 20
151.7382772224394
 30
0.0
  0
VERTEX
  5
281
  8
0
  6
CONTINUOUS
 62
     7
 10
-6.420355437351935
 20
151.7202870570524
 30
0.0
  0
VERTEX
  5
282
  8
0
  6
CONTINUOUS
 62
     7
 10
-6.416225543578929
 20
151.7021262564371
 30
0.0
  0
VERTEX
  5
283
  8
0
  6
CONTINUOUS
 62
     7
 10
-6.412704360982124
 20
151.6837733313798
 30
0.0
  0
VERTEX
  5
284
  8
0
  6
CONTINUOUS
 62
     7
 10
-6.409807250731037
 20
151.6652893240193
 30
0.0
  0
VERTEX
  5
285
  8
0
  6
CONTINUOUS
 62
     7
 10
-6.407516629186316
 20
151.6464788167236
 30
0.0
  0
VERTEX
  5
286
  8
0
  6
CONTINUOUS
 62
     7
 10
-6.405874431307079
 20
151.6275761457245
 30
0.0
  0
VERTEX
  5
287
  8
0
  6
CONTINUOUS
 62
     7
 10
-6.404883482897556
 20
151.6085585203577
 30
0.0
  0
VERTEX
  5
288
  8
0
  6
CONTINUOUS
 62
     7
 10
-6.404552352343829
 20
151.5894917496965
 30
0.0
  0
SEQEND
  5
382
  8
0
  6
CONTINUOUS
 62
     7
  0
LINE
  5
CE
  8
0
  6
CONTINUOUS
 62
     7
 10
-6.404552352343829
 20
151.5894917496965
 30
0.0
 11
-6.404552352343829
 21
151.2412209166829
 31
0.0
  0
LINE
  5
CF
  8
0
  6
CONTINUOUS
 62
     7
 10
-6.904552352343829
 20
152.1153030829407
 30
0.0
 11
-7.904552352343795
 21
152.1153030829414
 31
0.0
  0
LINE
  5
D0
  8
0
  6
CONTINUOUS
 62
     7
 10
15.59544764589008
 20
164.1706941535024
 30
0.0
 11
15.59544764621108
 21
159.1706941535025
 31
0.0
  0
LINE
  5
D1
  8
0
  6
CONTINUOUS
 62
     7
 10
20.09544764781604
 20
134.1706941537919
 30
0.0
 11
18.59544764781607
 21
134.1706941536956
 31
0.0
  0
LINE
  5
D2
  8
0
  6
CONTINUOUS
 62
     7
 10
-6.404552352343829
 20
151.2412209166829
 30
0.0
 11
-6.404552352343829
 21
147.1001673860853
 31
0.0
  0
LINE
  5
D3
  8
0
  6
CONTINUOUS
 62
     7
 10
23.09544764588996
 20
164.170694153984
 30
0.0
 11
23.09544764781599
 21
134.1706941539845
 31
0.0
  0
LINE
  5
D4
  8
0
  6
CONTINUOUS
 62
     7
 10
23.09544764781593
 20
134.1706941539845
 30
0.0
 11
20.09544764781603
 21
134.1706941537919
 31
0.0
  0
LINE
  5
D5
  8
0
  6
CONTINUOUS
 62
     7
 10
-6.10455235234382
 20
98.670694151384
 30
0.0
 11
13.29544764765618
 21
98.670694151384
 31
0.0
  0
LINE
  5
D6
  8
0
  6
CONTINUOUS
 62
     7
 10
13.59544764589011
 20
164.1706941533741
 30
0.0
 11
15.59544764589009
 21
164.1706941535025
 31
0.0
  0
LINE
  5
D7
  8
0
  6
CONTINUOUS
 62
     7
 10
18.59544764589002
 20
164.1706941536951
 30
0.0
 11
15.59544764589013
 21
164.1706941535025
 31
0.0
  0
LINE
  5
D8
  8
0
  6
CONTINUOUS
 62
     7
 10
14.59544764765619
 20
121.070694151384
 30
0.0
 11
-7.404552352343808
 21
121.070694151384
 31
0.0
  0
LINE
  5
D9
  8
0
  6
CONTINUOUS
 62
     7
 10
-3.960344832289242
 20
121.770694151384
 30
0.0
 11
-3.960344832289242
 21
126.770694151384
 31
0.0
  0
POLYLINE
  5
DA
  8
0
  6
CONTINUOUS
 62
     7
 66
     1
 10
0.0
 20
0.0
 30
0.0
  0
VERTEX
  5
289
  8
0
  6
CONTINUOUS
 62
     7
 10
-7.904552352343829
 20
146.2260852198275
 30
0.0
  0
VERTEX
  5
28A
  8
0
  6
CONTINUOUS
 62
     7
 10
-7.918921487327466
 20
146.2263031887344
 30
0.0
  0
VERTEX
  5
28B
  8
0
  6
CONTINUOUS
 62
     7
 10
-7.933290622311101
 20
146.2269576325152
 30
0.0
  0
VERTEX
  5
28C
  8
0
  6
CONTINUOUS
 62
     7
 10
-7.947673687579051
 20
146.228051441559
 30
0.0
  0
VERTEX
  5
28D
  8
0
  6
CONTINUOUS
 62
     7
 10
-7.962028892278372
 20
146.2295835172411
 30
0.0
  0
VERTEX
  5
28E
  8
0
  6
CONTINUOUS
 62
     7
 10
-7.976483366964909
 20
146.2315746169424
 30
0.0
  0
VERTEX
  5
28F
  8
0
  6
CONTINUOUS
 62
     7
 10
-7.990881047508003
 20
146.2340103051068
 30
0.0
  0
VERTEX
  5
290
  8
0
  6
CONTINUOUS
 62
     7
 10
-8.005235936590443
 20
146.2368945737024
 30
0.0
  0
VERTEX
  5
291
  8
0
  6
CONTINUOUS
 62
     7
 10
-8.019505432212942
 20
146.2402203093802
 30
0.0
  0
VERTEX
  5
292
  8
0
  6
CONTINUOUS
 62
     7
 10
-8.038043635667332
 20
146.2452386420875
 30
0.0
  0
VERTEX
  5
293
  8
0
  6
CONTINUOUS
 62
     7
 10
-8.056387738637428
 20
146.2510019946983
 30
0.0
  0
VERTEX
  5
294
  8
0
  6
CONTINUOUS
 62
     7
 10
-8.074567451118162
 20
146.2575235258633
 30
0.0
  0
VERTEX
  5
295
  8
0
  6
CONTINUOUS
 62
     7
 10
-8.092491243055846
 20
146.2647738000608
 30
0.0
  0
VERTEX
  5
296
  8
0
  6
CONTINUOUS
 62
     7
 10
-8.110427713711205
 20
146.2728816466162
 30
0.0
  0
VERTEX
  5
297
  8
0
  6
CONTINUOUS
 62
     7
 10
-8.128040265878989
 20
146.2817150980871
 30
0.0
  0
VERTEX
  5
298
  8
0
  6
CONTINUOUS
 62
     7
 10
-8.14535745800099
 20
146.2912908999854
 30
0.0
  0
VERTEX
  5
299
  8
0
  6
CONTINUOUS
 62
     7
 10
-8.162292265846055
 20
146.3015630480348
 30
0.0
  0
VERTEX
  5
29A
  8
0
  6
CONTINUOUS
 62
     7
 10
-8.178787545356503
 20
146.3124914985785
 30
0.0
  0
VERTEX
  5
29B
  8
0
  6
CONTINUOUS
 62
     7
 10
-8.194850366834567
 20
146.3240751903191
 30
0.0
  0
VERTEX
  5
29C
  8
0
  6
CONTINUOUS
 62
     7
 10
-8.210505754795843
 20
146.3363334273476
 30
0.0
  0
VERTEX
  5
29D
  8
0
  6
CONTINUOUS
 62
     7
 10
-8.225679122806278
 20
146.3492089677443
 30
0.0
  0
VERTEX
  5
29E
  8
0
  6
CONTINUOUS
 62
     7
 10
-8.240580040289435
 20
146.3629006151058
 30
0.0
  0
VERTEX
  5
29F
  8
0
  6
CONTINUOUS
 62
     7
 10
-8.254939886989638
 20
146.3771832816794
 30
0.0
  0
VERTEX
  5
2A0
  8
0
  6
CONTINUOUS
 62
     7
 10
-8.268780587261826
 20
146.3920799884737
 30
0.0
  0
VERTEX
  5
2A1
  8
0
  6
CONTINUOUS
 62
     7
 10
-8.282037226150784
 20
146.4075222664027
 30
0.0
  0
VERTEX
  5
2A2
  8
0
  6
CONTINUOUS
 62
     7
 10
-8.295056028715733
 20
146.4239639810585
 30
0.0
  0
VERTEX
  5
2A3
  8
0
  6
CONTINUOUS
 62
     7
 10
-8.307418507770587
 20
146.4409303053926
 30
0.0
  0
VERTEX
  5
2A4
  8
0
  6
CONTINUOUS
 62
     7
 10
-8.319142992833456
 20
146.4584492536665
 30
0.0
  0
VERTEX
  5
2A5
  8
0
  6
CONTINUOUS
 62
     7
 10
-8.330172806402608
 20
146.4764396893024
 30
0.0
  0
VERTEX
  5
2A6
  8
0
  6
CONTINUOUS
 62
     7
 10
-8.340652055802645
 20
146.4951722187178
 30
0.0
  0
VERTEX
  5
2A7
  8
0
  6
CONTINUOUS
 62
     7
 10
-8.350382995736663
 20
146.5143323403176
 30
0.0
  0
VERTEX
  5
2A8
  8
0
  6
CONTINUOUS
 62
     7
 10
-8.359378256071304
 20
146.5339520420247
 30
0.0
  0
VERTEX
  5
2A9
  8
0
  6
CONTINUOUS
 62
     7
 10
-8.367592383073191
 20
146.5539410276338
 30
0.0
  0
VERTEX
  5
2AA
  8
0
  6
CONTINUOUS
 62
     7
 10
-8.375209169157488
 20
146.5748432607347
 30
0.0
  0
VERTEX
  5
2AB
  8
0
  6
CONTINUOUS
 62
     7
 10
-8.381974163208572
 20
146.5960705010395
 30
0.0
  0
VERTEX
  5
2AC
  8
0
  6
CONTINUOUS
 62
     7
 10
-8.38789300992729
 20
146.6176598247675
 30
0.0
  0
VERTEX
  5
2AD
  8
0
  6
CONTINUOUS
 62
     7
 10
-8.3929306368129
 20
146.6395079269245
 30
0.0
  0
VERTEX
  5
2AE
  8
0
  6
CONTINUOUS
 62
     7
 10
-8.397138747536642
 20
146.6619554930339
 30
0.0
  0
VERTEX
  5
2AF
  8
0
  6
CONTINUOUS
 62
     7
 10
-8.400414063905833
 20
146.6845985812081
 30
0.0
  0
VERTEX
  5
2B0
  8
0
  6
CONTINUOUS
 62
     7
 10
-8.402753208062135
 20
146.7074778013563
 30
0.0
  0
VERTEX
  5
2B1
  8
0
  6
CONTINUOUS
 62
     7
 10
-8.404134492547316
 20
146.730478454233
 30
0.0
  0
VERTEX
  5
2B2
  8
0
  6
CONTINUOUS
 62
     7
 10
-8.40455235234383
 20
146.7518965530716
 30
0.0
  0
SEQEND
  5
383
  8
0
  6
CONTINUOUS
 62
     7
  0
LINE
  5
DB
  8
0
  6
CONTINUOUS
 62
     7
 10
20.09544764589
 20
164.1706941537913
 30
0.0
 11
23.09544764588984
 21
164.170694153984
 31
0.0
  0
LINE
  5
DC
  8
0
  6
CONTINUOUS
 62
     7
 10
13.59544764749515
 20
139.1706941533745
 30
0.0
 11
13.59544764621112
 21
159.1706941533741
 31
0.0
  0
LINE
  5
DD
  8
0
  6
CONTINUOUS
 62
     7
 10
-5.954552352343822
 20
99.670694151384
 30
0.0
 11
13.14544764765618
 21
99.670694151384
 31
0.0
  0
LINE
  5
DE
  8
0
  6
CONTINUOUS
 62
     7
 10
-5.704552352343822
 20
100.670694151384
 30
0.0
 11
12.89544764765618
 21
100.670694151384
 31
0.0
  0
LINE
  5
DF
  8
0
  6
CONTINUOUS
 62
     7
 10
-5.804552352343825
 20
97.670694151384
 30
0.0
 11
12.99544764765617
 21
97.670694151384
 31
0.0
  0
LINE
  5
E0
  8
0
  6
CONTINUOUS
 62
     7
 10
-6.704552352343796
 20
126.770694151384
 30
0.0
 11
-3.960344832289231
 21
126.770694151384
 31
0.0
  0
LINE
  5
E1
  8
0
  6
CONTINUOUS
 62
     7
 10
-2.297680798801743
 20
121.770694151384
 30
0.0
 11
-2.297680798801743
 21
126.770694151384
 31
0.0
  0
LINE
  5
E2
  8
0
  6
CONTINUOUS
 62
     7
 10
13.89544764765618
 20
121.770694151384
 30
0.0
 11
13.89172357970121
 21
121.7860818941476
 31
0.0
  0
LINE
  5
E3
  8
0
  6
CONTINUOUS
 62
     7
 10
-6.104552352343834
 20
106.670694151384
 30
0.0
 11
13.29544764765619
 21
106.670694151384
 31
0.0
  0
LINE
  5
E4
  8
0
  6
CONTINUOUS
 62
     7
 10
9.045447647656177
 20
96.67069415138401
 30
0.0
 11
-1.854552352343827
 21
96.67069415138401
 31
0.0
  0
LINE
  5
E5
  8
0
  6
CONTINUOUS
 62
     7
 10
13.59544764621112
 20
159.1706941533741
 30
0.0
 11
13.59544764589011
 21
164.1706941533739
 31
0.0
  0
LINE
  5
E6
  8
0
  6
CONTINUOUS
 62
     7
 10
14.59544764765619
 20
130.970694151384
 30
0.0
 11
-7.404552352343815
 21
130.970694151384
 31
0.0
  0
LINE
  5
E7
  8
0
  6
CONTINUOUS
 62
     7
 10
11.15124012760162
 20
121.770694151384
 30
0.0
 11
13.89544764765617
 21
121.770694151384
 31
0.0
  0
LINE
  5
E8
  8
0
  6
CONTINUOUS
 62
     7
 10
15.59544764781612
 20
134.170694153503
 30
0.0
 11
13.59544764781615
 21
134.1706941533746
 31
0.0
  0
LINE
  5
E9
  8
0
  6
CONTINUOUS
 62
     7
 10
15.59544764749512
 20
139.1706941535029
 30
0.0
 11
15.5954476462111
 21
159.1706941535025
 31
0.0
  0
LINE
  5
EA
  8
0
  6
CONTINUOUS
 62
     7
 10
15.59544764781623
 20
134.170694153503
 30
0.0
 11
18.59544764781608
 21
134.1706941536956
 31
0.0
  0
LINE
  5
EB
  8
0
  6
CONTINUOUS
 62
     7
 10
11.15124012760162
 20
126.770694151384
 30
0.0
 11
13.89544764765618
 21
126.770694151384
 31
0.0
  0
LINE
  5
EC
  8
0
  6
CONTINUOUS
 62
     7
 10
11.15124012760163
 20
126.770694151384
 30
0.0
 11
-3.960344832289242
 21
126.770694151384
 31
0.0
  0
LINE
  5
ED
  8
0
  6
CONTINUOUS
 62
     7
 10
-7.404552352343815
 20
117.231302215975
 30
0.0
 11
14.59544764765618
 21
117.231302215975
 31
0.0
  0
LINE
  5
EE
  8
0
  6
CONTINUOUS
 62
     7
 10
-6.654552352343801
 20
107.220694151384
 30
0.0
 11
13.84544764765618
 21
107.220694151384
 31
0.0
  0
LINE
  5
EF
  8
0
  6
CONTINUOUS
 62
     7
 10
-3.960344832289242
 20
121.770694151384
 30
0.0
 11
11.15124012760162
 21
121.770694151384
 31
0.0
  0
LINE
  5
F0
  8
0
  6
CONTINUOUS
 62
     7
 10
-6.10455235234382
 20
101.670694151384
 30
0.0
 11
13.29544764765618
 21
101.670694151384
 31
0.0
  0
LINE
  5
F1
  8
0
  6
CONTINUOUS
 62
     7
 10
11.15124012760163
 20
126.770694151384
 30
0.0
 11
11.15124012760162
 21
121.770694151384
 31
0.0
  0
ARC
  5
F2
  8
0
  6
CONTINUOUS
 62
     7
 10
23.88811333087466
 20
124.270694151384
 30
0.0
 40
10.30064888521943
 50
165.9538620457158
 51
194.0461379542841
  0
LINE
  5
F3
  8
0
  6
CONTINUOUS
 62
     7
 10
-6.704552352343796
 20
121.770694151384
 30
0.0
 11
-3.960344832289231
 21
121.770694151384
 31
0.0
  0
LINE
  5
F4
  8
0
  6
CONTINUOUS
 62
     7
 10
13.29544764765618
 20
99.520694151384
 30
0.0
 11
-6.104552352343827
 21
99.520694151384
 31
0.0
  0
LINE
  5
F5
  8
0
  6
CONTINUOUS
 62
     7
 10
-8.40455235234383
 20
147.1001673860853
 30
0.0
 11
-8.40455235234383
 21
151.2412209166829
 31
0.0
  0
LINE
  5
F6
  8
0
  6
CONTINUOUS
 62
     7
 10
13.59544764781614
 20
134.1706941533747
 30
0.0
 11
13.59544764749514
 21
139.1706941533745
 31
0.0
  0
LINE
  5
F7
  8
0
  6
CONTINUOUS
 62
     7
 10
15.59544764749512
 20
139.1706941535029
 30
0.0
 11
15.59544764781613
 21
134.1706941535031
 31
0.0
  0
LINE
  5
F8
  8
0
  6
CONTINUOUS
 62
     7
 10
20.09544764589
 20
164.1706941537913
 30
0.0
 11
18.59544764589003
 21
164.170694153695
 31
0.0
  0
POLYLINE
  5
F9
  8
0
  6
CONTINUOUS
 62
     7
 66
     1
 10
0.0
 20
0.0
 30
0.0
  0
VERTEX
  5
2B3
  8
0
  6
CONTINUOUS
 62
     7
 10
-8.40455235234383
 20
151.5894917496965
 30
0.0
  0
VERTEX
  5
2B4
  8
0
  6
CONTINUOUS
 62
     7
 10
-8.40424811005866
 20
151.6077681561212
 30
0.0
  0
VERTEX
  5
2B5
  8
0
  6
CONTINUOUS
 62
     7
 10
-8.403334856565372
 20
151.6260403125505
 30
0.0
  0
VERTEX
  5
2B6
  8
0
  6
CONTINUOUS
 62
     7
 10
-8.401339077300756
 20
151.6488175436456
 30
0.0
  0
VERTEX
  5
2B7
  8
0
  6
CONTINUOUS
 62
     7
 10
-8.398391948526609
 20
151.6715266111882
 30
0.0
  0
VERTEX
  5
2B8
  8
0
  6
CONTINUOUS
 62
     7
 10
-8.394478382222015
 20
151.6942057131965
 30
0.0
  0
VERTEX
  5
2B9
  8
0
  6
CONTINUOUS
 62
     7
 10
-8.389607522017311
 20
151.7167381397971
 30
0.0
  0
VERTEX
  5
2BA
  8
0
  6
CONTINUOUS
 62
     7
 10
-8.383668079347164
 20
151.7394822913343
 30
0.0
  0
VERTEX
  5
2BB
  8
0
  6
CONTINUOUS
 62
     7
 10
-8.37674105861197
 20
151.7619920665099
 30
0.0
  0
VERTEX
  5
2BC
  8
0
  6
CONTINUOUS
 62
     7
 10
-8.36879941794244
 20
151.7843058235463
 30
0.0
  0
VERTEX
  5
2BD
  8
0
  6
CONTINUOUS
 62
     7
 10
-8.359871609422434
 20
151.806297188769
 30
0.0
  0
VERTEX
  5
2BE
  8
0
  6
CONTINUOUS
 62
     7
 10
-8.350313248383326
 20
151.8272003248624
 30
0.0
  0
VERTEX
  5
2BF
  8
0
  6
CONTINUOUS
 62
     7
 10
-8.339847117623616
 20
151.8477195435381
 30
0.0
  0
VERTEX
  5
2C0
  8
0
  6
CONTINUOUS
 62
     7
 10
-8.3284383402836
 20
151.8678862298466
 30
0.0
  0
VERTEX
  5
2C1
  8
0
  6
CONTINUOUS
 62
     7
 10
-8.316132859467556
 20
151.8875831078144
 30
0.0
  0
VERTEX
  5
2C2
  8
0
  6
CONTINUOUS
 62
     7
 10
-8.302674874991311
 20
151.9071375366917
 30
0.0
  0
VERTEX
  5
2C3
  8
0
  6
CONTINUOUS
 62
     7
 10
-8.288309211692852
 20
151.9261141002629
 30
0.0
  0
VERTEX
  5
2C4
  8
0
  6
CONTINUOUS
 62
     7
 10
-8.272986540469457
 20
151.9445404469907
 30
0.0
  0
VERTEX
  5
2C5
  8
0
  6
CONTINUOUS
 62
     7
 10
-8.256781797798332
 20
151.9622894564763
 30
0.0
  0
VERTEX
  5
2C6
  8
0
  6
CONTINUOUS
 62
     7
 10
-8.241120185538797
 20
151.977970508993
 30
0.0
  0
VERTEX
  5
2C7
  8
0
  6
CONTINUOUS
 62
     7
 10
-8.224750152568044
 20
151.9929974842074
 30
0.0
  0
VERTEX
  5
2C8
  8
0
  6
CONTINUOUS
 62
     7
 10
-8.207624852924727
 20
152.0073861636791
 30
0.0
  0
VERTEX
  5
2C9
  8
0
  6
CONTINUOUS
 62
     7
 10
-8.189828305584513
 20
152.0210390540217
 30
0.0
  0
VERTEX
  5
2CA
  8
0
  6
CONTINUOUS
 62
     7
 10
-8.170993027714957
 20
152.0341784973238
 30
0.0
  0
VERTEX
  5
2CB
  8
0
  6
CONTINUOUS
 62
     7
 10
-8.151512409536474
 20
152.0464709241027
 30
0.0
  0
VERTEX
  5
2CC
  8
0
  6
CONTINUOUS
 62
     7
 10
-8.131327764158785
 20
152.0579248237944
 30
0.0
  0
VERTEX
  5
2CD
  8
0
  6
CONTINUOUS
 62
     7
 10
-8.110559518645754
 20
152.0684438165462
 30
0.0
  0
VERTEX
  5
2CE
  8
0
  6
CONTINUOUS
 62
     7
 10
-8.091659852937056
 20
152.0769693305512
 30
0.0
  0
VERTEX
  5
2CF
  8
0
  6
CONTINUOUS
 62
     7
 10
-8.072364137778898
 20
152.0846991144109
 30
0.0
  0
VERTEX
  5
2D0
  8
0
  6
CONTINUOUS
 62
     7
 10
-8.052627626012443
 20
152.0916335753551
 30
0.0
  0
VERTEX
  5
2D1
  8
0
  6
CONTINUOUS
 62
     7
 10
-8.032557379547972
 20
152.0977180807843
 30
0.0
  0
VERTEX
  5
2D2
  8
0
  6
CONTINUOUS
 62
     7
 10
-8.011766517057456
 20
152.1030289233109
 30
0.0
  0
VERTEX
  5
2D3
  8
0
  6
CONTINUOUS
 62
     7
 10
-7.990704231028197
 20
152.1074106727791
 30
0.0
  0
VERTEX
  5
2D4
  8
0
  6
CONTINUOUS
 62
     7
 10
-7.969320340718316
 20
152.1108569244042
 30
0.0
  0
VERTEX
  5
2D5
  8
0
  6
CONTINUOUS
 62
     7
 10
-7.947748551899656
 20
152.1133300153154
 30
0.0
  0
VERTEX
  5
2D6
  8
0
  6
CONTINUOUS
 62
     7
 10
-7.926197544496014
 20
152.1148083517801
 30
0.0
  0
VERTEX
  5
2D7
  8
0
  6
CONTINUOUS
 62
     7
 10
-7.904552352343788
 20
152.1153030829414
 30
0.0
  0
SEQEND
  5
384
  8
0
  6
CONTINUOUS
 62
     7
  0
LINE
  5
FA
  8
0
  6
CONTINUOUS
 62
     7
 10
9.488576094114118
 20
126.770694151384
 30
0.0
 11
9.48857609411411
 21
121.770694151384
 31
0.0
  0
ARC
  5
FB
  8
0
  6
CONTINUOUS
 62
     7
 10
23.84544764765618
 20
113.4074243442994
 30
0.0
 40
10.0
 50
160.0
 51
180.0
  0
LINE
  5
FC
  8
0
  6
CONTINUOUS
 62
     7
 10
13.84544764765619
 20
107.220694151384
 30
0.0
 11
13.84544764765619
 21
113.4074243442994
 31
0.0
  0
LINE
  5
FD
  8
0
  6
CONTINUOUS
 62
     7
 10
-5.050360585239111
 20
135.3957168374282
 30
0.0
 11
-6.796857197757071
 21
135.3957168374282
 31
0.0
  0
LINE
  5
FE
  8
0
  6
CONTINUOUS
 62
     7
 10
-7.786600516367869
 20
135.2674204214972
 30
0.0
 11
-6.796857197757078
 21
135.3957168374282
 31
0.0
  0
ARC
  5
FF
  8
0
  6
CONTINUOUS
 62
     7
 10
6.645166298823363
 20
155.3862915721059
 30
0.0
 40
2.065900752292171
 50
170.6161109869237
 51
223.6179140773186
  0
LINE
  5
100
  8
0
  6
CONTINUOUS
 62
     7
 10
4.606911330836974
 20
155.7231336772532
 30
0.0
 11
4.650413781300974
 21
155.8630018436919
 31
0.0
  0
LINE
  5
101
  8
0
  6
CONTINUOUS
 62
     7
 10
-6.654552352343829
 20
107.220694151384
 30
0.0
 11
-6.10455235234382
 21
106.670694151384
 31
0.0
  0
LINE
  5
102
  8
0
  6
CONTINUOUS
 62
     7
 10
-6.104552352343834
 20
106.670694151384
 30
0.0
 11
-6.104552352343834
 21
101.670694151384
 31
0.0
  0
LINE
  5
103
  8
0
  6
CONTINUOUS
 62
     7
 10
-7.904552352343829
 20
162.8575227920955
 30
0.0
 11
-6.904552352343829
 21
162.8575227920955
 31
0.0
  0
ARC
  5
104
  8
0
  6
CONTINUOUS
 62
     7
 10
-3.190896038424665
 20
140.8283023344222
 30
0.0
 40
3.917002982866169
 50
296.3479663750877
 51
333.7686327136633
  0
LINE
  5
105
  8
0
  6
CONTINUOUS
 62
     7
 10
13.29544764765619
 20
101.670694151384
 30
0.0
 11
13.2954476476562
 21
106.670694151384
 31
0.0
  0
LINE
  5
106
  8
0
  6
CONTINUOUS
 62
     7
 10
-7.404552352343815
 20
127.470694151384
 30
0.0
 11
-6.704552352343809
 21
126.770694151384
 31
0.0
  0
LINE
  5
107
  8
0
  6
CONTINUOUS
 62
     7
 10
-6.704552352343823
 20
121.770694151384
 30
0.0
 11
-7.404552352343822
 21
121.070694151384
 31
0.0
  0
LINE
  5
108
  8
0
  6
CONTINUOUS
 62
     7
 10
13.29544764765617
 20
106.670694151384
 30
0.0
 11
13.84544764765617
 21
107.220694151384
 31
0.0
  0
LINE
  5
109
  8
0
  6
CONTINUOUS
 62
     7
 10
13.29544764765618
 20
99.520694151384
 30
0.0
 11
13.14544764765618
 21
99.670694151384
 31
0.0
  0
LINE
  5
10A
  8
0
  6
CONTINUOUS
 62
     7
 10
-6.104552352343834
 20
99.520694151384
 30
0.0
 11
-6.104552352343834
 21
98.670694151384
 31
0.0
  0
LINE
  5
10B
  8
0
  6
CONTINUOUS
 62
     7
 10
-5.954552352343822
 20
99.670694151384
 30
0.0
 11
-6.104552352343827
 21
99.520694151384
 31
0.0
  0
ARC
  5
10C
  8
0
  6
CONTINUOUS
 62
     7
 10
12.24316896242669
 20
158.561895356218
 30
0.0
 40
5.725022981703868
 50
101.5647098576745
 51
157.9227682383321
  0
ARC
  5
10D
  8
0
  6
CONTINUOUS
 62
     7
 10
36.27505979613026
 20
143.9140395173851
 30
0.0
 40
33.8067439461235
 50
150.2027949785059
 51
159.3015784158765
  0
LINE
  5
10E
  8
0
  6
CONTINUOUS
 62
     7
 10
-6.404552352343829
 20
165.0706941513841
 30
0.0
 11
-6.404552352343829
 21
164.9353038488736
 31
0.0
  0
LINE
  5
10F
  8
0
  6
CONTINUOUS
 62
     7
 10
-6.404552352343829
 20
147.1001673860853
 30
0.0
 11
-6.404552352343829
 21
146.7518965530716
 31
0.0
  0
LINE
  5
110
  8
0
  6
CONTINUOUS
 62
     7
 10
13.89544764765618
 20
126.770694151384
 30
0.0
 11
14.59544764765619
 21
127.470694151384
 31
0.0
  0
LINE
  5
111
  8
0
  6
CONTINUOUS
 62
     7
 10
-2.404552352343756
 20
144.6706941513841
 30
0.0
 11
-2.404552352343756
 21
143.5248608180508
 31
0.0
  0
LINE
  5
112
  8
0
  6
CONTINUOUS
 62
     7
 10
-0.4045523523437539
 20
151.6706941513841
 30
0.0
 11
13.59544764669264
 21
151.6706941513841
 31
0.0
  0
LINE
  5
113
  8
0
  6
CONTINUOUS
 62
     7
 10
-7.904552352343829
 20
162.8575227920955
 30
0.0
 11
-8.40455235234383
 21
162.9601618053002
 31
0.0
  0
LINE
  5
114
  8
0
  6
CONTINUOUS
 62
     7
 10
-5.050360585239111
 20
135.3957168374282
 30
0.0
 11
-5.050360585239104
 21
135.1706941513841
 31
0.0
  0
LINE
  5
115
  8
0
  6
CONTINUOUS
 62
     7
 10
5.149544620262791
 20
153.9611383477328
 30
0.0
 11
4.226967293199685
 21
154.9625704336914
 31
0.0
  0
LINE
  5
116
  8
0
  6
CONTINUOUS
 62
     7
 10
13.59544764701365
 20
146.6706941513841
 30
0.0
 11
-0.4045523523437521
 21
146.6706941513841
 31
0.0
  0
LINE
  5
117
  8
0
  6
CONTINUOUS
 62
     7
 10
4.226967293201795
 20
154.9625704336908
 30
0.0
 11
3.655386367643912
 21
155.7243917950317
 31
0.0
  0
LINE
  5
118
  8
0
  6
CONTINUOUS
 62
     7
 10
-22.30455235234377
 20
163.1706941513841
 30
0.0
 11
-22.30455235234377
 21
135.1706941513841
 31
0.0
  0
LINE
  5
119
  8
0
  6
CONTINUOUS
 62
     7
 10
-6.404552352343829
 20
164.9353038488736
 30
0.0
 11
-6.404552352343829
 21
162.9601618053002
 31
0.0
  0
POLYLINE
  5
11A
  8
0
  6
CONTINUOUS
 62
     7
 66
     1
 10
0.0
 20
0.0
 30
0.0
  0
VERTEX
  5
2D8
  8
0
  6
CONTINUOUS
 62
     7
 10
-6.404552352343829
 20
146.7518965530716
 30
0.0
  0
VERTEX
  5
2D9
  8
0
  6
CONTINUOUS
 62
     7
 10
-6.404922049780909
 20
146.7317502414253
 30
0.0
  0
VERTEX
  5
2DA
  8
0
  6
CONTINUOUS
 62
     7
 10
-6.406032000648751
 20
146.7116090940446
 30
0.0
  0
VERTEX
  5
2DB
  8
0
  6
CONTINUOUS
 62
     7
 10
-6.407888928441074
 20
146.6914465134145
 30
0.0
  0
VERTEX
  5
2DC
  8
0
  6
CONTINUOUS
 62
     7
 10
-6.410491187534673
 20
146.6713422923112
 30
0.0
  0
VERTEX
  5
2DD
  8
0
  6
CONTINUOUS
 62
     7
 10
-6.413889332117894
 20
146.6510507987397
 30
0.0
  0
VERTEX
  5
2DE
  8
0
  6
CONTINUOUS
 62
     7
 10
-6.418052231118243
 20
146.6308744358085
 30
0.0
  0
VERTEX
  5
2DF
  8
0
  6
CONTINUOUS
 62
     7
 10
-6.42299313773334
 20
146.6107862303019
 30
0.0
  0
VERTEX
  5
2E0
  8
0
  6
CONTINUOUS
 62
     7
 10
-6.428699577375574
 20
146.5908706644307
 30
0.0
  0
VERTEX
  5
2E1
  8
0
  6
CONTINUOUS
 62
     7
 10
-6.435930966799313
 20
146.5689901799339
 30
0.0
  0
VERTEX
  5
2E2
  8
0
  6
CONTINUOUS
 62
     7
 10
-6.444100121768867
 20
146.5473943438646
 30
0.0
  0
VERTEX
  5
2E3
  8
0
  6
CONTINUOUS
 62
     7
 10
-6.453235936274754
 20
146.5260484823466
 30
0.0
  0
VERTEX
  5
2E4
  8
0
  6
CONTINUOUS
 62
     7
 10
-6.46330467353387
 20
146.5050713309253
 30
0.0
  0
VERTEX
  5
2E5
  8
0
  6
CONTINUOUS
 62
     7
 10
-6.4745166424537
 20
146.48411817378
 30
0.0
  0
VERTEX
  5
2E6
  8
0
  6
CONTINUOUS
 62
     7
 10
-6.486680403705883
 20
146.463635912412
 30
0.0
  0
VERTEX
  5
2E7
  8
0
  6
CONTINUOUS
 62
     7
 10
-6.499838887794679
 20
146.4435922201689
 30
0.0
  0
VERTEX
  5
2E8
  8
0
  6
CONTINUOUS
 62
     7
 10
-6.513932900587271
 20
146.4241164339645
 30
0.0
  0
VERTEX
  5
2E9
  8
0
  6
CONTINUOUS
 62
     7
 10
-6.52793200815914
 20
146.4064771621522
 30
0.0
  0
VERTEX
  5
2EA
  8
0
  6
CONTINUOUS
 62
     7
 10
-6.542718925305446
 20
146.3894171644972
 30
0.0
  0
VERTEX
  5
2EB
  8
0
  6
CONTINUOUS
 62
     7
 10
-6.558338212146547
 20
146.3729151914613
 30
0.0
  0
VERTEX
  5
2EC
  8
0
  6
CONTINUOUS
 62
     7
 10
-6.574717229170898
 20
146.3570778007924
 30
0.0
  0
VERTEX
  5
2ED
  8
0
  6
CONTINUOUS
 62
     7
 10
-6.592196188956928
 20
146.3416419021667
 30
0.0
  0
VERTEX
  5
2EE
  8
0
  6
CONTINUOUS
 62
     7
 10
-6.610422125659585
 20
146.3269843648633
 30
0.0
  0
VERTEX
  5
2EF
  8
0
  6
CONTINUOUS
 62
     7
 10
-6.629452936158215
 20
146.313090436135
 30
0.0
  0
VERTEX
  5
2F0
  8
0
  6
CONTINUOUS
 62
     7
 10
-6.649180552784781
 20
146.300070400824
 30
0.0
  0
VERTEX
  5
2F1
  8
0
  6
CONTINUOUS
 62
     7
 10
-6.667386778838171
 20
146.2892024412239
 30
0.0
  0
VERTEX
  5
2F2
  8
0
  6
CONTINUOUS
 62
     7
 10
-6.686093721803732
 20
146.2791018172743
 30
0.0
  0
VERTEX
  5
2F3
  8
0
  6
CONTINUOUS
 62
     7
 10
-6.705348050613444
 20
146.2697639159659
 30
0.0
  0
VERTEX
  5
2F4
  8
0
  6
CONTINUOUS
 62
     7
 10
-6.725047307970091
 20
146.2612585766339
 30
0.0
  0
VERTEX
  5
2F5
  8
0
  6
CONTINUOUS
 62
     7
 10
-6.745582937705219
 20
146.2534633893086
 30
0.0
  0
VERTEX
  5
2F6
  8
0
  6
CONTINUOUS
 62
     7
 10
-6.766510609537563
 20
146.2465933262886
 30
0.0
  0
VERTEX
  5
2F7
  8
0
  6
CONTINUOUS
 62
     7
 10
-6.787884445426162
 20
146.2406511628941
 30
0.0
  0
VERTEX
  5
2F8
  8
0
  6
CONTINUOUS
 62
     7
 10
-6.809570338731224
 20
146.235694036594
 30
0.0
  0
VERTEX
  5
2F9
  8
0
  6
CONTINUOUS
 62
     7
 10
-6.832938714826139
 20
146.2315260327799
 30
0.0
  0
VERTEX
  5
2FA
  8
0
  6
CONTINUOUS
 62
     7
 10
-6.856555717364598
 20
146.2285222582619
 30
0.0
  0
VERTEX
  5
2FB
  8
0
  6
CONTINUOUS
 62
     7
 10
-6.880489394095135
 20
146.2266967137204
 30
0.0
  0
VERTEX
  5
2FC
  8
0
  6
CONTINUOUS
 62
     7
 10
-6.904552352343829
 20
146.2260852198275
 30
0.0
  0
SEQEND
  5
385
  8
0
  6
CONTINUOUS
 62
     7
  0
ARC
  5
11B
  8
0
  6
CONTINUOUS
 62
     7
 10
9.32395974598127
 20
112.8224574046231
 30
0.0
 40
26.7614111437581
 50
113.7461071368018
 51
122.488385915058
  0
LINE
  5
11C
  8
0
  6
CONTINUOUS
 62
     7
 10
23.69544764765637
 20
150.9706941513842
 30
0.0
 11
23.69544764765637
 21
147.3706941513843
 31
0.0
  0
LINE
  5
11D
  8
0
  6
CONTINUOUS
 62
     7
 10
-7.20455235234381
 20
131.170694151384
 30
0.0
 11
-7.404552352343815
 21
130.970694151384
 31
0.0
  0
LINE
  5
11E
  8
0
  6
CONTINUOUS
 62
     7
 10
-6.304047288955464
 20
134.1706941513841
 30
0.0
 11
13.08566051506367
 21
134.1706941513841
 31
0.0
  0
POLYLINE
  5
11F
  8
0
  6
CONTINUOUS
 62
     7
 66
     1
 10
0.0
 20
0.0
 30
0.0
  0
VERTEX
  5
2FD
  8
0
  6
CONTINUOUS
 62
     7
 10
-5.050360585239111
 20
135.1706941513841
 30
0.0
  0
VERTEX
  5
2FE
  8
0
  6
CONTINUOUS
 62
     7
 10
-5.050832514055969
 20
135.1352669270977
 30
0.0
  0
VERTEX
  5
2FF
  8
0
  6
CONTINUOUS
 62
     7
 10
-5.052249927610636
 20
135.0998397028112
 30
0.0
  0
VERTEX
  5
300
  8
0
  6
CONTINUOUS
 62
     7
 10
-5.054623371984756
 20
135.0643423612269
 30
0.0
  0
VERTEX
  5
301
  8
0
  6
CONTINUOUS
 62
     7
 10
-5.057944238819778
 20
135.0289852542383
 30
0.0
  0
VERTEX
  5
302
  8
0
  6
CONTINUOUS
 62
     7
 10
-5.062299586315155
 20
134.9931269611159
 30
0.0
  0
VERTEX
  5
303
  8
0
  6
CONTINUOUS
 62
     7
 10
-5.067618306931365
 20
134.9575564709026
 30
0.0
  0
VERTEX
  5
304
  8
0
  6
CONTINUOUS
 62
     7
 10
-5.073909490308809
 20
134.9222037962459
 30
0.0
  0
VERTEX
  5
305
  8
0
  6
CONTINUOUS
 62
     7
 10
-5.081132614565983
 20
134.8872763570925
 30
0.0
  0
VERTEX
  5
306
  8
0
  6
CONTINUOUS
 62
     7
 10
-5.088898047599807
 20
134.8542949686765
 30
0.0
  0
VERTEX
  5
307
  8
0
  6
CONTINUOUS
 62
     7
 10
-5.097470440869542
 20
134.8218139110674
 30
0.0
  0
VERTEX
  5
308
  8
0
  6
CONTINUOUS
 62
     7
 10
-5.106925936073398
 20
134.7895489901391
 30
0.0
  0
VERTEX
  5
309
  8
0
  6
CONTINUOUS
 62
     7
 10
-5.117133479534658
 20
134.7579362577014
 30
0.0
  0
VERTEX
  5
30A
  8
0
  6
CONTINUOUS
 62
     7
 10
-5.128131042759831
 20
134.7268229912601
 30
0.0
  0
VERTEX
  5
30B
  8
0
  6
CONTINUOUS
 62
     7
 10
-5.139824027111689
 20
134.6964378572323
 30
0.0
  0
VERTEX
  5
30C
  8
0
  6
CONTINUOUS
 62
     7
 10
-5.15232493206598
 20
134.6664737298128
 30
0.0
  0
VERTEX
  5
30D
  8
0
  6
CONTINUOUS
 62
     7
 10
-5.165487783753697
 20
134.63726849114
 30
0.0
  0
VERTEX
  5
30E
  8
0
  6
CONTINUOUS
 62
     7
 10
-5.179877409070347
 20
134.6076637217459
 30
0.0
  0
VERTEX
  5
30F
  8
0
  6
CONTINUOUS
 62
     7
 10
-5.194916111478515
 20
134.5789362880493
 30
0.0
  0
VERTEX
  5
310
  8
0
  6
CONTINUOUS
 62
     7
 10
-5.210611644409085
 20
134.5510346429097
 30
0.0
  0
VERTEX
  5
311
  8
0
  6
CONTINUOUS
 62
     7
 10
-5.226889370714193
 20
134.5240568997022
 30
0.0
  0
VERTEX
  5
312
  8
0
  6
CONTINUOUS
 62
     7
 10
-5.24393579128049
 20
134.4976897691671
 30
0.0
  0
VERTEX
  5
313
  8
0
  6
CONTINUOUS
 62
     7
 10
-5.261510744432554
 20
134.4723011352025
 30
0.0
  0
VERTEX
  5
314
  8
0
  6
CONTINUOUS
 62
     7
 10
-5.279624102818209
 20
134.4478468522987
 30
0.0
  0
VERTEX
  5
315
  8
0
  6
CONTINUOUS
 62
     7
 10
-5.298203289450992
 20
134.4243973446696
 30
0.0
  0
VERTEX
  5
316
  8
0
  6
CONTINUOUS
 62
     7
 10
-5.320310653842614
 20
134.3984511075742
 30
0.0
  0
VERTEX
  5
317
  8
0
  6
CONTINUOUS
 62
     7
 10
-5.342962408939083
 20
134.3738746086273
 30
0.0
  0
VERTEX
  5
318
  8
0
  6
CONTINUOUS
 62
     7
 10
-5.366177676104811
 20
134.3506160821163
 30
0.0
  0
VERTEX
  5
319
  8
0
  6
CONTINUOUS
 62
     7
 10
-5.3898543061352
 20
134.3287503911459
 30
0.0
  0
VERTEX
  5
31A
  8
0
  6
CONTINUOUS
 62
     7
 10
-5.414267244923165
 20
134.3080270295672
 30
0.0
  0
VERTEX
  5
31B
  8
0
  6
CONTINUOUS
 62
     7
 10
-5.439073283854345
 20
134.2887430372472
 30
0.0
  0
VERTEX
  5
31C
  8
0
  6
CONTINUOUS
 62
     7
 10
-5.464295349963025
 20
134.2708614431408
 30
0.0
  0
VERTEX
  5
31D
  8
0
  6
CONTINUOUS
 62
     7
 10
-5.489838191810037
 20
134.2544337497555
 30
0.0
  0
VERTEX
  5
31E
  8
0
  6
CONTINUOUS
 62
     7
 10
-5.519678119632442
 20
134.2372821202036
 30
0.0
  0
VERTEX
  5
31F
  8
0
  6
CONTINUOUS
 62
     7
 10
-5.549854031167047
 20
134.2220748812116
 30
0.0
  0
VERTEX
  5
320
  8
0
  6
CONTINUOUS
 62
     7
 10
-5.580405515673376
 20
134.2087831982311
 30
0.0
  0
VERTEX
  5
321
  8
0
  6
CONTINUOUS
 62
     7
 10
-5.611198355511992
 20
134.1974611699125
 30
0.0
  0
VERTEX
  5
322
  8
0
  6
CONTINUOUS
 62
     7
 10
-5.642638692643628
 20
134.187995632426
 30
0.0
  0
VERTEX
  5
323
  8
0
  6
CONTINUOUS
 62
     7
 10
-5.674234218151594
 20
134.1805752836684
 30
0.0
  0
VERTEX
  5
324
  8
0
  6
CONTINUOUS
 62
     7
 10
-5.70602963920383
 20
134.1751986940126
 30
0.0
  0
VERTEX
  5
325
  8
0
  6
CONTINUOUS
 62
     7
 10
-5.737890135785239
 20
134.1719021972724
 30
0.0
  0
VERTEX
  5
326
  8
0
  6
CONTINUOUS
 62
     7
 10
-5.768323561451904
 20
134.1707085611587
 30
0.0
  0
VERTEX
  5
327
  8
0
  6
CONTINUOUS
 62
     7
 10
-5.77204934994141
 20
134.1706941513841
 30
0.0
  0
SEQEND
  5
386
  8
0
  6
CONTINUOUS
 62
     7
  0
LINE
  5
120
  8
0
  6
CONTINUOUS
 62
     7
 10
-8.40455235234383
 20
162.9601618053002
 30
0.0
 11
-8.40455235234383
 21
164.9353038488736
 31
0.0
  0
LINE
  5
121
  8
0
  6
CONTINUOUS
 62
     7
 10
-8.40455235234383
 20
164.9353038488736
 30
0.0
 11
-8.40455235234383
 21
165.0706941513841
 31
0.0
  0
ARC
  5
122
  8
0
  6
CONTINUOUS
 62
     7
 10
-0.40455235234374
 20
153.6706941513842
 30
0.0
 40
2.000000000000016
 50
180.0000000000008
 51
269.9999999999996
  0
LINE
  5
123
  8
0
  6
CONTINUOUS
 62
     7
 10
-7.404552352343815
 20
121.070694151384
 30
0.0
 11
-7.404552352343815
 21
117.231302215975
 31
0.0
  0
LINE
  5
124
  8
0
  6
CONTINUOUS
 62
     7
 10
14.59544764765619
 20
117.231302215975
 30
0.0
 11
14.59544764765619
 21
121.070694151384
 31
0.0
  0
LINE
  5
125
  8
0
  6
CONTINUOUS
 62
     7
 10
-7.904552352343829
 20
146.2260852198275
 30
0.0
 11
-6.904552352343829
 21
146.2260852198275
 31
0.0
  0
LINE
  5
126
  8
0
  6
CONTINUOUS
 62
     7
 10
-6.404552352343829
 20
162.9601618053002
 30
0.0
 11
-6.904552352343822
 21
162.8575227920955
 31
0.0
  0
ARC
  5
127
  8
0
  6
CONTINUOUS
 62
     7
 10
-0.4045523523437677
 20
144.6706941513842
 30
0.0
 40
1.999999999999974
 50
89.99999999999962
 51
180.0000000000008
  0
LINE
  5
128
  8
0
  6
CONTINUOUS
 62
     7
 10
-23.30455235234377
 20
136.1706941513841
 30
0.0
 11
-23.30455235234377
 21
162.1706941513841
 31
0.0
  0
LINE
  5
129
  8
0
  6
CONTINUOUS
 62
     7
 10
-7.904552352343802
 20
131.2706941513841
 30
0.0
 11
15.0954476476562
 21
131.2706941513841
 31
0.0
  0
LINE
  5
12A
  8
0
  6
CONTINUOUS
 62
     7
 10
23.19544764765637
 20
146.8706941513842
 30
0.0
 11
23.19544764765637
 21
151.4706941513842
 31
0.0
  0
LINE
  5
12B
  8
0
  6
CONTINUOUS
 62
     7
 10
-7.404552352343815
 20
117.231302215975
 30
0.0
 11
-7.257626144484726
 21
116.8276257775561
 31
0.0
  0
LINE
  5
12C
  8
0
  6
CONTINUOUS
 62
     7
 10
14.44852143979709
 20
116.8276257775561
 30
0.0
 11
14.59544764765618
 21
117.231302215975
 31
0.0
  0
ARC
  5
12D
  8
0
  6
CONTINUOUS
 62
     7
 10
-16.65455235234382
 20
113.4074243442994
 30
0.0
 40
9.999999999999998
 50
0.0
 51
19.99999999999994
  0
LINE
  5
12E
  8
0
  6
CONTINUOUS
 62
     7
 10
-6.654552352343814
 20
113.4074243442994
 30
0.0
 11
-6.654552352343821
 21
107.220694151384
 31
0.0
  0
LINE
  5
12F
  8
0
  6
CONTINUOUS
 62
     7
 10
-13.30455235234376
 20
163.1706941513841
 30
0.0
 11
-13.30455235234377
 21
135.1706941513841
 31
0.0
  0
LINE
  5
130
  8
0
  6
CONTINUOUS
 62
     7
 10
-2.404552352343756
 20
161.1706941513841
 30
0.0
 11
-2.404552352343756
 21
153.6706941513841
 31
0.0
  0
LINE
  5
131
  8
0
  6
CONTINUOUS
 62
     7
 10
-7.404552352343815
 20
130.970694151384
 30
0.0
 11
-7.404552352343815
 21
127.470694151384
 31
0.0
  0
LINE
  5
132
  8
0
  6
CONTINUOUS
 62
     7
 10
-8.40455235234383
 20
146.7518965530716
 30
0.0
 11
-8.40455235234383
 21
147.1001673860853
 31
0.0
  0
LINE
  5
133
  8
0
  6
CONTINUOUS
 62
     7
 10
-7.786600516367856
 20
135.2674204214972
 30
0.0
 11
-7.904552352343254
 21
135.1706941513845
 31
0.0
  0
LINE
  5
134
  8
0
  6
CONTINUOUS
 62
     7
 10
14.59544764765619
 20
127.470694151384
 30
0.0
 11
14.59544764765619
 21
130.970694151384
 31
0.0
  0
LINE
  5
135
  8
0
  6
CONTINUOUS
 62
     7
 10
5.64285829001189
 20
153.7306941513803
 30
0.0
 11
5.149544620262787
 21
153.9611383477328
 31
0.0
  0
LINE
  5
136
  8
0
  6
CONTINUOUS
 62
     7
 10
14.59544764765619
 20
130.970694151384
 30
0.0
 11
14.39544764765619
 21
131.170694151384
 31
0.0
  0
LINE
  5
137
  8
0
  6
CONTINUOUS
 62
     7
 10
-16.80455235234375
 20
163.1706941513841
 30
0.0
 11
-16.80455235234375
 21
135.1706941513841
 31
0.0
  0
LINE
  5
138
  8
0
  6
CONTINUOUS
 62
     7
 10
14.59544764765619
 20
121.070694151384
 30
0.0
 11
13.89544764765619
 21
121.770694151384
 31
0.0
  0
LINE
  5
139
  8
0
  6
CONTINUOUS
 62
     7
 10
14.99544764765619
 20
131.1706941513841
 30
0.0
 11
-7.804552352343813
 21
131.1706941513841
 31
0.0
  0
LINE
  5
13A
  8
0
  6
CONTINUOUS
 62
     7
 10
-80.80455235234388
 20
134.1706941536956
 30
0.0
 11
-85.80455235234369
 21
134.1706941536956
 31
0.0
  0
LINE
  5
13B
  8
0
  6
CONTINUOUS
 62
     7
 10
-85.80455235234372
 20
164.1706941536951
 30
0.0
 11
-80.80455235234398
 21
164.1706941536951
 31
0.0
  0
LINE
  5
13C
  8
0
  6
CONTINUOUS
 62
     7
 10
-95.80455235234372
 20
139.1706941533745
 30
0.0
 11
-95.80455235234372
 21
159.1706941533741
 31
0.0
  0
LINE
  5
13D
  8
0
  6
CONTINUOUS
 62
     7
 10
-50.8045523523438
 20
164.1706941537913
 30
0.0
 11
-51.80455235234377
 21
164.1706941537913
 31
0.0
  0
LINE
  5
13E
  8
0
  6
CONTINUOUS
 62
     7
 10
-8.40455235234383
 20
163.1706941513841
 30
0.0
 11
-13.30455235234376
 21
163.1706941513841
 31
0.0
  0
ARC
  5
13F
  8
0
  6
CONTINUOUS
 62
     7
 10
11.09544764765588
 20
156.6706941513842
 30
0.0
 40
7.500000000000006
 50
90.00000000000004
 51
187.2527127721143
  0
LINE
  5
140
  8
0
  6
CONTINUOUS
 62
     7
 10
-51.80455235234374
 20
134.1706941537919
 30
0.0
 11
-50.80455235234376
 21
134.1706941537919
 31
0.0
  0
LINE
  5
141
  8
0
  6
CONTINUOUS
 62
     7
 10
-79.8045523523437
 20
164.1706941537913
 30
0.0
 11
-80.80455235234366
 21
164.1706941537913
 31
0.0
  0
ARC
  5
142
  8
0
  6
CONTINUOUS
 62
     7
 10
13.04544764765618
 20
99.820694151384
 30
0.0
 40
0.1500000000000112
 50
180.0
 51
270.0
  0
CIRCLE
  5
143
  8
0
  6
CONTINUOUS
 62
     7
 10
-39.80455235234373
 20
149.1706941533743
 30
0.0
 40
2.499999999999919
  0
LINE
  5
144
  8
0
  6
CONTINUOUS
 62
     7
 10
-80.80455235234365
 20
134.1706941537919
 30
0.0
 11
-79.80455235234368
 21
134.1706941537919
 31
0.0
  0
LINE
  5
145
  8
0
  6
CONTINUOUS
 62
     7
 10
23.19544764765637
 20
146.8706941513842
 30
0.0
 11
23.69544764765637
 21
147.3706941513842
 31
0.0
  0
LINE
  5
146
  8
0
  6
CONTINUOUS
 62
     7
 10
23.69544764765637
 20
150.9706941513842
 30
0.0
 11
23.19544764765637
 21
151.4706941513842
 31
0.0
  0
LINE
  5
147
  8
0
  6
CONTINUOUS
 62
     7
 10
13.59544764589011
 20
164.1706941523791
 30
0.0
 11
11.09544764765588
 21
164.1706941513842
 31
0.0
  0
LINE
  5
148
  8
0
  6
CONTINUOUS
 62
     7
 10
-7.904552352343802
 20
131.2706941513841
 30
0.0
 11
-7.804552352343806
 21
131.1706941513841
 31
0.0
  0
LINE
  5
149
  8
0
  6
CONTINUOUS
 62
     7
 10
15.09544764765619
 20
131.2706941513841
 30
0.0
 11
15.09544764765619
 21
134.1706941513842
 31
0.0
  0
LINE
  5
14A
  8
0
  6
CONTINUOUS
 62
     7
 10
-6.904552352343829
 20
165.5706941513841
 30
0.0
 11
-7.904552352343823
 21
165.5706941513841
 31
0.0
  0
LINE
  5
14B
  8
0
  6
CONTINUOUS
 62
     7
 10
-7.904552352343802
 20
135.1706941513841
 30
0.0
 11
-7.904552352343802
 21
131.2706941513841
 31
0.0
  0
ARC
  5
14C
  8
0
  6
CONTINUOUS
 62
     7
 10
-6.904552352343829
 20
165.0706941513841
 30
0.0
 40
0.5000000000000004
 50
359.9999999999873
 51
90.0
  0
LINE
  5
14D
  8
0
  6
CONTINUOUS
 62
     7
 10
-40.80455235234373
 20
164.1706941533741
 30
0.0
 11
-45.80455235234375
 21
164.1706941533741
 31
0.0
  0
ARC
  5
14E
  8
0
  6
CONTINUOUS
 62
     7
 10
-90.80455235234372
 20
159.1706941533741
 30
0.0
 40
5.000000000000004
 50
90.0
 51
180.0000000000005
  0
LINE
  5
14F
  8
0
  6
CONTINUOUS
 62
     7
 10
-5.704552352343822
 20
100.670694151384
 30
0.0
 11
-5.704552352343822
 21
99.820694151384
 31
0.0
  0
LINE
  5
150
  8
0
  6
CONTINUOUS
 62
     7
 10
-7.904552352343802
 20
135.1710926477101
 30
0.0
 11
-7.904552352343802
 21
135.1706941513841
 31
0.0
  0
LINE
  5
151
  8
0
  6
CONTINUOUS
 62
     7
 10
-22.30455235234377
 20
135.1706941513841
 30
0.0
 11
-16.80455235234377
 21
135.1706941513841
 31
0.0
  0
LINE
  5
152
  8
0
  6
CONTINUOUS
 62
     7
 10
13.29544764765618
 20
98.670694151384
 30
0.0
 11
13.29544764765618
 21
99.520694151384
 31
0.0
  0
LINE
  5
153
  8
0
  6
CONTINUOUS
 62
     7
 10
12.89544764765618
 20
99.820694151384
 30
0.0
 11
12.89544764765618
 21
100.670694151384
 31
0.0
  0
ARC
  5
154
  8
0
  6
CONTINUOUS
 62
     7
 10
9.045447647656177
 20
97.47069415138401
 30
0.0
 40
0.7999999999999952
 50
270.0
 51
0.0
  0
LINE
  5
155
  8
0
  6
CONTINUOUS
 62
     7
 10
-16.80455235234375
 20
135.9206941513841
 30
0.0
 11
-13.30455235234376
 21
135.9206941513841
 31
0.0
  0
ARC
  5
156
  8
0
  6
CONTINUOUS
 62
     7
 10
-4.404552352343758
 20
161.1706941513841
 30
0.0
 40
2.000000000000002
 50
0.0000000000001953
 51
89.99999999999996
  0
ARC
  5
157
  8
0
  6
CONTINUOUS
 62
     7
 10
-0.4045523523437539
 20
159.5356108824212
 30
0.0
 40
1.999999999999989
 50
180.0
 51
255.52248781407
  0
ARC
  5
158
  8
0
  6
CONTINUOUS
 62
     7
 10
-7.904552352343829
 20
165.0706941513841
 30
0.0
 40
0.5000000000000004
 50
90.0
 51
180.0000000000128
  0
LINE
  5
159
  8
0
  6
CONTINUOUS
 62
     7
 10
-90.80455235234372
 20
164.1706941533741
 30
0.0
 11
-85.8045523523437
 21
164.1706941533741
 31
0.0
  0
CIRCLE
  5
15A
  8
0
  6
CONTINUOUS
 62
     7
 10
-91.80455235234369
 20
149.1706941533743
 30
0.0
 40
2.499999999999919
  0
LINE
  5
15B
  8
0
  6
CONTINUOUS
 62
     7
 10
-13.30455235234376
 20
135.1706941513841
 30
0.0
 11
-7.904552352343809
 21
135.1706941513841
 31
0.0
  0
LINE
  5
15C
  8
0
  6
CONTINUOUS
 62
     7
 10
-22.30455235234377
 20
163.1706941513841
 30
0.0
 11
-23.30455235234377
 21
162.1706941513841
 31
0.0
  0
LINE
  5
15D
  8
0
  6
CONTINUOUS
 62
     7
 10
-16.80455235234375
 20
163.1706941513841
 30
0.0
 11
-22.30455235234376
 21
163.1706941513841
 31
0.0
  0
LINE
  5
15E
  8
0
  6
CONTINUOUS
 62
     7
 10
-23.30455235234377
 20
136.1706941513841
 30
0.0
 11
-22.30455235234377
 21
135.1706941513841
 31
0.0
  0
ARC
  5
15F
  8
0
  6
CONTINUOUS
 62
     7
 10
-40.80455235234373
 20
139.1706941533745
 30
0.0
 40
4.999999999999977
 50
269.9999999999999
 51
359.9999999999998
  0
LINE
  5
160
  8
0
  6
CONTINUOUS
 62
     7
 10
23.09544764700064
 20
146.8706941513842
 30
0.0
 11
23.19544764765637
 21
146.8706941513842
 31
0.0
  0
LINE
  5
161
  8
0
  6
CONTINUOUS
 62
     7
 10
-6.10455235234382
 20
98.670694151384
 30
0.0
 11
-5.804552352343818
 21
97.670694151384
 31
0.0
  0
LINE
  5
162
  8
0
  6
CONTINUOUS
 62
     7
 10
14.99544764765619
 20
131.1706941513841
 30
0.0
 11
15.09544764765619
 21
131.2706941513841
 31
0.0
  0
LINE
  5
163
  8
0
  6
CONTINUOUS
 62
     7
 10
-35.80455235234373
 20
139.1706941533745
 30
0.0
 11
-35.80455235234373
 21
159.1706941533741
 31
0.0
  0
ARC
  5
164
  8
0
  6
CONTINUOUS
 62
     7
 10
-40.80455235234373
 20
159.1706941533741
 30
0.0
 40
4.999999999999997
 50
359.9999999999996
 51
90.0
  0
ARC
  5
165
  8
0
  6
CONTINUOUS
 62
     7
 10
-1.85455235234383
 20
97.47069415138401
 30
0.0
 40
0.800000000000002
 50
180.0
 51
270.0
  0
ARC
  5
166
  8
0
  6
CONTINUOUS
 62
     7
 10
-90.80455235234372
 20
139.1706941533745
 30
0.0
 40
5.000000000000004
 50
180.0000000000001
 51
270.0000000000001
  0
LINE
  5
167
  8
0
  6
CONTINUOUS
 62
     7
 10
9.845447647656187
 20
97.47069415138401
 30
0.0
 11
9.845447647656187
 21
97.67069415138398
 31
0.0
  0
LINE
  5
168
  8
0
  6
CONTINUOUS
 62
     7
 10
-7.904552352343802
 20
135.1706941513841
 30
0.0
 11
-7.904067185573446
 21
135.1706941513841
 31
0.0
  0
LINE
  5
169
  8
0
  6
CONTINUOUS
 62
     7
 10
-45.80455235234373
 20
134.1706941536956
 30
0.0
 11
-50.80455235234349
 21
134.1706941536956
 31
0.0
  0
LINE
  5
16A
  8
0
  6
CONTINUOUS
 62
     7
 10
-50.80455235234374
 20
134.1706941536956
 30
0.0
 11
-50.80455235234374
 21
146.4576327607637
 31
0.0
  0
LINE
  5
16B
  8
0
  6
CONTINUOUS
 62
     7
 10
12.99544764765617
 20
97.670694151384
 30
0.0
 11
13.29544764765617
 21
98.670694151384
 31
0.0
  0
LINE
  5
16C
  8
0
  6
CONTINUOUS
 62
     7
 10
23.19544764765637
 20
151.4706941513842
 30
0.0
 11
23.09544764670531
 21
151.4706941513842
 31
0.0
  0
LINE
  5
16D
  8
0
  6
CONTINUOUS
 62
     7
 10
-85.80455235234372
 20
134.1706941533746
 30
0.0
 11
-90.80455235234373
 21
134.1706941533746
 31
0.0
  0
LINE
  5
16E
  8
0
  6
CONTINUOUS
 62
     7
 10
-4.404552352343758
 20
163.1706941513841
 30
0.0
 11
-6.404552352343821
 21
163.1706941513841
 31
0.0
  0
LINE
  5
16F
  8
0
  6
CONTINUOUS
 62
     7
 10
-50.80455235234374
 20
151.8837555420048
 30
0.0
 11
-50.80455235234376
 21
164.170694153695
 31
0.0
  0
LINE
  5
170
  8
0
  6
CONTINUOUS
 62
     7
 10
-6.10455235234382
 20
101.670694151384
 30
0.0
 11
-5.704552352343822
 21
100.670694151384
 31
0.0
  0
LINE
  5
171
  8
0
  6
CONTINUOUS
 62
     7
 10
-50.80455235234357
 20
164.170694153695
 30
0.0
 11
-45.80455235234373
 21
164.1706941536951
 31
0.0
  0
LINE
  5
172
  8
0
  6
CONTINUOUS
 62
     7
 10
-13.30455235234376
 20
162.4206941513841
 30
0.0
 11
-16.80455235234376
 21
162.4206941513841
 31
0.0
  0
ARC
  5
173
  8
0
  6
CONTINUOUS
 62
     7
 10
-5.85455235234382
 20
99.820694151384
 30
0.0
 40
0.1499999999999974
 50
270.0
 51
0.0
  0
LINE
  5
174
  8
0
  6
CONTINUOUS
 62
     7
 10
12.89544764765618
 20
100.670694151384
 30
0.0
 11
13.29544764765618
 21
101.670694151384
 31
0.0
  0
LINE
  5
175
  8
0
  6
CONTINUOUS
 62
     7
 10
-2.654552352343825
 20
97.670694151384
 30
0.0
 11
-2.654552352343825
 21
97.47069415138401
 31
0.0
  0
ARC
  5
176
  8
0
  6
CONTINUOUS
 62
     7
 10
-5.4045523523438
 20
140.1706941513841
 30
0.0
 40
18.00000000000002
 50
59.77764429901875
 51
75.52242234175122
  0
LINE
  5
177
  8
0
  6
CONTINUOUS
 62
     7
 10
-45.80455235234373
 20
134.1706941533746
 30
0.0
 11
-40.80455235234371
 21
134.1706941533746
 31
0.0
  0
LINE
  5
178
  8
0
  6
CONTINUOUS
 62
     7
 10
-80.80455235234368
 20
164.170694153695
 30
0.0
 11
-80.80455235234369
 21
151.8837555420045
 31
0.0
  0
LINE
  5
179
  8
0
  6
CONTINUOUS
 62
     7
 10
-80.8045523523437
 20
146.4576327607634
 30
0.0
 11
-80.8045523523437
 21
134.1706941536956
 31
0.0
  0
POLYLINE
  5
17A
  8
0
  6
CONTINUOUS
 62
     7
 66
     1
 10
0.0
 20
0.0
 30
0.0
  0
VERTEX
  5
328
  8
0
  6
CONTINUOUS
 62
     7
 10
-63.30455235234372
 20
135.1706941513841
 30
0.0
  0
VERTEX
  5
329
  8
0
  6
CONTINUOUS
 62
     7
 10
-63.30420225877137
 20
135.1442354178691
 30
0.0
  0
VERTEX
  5
32A
  8
0
  6
CONTINUOUS
 62
     7
 10
-63.30315124162969
 20
135.1177766843541
 30
0.0
  0
VERTEX
  5
32B
  8
0
  6
CONTINUOUS
 62
     7
 10
-63.30138802105514
 20
135.0912051435906
 30
0.0
  0
VERTEX
  5
32C
  8
0
  6
CONTINUOUS
 62
     7
 10
-63.29891854046596
 20
135.0646946989361
 30
0.0
  0
VERTEX
  5
32D
  8
0
  6
CONTINUOUS
 62
     7
 10
-63.29573394832491
 20
135.0381841745073
 30
0.0
  0
VERTEX
  5
32E
  8
0
  6
CONTINUOUS
 62
     7
 10
-63.29184414125596
 20
135.0117761739666
 30
0.0
  0
VERTEX
  5
32F
  8
0
  6
CONTINUOUS
 62
     7
 10
-63.28722374510804
 20
134.985337916413
 30
0.0
  0
VERTEX
  5
330
  8
0
  6
CONTINUOUS
 62
     7
 10
-63.28189357572991
 20
134.959024283264
 30
0.0
  0
VERTEX
  5
331
  8
0
  6
CONTINUOUS
 62
     7
 10
-63.27232168907809
 20
134.9188576349494
 30
0.0
  0
VERTEX
  5
332
  8
0
  6
CONTINUOUS
 62
     7
 10
-63.26111250921881
 20
134.8791591341408
 30
0.0
  0
VERTEX
  5
333
  8
0
  6
CONTINUOUS
 62
     7
 10
-63.2481880978262
 20
134.839709774485
 30
0.0
  0
VERTEX
  5
334
  8
0
  6
CONTINUOUS
 62
     7
 10
-63.23366023497864
 20
134.8008853596746
 30
0.0
  0
VERTEX
  5
335
  8
0
  6
CONTINUOUS
 62
     7
 10
-63.21729947646445
 20
134.7621703577553
 30
0.0
  0
VERTEX
  5
336
  8
0
  6
CONTINUOUS
 62
     7
 10
-63.19936413072622
 20
134.7242505589024
 30
0.0
  0
VERTEX
  5
337
  8
0
  6
CONTINUOUS
 62
     7
 10
-63.17973911444518
 20
134.6869100164667
 30
0.0
  0
VERTEX
  5
338
  8
0
  6
CONTINUOUS
 62
     7
 10
-63.15861484392218
 20
134.6505237365403
 30
0.0
  0
VERTEX
  5
339
  8
0
  6
CONTINUOUS
 62
     7
 10
-63.14175897563709
 20
134.6238077517922
 30
0.0
  0
VERTEX
  5
33A
  8
0
  6
CONTINUOUS
 62
     7
 10
-63.12411203116519
 20
134.5977003182148
 30
0.0
  0
VERTEX
  5
33B
  8
0
  6
CONTINUOUS
 62
     7
 10
-63.1056165284373
 20
134.572115964674
 30
0.0
  0
VERTEX
  5
33C
  8
0
  6
CONTINUOUS
 62
     7
 10
-63.08637985156826
 20
134.5471993547287
 30
0.0
  0
VERTEX
  5
33D
  8
0
  6
CONTINUOUS
 62
     7
 10
-63.05922381017695
 20
134.5145912701742
 30
0.0
  0
VERTEX
  5
33E
  8
0
  6
CONTINUOUS
 62
     7
 10
-63.03078621785876
 20
134.4832464278595
 30
0.0
  0
VERTEX
  5
33F
  8
0
  6
CONTINUOUS
 62
     7
 10
-63.00836874865153
 20
134.4603124826727
 30
0.0
  0
VERTEX
  5
340
  8
0
  6
CONTINUOUS
 62
     7
 10
-62.98532572773538
 20
134.4382000480919
 30
0.0
  0
VERTEX
  5
341
  8
0
  6
CONTINUOUS
 62
     7
 10
-62.96158474685456
 20
134.4168320431807
 30
0.0
  0
VERTEX
  5
342
  8
0
  6
CONTINUOUS
 62
     7
 10
-62.93729050694921
 20
134.3963283284642
 30
0.0
  0
VERTEX
  5
343
  8
0
  6
CONTINUOUS
 62
     7
 10
-62.91152881758735
 20
134.375974587272
 30
0.0
  0
VERTEX
  5
344
  8
0
  6
CONTINUOUS
 62
     7
 10
-62.88525851631513
 20
134.3565809214673
 30
0.0
  0
VERTEX
  5
345
  8
0
  6
CONTINUOUS
 62
     7
 10
-62.85839664033666
 20
134.3380741030628
 30
0.0
  0
VERTEX
  5
346
  8
0
  6
CONTINUOUS
 62
     7
 10
-62.83111132799504
 20
134.320555547884
 30
0.0
  0
VERTEX
  5
347
  8
0
  6
CONTINUOUS
 62
     7
 10
-62.79358915792319
 20
134.2984310014181
 30
0.0
  0
VERTEX
  5
348
  8
0
  6
CONTINUOUS
 62
     7
 10
-62.75540292501589
 20
134.2780947109176
 30
0.0
  0
VERTEX
  5
349
  8
0
  6
CONTINUOUS
 62
     7
 10
-62.71617674942209
 20
134.2593405670219
 30
0.0
  0
VERTEX
  5
34A
  8
0
  6
CONTINUOUS
 62
     7
 10
-62.67648005723195
 20
134.2424324521114
 30
0.0
  0
VERTEX
  5
34B
  8
0
  6
CONTINUOUS
 62
     7
 10
-62.63633461720244
 20
134.2273381588101
 30
0.0
  0
VERTEX
  5
34C
  8
0
  6
CONTINUOUS
 62
     7
 10
-62.59542802727355
 20
134.2139332921648
 30
0.0
  0
VERTEX
  5
34D
  8
0
  6
CONTINUOUS
 62
     7
 10
-62.55426236478675
 20
134.2023734866838
 30
0.0
  0
VERTEX
  5
34E
  8
0
  6
CONTINUOUS
 62
     7
 10
-62.51299581685934
 20
134.1926597337378
 30
0.0
  0
VERTEX
  5
34F
  8
0
  6
CONTINUOUS
 62
     7
 10
-62.47130289186484
 20
134.18469503497
 30
0.0
  0
VERTEX
  5
350
  8
0
  6
CONTINUOUS
 62
     7
 10
-62.42966793381449
 20
134.1785519784708
 30
0.0
  0
VERTEX
  5
351
  8
0
  6
CONTINUOUS
 62
     7
 10
-62.38776555075065
 20
134.174162383897
 30
0.0
  0
VERTEX
  5
352
  8
0
  6
CONTINUOUS
 62
     7
 10
-62.34606052005415
 20
134.1715559867575
 30
0.0
  0
VERTEX
  5
353
  8
0
  6
CONTINUOUS
 62
     7
 10
-62.30455235234372
 20
134.1706941513841
 30
0.0
  0
SEQEND
  5
387
  8
0
  6
CONTINUOUS
 62
     7
  0
POLYLINE
  5
17B
  8
0
  6
CONTINUOUS
 62
     7
 66
     1
 10
0.0
 20
0.0
 30
0.0
  0
VERTEX
  5
354
  8
0
  6
CONTINUOUS
 62
     7
 10
-69.30455235234373
 20
134.1706941513841
 30
0.0
  0
VERTEX
  5
355
  8
0
  6
CONTINUOUS
 62
     7
 10
-69.27439396188915
 20
134.1711490190938
 30
0.0
  0
VERTEX
  5
356
  8
0
  6
CONTINUOUS
 62
     7
 10
-69.24403938798892
 20
134.1725267400021
 30
0.0
  0
VERTEX
  5
357
  8
0
  6
CONTINUOUS
 62
     7
 10
-69.21335335989262
 20
134.1748615191609
 30
0.0
  0
VERTEX
  5
358
  8
0
  6
CONTINUOUS
 62
     7
 10
-69.18253454827524
 20
134.1781662396908
 30
0.0
  0
VERTEX
  5
359
  8
0
  6
CONTINUOUS
 62
     7
 10
-69.15150755920726
 20
134.1824749730876
 30
0.0
  0
VERTEX
  5
35A
  8
0
  6
CONTINUOUS
 62
     7
 10
-69.12039939248835
 20
134.1877965537797
 30
0.0
  0
VERTEX
  5
35B
  8
0
  6
CONTINUOUS
 62
     7
 10
-69.08904421969139
 20
134.1941921059378
 30
0.0
  0
VERTEX
  5
35C
  8
0
  6
CONTINUOUS
 62
     7
 10
-69.05763997800648
 20
134.2016563402543
 30
0.0
  0
VERTEX
  5
35D
  8
0
  6
CONTINUOUS
 62
     7
 10
-69.02029353145342
 20
134.2119465710763
 30
0.0
  0
VERTEX
  5
35E
  8
0
  6
CONTINUOUS
 62
     7
 10
-68.98292306245033
 20
134.2238284798748
 30
0.0
  0
VERTEX
  5
35F
  8
0
  6
CONTINUOUS
 62
     7
 10
-68.9456508431204
 20
134.2373187142329
 30
0.0
  0
VERTEX
  5
360
  8
0
  6
CONTINUOUS
 62
     7
 10
-68.9081864785477
 20
134.2526015122186
 30
0.0
  0
VERTEX
  5
361
  8
0
  6
CONTINUOUS
 62
     7
 10
-68.87097533469152
 20
134.2695776385158
 30
0.0
  0
VERTEX
  5
362
  8
0
  6
CONTINUOUS
 62
     7
 10
-68.83373216945284
 20
134.2884649547563
 30
0.0
  0
VERTEX
  5
363
  8
0
  6
CONTINUOUS
 62
     7
 10
-68.79692711594873
 20
134.3091161692055
 30
0.0
  0
VERTEX
  5
364
  8
0
  6
CONTINUOUS
 62
     7
 10
-68.76059201893678
 20
134.3315832196952
 30
0.0
  0
VERTEX
  5
365
  8
0
  6
CONTINUOUS
 62
     7
 10
-68.73597923500091
 20
134.3480615743335
 30
0.0
  0
VERTEX
  5
366
  8
0
  6
CONTINUOUS
 62
     7
 10
-68.71173756363677
 20
134.3653553243738
 30
0.0
  0
VERTEX
  5
367
  8
0
  6
CONTINUOUS
 62
     7
 10
-68.68780787853245
 20
134.3835309049817
 30
0.0
  0
VERTEX
  5
368
  8
0
  6
CONTINUOUS
 62
     7
 10
-68.66432114318336
 20
134.4025118821165
 30
0.0
  0
VERTEX
  5
369
  8
0
  6
CONTINUOUS
 62
     7
 10
-68.63334506926105
 20
134.4294244412672
 30
0.0
  0
VERTEX
  5
36A
  8
0
  6
CONTINUOUS
 62
     7
 10
-68.6032697877727
 20
134.4578107355098
 30
0.0
  0
VERTEX
  5
36B
  8
0
  6
CONTINUOUS
 62
     7
 10
-68.57385444767047
 20
134.4879932123881
 30
0.0
  0
VERTEX
  5
36C
  8
0
  6
CONTINUOUS
 62
     7
 10
-68.54554132235288
 20
134.519616386173
 30
0.0
  0
VERTEX
  5
36D
  8
0
  6
CONTINUOUS
 62
     7
 10
-68.51836608850294
 20
134.5527045409956
 30
0.0
  0
VERTEX
  5
36E
  8
0
  6
CONTINUOUS
 62
     7
 10
-68.50002988550827
 20
134.5767721780187
 30
0.0
  0
VERTEX
  5
36F
  8
0
  6
CONTINUOUS
 62
     7
 10
-68.48238268288823
 20
134.6014516418792
 30
0.0
  0
VERTEX
  5
370
  8
0
  6
CONTINUOUS
 62
     7
 10
-68.46538138335161
 20
134.6268267146631
 30
0.0
  0
VERTEX
  5
371
  8
0
  6
CONTINUOUS
 62
     7
 10
-68.44912570132186
 20
134.6527701755715
 30
0.0
  0
VERTEX
  5
372
  8
0
  6
CONTINUOUS
 62
     7
 10
-68.42837548811684
 20
134.6887044185126
 30
0.0
  0
VERTEX
  5
373
  8
0
  6
CONTINUOUS
 62
     7
 10
-68.40905071978496
 20
134.725635923638
 30
0.0
  0
VERTEX
  5
374
  8
0
  6
CONTINUOUS
 62
     7
 10
-68.39536558195455
 20
134.7543060059827
 30
0.0
  0
VERTEX
  5
375
  8
0
  6
CONTINUOUS
 62
     7
 10
-68.38257884662349
 20
134.7834411917441
 30
0.0
  0
VERTEX
  5
376
  8
0
  6
CONTINUOUS
 62
     7
 10
-68.37065858384459
 20
134.813144017342
 30
0.0
  0
VERTEX
  5
377
  8
0
  6
CONTINUOUS
 62
     7
 10
-68.35968178359383
 20
134.8432500976737
 30
0.0
  0
VERTEX
  5
378
  8
0
  6
CONTINUOUS
 62
     7
 10
-68.34706814729411
 20
134.8822099537491
 30
0.0
  0
VERTEX
  5
379
  8
0
  6
CONTINUOUS
 62
     7
 10
-68.3360474547973
 20
134.921699646568
 30
0.0
  0
VERTEX
  5
37A
  8
0
  6
CONTINUOUS
 62
     7
 10
-68.32658331320765
 20
134.9619462617711
 30
0.0
  0
VERTEX
  5
37B
  8
0
  6
CONTINUOUS
 62
     7
 10
-68.31878453008407
 20
135.0025816872493
 30
0.0
  0
VERTEX
  5
37C
  8
0
  6
CONTINUOUS
 62
     7
 10
-68.31259028844094
 20
135.044162168993
 30
0.0
  0
VERTEX
  5
37D
  8
0
  6
CONTINUOUS
 62
     7
 10
-68.30814659686327
 20
135.0859854124877
 30
0.0
  0
VERTEX
  5
37E
  8
0
  6
CONTINUOUS
 62
     7
 10
-68.30545192464113
 20
135.1282984998083
 30
0.0
  0
VERTEX
  5
37F
  8
0
  6
CONTINUOUS
 62
     7
 10
-68.30455235234372
 20
135.1706941513841
 30
0.0
  0
SEQEND
  5
388
  8
0
  6
CONTINUOUS
 62
     7
  0
ARC
  5
17C
  8
0
  6
CONTINUOUS
 62
     7
 10
-50.03994265485423
 20
151.2412209166829
 30
0.0
 40
0.49999999999999
 50
7.482410001342089
 51
79.99999999999937
  0
ARC
  5
17D
  8
0
  6
CONTINUOUS
 62
     7
 10
-65.80455235234372
 20
149.1706941513841
 30
0.0
 40
16.39999999999999
 50
172.5175899986579
 51
187.4824100013421
  0
LINE
  5
17E
  8
0
  6
CONTINUOUS
 62
     7
 10
-55.50455235234372
 20
126.770694151384
 30
0.0
 11
-58.80455235234373
 21
126.770694151384
 31
0.0
  0
LINE
  5
17F
  8
0
  6
CONTINUOUS
 62
     7
 10
-68.30455235234372
 20
135.1706941513841
 30
0.0
 11
-68.30455235234372
 21
135.3957168374282
 31
0.0
  0
LINE
  5
180
  8
0
  6
CONTINUOUS
 62
     7
 10
-76.80455235234373
 20
117.231302215975
 30
0.0
 11
-54.80455235234373
 21
117.231302215975
 31
0.0
  0
LINE
  5
181
  8
0
  6
CONTINUOUS
 62
     7
 10
-75.50455235234374
 20
101.670694151384
 30
0.0
 11
-56.10455235234374
 21
101.670694151384
 31
0.0
  0
LINE
  5
182
  8
0
  6
CONTINUOUS
 62
     7
 10
-76.3045523523437
 20
134.1706941538561
 30
0.0
 11
-79.80455235234369
 21
134.1706941538561
 31
0.0
  0
ARC
  5
183
  8
0
  6
CONTINUOUS
 62
     7
 10
-81.56916204983325
 20
151.2412209166829
 30
0.0
 40
0.5000000000000162
 50
99.9999999999999
 51
172.5175899986579
  0
LINE
  5
184
  8
0
  6
CONTINUOUS
 62
     7
 10
-62.30455235234375
 20
134.1706941513841
 30
0.0
 11
-55.30455235234376
 21
134.1706941513841
 31
0.0
  0
LINE
  5
185
  8
0
  6
CONTINUOUS
 62
     7
 10
-76.3045523523437
 20
134.1706941513841
 30
0.0
 11
-69.30455235234372
 21
134.1706941513841
 31
0.0
  0
LINE
  5
186
  8
0
  6
CONTINUOUS
 62
     7
 10
-58.80455235234375
 20
121.770694151384
 30
0.0
 11
-55.50455235234375
 21
121.770694151384
 31
0.0
  0
ARC
  5
187
  8
0
  6
CONTINUOUS
 62
     7
 10
-50.03994265485423
 20
147.1001673860853
 30
0.0
 40
0.4999999999999876
 50
279.9999999999999
 51
352.5175899986578
  0
LINE
  5
188
  8
0
  6
CONTINUOUS
 62
     7
 10
-72.55455235234373
 20
144.0046995714412
 30
0.0
 11
-72.55455235234373
 21
149.1506718796415
 31
0.0
  0
ARC
  5
189
  8
0
  6
CONTINUOUS
 62
     7
 10
-65.80455235234372
 20
149.1706941513841
 30
0.0
 40
8.499999999999991
 50
217.4280055430424
 51
322.5719944569574
  0
LINE
  5
18A
  8
0
  6
CONTINUOUS
 62
     7
 10
-58.80455235234375
 20
121.770694151384
 30
0.0
 11
-58.80455235234375
 21
126.770694151384
 31
0.0
  0
ARC
  5
18B
  8
0
  6
CONTINUOUS
 62
     7
 10
-65.80455235234375
 20
124.270694151384
 30
0.0
 40
2.500000000000002
 50
89.99999999999969
 51
270.0000000000003
  0
LINE
  5
18C
  8
0
  6
CONTINUOUS
 62
     7
 10
-59.05455235234372
 20
149.1506718796415
 30
0.0
 11
-59.05455235234372
 21
144.0046995714412
 31
0.0
  0
LINE
  5
18D
  8
0
  6
CONTINUOUS
 62
     7
 10
-65.80455235234375
 20
121.070694151384
 30
0.0
 11
-76.80455235234375
 21
121.070694151384
 31
0.0
  0
LINE
  5
18E
  8
0
  6
CONTINUOUS
 62
     7
 10
-54.80455235234374
 20
130.970694151384
 30
0.0
 11
-76.80455235234375
 21
130.970694151384
 31
0.0
  0
CIRCLE
  5
18F
  8
0
  6
CONTINUOUS
 62
     7
 10
-65.80455235234372
 20
149.1706941513841
 30
0.0
 40
13.0
  0
LINE
  5
190
  8
0
  6
CONTINUOUS
 62
     7
 10
-63.30455235234372
 20
135.3957168374282
 30
0.0
 11
-63.30455235234372
 21
135.1706941513841
 31
0.0
  0
LINE
  5
191
  8
0
  6
CONTINUOUS
 62
     7
 10
-75.10455235234373
 20
100.670694151384
 30
0.0
 11
-56.50455235234374
 21
100.670694151384
 31
0.0
  0
CIRCLE
  5
192
  8
0
  6
CONTINUOUS
 62
     7
 10
-65.80455235234372
 20
149.1706941513841
 30
0.0
 40
9.315500000000004
  0
LINE
  5
193
  8
0
  6
CONTINUOUS
 62
     7
 10
-76.10455235234373
 20
121.770694151384
 30
0.0
 11
-72.80455235234373
 21
121.770694151384
 31
0.0
  0
LINE
  5
194
  8
0
  6
CONTINUOUS
 62
     7
 10
-72.80455235234373
 20
121.770694151384
 30
0.0
 11
-65.80455235234372
 21
121.770694151384
 31
0.0
  0
LINE
  5
195
  8
0
  6
CONTINUOUS
 62
     7
 10
-52.11772371163251
 20
152.1153030829414
 30
0.0
 11
-49.95311856602076
 21
151.733624793189
 31
0.0
  0
LINE
  5
196
  8
0
  6
CONTINUOUS
 62
     7
 10
-51.80455235234374
 20
134.1706941538561
 30
0.0
 11
-55.30455235234374
 21
134.1706941538561
 31
0.0
  0
LINE
  5
197
  8
0
  6
CONTINUOUS
 62
     7
 10
-75.20455235234371
 20
97.670694151384
 30
0.0
 11
-56.40455235234375
 21
97.670694151384
 31
0.0
  0
LINE
  5
198
  8
0
  6
CONTINUOUS
 62
     7
 10
-79.8045523523437
 20
164.1706941538556
 30
0.0
 11
-68.51761374252861
 21
164.1706941538556
 31
0.0
  0
LINE
  5
199
  8
0
  6
CONTINUOUS
 62
     7
 10
-76.05455235234373
 20
107.220694151384
 30
0.0
 11
-65.80455235234375
 21
107.220694151384
 31
0.0
  0
LINE
  5
19A
  8
0
  6
CONTINUOUS
 62
     7
 10
-65.80455235234375
 20
107.220694151384
 30
0.0
 11
-55.55455235234376
 21
107.220694151384
 31
0.0
  0
LINE
  5
19B
  8
0
  6
CONTINUOUS
 62
     7
 10
-65.80455235234375
 20
96.67069415138401
 30
0.0
 11
-71.25455235234375
 21
96.67069415138401
 31
0.0
  0
LINE
  5
19C
  8
0
  6
CONTINUOUS
 62
     7
 10
-68.74916128390105
 20
162.8575227920953
 30
0.0
 11
-68.36748299414863
 21
165.0221279377071
 31
0.0
  0
LINE
  5
19D
  8
0
  6
CONTINUOUS
 62
     7
 10
-79.49138099305495
 20
146.2260852198268
 30
0.0
 11
-81.65598613866673
 21
146.6077635095792
 31
0.0
  0
ARC
  5
19E
  8
0
  6
CONTINUOUS
 62
     7
 10
-65.80455331840807
 20
124.270694151384
 30
0.0
 40
2.500000000000161
 50
270.0000221405635
 51
89.99997785943651
  0
LINE
  5
19F
  8
0
  6
CONTINUOUS
 62
     7
 10
-72.8045523523437
 20
126.770694151384
 30
0.0
 11
-65.80455235234372
 21
126.770694151384
 31
0.0
  0
CIRCLE
  5
1A0
  8
0
  6
CONTINUOUS
 62
     7
 10
-65.80455235234372
 20
149.1706941513841
 30
0.0
 40
14.0
  0
LINE
  5
1A1
  8
0
  6
CONTINUOUS
 62
     7
 10
-75.50455235234374
 20
106.670694151384
 30
0.0
 11
-56.10455235234372
 21
106.670694151384
 31
0.0
  0
LINE
  5
1A2
  8
0
  6
CONTINUOUS
 62
     7
 10
-75.35455235234373
 20
99.670694151384
 30
0.0
 11
-56.25455235234372
 21
99.670694151384
 31
0.0
  0
LINE
  5
1A3
  8
0
  6
CONTINUOUS
 62
     7
 10
-75.50455235234374
 20
98.670694151384
 30
0.0
 11
-56.10455235234375
 21
98.670694151384
 31
0.0
  0
LINE
  5
1A4
  8
0
  6
CONTINUOUS
 62
     7
 10
-81.65598613866673
 20
151.733624793189
 30
0.0
 11
-79.49138099305509
 21
152.1153030829407
 31
0.0
  0
LINE
  5
1A5
  8
0
  6
CONTINUOUS
 62
     7
 10
-60.35455235234375
 20
96.67069415138401
 30
0.0
 11
-65.80455235234375
 21
96.67069415138401
 31
0.0
  0
ARC
  5
1A6
  8
0
  6
CONTINUOUS
 62
     7
 10
-65.80455235234372
 20
149.1706941513841
 30
0.0
 40
16.4
 50
352.5175899986578
 51
0.0
  0
ARC
  5
1A7
  8
0
  6
CONTINUOUS
 62
     7
 10
-65.80455235234372
 20
149.1706941513841
 30
0.0
 40
16.4
 50
0.0
 51
7.482410001342032
  0
LINE
  5
1A8
  8
0
  6
CONTINUOUS
 62
     7
 10
-54.80455235234374
 20
121.070694151384
 30
0.0
 11
-65.80455235234375
 21
121.070694151384
 31
0.0
  0
LINE
  5
1A9
  8
0
  6
CONTINUOUS
 62
     7
 10
-63.09149096215907
 20
164.1706941538556
 30
0.0
 11
-51.80455235234376
 21
164.1706941538556
 31
0.0
  0
LINE
  5
1AA
  8
0
  6
CONTINUOUS
 62
     7
 10
-72.80455235234373
 20
126.770694151384
 30
0.0
 11
-72.80455235234373
 21
121.770694151384
 31
0.0
  0
LINE
  5
1AB
  8
0
  6
CONTINUOUS
 62
     7
 10
-72.80455235234373
 20
126.770694151384
 30
0.0
 11
-76.10455235234372
 21
126.770694151384
 31
0.0
  0
LINE
  5
1AC
  8
0
  6
CONTINUOUS
 62
     7
 10
-49.95311856602078
 20
146.6077635095792
 30
0.0
 11
-52.11772371163237
 21
146.2260852198275
 31
0.0
  0
LINE
  5
1AD
  8
0
  6
CONTINUOUS
 62
     7
 10
-65.80455235234375
 20
121.770694151384
 30
0.0
 11
-58.80455235234376
 21
121.770694151384
 31
0.0
  0
LINE
  5
1AE
  8
0
  6
CONTINUOUS
 62
     7
 10
-63.24162171053879
 20
165.0221279377071
 30
0.0
 11
-62.8599434207871
 21
162.8575227920955
 31
0.0
  0
ARC
  5
1AF
  8
0
  6
CONTINUOUS
 62
     7
 10
-65.80455235234372
 20
149.1706941513841
 30
0.0
 40
16.4
 50
82.51758999865785
 51
97.48241000134202
  0
LINE
  5
1B0
  8
0
  6
CONTINUOUS
 62
     7
 10
-76.80455235234373
 20
127.470694151384
 30
0.0
 11
-54.80455235234373
 21
127.470694151384
 31
0.0
  0
LINE
  5
1B1
  8
0
  6
CONTINUOUS
 62
     7
 10
-56.10455235234371
 20
99.520694151384
 30
0.0
 11
-75.50455235234372
 21
99.520694151384
 31
0.0
  0
ARC
  5
1B2
  8
0
  6
CONTINUOUS
 62
     7
 10
-63.73402558704491
 20
164.9353038488736
 30
0.0
 40
0.5000000000000001
 50
9.999999999999538
 51
82.51758999865788
  0
ARC
  5
1B3
  8
0
  6
CONTINUOUS
 62
     7
 10
-67.87507911764254
 20
164.9353038488736
 30
0.0
 40
0.4999999999999912
 50
97.48241000134202
 51
169.999999999999
  0
ARC
  5
1B4
  8
0
  6
CONTINUOUS
 62
     7
 10
-81.56916204983325
 20
147.1001673860853
 30
0.0
 40
0.5000000000000162
 50
187.4824100013421
 51
259.9999999999994
  0
LINE
  5
1B5
  8
0
  6
CONTINUOUS
 62
     7
 10
-54.40455235234373
 20
131.1706941513841
 30
0.0
 11
-77.20455235234371
 21
131.1706941513841
 31
0.0
  0
LINE
  5
1B6
  8
0
  6
CONTINUOUS
 62
     7
 10
-65.80455235234375
 20
126.770694151384
 30
0.0
 11
-58.80455235234376
 21
126.770694151384
 31
0.0
  0
LINE
  5
1B7
  8
0
  6
CONTINUOUS
 62
     7
 10
-77.3045523523437
 20
131.2706941513841
 30
0.0
 11
-54.30455235234371
 21
131.2706941513841
 31
0.0
  0
LINE
  5
1B8
  8
0
  6
CONTINUOUS
 62
     7
 10
-71.55455235234373
 20
149.1506718796415
 30
0.0
 11
-71.55455235234373
 21
144.3553540803196
 31
0.0
  0
LINE
  5
1B9
  8
0
  6
CONTINUOUS
 62
     7
 10
-60.05455235234372
 20
144.3553540803196
 30
0.0
 11
-59.05455235234372
 21
144.0046995714412
 31
0.0
  0
LINE
  5
1BA
  8
0
  6
CONTINUOUS
 62
     7
 10
-60.05455235234372
 20
144.3553540803196
 30
0.0
 11
-60.05455235234372
 21
149.1506718796415
 31
0.0
  0
ARC
  5
1BB
  8
0
  6
CONTINUOUS
 62
     7
 10
-65.80455235234372
 20
149.159255971076
 30
0.0
 40
6.750005458266374
 50
359.927136008147
 51
180.072863991853
  0
LINE
  5
1BC
  8
0
  6
CONTINUOUS
 62
     7
 10
-71.55455235234373
 20
144.3553540803196
 30
0.0
 11
-72.55455235234373
 21
144.0046995714412
 31
0.0
  0
LINE
  5
1BD
  8
0
  6
CONTINUOUS
 62
     7
 10
-72.55455235234373
 20
149.1506718796415
 30
0.0
 11
-71.55455235234373
 21
149.1506718796415
 31
0.0
  0
INSERT
  5
1BF
  8
0
  6
CONTINUOUS
 62
     7
  2
D_FRAME_VIEW_15555
 10
0.0
 20
0.0
 30
0.0
  0
INSERT
  5
1C3
  8
0
  6
CONTINUOUS
 62
     7
  2
D_FRAME_VIEW_15112
 10
0.0
 20
0.0
 30
0.0
  0
INSERT
  5
1C7
  8
0
  6
CONTINUOUS
 62
     7
  2
D_FRAME_VIEW_8775
 10
0.0
 20
0.0
 30
0.0
  0
ARC
  5
1C8
  8
0
  6
CONTINUOUS
 62
     7
 10
84.00908050331631
 20
99.82069415137532
 30
0.0
 40
0.1500000000000112
 50
180.0
 51
270.0
  0
LINE
  5
1C9
  8
0
  6
CONTINUOUS
 62
     7
 10
83.8590805033163
 20
99.82069415137532
 30
0.0
 11
83.8590805033163
 21
100.6706941513753
 31
0.0
  0
LINE
  5
1CA
  8
0
  6
CONTINUOUS
 62
     7
 10
83.8590805033163
 20
100.6706941513753
 30
0.0
 11
84.25908050331631
 21
101.6706941513753
 31
0.0
  0
ARC
  5
1CB
  8
0
  6
CONTINUOUS
 62
     7
 10
69.10908050331632
 20
97.47069415137533
 30
0.0
 40
0.8000000000000229
 50
180.0
 51
270.0
  0
LINE
  5
1CC
  8
0
  6
CONTINUOUS
 62
     7
 10
63.0590805033163
 20
131.2706941513754
 30
0.0
 11
63.15908050331631
 21
131.1706941513754
 31
0.0
  0
ARC
  5
1CD
  8
0
  6
CONTINUOUS
 62
     7
 10
65.10908050331632
 20
99.82069415137532
 30
0.0
 40
0.1499999999999835
 50
270.0
 51
0.0
  0
LINE
  5
1CE
  8
0
  6
CONTINUOUS
 62
     7
 10
68.3090805033163
 20
97.6706941513753
 30
0.0
 11
68.3090805033163
 21
97.47069415137533
 31
0.0
  0
ARC
  5
1CF
  8
0
  6
CONTINUOUS
 62
     7
 10
64.0590805033163
 20
133.1706941513754
 30
0.0
 40
1.000000000000001
 50
89.9999999999999
 51
180.0
  0
LINE
  5
1D0
  8
0
  6
CONTINUOUS
 62
     7
 10
80.80908050331631
 20
97.47069415137533
 30
0.0
 11
80.80908050331631
 21
97.6706941513753
 31
0.0
  0
LINE
  5
1D1
  8
0
  6
CONTINUOUS
 62
     7
 10
65.2590805033163
 20
100.6706941513753
 30
0.0
 11
65.2590805033163
 21
99.82069415137532
 31
0.0
  0
LINE
  5
1D2
  8
0
  6
CONTINUOUS
 62
     7
 10
63.0590805033163
 20
133.1706941513754
 30
0.0
 11
63.0590805033163
 21
131.2706941513754
 31
0.0
  0
LINE
  5
1D3
  8
0
  6
CONTINUOUS
 62
     7
 10
83.9590805033163
 20
97.67069415137532
 30
0.0
 11
84.25908050331631
 21
98.67069415137532
 31
0.0
  0
LINE
  5
1D4
  8
0
  6
CONTINUOUS
 62
     7
 10
86.05908050331631
 20
131.2706941513754
 30
0.0
 11
86.05908050331631
 21
133.1706941513754
 31
0.0
  0
ARC
  5
1D5
  8
0
  6
CONTINUOUS
 62
     7
 10
85.05908050331631
 20
133.1706941513754
 30
0.0
 40
1.000000000000001
 50
0.0
 51
90.0
  0
ARC
  5
1D6
  8
0
  6
CONTINUOUS
 62
     7
 10
80.00908050331631
 20
97.47069415137533
 30
0.0
 40
0.7999999999999952
 50
270.0
 51
0.0
  0
LINE
  5
1D7
  8
0
  6
CONTINUOUS
 62
     7
 10
85.9590805033163
 20
131.1706941513754
 30
0.0
 11
86.05908050331631
 21
131.2706941513754
 31
0.0
  0
LINE
  5
1D8
  8
0
  6
CONTINUOUS
 62
     7
 10
64.85908050331632
 20
98.67069415137532
 30
0.0
 11
65.15908050331632
 21
97.67069415137532
 31
0.0
  0
LINE
  5
1D9
  8
0
  6
CONTINUOUS
 62
     7
 10
88.55908050331628
 20
164.1706941537827
 30
0.0
 11
91.55908050331612
 21
164.1706941537827
 31
0.0
  0
LINE
  5
1DA
  8
0
  6
CONTINUOUS
 62
     7
 10
91.55908050331618
 20
134.1706941537832
 30
0.0
 11
88.55908050331627
 21
134.1706941537832
 31
0.0
  0
LINE
  5
1DB
  8
0
  6
CONTINUOUS
 62
     7
 10
57.55908050331632
 20
134.1706941537832
 30
0.0
 11
57.55908050331632
 21
164.1706941537826
 31
0.0
  0
ARC
  5
1DC
  8
0
  6
CONTINUOUS
 62
     7
 10
74.55908050331631
 20
159.1706941539753
 30
0.0
 40
4.000000000000004
 50
180.0000000372418
 51
0.0
  0
LINE
  5
1DD
  8
0
  6
CONTINUOUS
 62
     7
 10
54.55908050331632
 20
134.1706941536869
 30
0.0
 11
57.5590805033162
 21
134.1706941536869
 31
0.0
  0
LINE
  5
1DE
  8
0
  6
CONTINUOUS
 62
     7
 10
57.55908050331617
 20
164.1706941536864
 30
0.0
 11
54.55908050331632
 21
164.1706941536864
 31
0.0
  0
CIRCLE
  5
1DF
  8
0
  6
CONTINUOUS
 62
     7
 10
74.55908050331631
 20
159.1706941513754
 30
0.0
 40
4.000000000000004
  0
LINE
  5
1E0
  8
0
  6
CONTINUOUS
 62
     7
 10
94.5590805033163
 20
164.1706941536864
 30
0.0
 11
91.55908050331638
 21
164.1706941536864
 31
0.0
  0
LINE
  5
1E1
  8
0
  6
CONTINUOUS
 62
     7
 10
44.5590805033163
 20
139.1706941534942
 30
0.0
 11
44.5590805033163
 21
159.1706941534938
 31
0.0
  0
LINE
  5
1E2
  8
0
  6
CONTINUOUS
 62
     7
 10
49.5590805033163
 20
164.1706941534938
 30
0.0
 11
54.55908050331632
 21
164.1706941534938
 31
0.0
  0
LINE
  5
1E3
  8
0
  6
CONTINUOUS
 62
     7
 10
54.55908050331632
 20
134.1706941534943
 30
0.0
 11
49.55908050331631
 21
134.1706941534943
 31
0.0
  0
LINE
  5
1E4
  8
0
  6
CONTINUOUS
 62
     7
 10
60.55908050331632
 20
134.1706941539758
 30
0.0
 11
88.55908050331627
 21
134.1706941539758
 31
0.0
  0
ARC
  5
1E5
  8
0
  6
CONTINUOUS
 62
     7
 10
49.5590805033163
 20
139.1706941534942
 30
0.0
 40
4.99999999999999
 50
180.0000000000001
 51
270.0000000000001
  0
CIRCLE
  5
1E6
  8
0
  6
CONTINUOUS
 62
     7
 10
100.5590805033163
 20
149.170694153494
 30
0.0
 40
2.499999999999919
  0
LINE
  5
1E7
  8
0
  6
CONTINUOUS
 62
     7
 10
99.5590805033163
 20
164.1706941534938
 30
0.0
 11
94.5590805033163
 21
164.1706941534938
 31
0.0
  0
CIRCLE
  5
1E8
  8
0
  6
CONTINUOUS
 62
     7
 10
48.55908050331632
 20
149.170694153494
 30
0.0
 40
2.499999999999933
  0
CIRCLE
  5
1E9
  8
0
  6
CONTINUOUS
 62
     7
 10
74.55908050331631
 20
149.1706941539755
 30
0.0
 40
2.39999999999993
  0
ARC
  5
1EA
  8
0
  6
CONTINUOUS
 62
     7
 10
49.5590805033163
 20
159.1706941534939
 30
0.0
 40
5.000000000000004
 50
90.0
 51
180.0000000000005
  0
LINE
  5
1EB
  8
0
  6
CONTINUOUS
 62
     7
 10
91.5590805033163
 20
164.1706941537826
 30
0.0
 11
91.5590805033163
 21
134.1706941537832
 31
0.0
  0
ARC
  5
1EC
  8
0
  6
CONTINUOUS
 62
     7
 10
99.5590805033163
 20
159.1706941534939
 30
0.0
 40
5.000000000000004
 50
359.9999999999996
 51
90.0
  0
ARC
  5
1ED
  8
0
  6
CONTINUOUS
 62
     7
 10
99.5590805033163
 20
139.1706941534942
 30
0.0
 40
5.000000000000004
 50
269.9999999999999
 51
359.9999999999998
  0
LINE
  5
1EE
  8
0
  6
CONTINUOUS
 62
     7
 10
104.5590805033163
 20
139.1706941534942
 30
0.0
 11
104.5590805033163
 21
159.1706941534938
 31
0.0
  0
CIRCLE
  5
1EF
  8
0
  6
CONTINUOUS
 62
     7
 10
74.55914136249747
 20
124.2706941513753
 30
0.0
 40
2.50000000074077
  0
LINE
  5
1F0
  8
0
  6
CONTINUOUS
 62
     7
 10
91.55908050331642
 20
134.1706941536869
 30
0.0
 11
94.55908050331627
 21
134.1706941536869
 31
0.0
  0
CIRCLE
  5
1F1
  8
0
  6
CONTINUOUS
 62
     7
 10
74.55908050331631
 20
139.1706941513754
 30
0.0
 40
4.000000000000004
  0
CIRCLE
  5
1F2
  8
0
  6
CONTINUOUS
 62
     7
 10
74.55908050331631
 20
139.1706941539757
 30
0.0
 40
3.999999999999865
  0
LINE
  5
1F3
  8
0
  6
CONTINUOUS
 62
     7
 10
57.55908050331643
 20
164.1706941537826
 30
0.0
 11
60.55908050331634
 21
164.1706941537827
 31
0.0
  0
LINE
  5
1F4
  8
0
  6
CONTINUOUS
 62
     7
 10
88.55908050331628
 20
164.1706941539753
 30
0.0
 11
60.55908050331634
 21
164.1706941539753
 31
0.0
  0
LINE
  5
1F5
  8
0
  6
CONTINUOUS
 62
     7
 10
60.55908050331632
 20
134.1706941537832
 30
0.0
 11
57.55908050331648
 21
134.1706941537832
 31
0.0
  0
ARC
  5
1F6
  8
0
  6
CONTINUOUS
 62
     7
 10
74.55908050331631
 20
159.1706941539753
 30
0.0
 40
4.000000000000004
 50
0.0
 51
180.0000000372418
  0
LINE
  5
1F7
  8
0
  6
CONTINUOUS
 62
     7
 10
67.55908050331632
 20
121.7706941513753
 30
0.0
 11
74.55908050331631
 21
121.7706941513753
 31
0.0
  0
LINE
  5
1F8
  8
0
  6
CONTINUOUS
 62
     7
 10
74.55908050331631
 20
101.6706941513753
 30
0.0
 11
84.25908050331631
 21
101.6706941513753
 31
0.0
  0
LINE
  5
1F9
  8
0
  6
CONTINUOUS
 62
     7
 10
72.5590805033163
 20
159.6706941513754
 30
0.0
 11
72.5590805033163
 21
158.6706941513754
 31
0.0
  0
LINE
  5
1FA
  8
0
  6
CONTINUOUS
 62
     7
 10
72.5590805033163
 20
139.6706941513754
 30
0.0
 11
72.5590805033163
 21
138.6706941513754
 31
0.0
  0
LINE
  5
1FB
  8
0
  6
CONTINUOUS
 62
     7
 10
76.55908050331631
 20
139.6706941513754
 30
0.0
 11
75.05908050331631
 21
139.6706941513754
 31
0.0
  0
LINE
  5
1FC
  8
0
  6
CONTINUOUS
 62
     7
 10
65.0090805033163
 20
99.67069415137532
 30
0.0
 11
74.55908050331631
 21
99.67069415137532
 31
0.0
  0
LINE
  5
1FD
  8
0
  6
CONTINUOUS
 62
     7
 10
74.05908050331631
 20
159.6706941513754
 30
0.0
 11
74.05908050331631
 21
161.1706941513754
 31
0.0
  0
ARC
  5
1FE
  8
0
  6
CONTINUOUS
 62
     7
 10
74.55889752969189
 20
124.2706941513753
 30
0.0
 40
2.500000006695844
 50
270.004193446569
 51
89.99580655343088
  0
LINE
  5
1FF
  8
0
  6
CONTINUOUS
 62
     7
 10
74.05908050331631
 20
141.1706941513754
 30
0.0
 11
75.05908050331631
 21
141.1706941513754
 31
0.0
  0
LINE
  5
200
  8
0
  6
CONTINUOUS
 62
     7
 10
64.30908050331632
 20
107.2206941513753
 30
0.0
 11
84.80908050331631
 21
107.2206941513753
 31
0.0
  0
LINE
  5
201
  8
0
  6
CONTINUOUS
 62
     7
 10
75.05908050331631
 20
137.1706941513754
 30
0.0
 11
74.05908050331631
 21
137.1706941513754
 31
0.0
  0
LINE
  5
202
  8
0
  6
CONTINUOUS
 62
     7
 10
64.85908050331632
 20
98.67069415137532
 30
0.0
 11
74.55908050331631
 21
98.67069415137532
 31
0.0
  0
LINE
  5
203
  8
0
  6
CONTINUOUS
 62
     7
 10
67.55908050331632
 20
126.7706941513753
 30
0.0
 11
64.2590805033163
 21
126.7706941513753
 31
0.0
  0
LINE
  5
204
  8
0
  6
CONTINUOUS
 62
     7
 10
64.2590805033163
 20
121.7706941513753
 30
0.0
 11
67.5590805033163
 21
121.7706941513753
 31
0.0
  0
LINE
  5
205
  8
0
  6
CONTINUOUS
 62
     7
 10
72.5590805033163
 20
158.6706941513754
 30
0.0
 11
74.05908050331631
 21
158.6706941513754
 31
0.0
  0
LINE
  5
206
  8
0
  6
CONTINUOUS
 62
     7
 10
85.55908050331631
 20
130.9706941513753
 30
0.0
 11
74.55908050331631
 21
130.9706941513753
 31
0.0
  0
LINE
  5
207
  8
0
  6
CONTINUOUS
 62
     7
 10
74.55908050331631
 20
98.67069415137532
 30
0.0
 11
84.25908050331631
 21
98.67069415137532
 31
0.0
  0
LINE
  5
208
  8
0
  6
CONTINUOUS
 62
     7
 10
67.55908050331632
 20
126.7706941513753
 30
0.0
 11
74.55908050331631
 21
126.7706941513753
 31
0.0
  0
LINE
  5
209
  8
0
  6
CONTINUOUS
 62
     7
 10
63.55908050331632
 20
117.2313022159663
 30
0.0
 11
74.55908050331631
 21
117.2313022159663
 31
0.0
  0
LINE
  5
20A
  8
0
  6
CONTINUOUS
 62
     7
 10
72.5590805033163
 20
138.6706941513754
 30
0.0
 11
74.05908050331631
 21
138.6706941513754
 31
0.0
  0
LINE
  5
20B
  8
0
  6
CONTINUOUS
 62
     7
 10
76.55908050331631
 20
159.6706941513754
 30
0.0
 11
75.05908050331631
 21
159.6706941513754
 31
0.0
  0
LINE
  5
20C
  8
0
  6
CONTINUOUS
 62
     7
 10
75.05908050331631
 20
158.6706941513754
 30
0.0
 11
75.05908050331631
 21
157.1706941513754
 31
0.0
  0
LINE
  5
20D
  8
0
  6
CONTINUOUS
 62
     7
 10
84.8590805033163
 20
126.7706941513753
 30
0.0
 11
81.55908050331631
 21
126.7706941513753
 31
0.0
  0
LINE
  5
20E
  8
0
  6
CONTINUOUS
 62
     7
 10
74.55908050331631
 20
117.2313022159663
 30
0.0
 11
85.55908050331631
 21
117.2313022159663
 31
0.0
  0
LINE
  5
20F
  8
0
  6
CONTINUOUS
 62
     7
 10
75.05908050331631
 20
157.1706941513754
 30
0.0
 11
74.05908050331631
 21
157.1706941513754
 31
0.0
  0
LINE
  5
210
  8
0
  6
CONTINUOUS
 62
     7
 10
75.05908050331631
 20
161.1706941513754
 30
0.0
 11
75.05908050331631
 21
159.6706941513754
 31
0.0
  0
LINE
  5
211
  8
0
  6
CONTINUOUS
 62
     7
 10
81.55908050331631
 20
121.7706941513753
 30
0.0
 11
81.55908050331631
 21
126.7706941513753
 31
0.0
  0
LINE
  5
212
  8
0
  6
CONTINUOUS
 62
     7
 10
74.55908050331631
 20
121.7706941513753
 30
0.0
 11
81.55908050331631
 21
121.7706941513753
 31
0.0
  0
LINE
  5
213
  8
0
  6
CONTINUOUS
 62
     7
 10
76.55908050331631
 20
138.6706941513754
 30
0.0
 11
76.55908050331631
 21
139.6706941513754
 31
0.0
  0
LINE
  5
214
  8
0
  6
CONTINUOUS
 62
     7
 10
74.05908050331631
 20
157.1706941513754
 30
0.0
 11
74.05908050331631
 21
158.6706941513754
 31
0.0
  0
ARC
  5
215
  8
0
  6
CONTINUOUS
 62
     7
 10
74.55908050331631
 20
159.1706941513754
 30
0.0
 40
4.000000000000004
 50
0.0000000372418105
 51
180.0
  0
LINE
  5
216
  8
0
  6
CONTINUOUS
 62
     7
 10
74.05908050331631
 20
161.1706941513754
 30
0.0
 11
75.05908050331631
 21
161.1706941513754
 31
0.0
  0
LINE
  5
217
  8
0
  6
CONTINUOUS
 62
     7
 10
75.05908050331631
 20
138.6706941513754
 30
0.0
 11
76.55908050331631
 21
138.6706941513754
 31
0.0
  0
LINE
  5
218
  8
0
  6
CONTINUOUS
 62
     7
 10
74.05908050331631
 20
139.6706941513754
 30
0.0
 11
74.05908050331631
 21
141.1706941513754
 31
0.0
  0
LINE
  5
219
  8
0
  6
CONTINUOUS
 62
     7
 10
67.55908050331632
 20
126.7706941513753
 30
0.0
 11
67.55908050331632
 21
121.7706941513753
 31
0.0
  0
ARC
  5
21A
  8
0
  6
CONTINUOUS
 62
     7
 10
74.55914136249747
 20
124.2706941513753
 30
0.0
 40
2.50000000074077
 50
90.00139478968993
 51
269.9986052103101
  0
LINE
  5
21B
  8
0
  6
CONTINUOUS
 62
     7
 10
64.85908050331629
 20
106.6706941513753
 30
0.0
 11
74.55908050331631
 21
106.6706941513753
 31
0.0
  0
LINE
  5
21C
  8
0
  6
CONTINUOUS
 62
     7
 10
74.55908050331631
 20
106.6706941513753
 30
0.0
 11
84.25908050331631
 21
106.6706941513753
 31
0.0
  0
LINE
  5
21D
  8
0
  6
CONTINUOUS
 62
     7
 10
75.05908050331631
 20
158.6706941513754
 30
0.0
 11
76.55908050331631
 21
158.6706941513754
 31
0.0
  0
LINE
  5
21E
  8
0
  6
CONTINUOUS
 62
     7
 10
74.55908050331631
 20
99.52069415137532
 30
0.0
 11
64.85908050331632
 21
99.52069415137532
 31
0.0
  0
LINE
  5
21F
  8
0
  6
CONTINUOUS
 62
     7
 10
74.55908050331631
 20
99.67069415137532
 30
0.0
 11
84.1090805033163
 21
99.67069415137532
 31
0.0
  0
LINE
  5
220
  8
0
  6
CONTINUOUS
 62
     7
 10
75.05908050331631
 20
141.1706941513754
 30
0.0
 11
75.05908050331631
 21
139.6706941513754
 31
0.0
  0
LINE
  5
221
  8
0
  6
CONTINUOUS
 62
     7
 10
74.05908050331631
 20
159.6706941513754
 30
0.0
 11
72.5590805033163
 21
159.6706941513754
 31
0.0
  0
LINE
  5
222
  8
0
  6
CONTINUOUS
 62
     7
 10
65.2590805033163
 20
100.6706941513753
 30
0.0
 11
74.55908050331631
 21
100.6706941513753
 31
0.0
  0
LINE
  5
223
  8
0
  6
CONTINUOUS
 62
     7
 10
76.55908050331631
 20
158.6706941513754
 30
0.0
 11
76.55908050331631
 21
159.6706941513754
 31
0.0
  0
LINE
  5
224
  8
0
  6
CONTINUOUS
 62
     7
 10
74.55908050331631
 20
100.6706941513753
 30
0.0
 11
83.8590805033163
 21
100.6706941513753
 31
0.0
  0
LINE
  5
225
  8
0
  6
CONTINUOUS
 62
     7
 10
65.15908050331632
 20
97.67069415137532
 30
0.0
 11
74.55908050331631
 21
97.67069415137532
 31
0.0
  0
LINE
  5
226
  8
0
  6
CONTINUOUS
 62
     7
 10
74.55908050331631
 20
97.67069415137532
 30
0.0
 11
83.9590805033163
 21
97.67069415137532
 31
0.0
  0
CIRCLE
  5
227
  8
0
  6
CONTINUOUS
 62
     7
 10
74.55908050331631
 20
139.1706941513754
 30
0.0
 40
4.000000000000004
  0
ARC
  5
228
  8
0
  6
CONTINUOUS
 62
     7
 10
74.55908050331631
 20
159.1706941513754
 30
0.0
 40
4.000000000000004
 50
180.0
 51
0.0000000372418185
  0
LINE
  5
229
  8
0
  6
CONTINUOUS
 62
     7
 10
74.55908050331631
 20
130.9706941513753
 30
0.0
 11
63.55908050331632
 21
130.9706941513753
 31
0.0
  0
LINE
  5
22A
  8
0
  6
CONTINUOUS
 62
     7
 10
74.55908050331631
 20
127.4706941513753
 30
0.0
 11
85.55908050331631
 21
127.4706941513753
 31
0.0
  0
LINE
  5
22B
  8
0
  6
CONTINUOUS
 62
     7
 10
74.05908050331631
 20
137.1706941513754
 30
0.0
 11
74.05908050331631
 21
138.6706941513754
 31
0.0
  0
LINE
  5
22C
  8
0
  6
CONTINUOUS
 62
     7
 10
74.05908050331631
 20
139.6706941513754
 30
0.0
 11
72.5590805033163
 21
139.6706941513754
 31
0.0
  0
LINE
  5
22D
  8
0
  6
CONTINUOUS
 62
     7
 10
85.55908050331631
 20
121.0706941513753
 30
0.0
 11
63.55908050331632
 21
121.0706941513753
 31
0.0
  0
LINE
  5
22E
  8
0
  6
CONTINUOUS
 62
     7
 10
94.55908050331627
 20
134.1706941534943
 30
0.0
 11
99.5590805033163
 21
134.1706941534943
 31
0.0
  0
LINE
  5
22F
  8
0
  6
CONTINUOUS
 62
     7
 10
75.05908050331631
 20
138.6706941513754
 30
0.0
 11
75.05908050331631
 21
137.1706941513754
 31
0.0
  0
LINE
  5
230
  8
0
  6
CONTINUOUS
 62
     7
 10
74.55908050331631
 20
126.7706941513753
 30
0.0
 11
81.55908050331631
 21
126.7706941513753
 31
0.0
  0
LINE
  5
231
  8
0
  6
CONTINUOUS
 62
     7
 10
81.55908050331631
 20
121.7706941513753
 30
0.0
 11
84.8590805033163
 21
121.7706941513753
 31
0.0
  0
LINE
  5
232
  8
0
  6
CONTINUOUS
 62
     7
 10
64.85908050331632
 20
101.6706941513753
 30
0.0
 11
74.55908050331631
 21
101.6706941513753
 31
0.0
  0
LINE
  5
233
  8
0
  6
CONTINUOUS
 62
     7
 10
84.25908050331631
 20
99.52069415137532
 30
0.0
 11
74.55908050331631
 21
99.52069415137532
 31
0.0
  0
LINE
  5
234
  8
0
  6
CONTINUOUS
 62
     7
 10
63.55908050331632
 20
127.4706941513753
 30
0.0
 11
74.55908050331631
 21
127.4706941513753
 31
0.0
  0
LINE
  5
235
  8
0
  6
CONTINUOUS
 62
     7
 10
85.55908050331631
 20
121.0706941513753
 30
0.0
 11
84.8590805033163
 21
121.7706941513753
 31
0.0
  0
CIRCLE
  5
236
  8
0
  6
CONTINUOUS
 62
     7
 10
74.55908050331634
 20
149.1706941513755
 30
0.0
 40
2.299999999999996
  0
ARC
  5
237
  8
0
  6
CONTINUOUS
 62
     7
 10
74.55908050331631
 20
149.1706941513754
 30
0.0
 40
16.4
 50
82.51758999865797
 51
97.48241000134202
  0
LINE
  5
238
  8
0
  6
CONTINUOUS
 62
     7
 10
64.3090805033163
 20
107.2206941513753
 30
0.0
 11
64.85908050331632
 21
106.6706941513753
 31
0.0
  0
CIRCLE
  5
239
  8
0
  6
CONTINUOUS
 62
     7
 10
74.55908050331634
 20
149.1706941513755
 30
0.0
 40
1.799999999999968
  0
ARC
  5
23A
  8
0
  6
CONTINUOUS
 62
     7
 10
94.80908050331632
 20
113.4074243442907
 30
0.0
 40
10.00000000000001
 50
160.0
 51
180.0
  0
LINE
  5
23B
  8
0
  6
CONTINUOUS
 62
     7
 10
84.25908050331631
 20
106.6706941513753
 30
0.0
 11
84.80908050331631
 21
107.2206941513753
 31
0.0
  0
LINE
  5
23C
  8
0
  6
CONTINUOUS
 62
     7
 10
85.9590805033163
 20
131.1706941513754
 30
0.0
 11
63.15908050331631
 21
131.1706941513754
 31
0.0
  0
LINE
  5
23D
  8
0
  6
CONTINUOUS
 62
     7
 10
84.25908050331631
 20
101.6706941513753
 30
0.0
 11
84.25908050331631
 21
106.6706941513753
 31
0.0
  0
LINE
  5
23E
  8
0
  6
CONTINUOUS
 62
     7
 10
84.25908050331631
 20
99.52069415137532
 30
0.0
 11
84.1090805033163
 21
99.67069415137532
 31
0.0
  0
LINE
  5
23F
  8
0
  6
CONTINUOUS
 62
     7
 10
65.0090805033163
 20
99.67069415137532
 30
0.0
 11
64.85908050331632
 21
99.52069415137532
 31
0.0
  0
LINE
  5
240
  8
0
  6
CONTINUOUS
 62
     7
 10
64.85908050331632
 20
101.6706941513753
 30
0.0
 11
65.2590805033163
 21
100.6706941513753
 31
0.0
  0
LINE
  5
241
  8
0
  6
CONTINUOUS
 62
     7
 10
64.85908050331629
 20
106.6706941513753
 30
0.0
 11
64.85908050331629
 21
101.6706941513753
 31
0.0
  0
ARC
  5
242
  8
0
  6
CONTINUOUS
 62
     7
 10
72.48855373801749
 20
164.9353038488649
 30
0.0
 40
0.4999999999999847
 50
97.48241000134202
 51
169.9999999999997
  0
LINE
  5
243
  8
0
  6
CONTINUOUS
 62
     7
 10
63.55908050331632
 20
117.2313022159663
 30
0.0
 11
63.70600671117541
 21
116.8276257775474
 31
0.0
  0
LINE
  5
244
  8
0
  6
CONTINUOUS
 62
     7
 10
63.0590805033163
 20
131.2706941513754
 30
0.0
 11
86.05908050331631
 21
131.2706941513754
 31
0.0
  0
LINE
  5
245
  8
0
  6
CONTINUOUS
 62
     7
 10
85.55908050331631
 20
117.2313022159663
 30
0.0
 11
85.55908050331631
 21
121.0706941513753
 31
0.0
  0
LINE
  5
246
  8
0
  6
CONTINUOUS
 62
     7
 10
84.80908050331631
 20
107.2206941513753
 30
0.0
 11
84.80908050331631
 21
113.4074243442907
 31
0.0
  0
LINE
  5
247
  8
0
  6
CONTINUOUS
 62
     7
 10
63.55908050331632
 20
121.0706941513753
 30
0.0
 11
63.55908050331632
 21
117.2313022159663
 31
0.0
  0
ARC
  5
248
  8
0
  6
CONTINUOUS
 62
     7
 10
54.30908050331632
 20
113.4074243442907
 30
0.0
 40
10.00000000000001
 50
0.0
 51
19.99999999999994
  0
LINE
  5
249
  8
0
  6
CONTINUOUS
 62
     7
 10
64.3090805033163
 20
113.4074243442907
 30
0.0
 11
64.3090805033163
 21
107.2206941513753
 31
0.0
  0
LINE
  5
24A
  8
0
  6
CONTINUOUS
 62
     7
 10
85.55908050331631
 20
127.4706941513753
 30
0.0
 11
85.55908050331631
 21
130.9706941513753
 31
0.0
  0
LINE
  5
24B
  8
0
  6
CONTINUOUS
 62
     7
 10
64.2590805033163
 20
121.7706941513753
 30
0.0
 11
63.55908050331632
 21
121.0706941513753
 31
0.0
  0
LINE
  5
24C
  8
0
  6
CONTINUOUS
 62
     7
 10
85.55908050331631
 20
130.9706941513753
 30
0.0
 11
85.3590805033163
 21
131.1706941513753
 31
0.0
  0
LINE
  5
24D
  8
0
  6
CONTINUOUS
 62
     7
 10
85.41215429545723
 20
116.8276257775474
 30
0.0
 11
85.55908050331631
 21
117.2313022159663
 31
0.0
  0
LINE
  5
24E
  8
0
  6
CONTINUOUS
 62
     7
 10
64.85908050331632
 20
99.52069415137532
 30
0.0
 11
64.85908050331632
 21
98.67069415137532
 31
0.0
  0
LINE
  5
24F
  8
0
  6
CONTINUOUS
 62
     7
 10
84.25908050331631
 20
98.67069415137532
 30
0.0
 11
84.25908050331631
 21
99.52069415137532
 31
0.0
  0
ARC
  5
250
  8
0
  6
CONTINUOUS
 62
     7
 10
76.62960726861509
 20
164.9353038488649
 30
0.0
 40
0.5000000000000122
 50
9.999999999999545
 51
82.5175899986582
  0
LINE
  5
251
  8
0
  6
CONTINUOUS
 62
     7
 10
77.1220111451212
 20
165.0221279376984
 30
0.0
 11
77.27214189347828
 21
164.1706941539753
 31
0.0
  0
LINE
  5
252
  8
0
  6
CONTINUOUS
 62
     7
 10
63.7590805033163
 20
131.1706941513753
 30
0.0
 11
63.55908050331632
 21
130.9706941513753
 31
0.0
  0
LINE
  5
253
  8
0
  6
CONTINUOUS
 62
     7
 10
63.55908050331632
 20
130.9706941513753
 30
0.0
 11
63.55908050331632
 21
127.4706941513753
 31
0.0
  0
LINE
  5
254
  8
0
  6
CONTINUOUS
 62
     7
 10
63.55908050331632
 20
127.4706941513753
 30
0.0
 11
64.2590805033163
 21
126.7706941513753
 31
0.0
  0
LINE
  5
255
  8
0
  6
CONTINUOUS
 62
     7
 10
84.8590805033163
 20
126.7706941513753
 30
0.0
 11
85.55908050331631
 21
127.4706941513753
 31
0.0
  0
LINE
  5
256
  8
0
  6
CONTINUOUS
 62
     7
 10
71.8460191131543
 20
164.1706941539753
 30
0.0
 11
71.9961498615114
 21
165.0221279376984
 31
0.0
  0
LINE
  5
257
  8
0
  6
CONTINUOUS
 62
     7
 10
80.00908050331631
 20
96.67069415137533
 30
0.0
 11
69.10908050331632
 21
96.67069415137533
 31
0.0
  0
TEXT
  5
258
  8
0
  6
CONTINUOUS
 62
     7
 10
67.04992566662042
 20
89.04824405057212
 30
0.0
 40
3.0
  1
%%USKE-13A-15T
  0
ENDSEC
  0
EOF
