  0
SECTION
  2
HEADER
  9
$ACADVER
  1
AC1006
  9
$DWGCODEPAGE
  3
ansi_932
  9
$INSBASE
 10
0.0
 20
0.0
 30
0.0
  9
$EXTMIN
 10
444.5000207927059
 20
218.3333333333245
  9
$EXTMAX
 10
576.030711997214
 20
375.0
  9
$LIMMIN
 10
0.0
 20
0.0
  9
$LIMMAX
 10
12.0
 20
9.0
  9
$ORTHOMODE
 70
     0
  9
$REGENMODE
 70
     1
  9
$FILLMODE
 70
     1
  9
$QTEXTMODE
 70
     0
  9
$MIRRTEXT
 70
     1
  9
$DRAGMODE
 70
     2
  9
$LTSCALE
 40
1.0
  9
$OSMODE
 70
    37
  9
$ATTMODE
 70
     1
  9
$TEXTSIZE
 40
0.2
  9
$TRACEWID
 40
0.05
  9
$TEXTSTYLE
  7
STANDARD
  9
$CLAYER
  8
0
  9
$CELTYPE
  6
BYLAYER
  9
$CECOLOR
 62
   256
  9
$DIMSCALE
 40
1.0
  9
$DIMASZ
 40
3.0
  9
$DIMEXO
 40
0.0625
  9
$DIMDLI
 40
0.38
  9
$DIMRND
 40
0.0
  9
$DIMDLE
 40
0.0
  9
$DIMEXE
 40
1.5
  9
$DIMTP
 40
0.0
  9
$DIMTM
 40
0.0
  9
$DIMTXT
 40
3.0
  9
$DIMCEN
 40
0.09
  9
$DIMTSZ
 40
0.0
  9
$DIMTOL
 70
     0
  9
$DIMLIM
 70
     0
  9
$DIMTIH
 70
     1
  9
$DIMTOH
 70
     1
  9
$DIMSE1
 70
     0
  9
$DIMSE2
 70
     0
  9
$DIMTAD
 70
     1
  9
$DIMZIN
 70
     0
  9
$DIMBLK
  1

  9
$DIMASO
 70
     1
  9
$DIMSHO
 70
     1
  9
$DIMPOST
  1

  9
$DIMAPOST
  1

  9
$DIMALT
 70
     0
  9
$DIMALTD
 70
     2
  9
$DIMALTF
 40
25.4
  9
$DIMLFAC
 40
1.0
  9
$DIMTOFL
 70
     0
  9
$DIMTVP
 40
0.0
  9
$DIMTIX
 70
     0
  9
$DIMSOXD
 70
     0
  9
$DIMSAH
 70
     0
  9
$DIMBLK1
  1

  9
$DIMBLK2
  1

  9
$LUNITS
 70
     2
  9
$LUPREC
 70
     4
  9
$SKETCHINC
 40
0.1
  9
$FILLETRAD
 40
0.5
  9
$AUNITS
 70
     0
  9
$AUPREC
 70
     0
  9
$MENU
  1
.
  9
$ELEVATION
 40
0.0
  9
$THICKNESS
 40
0.0
  9
$LIMCHECK
 70
     0
  9
$CHAMFERA
 40
0.0
  9
$CHAMFERB
 40
0.0
  9
$SKPOLY
 70
     0
  9
$TDCREATE
 40
2460165.654330231
  9
$TDUPDATE
 40
2460165.654330405
  9
$TDINDWG
 40
0.0000000116
  9
$TDUSRTIMER
 40
0.0000000116
  9
$USRTIMER
 70
     1
  9
$ANGBASE
 50
0.0
  9
$ANGDIR
 70
     0
  9
$PDMODE
 70
     0
  9
$PDSIZE
 40
0.0
  9
$PLINEWID
 40
0.0
  9
$COORDS
 70
     1
  9
$SPLFRAME
 70
     0
  9
$SPLINETYPE
 70
     6
  9
$SPLINESEGS
 70
     8
  9
$ATTDIA
 70
     0
  9
$ATTREQ
 70
     1
  9
$HANDLING
 70
     1
  9
$HANDSEED
  5
674
  9
$SURFTAB1
 70
     6
  9
$SURFTAB2
 70
     6
  9
$SURFTYPE
 70
     6
  9
$SURFU
 70
     6
  9
$SURFV
 70
     6
  9
$UCSNAME
  2

  9
$UCSORG
 10
0.0
 20
0.0
 30
0.0
  9
$UCSXDIR
 10
1.0
 20
0.0
 30
0.0
  9
$UCSYDIR
 10
0.0
 20
1.0
 30
0.0
  9
$USERI1
 70
     0
  9
$USERI2
 70
     0
  9
$USERI3
 70
     0
  9
$USERI4
 70
     0
  9
$USERI5
 70
     0
  9
$USERR1
 40
0.0
  9
$USERR2
 40
0.0
  9
$USERR3
 40
0.0
  9
$USERR4
 40
0.0
  9
$USERR5
 40
0.0
  9
$WORLDVIEW
 70
     1
  0
ENDSEC
  0
SECTION
  2
TABLES
  0
TABLE
  2
VPORT
 70
     1
  0
VPORT
  2
*ACTIVE
 70
     0
 10
0.0
 20
0.0
 11
1.0
 21
1.0
 12
510.26536639496
 22
296.6666666666623
 13
0.0
 23
0.0
 14
0.5
 24
0.5
 15
0.5
 25
0.5
 16
0.0
 26
0.0
 36
1.0
 17
0.0
 27
0.0
 37
0.0
 40
156.6666666666755
 41
1.6
 42
50.0
 43
0.0
 44
0.0
 50
0.0
 51
0.0
 71
     0
 72
   100
 73
     1
 74
     3
 75
     0
 76
     0
 77
     0
 78
     0
  0
ENDTAB
  0
TABLE
  2
LTYPE
 70
     2
  0
LTYPE
  2
CONTINUOUS
 70
     0
  3
Solid line
 72
    65
 73
     0
 40
0.0
  0
LTYPE
  2
CENTER
 70
     0
  3

 72
    65
 73
     0
 40
0.0
  0
ENDTAB
  0
TABLE
  2
LAYER
 70
     2
  0
LAYER
  2
0
 70
     0
 62
     7
  6
CONTINUOUS
  0
LAYER
  2
1
 70
     0
 62
     7
  6
CONTINUOUS
  0
ENDTAB
  0
TABLE
  2
STYLE
 70
     2
  0
STYLE
  2
STANDARD
 70
     0
 40
0.0
 41
1.0
 50
0.0
 71
     0
 42
0.2
  3
txt
  4

  0
STYLE
  2
ＭＳ_ゴシック
 70
     0
 40
0.0
 41
1.0
 50
0.0
 71
     0
 42
0.2
  3
ＭＳ ゴシック.shx
  4

  0
ENDTAB
  0
TABLE
  2
VIEW
 70
     0
  0
ENDTAB
  0
TABLE
  2
UCS
 70
     0
  0
ENDTAB
  0
ENDSEC
  0
SECTION
  2
BLOCKS
  0
BLOCK
  8
0
  2
D_FRAME_VIEW_1491
 70
     0
 10
0.0
 20
0.0
 30
0.0
  0
LINE
  5
7A
  8
1
  6
CONTINUOUS
 62
     7
 10
488.2513774264428
 20
258.8845473667055
 30
0.0
 11
475.0013774609469
 21
258.8835912740722
 31
0.0
  0
LINE
  5
7B
  8
1
  6
CONTINUOUS
 62
     7
 10
475.0013774609469
 20
258.8835912740722
 30
0.0
 11
461.751377495455
 21
258.882635181439
 31
0.0
  0
LINE
  5
7C
  8
1
  6
CONTINUOUS
 62
     7
 10
461.7516300482215
 20
255.382635190552
 30
0.0
 11
475.0016300137179
 21
255.3835912831852
 31
0.0
  0
LINE
  5
7D
  8
1
  6
CONTINUOUS
 62
     7
 10
475.0016300137179
 20
255.3835912831852
 30
0.0
 11
488.2516299792094
 21
255.3845473758184
 31
0.0
  0
LINE
  5
7E
  8
1
  6
CONTINUOUS
 62
     7
 10
487.551680491591
 20
254.6844968670869
 30
0.0
 11
484.0016805008341
 21
254.6842407064191
 31
0.0
  0
LINE
  5
7F
  8
1
  6
CONTINUOUS
 62
     7
 10
475.0016805242722
 20
254.6835912850078
 30
0.0
 11
484.001680500831
 21
254.6842407064191
 31
0.0
  0
LINE
  5
80
  8
1
  6
CONTINUOUS
 62
     7
 10
466.0016805477101
 20
254.6829418635965
 30
0.0
 11
475.0016805242701
 21
254.6835912850078
 31
0.0
  0
LINE
  5
81
  8
1
  6
CONTINUOUS
 62
     7
 10
466.0016805477101
 20
254.6829418635965
 30
0.0
 11
462.4516805569549
 21
254.6826857029287
 31
0.0
  0
LINE
  5
82
  8
1
  6
CONTINUOUS
 62
     7
 10
462.4520413466258
 20
249.6826857159474
 30
0.0
 11
466.002041337383
 21
249.6829418766152
 31
0.0
  0
LINE
  5
83
  8
1
  6
CONTINUOUS
 62
     7
 10
488.2520917899952
 20
248.9845473924823
 30
0.0
 11
461.7520918590029
 21
248.9826352072158
 31
0.0
  0
LINE
  5
84
  8
1
  6
CONTINUOUS
 62
     7
 10
466.002041337383
 20
249.6829418766152
 30
0.0
 11
475.002041313943
 21
249.6835912980264
 31
0.0
  0
LINE
  5
85
  8
1
  6
CONTINUOUS
 62
     7
 10
475.0020413139451
 20
249.6835912980264
 30
0.0
 11
484.0020412905039
 21
249.6842407194377
 31
0.0
  0
LINE
  5
86
  8
1
  6
CONTINUOUS
 62
     7
 10
484.0020412905071
 20
249.6842407194377
 30
0.0
 11
487.5520412812619
 21
249.6844968801055
 31
0.0
  0
LINE
  5
87
  8
1
  6
CONTINUOUS
 62
     7
 10
461.7524283772838
 20
244.3190000581132
 30
0.0
 11
488.2524283082761
 21
244.3209122433797
 31
0.0
  0
LINE
  5
88
  8
1
  6
CONTINUOUS
 62
     7
 10
462.202517589645
 20
243.0826676936483
 30
0.0
 11
475.0025175563133
 21
243.083591315211
 31
0.0
  0
LINE
  5
89
  8
1
  6
CONTINUOUS
 62
     7
 10
475.0025175563133
 20
243.083591315211
 30
0.0
 11
487.8025175229768
 21
243.0845149367737
 31
0.0
  0
LINE
  5
8A
  8
1
  6
CONTINUOUS
 62
     7
 10
461.9526258271979
 20
241.5826496580702
 30
0.0
 11
475.0026257932152
 21
241.5835913191166
 31
0.0
  0
LINE
  5
8B
  8
1
  6
CONTINUOUS
 62
     7
 10
488.2026365825316
 20
241.4345438042437
 30
0.0
 11
475.0026366169054
 21
241.4335913195071
 31
0.0
  0
LINE
  5
8C
  8
1
  6
CONTINUOUS
 62
     7
 10
475.0026257932152
 20
241.5835913191166
 30
0.0
 11
488.0526257592276
 21
241.5845329801629
 31
0.0
  0
LINE
  5
8D
  8
1
  6
CONTINUOUS
 62
     7
 10
475.0026366169054
 20
241.4335913195071
 30
0.0
 11
461.8026366512833
 21
241.4326388347706
 31
0.0
  0
LINE
  5
8E
  8
1
  6
CONTINUOUS
 62
     7
 10
461.8027035247852
 20
240.5058730308019
 30
0.0
 11
488.202703456038
 21
240.507778000275
 31
0.0
  0
ARC
  5
8F
  8
1
  6
CONTINUOUS
 62
     7
 10
475.0018609191085
 20
252.1835912912812
 30
0.0
 40
2.49999999999915
 50
90.00413434511127
 51
270.0041343451161
  0
LINE
  5
90
  8
1
  6
CONTINUOUS
 62
     7
 10
466.0016805477056
 20
254.6829418634321
 30
0.0
 11
466.0020413373785
 21
249.6829418764508
 31
0.0
  0
LINE
  5
91
  8
1
  6
CONTINUOUS
 62
     7
 10
484.0020412905116
 20
249.6842407192733
 30
0.0
 11
484.0016805008386
 21
254.6842407062547
 31
0.0
  0
ARC
  5
92
  8
1
  6
CONTINUOUS
 62
     7
 10
475.0018508859568
 20
252.1835912905572
 30
0.0
 40
2.500000000019282
 50
270.004364288016
 51
90.00390440221135
  0
LINE
  5
93
  8
1
  6
CONTINUOUS
 62
     7
 10
462.5036489827377
 20
227.4032789285286
 30
0.0
 11
475.0036489501871
 21
227.4041809027109
 31
0.0
  0
LINE
  5
94
  8
1
  6
CONTINUOUS
 62
     7
 10
475.0036489501872
 20
227.4041809027109
 30
0.0
 11
487.5036489176319
 21
227.4050828768932
 31
0.0
  0
LINE
  5
95
  8
1
  6
CONTINUOUS
 62
     7
 10
463.3539968243094
 20
222.5827507286494
 30
0.0
 11
475.0039967939723
 21
222.5835913685873
 31
0.0
  0
LINE
  5
96
  8
1
  6
CONTINUOUS
 62
     7
 10
475.0039967939723
 20
222.5835913685873
 30
0.0
 11
486.6539967636309
 21
222.5844320085252
 31
0.0
  0
LINE
  5
97
  8
1
  6
CONTINUOUS
 62
     7
 10
482.1540689332876
 20
221.5841073004233
 30
0.0
 11
467.8540689705256
 21
221.5830754419587
 31
0.0
  0
LINE
  5
98
  8
1
  6
CONTINUOUS
 62
     7
 10
484.5371041630677
 20
275.9335606446387
 30
0.0
 11
484.5087105227719
 21
277.5757437259683
 31
0.0
  0
ARC
  5
99
  8
1
  6
CONTINUOUS
 62
     7
 10
484.9999920055886
 20
278.0843128030039
 30
0.0
 40
2.200000000000002
 50
257.8539968259931
 51
284.1271143998811
  0
LINE
  5
9A
  8
1
  6
CONTINUOUS
 62
     7
 10
485.5085610811237
 20
277.5930313216244
 30
0.0
 11
485.5369547214195
 21
275.9508482402948
 31
0.0
  0
LINE
  5
9B
  8
1
  6
CONTINUOUS
 62
     7
 10
487.1507441639266
 20
277.6214249620655
 30
0.0
 11
485.5085610826732
 21
277.593031321771
 31
0.0
  0
ARC
  5
9C
  8
1
  6
CONTINUOUS
 62
     7
 10
484.9999920055886
 20
278.0843128030039
 30
0.0
 40
2.200000000000001
 50
347.8539968259913
 51
14.12711439989494
  0
LINE
  5
9D
  8
1
  6
CONTINUOUS
 62
     7
 10
485.4912734870172
 20
278.5928818801229
 30
0.0
 11
487.1334565682705
 21
278.6212755204174
 31
0.0
  0
LINE
  5
9E
  8
1
  6
CONTINUOUS
 62
     7
 10
485.4628798451716
 20
280.2350649613183
 30
0.0
 11
485.4912734854677
 21
278.5928818799759
 31
0.0
  0
ARC
  5
9F
  8
1
  6
CONTINUOUS
 62
     7
 10
484.9999920055886
 20
278.0843128030039
 30
0.0
 40
2.199999999999997
 50
77.85399682599319
 51
104.1271143998931
  0
LINE
  5
A0
  8
1
  6
CONTINUOUS
 62
     7
 10
484.4914229271158
 20
278.5755942843197
 30
0.0
 11
484.4630292868198
 21
280.217777365662
 31
0.0
  0
LINE
  5
A1
  8
1
  6
CONTINUOUS
 62
     7
 10
482.8492398472466
 20
278.5472006441695
 30
0.0
 11
484.4914229286658
 21
278.5755942844668
 31
0.0
  0
ARC
  5
A2
  8
1
  6
CONTINUOUS
 62
     7
 10
484.9999920055886
 20
278.0843128030039
 30
0.0
 40
2.200000000000001
 50
167.8539968259913
 51
194.1271143998949
  0
LINE
  5
A3
  8
1
  6
CONTINUOUS
 62
     7
 10
484.5087105243218
 20
277.5757437261149
 30
0.0
 11
482.8665274429027
 21
277.5473500858176
 31
0.0
  0
CIRCLE
  5
A4
  8
1
  6
CONTINUOUS
 62
     7
 10
484.9999920053498
 20
278.0843128030182
 30
0.0
 40
4.0
  0
ARC
  5
A5
  8
1
  6
CONTINUOUS
 62
     7
 10
484.9999920051036
 20
278.084312803033
 30
0.0
 40
1.21654992179303
 50
156.7229911289684
 51
205.2581200969058
  0
ARC
  5
A6
  8
1
  6
CONTINUOUS
 62
     7
 10
484.9999920051036
 20
278.084312803033
 30
0.0
 40
1.216549921793032
 50
66.72299112897153
 51
115.2581200969026
  0
ARC
  5
A7
  8
1
  6
CONTINUOUS
 62
     7
 10
484.9999920051036
 20
278.084312803033
 30
0.0
 40
1.216549921793025
 50
246.7229911289716
 51
295.2581200969027
  0
ARC
  5
A8
  8
1
  6
CONTINUOUS
 62
     7
 10
484.9999920051036
 20
278.084312803033
 30
0.0
 40
1.216549921793028
 50
336.7229911289685
 51
25.25812009690577
  0
LINE
  5
A9
  8
1
  6
CONTINUOUS
 62
     7
 10
467.1386192185069
 20
277.5935230574421
 30
0.0
 11
465.4962370524916
 21
277.6058637181377
 31
0.0
  0
ARC
  5
AA
  8
1
  6
CONTINUOUS
 62
     7
 10
465.0000079998004
 20
278.1096064374717
 30
0.0
 40
2.200000000000001
 50
346.4329357663263
 51
12.70605334021604
  0
LINE
  5
AB
  8
1
  6
CONTINUOUS
 62
     7
 10
465.5037507192846
 20
278.6058354901445
 30
0.0
 11
467.1461328852999
 21
278.5934948294489
 31
0.0
  0
LINE
  5
AC
  8
1
  6
CONTINUOUS
 62
     7
 10
465.5160913784096
 20
280.2482176561889
 30
0.0
 11
465.5037507177133
 21
278.6058354900859
 31
0.0
  0
ARC
  5
AD
  8
1
  6
CONTINUOUS
 62
     7
 10
465.0000079998004
 20
278.1096064374717
 30
0.0
 40
2.200000000000002
 50
76.4329357663263
 51
102.7060533402281
  0
LINE
  5
AE
  8
1
  6
CONTINUOUS
 62
     7
 10
464.5037789457065
 20
278.6133491568789
 30
0.0
 11
464.5161196064028
 21
280.2557313229818
 31
0.0
  0
LINE
  5
AF
  8
1
  6
CONTINUOUS
 62
     7
 10
462.8613967810949
 20
278.6256898176351
 30
0.0
 11
464.5037789472781
 21
278.6133491569382
 31
0.0
  0
ARC
  5
B0
  8
1
  6
CONTINUOUS
 62
     7
 10
465.0000079998004
 20
278.1096064374717
 30
0.0
 40
2.200000000000001
 50
166.4329357663263
 51
192.7060533402281
  0
LINE
  5
B1
  8
1
  6
CONTINUOUS
 62
     7
 10
464.496265280485
 20
277.6133773849315
 30
0.0
 11
462.8538831143021
 21
277.6257180456284
 31
0.0
  0
LINE
  5
B2
  8
1
  6
CONTINUOUS
 62
     7
 10
464.4839246182165
 20
275.9709952187769
 30
0.0
 11
464.4962652789127
 21
277.6133773848724
 31
0.0
  0
ARC
  5
B3
  8
1
  6
CONTINUOUS
 62
     7
 10
465.0000079998004
 20
278.1096064374717
 30
0.0
 40
2.200000000000002
 50
256.4329357663263
 51
282.706053340228
  0
LINE
  5
B4
  8
1
  6
CONTINUOUS
 62
     7
 10
465.4962370509195
 20
277.6058637180793
 30
0.0
 11
465.4838963902233
 21
275.963481551984
 31
0.0
  0
CIRCLE
  5
B5
  8
1
  6
CONTINUOUS
 62
     7
 10
465.000007999559
 20
278.1096064374844
 30
0.0
 40
4.0
  0
ARC
  5
B6
  8
1
  6
CONTINUOUS
 62
     7
 10
465.0000079993102
 20
278.1096064374974
 30
0.0
 40
1.21654992179303
 50
155.3019300693041
 51
203.8370590372383
  0
ARC
  5
B7
  8
1
  6
CONTINUOUS
 62
     7
 10
465.0000079993102
 20
278.1096064374974
 30
0.0
 40
1.216549921793027
 50
65.30193006930402
 51
113.8370590372383
  0
ARC
  5
B8
  8
1
  6
CONTINUOUS
 62
     7
 10
465.0000079993102
 20
278.1096064374974
 30
0.0
 40
1.216549921793034
 50
245.301930069304
 51
293.8370590372384
  0
ARC
  5
B9
  8
1
  6
CONTINUOUS
 62
     7
 10
465.0000079993102
 20
278.1096064374974
 30
0.0
 40
1.216549921793031
 50
335.301930069304
 51
23.8370590372383
  0
LINE
  5
BA
  8
1
  6
CONTINUOUS
 62
     7
 10
457.9810433705451
 20
263.1184712052662
 30
0.0
 11
458.01898382224
 21
293.1184472139591
 31
0.0
  0
LINE
  5
BB
  8
1
  6
CONTINUOUS
 62
     7
 10
460.9810409721336
 20
263.1146771600958
 30
0.0
 11
457.981043370545
 21
263.1184712052662
 31
0.0
  0
LINE
  5
BC
  8
1
  6
CONTINUOUS
 62
     7
 10
461.0189814238285
 20
293.1146531687887
 30
0.0
 11
458.0189838222399
 21
293.1184472139591
 31
0.0
  0
CIRCLE
  5
BD
  8
1
  6
CONTINUOUS
 62
     7
 10
475.0126468192693
 20
288.0969516231723
 30
0.0
 40
4.0
  0
CIRCLE
  5
BE
  8
1
  6
CONTINUOUS
 62
     7
 10
474.987353184806
 20
268.0969676173771
 30
0.0
 40
4.0
  0
CIRCLE
  5
BF
  8
1
  6
CONTINUOUS
 62
     7
 10
475.0000000020377
 20
278.0969596202747
 30
0.0
 40
2.399999999999999
  0
LINE
  5
C0
  8
1
  6
CONTINUOUS
 62
     7
 10
488.9810185802469
 20
263.079266071804
 30
0.0
 11
460.9810409721335
 21
263.1146771600526
 31
0.0
  0
LINE
  5
C1
  8
1
  6
CONTINUOUS
 62
     7
 10
489.0189590319418
 20
293.0792420804968
 30
0.0
 11
461.0189814238284
 21
293.1146531687455
 31
0.0
  0
CIRCLE
  5
C2
  8
1
  6
CONTINUOUS
 62
     7
 10
475.0126468188378
 20
288.0969516231988
 30
0.0
 40
2.2
  0
CIRCLE
  5
C3
  8
1
  6
CONTINUOUS
 62
     7
 10
474.9873531843745
 20
268.0969676174036
 30
0.0
 40
2.2
  0
LINE
  5
C4
  8
1
  6
CONTINUOUS
 62
     7
 10
491.981016180397
 20
263.0754720266787
 30
0.0
 11
492.0189566320919
 21
293.0754480353715
 31
0.0
  0
LINE
  5
C5
  8
1
  6
CONTINUOUS
 62
     7
 10
488.9810185802469
 20
263.0792660718472
 30
0.0
 11
491.981016180397
 21
263.0754720266787
 31
0.0
  0
LINE
  5
C6
  8
1
  6
CONTINUOUS
 62
     7
 10
489.0189590319418
 20
293.0792420805401
 30
0.0
 11
492.018956632092
 21
293.0754480353715
 31
0.0
  0
LINE
  5
C7
  8
1
  6
CONTINUOUS
 62
     7
 10
454.981045768597
 20
263.1222652504587
 30
0.0
 11
457.9810433701855
 21
263.1184712052883
 31
0.0
  0
LINE
  5
C8
  8
1
  6
CONTINUOUS
 62
     7
 10
455.0189862202919
 20
293.1222412591515
 30
0.0
 11
458.0189838218805
 21
293.1184472139811
 31
0.0
  0
LINE
  5
C9
  8
1
  6
CONTINUOUS
 62
     7
 10
494.9810137801874
 20
263.0716779815321
 30
0.0
 11
491.9810161800373
 21
263.0754720267007
 31
0.0
  0
LINE
  5
CA
  8
1
  6
CONTINUOUS
 62
     7
 10
495.0189542318824
 20
293.0716539902249
 30
0.0
 11
492.0189566317324
 21
293.0754480353935
 31
0.0
  0
CIRCLE
  5
CB
  8
1
  6
CONTINUOUS
 62
     7
 10
449.0000207927059
 20
278.1298413451873
 30
0.0
 40
2.499999999999999
  0
ARC
  5
CC
  8
1
  6
CONTINUOUS
 62
     7
 10
449.9873731757641
 20
268.1285846605666
 30
0.0
 40
4.999999999999998
 50
179.9275390555194
 51
269.9275390555194
  0
LINE
  5
CD
  8
1
  6
CONTINUOUS
 62
     7
 10
445.0126708087785
 20
288.1348920749776
 30
0.0
 11
444.9873771743152
 21
268.1349080691824
 31
0.0
  0
ARC
  5
CE
  8
1
  6
CONTINUOUS
 62
     7
 10
450.0126668102274
 20
288.1285686663618
 30
0.0
 40
5.000000000000002
 50
89.92753905551939
 51
179.9275390555194
  0
LINE
  5
CF
  8
1
  6
CONTINUOUS
 62
     7
 10
454.981045768597
 20
263.122265250502
 30
0.0
 11
449.9810497671482
 21
263.1285886591178
 31
0.0
  0
LINE
  5
D0
  8
1
  6
CONTINUOUS
 62
     7
 10
455.018986220292
 20
293.1222412591948
 30
0.0
 11
450.0189902188432
 21
293.1285646678106
 31
0.0
  0
ARC
  5
D1
  8
1
  6
CONTINUOUS
 62
     7
 10
500.0126268247155
 20
288.0653345802036
 30
0.0
 40
5.000000000000002
 50
359.9275390555194
 51
89.92753905551939
  0
LINE
  5
D2
  8
1
  6
CONTINUOUS
 62
     7
 10
505.0126228261642
 20
288.0590111715877
 30
0.0
 11
504.987329191701
 21
268.0590271657925
 31
0.0
  0
ARC
  5
D3
  8
1
  6
CONTINUOUS
 62
     7
 10
499.9873331902521
 20
268.0653505744083
 30
0.0
 40
4.999999999999998
 50
269.9275390555194
 51
359.9275390555194
  0
CIRCLE
  5
D4
  8
1
  6
CONTINUOUS
 62
     7
 10
500.9999792077735
 20
278.0640778955828
 30
0.0
 40
2.499999999999999
  0
LINE
  5
D5
  8
1
  6
CONTINUOUS
 62
     7
 10
494.9810137801875
 20
263.0716779815754
 30
0.0
 11
499.9810097816363
 21
263.0653545729596
 31
0.0
  0
LINE
  5
D6
  8
1
  6
CONTINUOUS
 62
     7
 10
495.0189542318824
 20
293.0716539902682
 30
0.0
 11
500.0189502333313
 21
293.0653305816523
 31
0.0
  0
ARC
  5
D7
  8
1
  6
CONTINUOUS
 62
     7
 10
474.9999920286005
 20
278.0835912237307
 30
0.0
 40
2.0
 50
180.0041343451065
 51
270.0041343451065
  0
ARC
  5
D8
  8
1
  6
CONTINUOUS
 62
     7
 10
474.9999920286005
 20
278.0835912237307
 30
0.0
 40
2.0
 50
270.0041343451065
 51
180.0041343451065
  0
ARC
  5
D9
  8
1
  6
CONTINUOUS
 62
     7
 10
476.2493426039367
 20
287.0836813977651
 30
0.0
 40
0.9999999999999982
 50
26.99825734868551
 51
90.00413434510655
  0
LINE
  5
DA
  8
1
  6
CONTINUOUS
 62
     7
 10
473.7492704525108
 20
288.0835010003255
 30
0.0
 11
476.2492704460022
 21
288.0836813951616
 31
0.0
  0
ARC
  5
DB
  8
1
  6
CONTINUOUS
 62
     7
 10
473.7493426104452
 20
287.0835010029289
 30
0.0
 40
0.9999999999999998
 50
90.00413434510659
 51
150.8055617728759
  0
LINE
  5
DC
  8
1
  6
CONTINUOUS
 62
     7
 10
461.5011465907027
 20
262.0826171336271
 30
0.0
 11
488.50114652041
 21
262.0845653978575
 31
0.0
  0
LINE
  5
DD
  8
1
  6
CONTINUOUS
 62
     7
 10
461.0012187499389
 20
261.0825810572633
 30
0.0
 11
489.0012186770427
 21
261.0846014794282
 31
0.0
  0
LINE
  5
DE
  8
1
  6
CONTINUOUS
 62
     7
 10
461.5012548276044
 20
260.5826171375322
 30
0.0
 11
488.5012547573118
 21
260.5845654017627
 31
0.0
  0
LINE
  5
DF
  8
1
  6
CONTINUOUS
 62
     7
 10
461.0012909078733
 20
260.0825810598668
 30
0.0
 11
489.0012908349772
 21
260.0846014820316
 31
0.0
  0
LINE
  5
E0
  8
1
  6
CONTINUOUS
 62
     7
 10
461.0013414184274
 20
259.3825810616891
 30
0.0
 11
489.0013413455313
 21
259.384601483854
 31
0.0
  0
LINE
  5
E1
  8
1
  6
CONTINUOUS
 62
     7
 10
488.7013629936928
 20
259.0845798372547
 30
0.0
 11
461.3013630650267
 21
259.0826027098505
 31
0.0
  0
ARC
  5
E2
  8
1
  6
CONTINUOUS
 62
     7
 10
479.6857269103921
 20
289.1309388071476
 30
0.0
 40
3.000000000000001
 50
210.7847585760124
 51
211.9925440582693
  0
ARC
  5
E3
  8
1
  6
CONTINUOUS
 62
     7
 10
474.9999920286124
 20
278.0835912246705
 30
0.0
 40
17.0
 50
61.95094670639389
 51
117.9041314046449
  0
LINE
  5
E4
  8
1
  6
CONTINUOUS
 62
     7
 10
488.2513774264473
 20
258.8845473667055
 30
0.0
 11
488.0513629953812
 21
259.0845329345978
 31
0.0
  0
LINE
  5
E5
  8
1
  6
CONTINUOUS
 62
     7
 10
461.9513630633383
 20
259.0826496125051
 30
0.0
 11
461.751377495446
 21
258.882635181439
 31
0.0
  0
LINE
  5
E6
  8
1
  6
CONTINUOUS
 62
     7
 10
461.751377495446
 20
258.882635181439
 30
0.0
 11
461.751630048217
 21
255.382635190552
 31
0.0
  0
LINE
  5
E7
  8
1
  6
CONTINUOUS
 62
     7
 10
488.2516299792184
 20
255.3845473758184
 30
0.0
 11
488.2513774264473
 21
258.8845473667054
 31
0.0
  0
LINE
  5
E8
  8
1
  6
CONTINUOUS
 62
     7
 10
461.751630048217
 20
255.382635190552
 30
0.0
 11
462.4516805569486
 21
254.6826857029288
 31
0.0
  0
LINE
  5
E9
  8
1
  6
CONTINUOUS
 62
     7
 10
487.5516804915952
 20
254.6844968670869
 30
0.0
 11
488.2516299792184
 21
255.3845473758185
 31
0.0
  0
LINE
  5
EA
  8
1
  6
CONTINUOUS
 62
     7
 10
488.2520917899997
 20
248.9845473924823
 30
0.0
 11
487.5520412812681
 21
249.6844968801055
 31
0.0
  0
LINE
  5
EB
  8
1
  6
CONTINUOUS
 62
     7
 10
462.4520413466215
 20
249.6826857159474
 30
0.0
 11
461.7520918589983
 21
248.9826352072158
 31
0.0
  0
LINE
  5
EC
  8
1
  6
CONTINUOUS
 62
     7
 10
461.7520918589983
 20
248.9826352072158
 30
0.0
 11
461.7524283772793
 21
244.3190000581131
 31
0.0
  0
LINE
  5
ED
  8
1
  6
CONTINUOUS
 62
     7
 10
488.2524283082806
 20
244.3209122433797
 30
0.0
 11
488.2520917899997
 21
248.9845473924823
 31
0.0
  0
LINE
  5
EE
  8
1
  6
CONTINUOUS
 62
     7
 10
461.7524283772793
 20
244.3190000581132
 30
0.0
 11
462.2025175896408
 21
243.0826676936483
 31
0.0
  0
LINE
  5
EF
  8
1
  6
CONTINUOUS
 62
     7
 10
487.8025175229855
 20
243.0845149367737
 30
0.0
 11
488.2524283082806
 21
244.3209122433797
 31
0.0
  0
LINE
  5
F0
  8
1
  6
CONTINUOUS
 62
     7
 10
488.2026365825361
 20
241.4345438042437
 30
0.0
 11
488.0526257592364
 21
241.5845329801629
 31
0.0
  0
LINE
  5
F1
  8
1
  6
CONTINUOUS
 62
     7
 10
461.9526258271935
 20
241.5826496580702
 30
0.0
 11
461.8026366512743
 21
241.4326388347706
 31
0.0
  0
LINE
  5
F2
  8
1
  6
CONTINUOUS
 62
     7
 10
461.8026366512743
 20
241.4326388347706
 30
0.0
 11
461.8027035247807
 21
240.5058730308019
 31
0.0
  0
LINE
  5
F3
  8
1
  6
CONTINUOUS
 62
     7
 10
488.2027034560425
 20
240.507778000275
 30
0.0
 11
488.2026365825361
 21
241.4345438042437
 31
0.0
  0
LINE
  5
F4
  8
1
  6
CONTINUOUS
 62
     7
 10
461.8027035247807
 20
240.5058730308019
 30
0.0
 11
461.8996489482307
 21
240.239577458044
 31
0.0
  0
LINE
  5
F5
  8
1
  6
CONTINUOUS
 62
     7
 10
488.105796464279
 20
240.2414684395272
 30
0.0
 11
488.2027034560425
 21
240.5077780002749
 31
0.0
  0
ARC
  5
F6
  8
1
  6
CONTINUOUS
 62
     7
 10
452.5029695595098
 20
236.818697970906
 30
0.0
 40
10.0
 50
0.0041343451136981
 51
20.00413434511369
  0
ARC
  5
F7
  8
1
  6
CONTINUOUS
 62
     7
 10
497.5029694423424
 20
236.8219450779623
 30
0.0
 40
10.0
 50
160.0041343451137
 51
180.0041343451137
  0
ARC
  5
F8
  8
1
  6
CONTINUOUS
 62
     7
 10
462.052615003243
 20
241.7326568734731
 30
0.0
 40
0.1499999999999996
 50
270.0041343451135
 51
0.0041343451134708
  0
ARC
  5
F9
  8
1
  6
CONTINUOUS
 62
     7
 10
487.9526149358066
 20
241.7345257639789
 30
0.0
 40
0.1500000000000013
 50
180.0041343451135
 51
270.0041343451135
  0
LINE
  5
FA
  8
1
  6
CONTINUOUS
 62
     7
 10
462.2025175896408
 20
243.0826676936483
 30
0.0
 11
462.2026150028524
 21
241.7326676971633
 31
0.0
  0
LINE
  5
FB
  8
1
  6
CONTINUOUS
 62
     7
 10
487.8026149361972
 20
241.7345149402887
 30
0.0
 11
487.8025175229855
 21
243.0845149367737
 31
0.0
  0
LINE
  5
FC
  8
1
  6
CONTINUOUS
 62
     7
 10
462.5029695334727
 20
236.8194195502518
 30
0.0
 11
462.5036489827334
 21
227.4032789285286
 31
0.0
  0
LINE
  5
FD
  8
1
  6
CONTINUOUS
 62
     7
 10
487.5036489176404
 20
227.4050828768932
 30
0.0
 11
487.5029694683796
 21
236.8212234986165
 31
0.0
  0
LINE
  5
FE
  8
1
  6
CONTINUOUS
 62
     7
 10
462.5036489827334
 20
227.4032789285286
 30
0.0
 11
463.3539968243055
 21
222.5827507286494
 31
0.0
  0
LINE
  5
FF
  8
1
  6
CONTINUOUS
 62
     7
 10
486.6539967636388
 20
222.5844320085252
 30
0.0
 11
487.5036489176404
 21
227.4050828768932
 31
0.0
  0
LINE
  5
100
  8
1
  6
CONTINUOUS
 62
     7
 10
467.0539968146717
 20
222.5830177128778
 30
0.0
 11
467.0540112462586
 21
222.3830177135281
 31
0.0
  0
LINE
  5
101
  8
1
  6
CONTINUOUS
 62
     7
 10
482.9540112048594
 20
222.384165024688
 30
0.0
 11
482.9539967732725
 21
222.5841650240376
 31
0.0
  0
ARC
  5
102
  8
1
  6
CONTINUOUS
 62
     7
 10
482.1540112069424
 20
222.3841072983403
 30
0.0
 40
0.8
 50
270.0041343451137
 51
0.0041343451136413
  0
ARC
  5
103
  8
1
  6
CONTINUOUS
 62
     7
 10
467.8540112441756
 20
222.3830754398757
 30
0.0
 40
0.8000000000000009
 50
180.0041343451137
 51
270.0041343451137
  0
ARC
  5
104
  8
1
  6
CONTINUOUS
 62
     7
 10
461.5011826696696
 20
261.5826171349289
 30
0.0
 40
0.5
 50
90.00413434510719
 51
180.0041343451066
  0
ARC
  5
105
  8
1
  6
CONTINUOUS
 62
     7
 10
488.5011825993776
 20
261.5845653991593
 30
0.0
 40
0.4999999999999991
 50
0.0041343451065799
 51
90.00413434510598
  0
LINE
  5
106
  8
1
  6
CONTINUOUS
 62
     7
 10
461.0011826709713
 20
261.5825810559616
 30
0.0
 11
461.0012187499385
 21
261.0825810572633
 31
0.0
  0
LINE
  5
107
  8
1
  6
CONTINUOUS
 62
     7
 10
489.0012186770431
 20
261.0846014794282
 30
0.0
 11
489.0011825980759
 21
261.5846014781264
 31
0.0
  0
LINE
  5
108
  8
1
  6
CONTINUOUS
 62
     7
 10
461.0012187499385
 20
261.0825810572633
 30
0.0
 11
461.501254827604
 21
260.5826171375323
 31
0.0
  0
LINE
  5
109
  8
1
  6
CONTINUOUS
 62
     7
 10
488.501254757312
 20
260.5845654017627
 30
0.0
 11
489.0012186770431
 21
261.0846014794282
 31
0.0
  0
LINE
  5
10A
  8
1
  6
CONTINUOUS
 62
     7
 10
489.0012908349776
 20
260.0846014820316
 30
0.0
 11
488.501254757312
 21
260.5845654017627
 31
0.0
  0
LINE
  5
10B
  8
1
  6
CONTINUOUS
 62
     7
 10
461.501254827604
 20
260.5826171375322
 30
0.0
 11
461.001290907873
 21
260.0825810598668
 31
0.0
  0
LINE
  5
10C
  8
1
  6
CONTINUOUS
 62
     7
 10
461.001290907873
 20
260.0825810598668
 30
0.0
 11
461.0013414184271
 21
259.3825810616891
 31
0.0
  0
LINE
  5
10D
  8
1
  6
CONTINUOUS
 62
     7
 10
489.0013413455317
 20
259.384601483854
 30
0.0
 11
489.0012908349776
 21
260.0846014820316
 31
0.0
  0
LINE
  5
10E
  8
1
  6
CONTINUOUS
 62
     7
 10
461.0013414184271
 20
259.3825810616891
 30
0.0
 11
461.3013630650265
 21
259.0826027098504
 31
0.0
  0
LINE
  5
10F
  8
1
  6
CONTINUOUS
 62
     7
 10
488.701362993693
 20
259.0845798372547
 30
0.0
 11
489.0013413455317
 21
259.384601483854
 31
0.0
  0
ARC
  5
110
  8
1
  6
CONTINUOUS
 62
     7
 10
465.001074423656
 20
263.0828696837943
 30
0.0
 40
1.0
 50
270.0041343451062
 51
0.004134345106479
  0
ARC
  5
111
  8
1
  6
CONTINUOUS
 62
     7
 10
485.0010743715878
 20
263.0843128424835
 30
0.0
 40
1.0
 50
180.0041343451064
 51
270.0041343451068
  0
LINE
  5
112
  8
1
  6
CONTINUOUS
 62
     7
 10
466.00107258921
 20
263.1083284127396
 30
0.0
 11
466.0010744210525
 21
263.0829418417288
 31
0.0
  0
LINE
  5
113
  8
1
  6
CONTINUOUS
 62
     7
 10
484.0010743741913
 20
263.0842406845491
 30
0.0
 11
484.0010742786948
 21
263.0855641213812
 31
0.0
  0
ENDBLK
  8
0
  0
BLOCK
  8
0
  2
D_FRAME_VIEW_2212
 70
     0
 10
0.0
 20
0.0
 30
0.0
  0
LINE
  5
118
  8
1
  6
CONTINUOUS
 62
     7
 10
480.9999920053464
 20
313.3072366154256
 30
0.0
 11
488.9999920053533
 21
313.3072366173494
 31
0.0
  0
LINE
  5
119
  8
1
  6
CONTINUOUS
 62
     7
 10
487.1507441639309
 20
312.3143405265348
 30
0.0
 11
487.1999920055905
 21
312.3143405265467
 31
0.0
  0
LINE
  5
11A
  8
1
  6
CONTINUOUS
 62
     7
 10
482.7999920055867
 20
312.3143405254885
 30
0.0
 11
482.8492398472462
 21
312.3143405255004
 31
0.0
  0
LINE
  5
11B
  8
1
  6
CONTINUOUS
 62
     7
 10
484.5087105243237
 20
311.9692880075987
 30
0.0
 11
484.5371041645366
 21
312.3143405259392
 31
0.0
  0
LINE
  5
11C
  8
1
  6
CONTINUOUS
 62
     7
 10
485.5085610826752
 20
311.9692880078388
 30
0.0
 11
487.1507441639283
 21
312.3143405265438
 31
0.0
  0
LINE
  5
11D
  8
1
  6
CONTINUOUS
 62
     7
 10
487.1334565682747
 20
312.3143405265309
 30
0.0
 11
487.1999920055906
 21
312.3143405265469
 31
0.0
  0
LINE
  5
11E
  8
1
  6
CONTINUOUS
 62
     7
 10
485.4912734870191
 20
311.9692880078203
 30
0.0
 11
487.133456568272
 21
312.3143405265253
 31
0.0
  0
LINE
  5
11F
  8
1
  6
CONTINUOUS
 62
     7
 10
485.4628798466406
 20
312.3143405260998
 30
0.0
 11
485.4912734870194
 21
311.9692880078202
 31
0.0
  0
LINE
  5
120
  8
1
  6
CONTINUOUS
 62
     7
 10
484.4630292882879
 20
312.3143405258885
 30
0.0
 11
485.4628798466414
 21
312.3143405261289
 31
0.0
  0
LINE
  5
121
  8
1
  6
CONTINUOUS
 62
     7
 10
484.4630292882887
 20
312.3143405258606
 30
0.0
 11
484.4914229286676
 21
311.96928800758
 31
0.0
  0
LINE
  5
122
  8
1
  6
CONTINUOUS
 62
     7
 10
482.8492398472489
 20
312.3143405254962
 30
0.0
 11
484.4914229286679
 21
311.9692880075801
 31
0.0
  0
LINE
  5
123
  8
1
  6
CONTINUOUS
 62
     7
 10
482.7999920055867
 20
312.3143405254885
 30
0.0
 11
482.8492398472155
 21
312.3143405255004
 31
0.0
  0
LINE
  5
124
  8
1
  6
CONTINUOUS
 62
     7
 10
484.4914229286676
 20
311.9692880075773
 30
0.0
 11
484.4914229285847
 21
312.3143405258777
 31
0.0
  0
LINE
  5
125
  8
1
  6
CONTINUOUS
 62
     7
 10
485.5085610826756
 20
311.969288007836
 30
0.0
 11
485.5085610826752
 21
311.9706492389533
 31
0.0
  0
LINE
  5
126
  8
1
  6
CONTINUOUS
 62
     7
 10
484.5087105243238
 20
311.9692880075958
 30
0.0
 11
484.5087105242408
 21
312.3143405258818
 31
0.0
  0
LINE
  5
127
  8
1
  6
CONTINUOUS
 62
     7
 10
461.0000079995591
 20
313.307236610621
 30
0.0
 11
469.0000079995591
 21
313.3072366125658
 31
0.0
  0
LINE
  5
128
  8
1
  6
CONTINUOUS
 62
     7
 10
462.8000079998004
 20
312.3143405206892
 30
0.0
 11
462.8613967810915
 21
312.314340520704
 31
0.0
  0
LINE
  5
129
  8
1
  6
CONTINUOUS
 62
     7
 10
467.1461328853032
 20
312.3143405217457
 30
0.0
 11
467.2000079998004
 21
312.3143405217588
 31
0.0
  0
LINE
  5
12A
  8
1
  6
CONTINUOUS
 62
     7
 10
465.5037507192846
 20
311.9692880030292
 30
0.0
 11
467.1461328853015
 21
312.3143405217389
 31
0.0
  0
LINE
  5
12B
  8
1
  6
CONTINUOUS
 62
     7
 10
465.5037507192847
 20
311.9692880030295
 30
0.0
 11
465.516091379897
 21
312.3143405213237
 31
0.0
  0
LINE
  5
12C
  8
1
  6
CONTINUOUS
 62
     7
 10
464.5161196078895
 20
312.3143405211063
 30
0.0
 11
465.5160913798973
 21
312.3143405213494
 31
0.0
  0
LINE
  5
12D
  8
1
  6
CONTINUOUS
 62
     7
 10
464.5037789472779
 20
311.9692880027858
 30
0.0
 11
464.5161196078902
 21
312.3143405210784
 31
0.0
  0
LINE
  5
12E
  8
1
  6
CONTINUOUS
 62
     7
 10
462.8613967810924
 20
312.3143405206971
 30
0.0
 11
464.5037789472771
 21
311.9692880027861
 31
0.0
  0
LINE
  5
12F
  8
1
  6
CONTINUOUS
 62
     7
 10
462.8000079998004
 20
312.3143405206894
 30
0.0
 11
462.8538831142977
 21
312.3143405207024
 31
0.0
  0
LINE
  5
130
  8
1
  6
CONTINUOUS
 62
     7
 10
462.8538831142994
 20
312.3143405207078
 30
0.0
 11
464.4962652804841
 21
311.969288002797
 31
0.0
  0
LINE
  5
131
  8
1
  6
CONTINUOUS
 62
     7
 10
465.4838963917106
 20
312.3143405213677
 30
0.0
 11
465.4962370524909
 21
311.9692880030398
 31
0.0
  0
LINE
  5
132
  8
1
  6
CONTINUOUS
 62
     7
 10
465.5037507192846
 20
311.9692880030292
 30
0.0
 11
465.5037507192008
 21
312.3143405213191
 31
0.0
  0
LINE
  5
133
  8
1
  6
CONTINUOUS
 62
     7
 10
464.496265280484
 20
311.969288002797
 30
0.0
 11
464.4962652804838
 21
311.9698738396281
 31
0.0
  0
LINE
  5
134
  8
1
  6
CONTINUOUS
 62
     7
 10
465.4962370524908
 20
311.9692880030402
 30
0.0
 11
465.4962370524069
 21
312.3143405213172
 31
0.0
  0
LINE
  5
135
  8
1
  6
CONTINUOUS
 62
     7
 10
445.0126708087786
 20
322.5307119896343
 30
0.0
 11
450.0189902188432
 21
322.5307119908345
 31
0.0
  0
LINE
  5
136
  8
1
  6
CONTINUOUS
 62
     7
 10
450.0189902183638
 20
324.5307119908345
 30
0.0
 11
445.0126708082992
 21
324.5307119896343
 31
0.0
  0
POLYLINE
  5
137
  8
1
  6
CONTINUOUS
 62
     7
 66
     1
 10
0.0
 20
0.0
 30
0.0
  0
VERTEX
  5
282
  8
1
  6
CONTINUOUS
 62
     7
 10
460.01898222246
 20
319.5307119931584
 30
0.0
  0
VERTEX
  5
283
  8
1
  6
CONTINUOUS
 62
     7
 10
459.9229087010733
 20
320.506163603216
 30
0.0
  0
VERTEX
  5
284
  8
1
  6
CONTINUOUS
 62
     7
 10
459.6383801889293
 20
321.4441291548927
 30
0.0
  0
VERTEX
  5
285
  8
1
  6
CONTINUOUS
 62
     7
 10
459.1763309571842
 20
322.3085631580544
 30
0.0
  0
VERTEX
  5
286
  8
1
  6
CONTINUOUS
 62
     7
 10
458.5545172986937
 20
323.0662458987401
 30
0.0
  0
VERTEX
  5
287
  8
1
  6
CONTINUOUS
 62
     7
 10
457.7968351636365
 20
323.6880600541384
 30
0.0
  0
VERTEX
  5
288
  8
1
  6
CONTINUOUS
 62
     7
 10
456.93240185155
 20
324.1501096549749
 30
0.0
  0
VERTEX
  5
289
  8
1
  6
CONTINUOUS
 62
     7
 10
455.9944370498375
 20
324.4346383942097
 30
0.0
  0
VERTEX
  5
28A
  8
1
  6
CONTINUOUS
 62
     7
 10
455.0189862198125
 20
324.5307119919597
 30
0.0
  0
SEQEND
  5
630
  8
1
  6
CONTINUOUS
 62
     7
  0
LINE
  5
138
  8
1
  6
CONTINUOUS
 62
     7
 10
460.01898222246
 20
319.5307119931584
 30
0.0
 11
460.0189822228195
 21
318.0307119931583
 31
0.0
  0
POLYLINE
  5
139
  8
1
  6
CONTINUOUS
 62
     7
 66
     1
 10
0.0
 20
0.0
 30
0.0
  0
VERTEX
  5
28B
  8
1
  6
CONTINUOUS
 62
     7
 10
460.0189822228196
 20
318.0307119931583
 30
0.0
  0
VERTEX
  5
28C
  8
1
  6
CONTINUOUS
 62
     7
 10
460.0381969270969
 20
317.8356216711468
 30
0.0
  0
VERTEX
  5
28D
  8
1
  6
CONTINUOUS
 62
     7
 10
460.0951026295257
 20
317.6480285608115
 30
0.0
  0
VERTEX
  5
28E
  8
1
  6
CONTINUOUS
 62
     7
 10
460.1875124758748
 20
317.4751417601792
 30
0.0
  0
VERTEX
  5
28F
  8
1
  6
CONTINUOUS
 62
     7
 10
460.3118752075729
 20
317.323605212042
 30
0.0
  0
VERTEX
  5
290
  8
1
  6
CONTINUOUS
 62
     7
 10
460.4634116345842
 20
317.1992423809623
 30
0.0
  0
VERTEX
  5
291
  8
1
  6
CONTINUOUS
 62
     7
 10
460.6362982970016
 20
317.106832460795
 30
0.0
  0
VERTEX
  5
292
  8
1
  6
CONTINUOUS
 62
     7
 10
460.823891257344
 20
317.049926712948
 30
0.0
  0
VERTEX
  5
293
  8
1
  6
CONTINUOUS
 62
     7
 10
461.0189814233491
 20
317.030711993398
 30
0.0
  0
SEQEND
  5
631
  8
1
  6
CONTINUOUS
 62
     7
  0
LINE
  5
13A
  8
1
  6
CONTINUOUS
 62
     7
 10
461.0189814233491
 20
317.030711993398
 30
0.0
 11
489.0189590314624
 21
317.0307120001108
 31
0.0
  0
POLYLINE
  5
13B
  8
1
  6
CONTINUOUS
 62
     7
 66
     1
 10
0.0
 20
0.0
 30
0.0
  0
VERTEX
  5
294
  8
1
  6
CONTINUOUS
 62
     7
 10
489.0189590314624
 20
317.0307120001108
 30
0.0
  0
VERTEX
  5
295
  8
1
  6
CONTINUOUS
 62
     7
 10
489.2140491974581
 20
317.0499267197544
 30
0.0
  0
VERTEX
  5
296
  8
1
  6
CONTINUOUS
 62
     7
 10
489.4016421577733
 20
317.1068324676913
 30
0.0
  0
VERTEX
  5
297
  8
1
  6
CONTINUOUS
 62
     7
 10
489.5745288201463
 20
317.1992423879415
 30
0.0
  0
VERTEX
  5
298
  8
1
  6
CONTINUOUS
 62
     7
 10
489.7260652470982
 20
317.3236052190938
 30
0.0
  0
VERTEX
  5
299
  8
1
  6
CONTINUOUS
 62
     7
 10
489.8504279787236
 20
317.4751417672906
 30
0.0
  0
VERTEX
  5
29A
  8
1
  6
CONTINUOUS
 62
     7
 10
489.9428378249897
 20
317.6480285679672
 30
0.0
  0
VERTEX
  5
29B
  8
1
  6
CONTINUOUS
 62
     7
 10
489.9997435273286
 20
317.8356216783298
 30
0.0
  0
VERTEX
  5
29C
  8
1
  6
CONTINUOUS
 62
     7
 10
490.0189582315124
 20
318.0307120003506
 30
0.0
  0
SEQEND
  5
632
  8
1
  6
CONTINUOUS
 62
     7
  0
LINE
  5
13C
  8
1
  6
CONTINUOUS
 62
     7
 10
490.0189582311528
 20
319.5307120003506
 30
0.0
 11
490.0189582315124
 21
318.0307120003506
 31
0.0
  0
POLYLINE
  5
13D
  8
1
  6
CONTINUOUS
 62
     7
 66
     1
 10
0.0
 20
0.0
 30
0.0
  0
VERTEX
  5
29D
  8
1
  6
CONTINUOUS
 62
     7
 10
495.018954231403
 20
324.5307120015493
 30
0.0
  0
VERTEX
  5
29E
  8
1
  6
CONTINUOUS
 62
     7
 10
494.0435034014241
 20
324.4346384033316
 30
0.0
  0
VERTEX
  5
29F
  8
1
  6
CONTINUOUS
 62
     7
 10
493.1055385998482
 20
324.150109663647
 30
0.0
  0
VERTEX
  5
2A0
  8
1
  6
CONTINUOUS
 62
     7
 10
492.2411052879831
 20
323.6880600623961
 30
0.0
  0
VERTEX
  5
2A1
  8
1
  6
CONTINUOUS
 62
     7
 10
491.4834231532241
 20
323.0662459066344
 30
0.0
  0
VERTEX
  5
2A2
  8
1
  6
CONTINUOUS
 62
     7
 10
490.8616094950969
 20
322.3085631656506
 30
0.0
  0
VERTEX
  5
2A3
  8
1
  6
CONTINUOUS
 62
     7
 10
490.3995602637662
 20
321.4441291622673
 30
0.0
  0
VERTEX
  5
2A4
  8
1
  6
CONTINUOUS
 62
     7
 10
490.1150317520719
 20
320.5061636104543
 30
0.0
  0
VERTEX
  5
2A5
  8
1
  6
CONTINUOUS
 62
     7
 10
490.0189582311529
 20
319.5307120003506
 30
0.0
  0
SEQEND
  5
633
  8
1
  6
CONTINUOUS
 62
     7
  0
LINE
  5
13E
  8
1
  6
CONTINUOUS
 62
     7
 10
500.0189502328518
 20
324.530712002748
 30
0.0
 11
495.018954231403
 21
324.5307120015493
 31
0.0
  0
LINE
  5
13F
  8
1
  6
CONTINUOUS
 62
     7
 10
495.0189542318824
 20
322.5307120015493
 30
0.0
 11
500.0189502333313
 21
322.530712002748
 31
0.0
  0
POLYLINE
  5
140
  8
1
  6
CONTINUOUS
 62
     7
 66
     1
 10
0.0
 20
0.0
 30
0.0
  0
VERTEX
  5
2A6
  8
1
  6
CONTINUOUS
 62
     7
 10
495.0189542318825
 20
322.5307120015493
 30
0.0
  0
VERTEX
  5
2A7
  8
1
  6
CONTINUOUS
 62
     7
 10
494.4336837338951
 20
322.4730678426187
 30
0.0
  0
VERTEX
  5
2A8
  8
1
  6
CONTINUOUS
 62
     7
 10
493.8709048529495
 20
322.3023505988079
 30
0.0
  0
VERTEX
  5
2A9
  8
1
  6
CONTINUOUS
 62
     7
 10
493.3522448658305
 20
322.0251208380574
 30
0.0
  0
VERTEX
  5
2AA
  8
1
  6
CONTINUOUS
 62
     7
 10
492.8976355849751
 20
321.6520323446003
 30
0.0
  0
VERTEX
  5
2AB
  8
1
  6
CONTINUOUS
 62
     7
 10
492.5245473900988
 20
321.1974227000101
 30
0.0
  0
VERTEX
  5
2AC
  8
1
  6
CONTINUOUS
 62
     7
 10
492.2473178513004
 20
320.6787622979801
 30
0.0
  0
VERTEX
  5
2AD
  8
1
  6
CONTINUOUS
 62
     7
 10
492.0766007442838
 20
320.1159829668923
 30
0.0
  0
VERTEX
  5
2AE
  8
1
  6
CONTINUOUS
 62
     7
 10
492.0189566317324
 20
319.5307120008301
 30
0.0
  0
SEQEND
  5
634
  8
1
  6
CONTINUOUS
 62
     7
  0
LINE
  5
141
  8
1
  6
CONTINUOUS
 62
     7
 10
492.0189566320919
 20
318.03071200083
 30
0.0
 11
492.0189566317324
 21
319.53071200083
 31
0.0
  0
POLYLINE
  5
142
  8
1
  6
CONTINUOUS
 62
     7
 66
     1
 10
0.0
 20
0.0
 30
0.0
  0
VERTEX
  5
2AF
  8
1
  6
CONTINUOUS
 62
     7
 10
489.0189590319418
 20
315.0307120001108
 30
0.0
  0
VERTEX
  5
2B0
  8
1
  6
CONTINUOUS
 62
     7
 10
489.6042295299292
 20
315.0883561590414
 30
0.0
  0
VERTEX
  5
2B1
  8
1
  6
CONTINUOUS
 62
     7
 10
490.1670084108748
 20
315.2590734028522
 30
0.0
  0
VERTEX
  5
2B2
  8
1
  6
CONTINUOUS
 62
     7
 10
490.6856683979938
 20
315.5363031636027
 30
0.0
  0
VERTEX
  5
2B3
  8
1
  6
CONTINUOUS
 62
     7
 10
491.1402776788492
 20
315.9093916570597
 30
0.0
  0
VERTEX
  5
2B4
  8
1
  6
CONTINUOUS
 62
     7
 10
491.5133658737255
 20
316.36400130165
 30
0.0
  0
VERTEX
  5
2B5
  8
1
  6
CONTINUOUS
 62
     7
 10
491.7905954125239
 20
316.88266170368
 30
0.0
  0
VERTEX
  5
2B6
  8
1
  6
CONTINUOUS
 62
     7
 10
491.9613125195405
 20
317.4454410347678
 30
0.0
  0
VERTEX
  5
2B7
  8
1
  6
CONTINUOUS
 62
     7
 10
492.0189566320919
 20
318.03071200083
 30
0.0
  0
SEQEND
  5
635
  8
1
  6
CONTINUOUS
 62
     7
  0
LINE
  5
143
  8
1
  6
CONTINUOUS
 62
     7
 10
489.0189590319418
 20
315.0307120001108
 30
0.0
 11
461.0189814238285
 21
315.0307119933981
 31
0.0
  0
POLYLINE
  5
144
  8
1
  6
CONTINUOUS
 62
     7
 66
     1
 10
0.0
 20
0.0
 30
0.0
  0
VERTEX
  5
2B8
  8
1
  6
CONTINUOUS
 62
     7
 10
458.01898382224
 20
318.0307119926789
 30
0.0
  0
VERTEX
  5
2B9
  8
1
  6
CONTINUOUS
 62
     7
 10
458.0766279350721
 20
317.4454410266443
 30
0.0
  0
VERTEX
  5
2BA
  8
1
  6
CONTINUOUS
 62
     7
 10
458.2473450423585
 20
316.8826616956384
 30
0.0
  0
VERTEX
  5
2BB
  8
1
  6
CONTINUOUS
 62
     7
 10
458.5245745814055
 20
316.3640012937413
 30
0.0
  0
VERTEX
  5
2BC
  8
1
  6
CONTINUOUS
 62
     7
 10
458.8976627764998
 20
315.9093916493298
 30
0.0
  0
VERTEX
  5
2BD
  8
1
  6
CONTINUOUS
 62
     7
 10
459.3522720575341
 20
315.5363031560909
 30
0.0
  0
VERTEX
  5
2BE
  8
1
  6
CONTINUOUS
 62
     7
 10
459.8709320447861
 20
315.259073395589
 30
0.0
  0
VERTEX
  5
2BF
  8
1
  6
CONTINUOUS
 62
     7
 10
460.4337109258134
 20
315.0883561520481
 30
0.0
  0
VERTEX
  5
2C0
  8
1
  6
CONTINUOUS
 62
     7
 10
461.0189814238284
 20
315.0307119933981
 30
0.0
  0
SEQEND
  5
636
  8
1
  6
CONTINUOUS
 62
     7
  0
LINE
  5
145
  8
1
  6
CONTINUOUS
 62
     7
 10
458.01898382224
 20
318.0307119926788
 30
0.0
 11
458.0189838218805
 21
319.5307119926788
 31
0.0
  0
POLYLINE
  5
146
  8
1
  6
CONTINUOUS
 62
     7
 66
     1
 10
0.0
 20
0.0
 30
0.0
  0
VERTEX
  5
2C1
  8
1
  6
CONTINUOUS
 62
     7
 10
458.0189838218805
 20
319.5307119926788
 30
0.0
  0
VERTEX
  5
2C2
  8
1
  6
CONTINUOUS
 62
     7
 10
457.9613397090485
 20
320.1159829587134
 30
0.0
  0
VERTEX
  5
2C3
  8
1
  6
CONTINUOUS
 62
     7
 10
457.7906226017621
 20
320.6787622897193
 30
0.0
  0
VERTEX
  5
2C4
  8
1
  6
CONTINUOUS
 62
     7
 10
457.513393062715
 20
321.1974226916164
 30
0.0
  0
VERTEX
  5
2C5
  8
1
  6
CONTINUOUS
 62
     7
 10
457.1403048676208
 20
321.6520323360278
 30
0.0
  0
VERTEX
  5
2C6
  8
1
  6
CONTINUOUS
 62
     7
 10
456.6856955865865
 20
322.0251208292668
 30
0.0
  0
VERTEX
  5
2C7
  8
1
  6
CONTINUOUS
 62
     7
 10
456.1670355993345
 20
322.3023505897688
 30
0.0
  0
VERTEX
  5
2C8
  8
1
  6
CONTINUOUS
 62
     7
 10
455.6042567183071
 20
322.4730678333097
 30
0.0
  0
VERTEX
  5
2C9
  8
1
  6
CONTINUOUS
 62
     7
 10
455.018986220292
 20
322.5307119919597
 30
0.0
  0
SEQEND
  5
637
  8
1
  6
CONTINUOUS
 62
     7
  0
LINE
  5
147
  8
1
  6
CONTINUOUS
 62
     7
 10
455.018986220292
 20
322.5307119919597
 30
0.0
 11
450.0189902188432
 21
322.5307119907609
 31
0.0
  0
LINE
  5
148
  8
1
  6
CONTINUOUS
 62
     7
 10
450.0189902183638
 20
324.5307119907609
 30
0.0
 11
455.0189862198126
 21
324.5307119919597
 31
0.0
  0
POLYLINE
  5
149
  8
1
  6
CONTINUOUS
 62
     7
 66
     1
 10
0.0
 20
0.0
 30
0.0
  0
VERTEX
  5
2CA
  8
1
  6
CONTINUOUS
 62
     7
 10
457.9810433701855
 20
319.5307119931111
 30
0.0
  0
VERTEX
  5
2CB
  8
1
  6
CONTINUOUS
 62
     7
 10
457.9233992573535
 20
320.1159829591457
 30
0.0
  0
VERTEX
  5
2CC
  8
1
  6
CONTINUOUS
 62
     7
 10
457.7526821500671
 20
320.6787622901517
 30
0.0
  0
VERTEX
  5
2CD
  8
1
  6
CONTINUOUS
 62
     7
 10
457.47545261102
 20
321.1974226920487
 30
0.0
  0
VERTEX
  5
2CE
  8
1
  6
CONTINUOUS
 62
     7
 10
457.1023644159258
 20
321.6520323364601
 30
0.0
  0
VERTEX
  5
2CF
  8
1
  6
CONTINUOUS
 62
     7
 10
456.6477551348915
 20
322.0251208296991
 30
0.0
  0
VERTEX
  5
2D0
  8
1
  6
CONTINUOUS
 62
     7
 10
456.1290951476395
 20
322.302350590201
 30
0.0
  0
VERTEX
  5
2D1
  8
1
  6
CONTINUOUS
 62
     7
 10
455.5663162666121
 20
322.4730678337419
 30
0.0
  0
VERTEX
  5
2D2
  8
1
  6
CONTINUOUS
 62
     7
 10
454.9810457685971
 20
322.5307119923919
 30
0.0
  0
SEQEND
  5
638
  8
1
  6
CONTINUOUS
 62
     7
  0
LINE
  5
14A
  8
1
  6
CONTINUOUS
 62
     7
 10
457.9810433705451
 20
318.0307119931111
 30
0.0
 11
457.9810433701855
 21
319.5307119931111
 31
0.0
  0
POLYLINE
  5
14B
  8
1
  6
CONTINUOUS
 62
     7
 66
     1
 10
0.0
 20
0.0
 30
0.0
  0
VERTEX
  5
2D3
  8
1
  6
CONTINUOUS
 62
     7
 10
457.9810433705451
 20
318.0307119931112
 30
0.0
  0
VERTEX
  5
2D4
  8
1
  6
CONTINUOUS
 62
     7
 10
458.0386874833771
 20
317.4454410270766
 30
0.0
  0
VERTEX
  5
2D5
  8
1
  6
CONTINUOUS
 62
     7
 10
458.2094045906636
 20
316.8826616960707
 30
0.0
  0
VERTEX
  5
2D6
  8
1
  6
CONTINUOUS
 62
     7
 10
458.4866341297106
 20
316.3640012941736
 30
0.0
  0
VERTEX
  5
2D7
  8
1
  6
CONTINUOUS
 62
     7
 10
458.8597223248049
 20
315.9093916497622
 30
0.0
  0
VERTEX
  5
2D8
  8
1
  6
CONTINUOUS
 62
     7
 10
459.3143316058392
 20
315.5363031565232
 30
0.0
  0
VERTEX
  5
2D9
  8
1
  6
CONTINUOUS
 62
     7
 10
459.8329915930912
 20
315.2590733960213
 30
0.0
  0
VERTEX
  5
2DA
  8
1
  6
CONTINUOUS
 62
     7
 10
460.3957704741185
 20
315.0883561524803
 30
0.0
  0
VERTEX
  5
2DB
  8
1
  6
CONTINUOUS
 62
     7
 10
460.9810409721335
 20
315.0307119938304
 30
0.0
  0
SEQEND
  5
639
  8
1
  6
CONTINUOUS
 62
     7
  0
LINE
  5
14C
  8
1
  6
CONTINUOUS
 62
     7
 10
461.0189814238285
 20
315.0307119933981
 30
0.0
 11
460.9810409721335
 21
315.0307119938304
 31
0.0
  0
POLYLINE
  5
14D
  8
1
  6
CONTINUOUS
 62
     7
 66
     1
 10
0.0
 20
0.0
 30
0.0
  0
VERTEX
  5
2DC
  8
1
  6
CONTINUOUS
 62
     7
 10
494.9810137797081
 20
324.5307120019816
 30
0.0
  0
VERTEX
  5
2DD
  8
1
  6
CONTINUOUS
 62
     7
 10
494.059039686151
 20
324.4449731274237
 30
0.0
  0
VERTEX
  5
2DE
  8
1
  6
CONTINUOUS
 62
     7
 10
493.1686852010148
 20
324.190696966029
 30
0.0
  0
VERTEX
  5
2DF
  8
1
  6
CONTINUOUS
 62
     7
 10
492.3404855208259
 20
323.7766040585367
 30
0.0
  0
VERTEX
  5
2E0
  8
1
  6
CONTINUOUS
 62
     7
 10
491.6028442089065
 20
323.2168959488507
 30
0.0
  0
VERTEX
  5
2E1
  8
1
  6
CONTINUOUS
 62
     7
 10
490.981059079556
 20
322.5307681342836
 30
0.0
  0
VERTEX
  5
2E2
  8
1
  6
CONTINUOUS
 62
     7
 10
490.4964545956021
 20
321.7417517454241
 30
0.0
  0
VERTEX
  5
2E3
  8
1
  6
CONTINUOUS
 62
     7
 10
490.1656505342261
 20
320.876906533078
 30
0.0
  0
VERTEX
  5
2E4
  8
1
  6
CONTINUOUS
 62
     7
 10
489.9999920025674
 20
319.9658928392381
 30
0.0
  0
SEQEND
  5
63A
  8
1
  6
CONTINUOUS
 62
     7
  0
LINE
  5
14E
  8
1
  6
CONTINUOUS
 62
     7
 10
495.018954231403
 20
324.5307120015493
 30
0.0
 11
494.9810137797081
 21
324.5307120019816
 31
0.0
  0
LINE
  5
14F
  8
1
  6
CONTINUOUS
 62
     7
 10
505.0126228256848
 20
324.5307120040187
 30
0.0
 11
505.0126228261643
 21
322.5307120040188
 31
0.0
  0
LINE
  5
150
  8
1
  6
CONTINUOUS
 62
     7
 10
505.0126268247155
 20
322.5307120040187
 30
0.0
 11
500.0189502333313
 21
322.5307120028216
 31
0.0
  0
LINE
  5
151
  8
1
  6
CONTINUOUS
 62
     7
 10
500.0189502328518
 20
324.5307120028216
 30
0.0
 11
505.012626824236
 21
324.5307120040187
 31
0.0
  0
LINE
  5
152
  8
1
  6
CONTINUOUS
 62
     7
 10
444.9873771738359
 20
324.5307119899225
 30
0.0
 11
444.9873771743153
 21
322.5307119899225
 31
0.0
  0
LINE
  5
153
  8
1
  6
CONTINUOUS
 62
     7
 10
445.0126708087786
 20
322.5307119896343
 30
0.0
 11
444.9873771743153
 21
322.5307119899225
 31
0.0
  0
LINE
  5
154
  8
1
  6
CONTINUOUS
 62
     7
 10
445.0126708082992
 20
324.5307119896343
 30
0.0
 11
444.9873771738359
 21
324.5307119899225
 31
0.0
  0
LINE
  5
155
  8
1
  6
CONTINUOUS
 62
     7
 10
491.9999920286128
 20
367.5307119968998
 30
0.0
 11
457.9999920286128
 21
367.5307119969078
 31
0.0
  0
LINE
  5
156
  8
1
  6
CONTINUOUS
 62
     7
 10
458.499992028613
 20
368.0307119969077
 30
0.0
 11
491.499992028613
 21
368.0307119968999
 31
0.0
  0
LINE
  5
157
  8
1
  6
CONTINUOUS
 62
     7
 10
491.4999920286123
 20
365.0307119968999
 30
0.0
 11
458.4999920286123
 21
365.0307119969077
 31
0.0
  0
LINE
  5
158
  8
1
  6
CONTINUOUS
 62
     7
 10
487.4999920286089
 20
351.0307119969008
 30
0.0
 11
462.499992028609
 21
351.0307119969067
 31
0.0
  0
LINE
  5
159
  8
1
  6
CONTINUOUS
 62
     7
 10
465.9999920286077
 20
345.8345595741993
 30
0.0
 11
472.5098066427359
 21
345.8345595741977
 31
0.0
  0
LINE
  5
15A
  8
1
  6
CONTINUOUS
 62
     7
 10
472.509806642736
 20
345.8345595740353
 30
0.0
 11
474.0176511303319
 21
345.8755843719554
 31
0.0
  0
LINE
  5
15B
  8
1
  6
CONTINUOUS
 62
     7
 10
477.4889292525309
 20
345.8345595741965
 30
0.0
 11
483.9999920286077
 21
345.8345595741949
 31
0.0
  0
LINE
  5
15C
  8
1
  6
CONTINUOUS
 62
     7
 10
475.9810383951917
 20
345.8755843719549
 30
0.0
 11
477.4889292525309
 21
345.8345595740337
 31
0.0
  0
LINE
  5
15D
  8
1
  6
CONTINUOUS
 62
     7
 10
474.0176511303319
 20
345.8755843719554
 30
0.0
 11
475.9810383951917
 21
345.8755843719549
 31
0.0
  0
LINE
  5
15E
  8
1
  6
CONTINUOUS
 62
     7
 10
477.2493426013372
 20
334.5252491844254
 30
0.0
 11
477.2493426013334
 21
318.0307119967341
 31
0.0
  0
LINE
  5
15F
  8
1
  6
CONTINUOUS
 62
     7
 10
472.7493426130486
 20
318.0307119967351
 30
0.0
 11
472.7493426130525
 21
334.5252491844265
 31
0.0
  0
ARC
  5
160
  8
1
  6
CONTINUOUS
 62
     7
 10
473.7493426104452
 20
318.0307119967349
 30
0.0
 40
0.9999999973966389
 50
179.9999999999863
 51
269.9999999999864
  0
LINE
  5
161
  8
1
  6
CONTINUOUS
 62
     7
 10
472.7522572335913
 20
335.1943852310072
 30
0.0
 11
472.7493426130525
 21
334.5252491844264
 31
0.0
  0
LINE
  5
162
  8
1
  6
CONTINUOUS
 62
     7
 10
472.7493426130526
 20
334.5252491844265
 30
0.0
 11
472.6974349897601
 21
334.7620592508679
 31
0.0
  0
ARC
  5
163
  8
1
  6
CONTINUOUS
 62
     7
 10
475.0005692920807
 20
334.5307119970542
 30
0.0
 40
8.999999977354374
 50
180.5360822634557
 51
190.5456613768702
  0
LINE
  5
164
  8
1
  6
CONTINUOUS
 62
     7
 10
470.4171908604373
 20
334.5142067498087
 30
0.0
 11
471.0620868281017
 21
333.9517415784007
 31
0.0
  0
LINE
  5
165
  8
1
  6
CONTINUOUS
 62
     7
 10
470.4004576626199
 20
334.5307119968006
 30
0.0
 11
470.4171908604373
 21
334.5142067498087
 31
0.0
  0
LINE
  5
166
  8
1
  6
CONTINUOUS
 62
     7
 10
482.1997935839312
 20
334.5307119968504
 30
0.0
 11
483.6328777883155
 21
333.0980633117842
 31
0.0
  0
LINE
  5
167
  8
1
  6
CONTINUOUS
 62
     7
 10
479.5819918609841
 20
334.5142067498065
 30
0.0
 11
479.5987253147205
 21
334.5307119967984
 31
0.0
  0
LINE
  5
168
  8
1
  6
CONTINUOUS
 62
     7
 10
478.9370868075999
 20
333.9517415783989
 30
0.0
 11
479.5819918609841
 21
334.5142067498065
 31
0.0
  0
ARC
  5
169
  8
1
  6
CONTINUOUS
 62
     7
 10
482.6978570465606
 20
330.0019560101802
 30
0.0
 40
5.453824238565141
 50
133.5957416851656
 51
182.5832217072045
  0
POLYLINE
  5
16A
  8
1
  6
CONTINUOUS
 62
     7
 66
     1
 10
0.0
 20
0.0
 30
0.0
  0
VERTEX
  5
2E5
  8
1
  6
CONTINUOUS
 62
     7
 10
477.2493426013372
 20
334.5252491844872
 30
0.0
  0
VERTEX
  5
2E6
  8
1
  6
CONTINUOUS
 62
     7
 10
477.2494455123161
 20
332.0167260435782
 30
0.0
  0
VERTEX
  5
2E7
  8
1
  6
CONTINUOUS
 62
     7
 10
477.2495749247695
 20
329.7561496911645
 30
0.0
  0
SEQEND
  5
63B
  8
1
  6
CONTINUOUS
 62
     7
  0
LINE
  5
16B
  8
1
  6
CONTINUOUS
 62
     7
 10
477.2495749247695
 20
329.7561496910318
 30
0.0
 11
477.2495749247668
 21
318.0307119967946
 31
0.0
  0
POLYLINE
  5
16C
  8
1
  6
CONTINUOUS
 62
     7
 66
     1
 10
0.0
 20
0.0
 30
0.0
  0
VERTEX
  5
2E8
  8
1
  6
CONTINUOUS
 62
     7
 10
477.2495749247668
 20
318.0307119967946
 30
0.0
  0
VERTEX
  5
2E9
  8
1
  6
CONTINUOUS
 62
     7
 10
477.2483704598205
 20
317.9816443224672
 30
0.0
  0
VERTEX
  5
2EA
  8
1
  6
CONTINUOUS
 62
     7
 10
477.2447599666433
 20
317.9326948564651
 30
0.0
  0
VERTEX
  5
2EB
  8
1
  6
CONTINUOUS
 62
     7
 10
477.2387521432294
 20
317.8839815223395
 30
0.0
  0
VERTEX
  5
2EC
  8
1
  6
CONTINUOUS
 62
     7
 10
477.2303614629517
 20
317.8356216747788
 30
0.0
  0
VERTEX
  5
2ED
  8
1
  6
CONTINUOUS
 62
     7
 10
477.219608139694
 20
317.7877318168919
 30
0.0
  0
VERTEX
  5
2EE
  8
1
  6
CONTINUOUS
 62
     7
 10
477.2065180791537
 20
317.7404273195409
 30
0.0
  0
VERTEX
  5
2EF
  8
1
  6
CONTINUOUS
 62
     7
 10
477.1911228164334
 20
317.6938221434035
 30
0.0
  0
VERTEX
  5
2F0
  8
1
  6
CONTINUOUS
 62
     7
 10
477.1734594400693
 20
317.6480285644309
 30
0.0
  0
VERTEX
  5
2F1
  8
1
  6
CONTINUOUS
 62
     7
 10
477.1535705026823
 20
317.603156903366
 30
0.0
  0
VERTEX
  5
2F2
  8
1
  6
CONTINUOUS
 62
     7
 10
477.1315039184646
 20
317.5593152599707
 30
0.0
  0
VERTEX
  5
2F3
  8
1
  6
CONTINUOUS
 62
     7
 10
477.1073128477503
 20
317.5166092526039
 30
0.0
  0
VERTEX
  5
2F4
  8
1
  6
CONTINUOUS
 62
     7
 10
477.0810555689478
 20
317.475141763778
 30
0.0
  0
VERTEX
  5
2F5
  8
1
  6
CONTINUOUS
 62
     7
 10
477.0527953381415
 20
317.4350126923057
 30
0.0
  0
VERTEX
  5
2F6
  8
1
  6
CONTINUOUS
 62
     7
 10
477.0226002367027
 20
317.396318712635
 30
0.0
  0
VERTEX
  5
2F7
  8
1
  6
CONTINUOUS
 62
     7
 10
476.9905430072756
 20
317.3591530419521
 30
0.0
  0
VERTEX
  5
2F8
  8
1
  6
CONTINUOUS
 62
     7
 10
476.9567008785338
 20
317.3236052156132
 30
0.0
  0
VERTEX
  5
2F9
  8
1
  6
CONTINUOUS
 62
     7
 10
476.9211553791295
 20
317.2897608714454
 30
0.0
  0
VERTEX
  5
2FA
  8
1
  6
CONTINUOUS
 62
     7
 10
476.8839921412844
 20
317.2577015434383
 30
0.0
  0
VERTEX
  5
2FB
  8
1
  6
CONTINUOUS
 62
     7
 10
476.8453006944933
 20
317.227504465321
 30
0.0
  0
VERTEX
  5
2FC
  8
1
  6
CONTINUOUS
 62
     7
 10
476.8051742498408
 20
317.1992423844999
 30
0.0
  0
VERTEX
  5
2FD
  8
1
  6
CONTINUOUS
 62
     7
 10
476.7637094754466
 20
317.1729833868028
 30
0.0
  0
VERTEX
  5
2FE
  8
1
  6
CONTINUOUS
 62
     7
 10
476.7210062635841
 20
317.1487907324555
 30
0.0
  0
VERTEX
  5
2FF
  8
1
  6
CONTINUOUS
 62
     7
 10
476.6771674900309
 20
317.1267227036812
 30
0.0
  0
VERTEX
  5
300
  8
1
  6
CONTINUOUS
 62
     7
 10
476.6322987662326
 20
317.1068324642941
 30
0.0
  0
VERTEX
  5
301
  8
1
  6
CONTINUOUS
 62
     7
 10
476.5865081848746
 20
317.0891679316232
 30
0.0
  0
VERTEX
  5
302
  8
1
  6
CONTINUOUS
 62
     7
 10
476.5399060594783
 20
317.0737716610748
 30
0.0
  0
VERTEX
  5
303
  8
1
  6
CONTINUOUS
 62
     7
 10
476.4926046586457
 20
317.0606807436133
 30
0.0
  0
VERTEX
  5
304
  8
1
  6
CONTINUOUS
 62
     7
 10
476.4447179355944
 20
317.0499267164054
 30
0.0
  0
VERTEX
  5
305
  8
1
  6
CONTINUOUS
 62
     7
 10
476.3963612536347
 20
317.0415354868447
 30
0.0
  0
VERTEX
  5
306
  8
1
  6
CONTINUOUS
 62
     7
 10
476.3476511082489
 20
317.0355272701381
 30
0.0
  0
VERTEX
  5
307
  8
1
  6
CONTINUOUS
 62
     7
 10
476.2987048464437
 20
317.0319165406059
 30
0.0
  0
VERTEX
  5
308
  8
1
  6
CONTINUOUS
 62
     7
 10
476.2496403840512
 20
317.030711996812
 30
0.0
  0
SEQEND
  5
63C
  8
1
  6
CONTINUOUS
 62
     7
  0
ARC
  5
16D
  8
1
  6
CONTINUOUS
 62
     7
 10
467.4296624313096
 20
330.053608224661
 30
0.0
 40
5.328222090148717
 50
356.7996859707357
 51
47.02079171742889
  0
LINE
  5
16E
  8
1
  6
CONTINUOUS
 62
     7
 10
479.5987253147212
 20
334.5307119968357
 30
0.0
 11
482.1997448208757
 21
334.5307119968351
 31
0.0
  0
LINE
  5
16F
  8
1
  6
CONTINUOUS
 62
     7
 10
482.1997448208762
 20
334.5307119968377
 30
0.0
 11
486.7054736958469
 21
330.0250148495354
 31
0.0
  0
LINE
  5
170
  8
1
  6
CONTINUOUS
 62
     7
 10
463.2940794621773
 20
330.025014849541
 30
0.0
 11
463.3007313842182
 21
329.9819751319858
 31
0.0
  0
LINE
  5
171
  8
1
  6
CONTINUOUS
 62
     7
 10
463.2940794621773
 20
330.025014849541
 30
0.0
 11
467.7997448583653
 21
334.5307119968411
 31
0.0
  0
LINE
  5
172
  8
1
  6
CONTINUOUS
 62
     7
 10
467.7997448546665
 20
334.5307119968385
 30
0.0
 11
470.4004576626216
 21
334.5307119968379
 31
0.0
  0
LINE
  5
173
  8
1
  6
CONTINUOUS
 62
     7
 10
486.699252604903
 20
329.9819749864905
 30
0.0
 11
486.7059045950306
 21
330.0250148496477
 31
0.0
  0
LINE
  5
174
  8
1
  6
CONTINUOUS
 62
     7
 10
486.7054736958469
 20
330.0250148495354
 30
0.0
 11
489.4142055534503
 21
327.3164984345273
 31
0.0
  0
LINE
  5
175
  8
1
  6
CONTINUOUS
 62
     7
 10
486.7059045950306
 20
330.0250148496476
 30
0.0
 11
483.6328777883155
 21
333.0980633117842
 31
0.0
  0
ARC
  5
176
  8
1
  6
CONTINUOUS
 62
     7
 10
475.0010743976219
 20
334.5307119971857
 30
0.0
 40
8.999999977355705
 50
349.4452786967834
 51
0.2694462375019953
  0
ARC
  5
177
  8
1
  6
CONTINUOUS
 62
     7
 10
475.0011826345236
 20
334.5307119972139
 30
0.0
 40
13.99999996355261
 50
130.0115625459994
 51
179.9999999999864
  0
ARC
  5
178
  8
1
  6
CONTINUOUS
 62
     7
 10
475.0012187134909
 20
334.5307119972234
 30
0.0
 40
13.99999996948011
 50
336.2168962070775
 51
50.00135234131732
  0
ARC
  5
179
  8
1
  6
CONTINUOUS
 62
     7
 10
475.0011826345236
 20
334.5307119972139
 30
0.0
 40
13.99999996947657
 50
180.0000003385743
 51
203.7756087841615
  0
ARC
  5
17A
  8
1
  6
CONTINUOUS
 62
     7
 10
475.0011826345236
 20
334.5307119972139
 30
0.0
 40
13.99999998494157
 50
336.2170086653328
 51
50.00116005833706
  0
LINE
  5
17B
  8
1
  6
CONTINUOUS
 62
     7
 10
480.9999920049353
 20
315.0307119984061
 30
0.0
 11
480.9999920053498
 21
313.3072366154256
 31
0.0
  0
LINE
  5
17C
  8
1
  6
CONTINUOUS
 62
     7
 10
488.9999920053498
 20
313.3072366173494
 30
0.0
 11
488.9999920049354
 21
315.03071200033
 31
0.0
  0
ARC
  5
17D
  8
1
  6
CONTINUOUS
 62
     7
 10
484.9999920041178
 20
318.4307119993695
 30
0.0
 40
6.49999999999998
 50
289.7831703864375
 51
307.9798724586203
  0
ARC
  5
17E
  8
1
  6
CONTINUOUS
 62
     7
 10
484.9999920041178
 20
318.4307119993695
 30
0.0
 40
6.500000000000034
 50
232.020127568937
 51
250.2168296411199
  0
LINE
  5
17F
  8
1
  6
CONTINUOUS
 62
     7
 10
461.000007999142
 20
315.0307119936008
 30
0.0
 11
461.000007999561
 21
313.307236610621
 31
0.0
  0
LINE
  5
180
  8
1
  6
CONTINUOUS
 62
     7
 10
469.0000079995572
 20
313.3072366125658
 30
0.0
 11
469.0000079991382
 21
315.0307119955456
 31
0.0
  0
ARC
  5
181
  8
1
  6
CONTINUOUS
 62
     7
 10
465.0000079983136
 20
318.4307119945732
 30
0.0
 40
6.500000000000028
 50
289.7831703865473
 51
307.979872458756
  0
ARC
  5
182
  8
1
  6
CONTINUOUS
 62
     7
 10
465.0000079983136
 20
318.4307119945732
 30
0.0
 40
6.499999999999985
 50
232.0201275691006
 51
250.2168296413093
  0
LINE
  5
183
  8
1
  6
CONTINUOUS
 62
     7
 10
491.9999920286124
 20
367.5307119968998
 30
0.0
 11
491.4999920286126
 21
368.0307119968999
 31
0.0
  0
LINE
  5
184
  8
1
  6
CONTINUOUS
 62
     7
 10
458.4999920286133
 20
368.0307119969077
 30
0.0
 11
457.9999920286132
 21
367.5307119969078
 31
0.0
  0
LINE
  5
185
  8
1
  6
CONTINUOUS
 62
     7
 10
457.9999920286132
 20
367.5307119969078
 30
0.0
 11
457.9999920286128
 21
365.5307119969078
 31
0.0
  0
LINE
  5
186
  8
1
  6
CONTINUOUS
 62
     7
 10
491.999992028612
 20
365.5307119968998
 30
0.0
 11
491.9999920286124
 21
367.5307119968998
 31
0.0
  0
ARC
  5
187
  8
1
  6
CONTINUOUS
 62
     7
 10
491.4999920286116
 20
365.5307119968999
 30
0.0
 40
0.5000000000000004
 50
270.0000000000326
 51
359.9999999999866
  0
ARC
  5
188
  8
1
  6
CONTINUOUS
 62
     7
 10
458.4999920286132
 20
365.5307119969077
 30
0.0
 40
0.5000000000000004
 50
179.9999999999865
 51
269.99999999994
  0
ARC
  5
189
  8
1
  6
CONTINUOUS
 62
     7
 10
488.9999920286113
 20
364.0307119969004
 30
0.0
 40
1.000000000000001
 50
89.99999999996703
 51
179.9999999999862
  0
ARC
  5
18A
  8
1
  6
CONTINUOUS
 62
     7
 10
460.9999920286127
 20
364.0307119969071
 30
0.0
 40
1.000000000000001
 50
359.9999999999863
 51
90.00000000000585
  0
LINE
  5
18B
  8
1
  6
CONTINUOUS
 62
     7
 10
487.9999920286087
 20
351.5307119969008
 30
0.0
 11
487.9999920286117
 21
364.0307119969007
 31
0.0
  0
LINE
  5
18C
  8
1
  6
CONTINUOUS
 62
     7
 10
461.9999920286123
 20
364.0307119969069
 30
0.0
 11
461.9999920286094
 21
351.5307119969069
 31
0.0
  0
ARC
  5
18D
  8
1
  6
CONTINUOUS
 62
     7
 10
487.4999920286085
 20
351.5307119969008
 30
0.0
 40
0.5000000000000004
 50
270.0000000000217
 51
359.9999999999865
  0
ARC
  5
18E
  8
1
  6
CONTINUOUS
 62
     7
 10
462.4999920286097
 20
351.5307119969067
 30
0.0
 40
0.5000000000000004
 50
179.9999999999865
 51
269.9999999999509
  0
ARC
  5
18F
  8
1
  6
CONTINUOUS
 62
     7
 10
487.288667163203
 20
350.5307119969009
 30
0.0
 40
0.4999999999999826
 50
89.99999999995134
 51
149.9999999999686
  0
ARC
  5
190
  8
1
  6
CONTINUOUS
 62
     7
 10
462.7113168940146
 20
350.5307119969067
 30
0.0
 40
0.5000000000000004
 50
30.00000000000387
 51
90.00000000002126
  0
LINE
  5
191
  8
1
  6
CONTINUOUS
 62
     7
 10
463.1443295959066
 20
350.7807119969066
 30
0.0
 11
465.9999920286079
 21
345.8345595741993
 31
0.0
  0
LINE
  5
192
  8
1
  6
CONTINUOUS
 62
     7
 10
483.9999920286075
 20
345.834559574195
 30
0.0
 11
486.8556544613112
 21
350.7807119969009
 31
0.0
  0
LINE
  5
193
  8
1
  6
CONTINUOUS
 62
     7
 10
465.9999920286072
 20
342.5307119969059
 30
0.0
 11
466.0009604942839
 21
334.446560228524
 31
0.0
  0
LINE
  5
194
  8
1
  6
CONTINUOUS
 62
     7
 10
484.0005318230532
 20
334.5531991732072
 30
0.0
 11
483.9999920286067
 21
342.5307218320795
 31
0.0
  0
LINE
  5
195
  8
1
  6
CONTINUOUS
 62
     7
 10
465.9999920286079
 20
345.834559574199
 30
0.0
 11
465.9999920286072
 21
342.5307119969059
 31
0.0
  0
LINE
  5
196
  8
1
  6
CONTINUOUS
 62
     7
 10
483.9999920286067
 20
342.5307119969016
 30
0.0
 11
483.9999920286075
 21
345.8345595741948
 31
0.0
  0
ARC
  5
197
  8
1
  6
CONTINUOUS
 62
     7
 10
485.9158603504179
 20
325.0341597593819
 30
0.0
 40
4.175376938373867
 50
12.00021663074805
 51
58.13416590653942
  0
ARC
  5
198
  8
1
  6
CONTINUOUS
 62
     7
 10
-852.37052277273
 20
-1028.849723608761
 30
0.0
 40
1907.755605325837
 50
45.35973493964718
 51
45.41967972722615
  0
LINE
  5
199
  8
1
  6
CONTINUOUS
 62
     7
 10
489.999992002567
 20
318.0307119969003
 30
0.0
 11
489.9999920025688
 21
325.9022848799642
 31
0.0
  0
ARC
  5
19A
  8
1
  6
CONTINUOUS
 62
     7
 10
488.9999920025669
 20
318.0307119969005
 30
0.0
 40
1.000000000000001
 50
269.999999999992
 51
359.9999999999865
  0
ARC
  5
19B
  8
1
  6
CONTINUOUS
 62
     7
 10
1742.804216734348
 20
-968.4731345268083
 30
0.0
 40
1822.941261102721
 50
134.5788029588853
 51
134.7039046833198
  0
ARC
  5
19C
  8
1
  6
CONTINUOUS
 62
     7
 10
461.9891773917917
 20
325.9026024437048
 30
0.0
 40
1.989185362499807
 50
139.8516552237895
 51
180.0091469841651
  0
LINE
  5
19D
  8
1
  6
CONTINUOUS
 62
     7
 10
459.9999920546372
 20
325.9022848799714
 30
0.0
 11
459.9999920546358
 21
319.9660752920412
 31
0.0
  0
ENDBLK
  8
0
  0
BLOCK
  8
0
  2
D_FRAME_VIEW_1854
 70
     0
 10
0.0
 20
0.0
 30
0.0
  0
POLYLINE
  5
1A2
  8
1
  6
CONTINUOUS
 62
     7
 66
     1
 10
0.0
 20
0.0
 30
0.0
  0
VERTEX
  5
30B
  8
1
  6
CONTINUOUS
 62
     7
 10
552.7807119975386
 20
244.3199561509955
 30
0.0
  0
VERTEX
  5
30C
  8
1
  6
CONTINUOUS
 62
     7
 10
552.5261127197728
 20
244.3201426769496
 30
0.0
  0
VERTEX
  5
30D
  8
1
  6
CONTINUOUS
 62
     7
 10
551.7720991570246
 20
244.3203220346869
 30
0.0
  0
VERTEX
  5
30E
  8
1
  6
CONTINUOUS
 62
     7
 10
550.547648110576
 20
244.3204873314752
 30
0.0
  0
VERTEX
  5
30F
  8
1
  6
CONTINUOUS
 62
     7
 10
548.899815331683
 20
244.3206322149458
 30
0.0
  0
VERTEX
  5
310
  8
1
  6
CONTINUOUS
 62
     7
 10
546.8919271653066
 20
244.3207511172154
 30
0.0
  0
VERTEX
  5
311
  8
1
  6
CONTINUOUS
 62
     7
 10
544.6011469136308
 20
244.3208394688602
 30
0.0
  0
VERTEX
  5
312
  8
1
  6
CONTINUOUS
 62
     7
 10
542.1155094442136
 20
244.3208938745196
 30
0.0
  0
VERTEX
  5
313
  8
1
  6
CONTINUOUS
 62
     7
 10
539.530538003013
 20
244.3209122433796
 30
0.0
  0
VERTEX
  5
314
  8
1
  6
CONTINUOUS
 62
     7
 10
536.9455732484361
 20
244.3208938695236
 30
0.0
  0
VERTEX
  5
315
  8
1
  6
CONTINUOUS
 62
     7
 10
534.4599555819218
 20
244.3208394590602
 30
0.0
  0
VERTEX
  5
316
  8
1
  6
CONTINUOUS
 62
     7
 10
532.1692074884013
 20
244.3207511029881
 30
0.0
  0
VERTEX
  5
317
  8
1
  6
CONTINUOUS
 62
     7
 10
530.1613625995919
 20
244.3206321968379
 30
0.0
  0
VERTEX
  5
318
  8
1
  6
CONTINUOUS
 62
     7
 10
528.5135825545177
 20
244.3204873101826
 30
0.0
  0
VERTEX
  5
319
  8
1
  6
CONTINUOUS
 62
     7
 10
527.2891916715744
 20
244.3203220110278
 30
0.0
  0
VERTEX
  5
31A
  8
1
  6
CONTINUOUS
 62
     7
 10
526.53524338993
 20
244.3201426518333
 30
0.0
  0
VERTEX
  5
31B
  8
1
  6
CONTINUOUS
 62
     7
 10
526.2807120021082
 20
244.3199561253872
 30
0.0
  0
SEQEND
  5
63D
  8
1
  6
CONTINUOUS
 62
     7
  0
POLYLINE
  5
1A3
  8
1
  6
CONTINUOUS
 62
     7
 66
     1
 10
0.0
 20
0.0
 30
0.0
  0
VERTEX
  5
31C
  8
1
  6
CONTINUOUS
 62
     7
 10
552.3307119931472
 20
243.0835912911942
 30
0.0
  0
VERTEX
  5
31D
  8
1
  6
CONTINUOUS
 62
     7
 10
552.0848250676223
 20
243.0837714827707
 30
0.0
  0
VERTEX
  5
31E
  8
1
  6
CONTINUOUS
 62
     7
 10
551.356482576731
 20
243.0839447504935
 30
0.0
  0
VERTEX
  5
31F
  8
1
  6
CONTINUOUS
 62
     7
 10
550.1736747804193
 20
243.0841044356702
 30
0.0
  0
VERTEX
  5
320
  8
1
  6
CONTINUOUS
 62
     7
 10
548.5818570765243
 20
243.0842444015868
 30
0.0
  0
VERTEX
  5
321
  8
1
  6
CONTINUOUS
 62
     7
 10
546.6422031462139
 20
243.084359269342
 30
0.0
  0
VERTEX
  5
322
  8
1
  6
CONTINUOUS
 62
     7
 10
544.429254044546
 20
243.0844446245587
 30
0.0
  0
VERTEX
  5
323
  8
1
  6
CONTINUOUS
 62
     7
 10
542.0280535817857
 20
243.0844971870293
 30
0.0
  0
VERTEX
  5
324
  8
1
  6
CONTINUOUS
 62
     7
 10
539.5308800830007
 20
243.0845149367736
 30
0.0
  0
VERTEX
  5
325
  8
1
  6
CONTINUOUS
 62
     7
 10
537.0337001246791
 20
243.0844971916678
 30
0.0
  0
VERTEX
  5
326
  8
1
  6
CONTINUOUS
 62
     7
 10
534.6324805315488
 20
243.0844446336575
 30
0.0
  0
VERTEX
  5
327
  8
1
  6
CONTINUOUS
 62
     7
 10
532.4195003638596
 20
243.0843592825514
 30
0.0
  0
VERTEX
  5
328
  8
1
  6
CONTINUOUS
 62
     7
 10
530.4798046257459
 20
243.0842444183992
 30
0.0
  0
VERTEX
  5
329
  8
1
  6
CONTINUOUS
 62
     7
 10
528.8879359789431
 20
243.0841044554395
 30
0.0
  0
VERTEX
  5
32A
  8
1
  6
CONTINUOUS
 62
     7
 10
527.7050700623591
 20
243.0839447724599
 30
0.0
  0
VERTEX
  5
32B
  8
1
  6
CONTINUOUS
 62
     7
 10
526.9766645073976
 20
243.0837715060901
 30
0.0
  0
VERTEX
  5
32C
  8
1
  6
CONTINUOUS
 62
     7
 10
526.7307119975617
 20
243.0835913149704
 30
0.0
  0
SEQEND
  5
63E
  8
1
  6
CONTINUOUS
 62
     7
  0
POLYLINE
  5
1A4
  8
1
  6
CONTINUOUS
 62
     7
 66
     1
 10
0.0
 20
0.0
 30
0.0
  0
VERTEX
  5
32D
  8
1
  6
CONTINUOUS
 62
     7
 10
552.7807119974508
 20
248.9835913000981
 30
0.0
  0
VERTEX
  5
32E
  8
1
  6
CONTINUOUS
 62
     7
 10
552.5261169627969
 20
248.983777824513
 30
0.0
  0
VERTEX
  5
32F
  8
1
  6
CONTINUOUS
 62
     7
 10
551.7721158032381
 20
248.9839571808897
 30
0.0
  0
VERTEX
  5
330
  8
1
  6
CONTINUOUS
 62
     7
 10
550.5476843604873
 20
248.9841224766631
 30
0.0
  0
VERTEX
  5
331
  8
1
  6
CONTINUOUS
 62
     7
 10
548.8998768482197
 20
248.9842673596096
 30
0.0
  0
VERTEX
  5
332
  8
1
  6
CONTINUOUS
 62
     7
 10
546.89201758503
 20
248.9843862619585
 30
0.0
  0
VERTEX
  5
333
  8
1
  6
CONTINUOUS
 62
     7
 10
544.6012674763808
 20
248.9844746143594
 30
0.0
  0
VERTEX
  5
334
  8
1
  6
CONTINUOUS
 62
     7
 10
542.1156587642791
 20
248.984529021479
 30
0.0
  0
VERTEX
  5
335
  8
1
  6
CONTINUOUS
 62
     7
 10
539.5307119975844
 20
248.9845473924823
 30
0.0
  0
VERTEX
  5
336
  8
1
  6
CONTINUOUS
 62
     7
 10
536.9457652308845
 20
248.9845290213818
 30
0.0
  0
VERTEX
  5
337
  8
1
  6
CONTINUOUS
 62
     7
 10
534.4601565187676
 20
248.9844746141688
 30
0.0
  0
VERTEX
  5
338
  8
1
  6
CONTINUOUS
 62
     7
 10
532.1694064100938
 20
248.9843862616817
 30
0.0
  0
VERTEX
  5
339
  8
1
  6
CONTINUOUS
 62
     7
 10
530.1615471468707
 20
248.9842673592573
 30
0.0
  0
VERTEX
  5
33A
  8
1
  6
CONTINUOUS
 62
     7
 10
528.5137396345626
 20
248.984122476249
 30
0.0
  0
VERTEX
  5
33B
  8
1
  6
CONTINUOUS
 62
     7
 10
527.2893081917657
 20
248.9839571804295
 30
0.0
  0
VERTEX
  5
33C
  8
1
  6
CONTINUOUS
 62
     7
 10
526.5353070321569
 20
248.9837778240245
 30
0.0
  0
VERTEX
  5
33D
  8
1
  6
CONTINUOUS
 62
     7
 10
526.2807119974508
 20
248.9835912996
 30
0.0
  0
SEQEND
  5
63F
  8
1
  6
CONTINUOUS
 62
     7
  0
POLYLINE
  5
1A5
  8
1
  6
CONTINUOUS
 62
     7
 66
     1
 10
0.0
 20
0.0
 30
0.0
  0
VERTEX
  5
33E
  8
1
  6
CONTINUOUS
 62
     7
 10
530.7841412407485
 20
249.6842407192733
 30
0.0
  0
VERTEX
  5
33F
  8
1
  6
CONTINUOUS
 62
     7
 10
529.1710371698788
 20
249.6841024472293
 30
0.0
  0
VERTEX
  5
340
  8
1
  6
CONTINUOUS
 62
     7
 10
527.970608991918
 20
249.6839438136434
 30
0.0
  0
VERTEX
  5
341
  8
1
  6
CONTINUOUS
 62
     7
 10
527.230675560108
 20
249.6837711376576
 30
0.0
  0
VERTEX
  5
342
  8
1
  6
CONTINUOUS
 62
     7
 10
526.9807119974377
 20
249.6835912977905
 30
0.0
  0
SEQEND
  5
640
  8
1
  6
CONTINUOUS
 62
     7
  0
POLYLINE
  5
1A6
  8
1
  6
CONTINUOUS
 62
     7
 66
     1
 10
0.0
 20
0.0
 30
0.0
  0
VERTEX
  5
343
  8
1
  6
CONTINUOUS
 62
     7
 10
548.2772827540686
 20
249.6842407196021
 30
0.0
  0
VERTEX
  5
344
  8
1
  6
CONTINUOUS
 62
     7
 10
546.3909664366881
 20
249.6843496070161
 30
0.0
  0
VERTEX
  5
345
  8
1
  6
CONTINUOUS
 62
     7
 10
544.2504842377141
 20
249.6844303998056
 30
0.0
  0
VERTEX
  5
346
  8
1
  6
CONTINUOUS
 62
     7
 10
541.9351389803805
 20
249.6844801046747
 30
0.0
  0
VERTEX
  5
347
  8
1
  6
CONTINUOUS
 62
     7
 10
539.530711997397
 20
249.6844968801055
 30
0.0
  0
VERTEX
  5
348
  8
1
  6
CONTINUOUS
 62
     7
 10
537.1262850144149
 20
249.6844801045843
 30
0.0
  0
VERTEX
  5
349
  8
1
  6
CONTINUOUS
 62
     7
 10
534.8109397570859
 20
249.6844303996281
 30
0.0
  0
VERTEX
  5
34A
  8
1
  6
CONTINUOUS
 62
     7
 10
532.6704575581191
 20
249.6843496067582
 30
0.0
  0
VERTEX
  5
34B
  8
1
  6
CONTINUOUS
 62
     7
 10
530.7841412407485
 20
249.6842407192733
 30
0.0
  0
SEQEND
  5
641
  8
1
  6
CONTINUOUS
 62
     7
  0
POLYLINE
  5
1A7
  8
1
  6
CONTINUOUS
 62
     7
 66
     1
 10
0.0
 20
0.0
 30
0.0
  0
VERTEX
  5
34C
  8
1
  6
CONTINUOUS
 62
     7
 10
552.0807119974378
 20
249.6835912982623
 30
0.0
  0
VERTEX
  5
34D
  8
1
  6
CONTINUOUS
 62
     7
 10
551.830748434801
 20
249.68377113812
 30
0.0
  0
VERTEX
  5
34E
  8
1
  6
CONTINUOUS
 62
     7
 10
551.0908150029908
 20
249.683943814078
 30
0.0
  0
VERTEX
  5
34F
  8
1
  6
CONTINUOUS
 62
     7
 10
549.8903868249979
 20
249.6841024476188
 30
0.0
  0
VERTEX
  5
350
  8
1
  6
CONTINUOUS
 62
     7
 10
548.2772827540686
 20
249.6842407196021
 30
0.0
  0
SEQEND
  5
642
  8
1
  6
CONTINUOUS
 62
     7
  0
POLYLINE
  5
1A8
  8
1
  6
CONTINUOUS
 62
     7
 66
     1
 10
0.0
 20
0.0
 30
0.0
  0
VERTEX
  5
351
  8
1
  6
CONTINUOUS
 62
     7
 10
552.0807119973437
 20
254.6835912852437
 30
0.0
  0
VERTEX
  5
352
  8
1
  6
CONTINUOUS
 62
     7
 10
551.8307484346609
 20
254.6837711251014
 30
0.0
  0
VERTEX
  5
353
  8
1
  6
CONTINUOUS
 62
     7
 10
551.0908150028366
 20
254.6839438010595
 30
0.0
  0
VERTEX
  5
354
  8
1
  6
CONTINUOUS
 62
     7
 10
549.8903868248601
 20
254.6841024346002
 30
0.0
  0
VERTEX
  5
355
  8
1
  6
CONTINUOUS
 62
     7
 10
548.2772827539744
 20
254.6842407065835
 30
0.0
  0
SEQEND
  5
643
  8
1
  6
CONTINUOUS
 62
     7
  0
POLYLINE
  5
1A9
  8
1
  6
CONTINUOUS
 62
     7
 66
     1
 10
0.0
 20
0.0
 30
0.0
  0
VERTEX
  5
356
  8
1
  6
CONTINUOUS
 62
     7
 10
548.2772827539017
 20
254.6842407065835
 30
0.0
  0
VERTEX
  5
357
  8
1
  6
CONTINUOUS
 62
     7
 10
546.3909664365158
 20
254.6843495939975
 30
0.0
  0
VERTEX
  5
358
  8
1
  6
CONTINUOUS
 62
     7
 10
544.2504842375408
 20
254.684430386787
 30
0.0
  0
VERTEX
  5
359
  8
1
  6
CONTINUOUS
 62
     7
 10
541.9351389802106
 20
254.684480091656
 30
0.0
  0
VERTEX
  5
35A
  8
1
  6
CONTINUOUS
 62
     7
 10
539.5307119972335
 20
254.6844968670869
 30
0.0
  0
VERTEX
  5
35B
  8
1
  6
CONTINUOUS
 62
     7
 10
537.1262850142607
 20
254.6844800915657
 30
0.0
  0
VERTEX
  5
35C
  8
1
  6
CONTINUOUS
 62
     7
 10
534.8109397569425
 20
254.6844303866095
 30
0.0
  0
VERTEX
  5
35D
  8
1
  6
CONTINUOUS
 62
     7
 10
532.6704575579872
 20
254.6843495937396
 30
0.0
  0
VERTEX
  5
35E
  8
1
  6
CONTINUOUS
 62
     7
 10
530.7841412406278
 20
254.6842407062547
 30
0.0
  0
SEQEND
  5
644
  8
1
  6
CONTINUOUS
 62
     7
  0
POLYLINE
  5
1AA
  8
1
  6
CONTINUOUS
 62
     7
 66
     1
 10
0.0
 20
0.0
 30
0.0
  0
VERTEX
  5
35F
  8
1
  6
CONTINUOUS
 62
     7
 10
530.7841412406545
 20
254.6842407062547
 30
0.0
  0
VERTEX
  5
360
  8
1
  6
CONTINUOUS
 62
     7
 10
529.1710371697849
 20
254.6841024342107
 30
0.0
  0
VERTEX
  5
361
  8
1
  6
CONTINUOUS
 62
     7
 10
527.9706089918241
 20
254.6839438006248
 30
0.0
  0
VERTEX
  5
362
  8
1
  6
CONTINUOUS
 62
     7
 10
527.2306755600141
 20
254.683771124639
 30
0.0
  0
VERTEX
  5
363
  8
1
  6
CONTINUOUS
 62
     7
 10
526.9807119973437
 20
254.6835912847719
 30
0.0
  0
SEQEND
  5
645
  8
1
  6
CONTINUOUS
 62
     7
  0
POLYLINE
  5
1AB
  8
1
  6
CONTINUOUS
 62
     7
 66
     1
 10
0.0
 20
0.0
 30
0.0
  0
VERTEX
  5
364
  8
1
  6
CONTINUOUS
 62
     7
 10
552.7807119628357
 20
255.3835912144446
 30
0.0
  0
VERTEX
  5
365
  8
1
  6
CONTINUOUS
 62
     7
 10
552.5262917995235
 20
255.3837777444137
 30
0.0
  0
VERTEX
  5
366
  8
1
  6
CONTINUOUS
 62
     7
 10
551.7724359243083
 20
255.3839571084543
 30
0.0
  0
VERTEX
  5
367
  8
1
  6
CONTINUOUS
 62
     7
 10
550.5481159222551
 20
255.3841224133912
 30
0.0
  0
VERTEX
  5
368
  8
1
  6
CONTINUOUS
 62
     7
 10
548.9003838788522
 20
255.3842673063575
 30
0.0
  0
VERTEX
  5
369
  8
1
  6
CONTINUOUS
 62
     7
 10
546.892564111956
 20
255.3843862189428
 30
0.0
  0
VERTEX
  5
36A
  8
1
  6
CONTINUOUS
 62
     7
 10
544.6018195423378
 20
255.3844745811939
 30
0.0
  0
VERTEX
  5
36B
  8
1
  6
CONTINUOUS
 62
     7
 10
542.1161862301295
 20
255.3845289972436
 30
0.0
  0
VERTEX
  5
36C
  8
1
  6
CONTINUOUS
 62
     7
 10
539.5311900434887
 20
255.3845473758178
 30
0.0
  0
VERTEX
  5
36D
  8
1
  6
CONTINUOUS
 62
     7
 10
536.9461754849608
 20
255.384529010606
 30
0.0
  0
VERTEX
  5
36E
  8
1
  6
CONTINUOUS
 62
     7
 10
534.4604877631452
 20
255.3844746074051
 30
0.0
  0
VERTEX
  5
36F
  8
1
  6
CONTINUOUS
 62
     7
 10
532.169654837226
 20
255.3843862569954
 30
0.0
  0
VERTEX
  5
370
  8
1
  6
CONTINUOUS
 62
     7
 10
530.1617161629733
 20
255.3842673547892
 30
0.0
  0
VERTEX
  5
371
  8
1
  6
CONTINUOUS
 62
     7
 10
528.513839230911
 20
255.3841224703407
 30
0.0
  0
VERTEX
  5
372
  8
1
  6
CONTINUOUS
 62
     7
 10
527.28935392714
 20
255.3839571717329
 30
0.0
  0
VERTEX
  5
373
  8
1
  6
CONTINUOUS
 62
     7
 10
526.5353186898923
 20
255.3837778115896
 30
0.0
  0
VERTEX
  5
374
  8
1
  6
CONTINUOUS
 62
     7
 10
526.2807119973305
 20
255.3835912829362
 30
0.0
  0
SEQEND
  5
646
  8
1
  6
CONTINUOUS
 62
     7
  0
POLYLINE
  5
1AC
  8
1
  6
CONTINUOUS
 62
     7
 66
     1
 10
0.0
 20
0.0
 30
0.0
  0
VERTEX
  5
375
  8
1
  6
CONTINUOUS
 62
     7
 10
552.7807119972648
 20
258.8835912743212
 30
0.0
  0
VERTEX
  5
376
  8
1
  6
CONTINUOUS
 62
     7
 10
552.5261169626158
 20
258.8837777987361
 30
0.0
  0
VERTEX
  5
377
  8
1
  6
CONTINUOUS
 62
     7
 10
551.7721158030716
 20
258.8839571551128
 30
0.0
  0
VERTEX
  5
378
  8
1
  6
CONTINUOUS
 62
     7
 10
550.5476843603439
 20
258.8841224508863
 30
0.0
  0
VERTEX
  5
379
  8
1
  6
CONTINUOUS
 62
     7
 10
548.8998768481058
 20
258.8842673338327
 30
0.0
  0
VERTEX
  5
37A
  8
1
  6
CONTINUOUS
 62
     7
 10
546.8920175849498
 20
258.8843862361816
 30
0.0
  0
VERTEX
  5
37B
  8
1
  6
CONTINUOUS
 62
     7
 10
544.601267476336
 20
258.8844745885825
 30
0.0
  0
VERTEX
  5
37C
  8
1
  6
CONTINUOUS
 62
     7
 10
542.1156587642681
 20
258.8845289957022
 30
0.0
  0
VERTEX
  5
37D
  8
1
  6
CONTINUOUS
 62
     7
 10
539.5307119976022
 20
258.8845473667054
 30
0.0
  0
VERTEX
  5
37E
  8
1
  6
CONTINUOUS
 62
     7
 10
536.9457652309234
 20
258.884528995605
 30
0.0
  0
VERTEX
  5
37F
  8
1
  6
CONTINUOUS
 62
     7
 10
534.460156518817
 20
258.8844745883919
 30
0.0
  0
VERTEX
  5
380
  8
1
  6
CONTINUOUS
 62
     7
 10
532.1694064101408
 20
258.8843862359049
 30
0.0
  0
VERTEX
  5
381
  8
1
  6
CONTINUOUS
 62
     7
 10
530.161547146901
 20
258.8842673334805
 30
0.0
  0
VERTEX
  5
382
  8
1
  6
CONTINUOUS
 62
     7
 10
528.5137396345607
 20
258.8841224504721
 30
0.0
  0
VERTEX
  5
383
  8
1
  6
CONTINUOUS
 62
     7
 10
527.2893081917163
 20
258.8839571546526
 30
0.0
  0
VERTEX
  5
384
  8
1
  6
CONTINUOUS
 62
     7
 10
526.5353070320455
 20
258.8837777982476
 30
0.0
  0
VERTEX
  5
385
  8
1
  6
CONTINUOUS
 62
     7
 10
526.2807119972648
 20
258.8835912738231
 30
0.0
  0
SEQEND
  5
647
  8
1
  6
CONTINUOUS
 62
     7
  0
POLYLINE
  5
1AD
  8
1
  6
CONTINUOUS
 62
     7
 66
     1
 10
0.0
 20
0.0
 30
0.0
  0
VERTEX
  5
386
  8
1
  6
CONTINUOUS
 62
     7
 10
552.5807119632868
 20
259.0835913417451
 30
0.0
  0
VERTEX
  5
387
  8
1
  6
CONTINUOUS
 62
     7
 10
552.3297876501257
 20
259.0837750452259
 30
0.0
  0
VERTEX
  5
388
  8
1
  6
CONTINUOUS
 62
     7
 10
551.5870245592463
 20
259.0839516867878
 30
0.0
  0
VERTEX
  5
389
  8
1
  6
CONTINUOUS
 62
     7
 10
550.3809653526862
 20
259.0841144785052
 30
0.0
  0
VERTEX
  5
38A
  8
1
  6
CONTINUOUS
 62
     7
 10
548.7579560871527
 20
259.0842571646704
 30
0.0
  0
VERTEX
  5
38B
  8
1
  6
CONTINUOUS
 62
     7
 10
546.7803652426077
 20
259.084374262185
 30
0.0
  0
VERTEX
  5
38C
  8
1
  6
CONTINUOUS
 62
     7
 10
544.5241870463053
 20
259.0844612712634
 30
0.0
  0
VERTEX
  5
38D
  8
1
  6
CONTINUOUS
 62
     7
 10
542.0761211909798
 20
259.0845148483485
 30
0.0
  0
VERTEX
  5
38E
  8
1
  6
CONTINUOUS
 62
     7
 10
539.5302411668357
 20
259.0845329345972
 30
0.0
  0
VERTEX
  5
38F
  8
1
  6
CONTINUOUS
 62
     7
 10
536.9843792356123
 20
259.084514834997
 30
0.0
  0
VERTEX
  5
390
  8
1
  6
CONTINUOUS
 62
     7
 10
534.53636696378
 20
259.0844612450735
 30
0.0
  0
VERTEX
  5
391
  8
1
  6
CONTINUOUS
 62
     7
 10
532.2802757824539
 20
259.0843742241632
 30
0.0
  0
VERTEX
  5
392
  8
1
  6
CONTINUOUS
 62
     7
 10
530.3028020405847
 20
259.0842571162776
 30
0.0
  0
VERTEX
  5
393
  8
1
  6
CONTINUOUS
 62
     7
 10
528.6799354654424
 20
259.0841144216012
 30
0.0
  0
VERTEX
  5
394
  8
1
  6
CONTINUOUS
 62
     7
 10
527.4740390537282
 20
259.0839516235591
 30
0.0
  0
VERTEX
  5
395
  8
1
  6
CONTINUOUS
 62
     7
 10
526.7314526063216
 20
259.0837749781024
 30
0.0
  0
VERTEX
  5
396
  8
1
  6
CONTINUOUS
 62
     7
 10
526.480711997261
 20
259.0835912733061
 30
0.0
  0
SEQEND
  5
648
  8
1
  6
CONTINUOUS
 62
     7
  0
POLYLINE
  5
1AE
  8
1
  6
CONTINUOUS
 62
     7
 66
     1
 10
0.0
 20
0.0
 30
0.0
  0
VERTEX
  5
397
  8
1
  6
CONTINUOUS
 62
     7
 10
552.7307119976101
 20
240.5068255157865
 30
0.0
  0
VERTEX
  5
398
  8
1
  6
CONTINUOUS
 62
     7
 10
552.4770734718469
 20
240.5070113378692
 30
0.0
  0
VERTEX
  5
399
  8
1
  6
CONTINUOUS
 62
     7
 10
551.7259052432985
 20
240.5071900187848
 30
0.0
  0
VERTEX
  5
39A
  8
1
  6
CONTINUOUS
 62
     7
 10
550.5060747668277
 20
240.5073546918117
 30
0.0
  0
VERTEX
  5
39B
  8
1
  6
CONTINUOUS
 62
     7
 10
548.864460224819
 20
240.5074990285522
 30
0.0
  0
VERTEX
  5
39C
  8
1
  6
CONTINUOUS
 62
     7
 10
546.8641489948958
 20
240.5076174821339
 30
0.0
  0
VERTEX
  5
39D
  8
1
  6
CONTINUOUS
 62
     7
 10
544.5820131969723
 20
240.5077055003763
 30
0.0
  0
VERTEX
  5
39E
  8
1
  6
CONTINUOUS
 62
     7
 10
542.1057554915617
 20
240.5077597007313
 30
0.0
  0
VERTEX
  5
39F
  8
1
  6
CONTINUOUS
 62
     7
 10
539.530538659546
 20
240.5077780002749
 30
0.0
  0
VERTEX
  5
3A0
  8
1
  6
CONTINUOUS
 62
     7
 10
536.9553284889259
 20
240.5077596957541
 30
0.0
  0
VERTEX
  5
3A1
  8
1
  6
CONTINUOUS
 62
     7
 10
534.4790905117042
 20
240.5077054906133
 30
0.0
  0
VERTEX
  5
3A2
  8
1
  6
CONTINUOUS
 62
     7
 10
532.1969867506069
 20
240.5076174679603
 30
0.0
  0
VERTEX
  5
3A3
  8
1
  6
CONTINUOUS
 62
     7
 10
530.1967186349696
 20
240.5074990105126
 30
0.0
  0
VERTEX
  5
3A4
  8
1
  6
CONTINUOUS
 62
     7
 10
528.555156627821
 20
240.5073546705993
 30
0.0
  0
VERTEX
  5
3A5
  8
1
  6
CONTINUOUS
 62
     7
 10
527.3353860878656
 20
240.507189995215
 30
0.0
  0
VERTEX
  5
3A6
  8
1
  6
CONTINUOUS
 62
     7
 10
526.5842828941228
 20
240.5070113128476
 30
0.0
  0
VERTEX
  5
3A7
  8
1
  6
CONTINUOUS
 62
     7
 10
526.3307120021626
 20
240.5068254902749
 30
0.0
  0
SEQEND
  5
649
  8
1
  6
CONTINUOUS
 62
     7
  0
POLYLINE
  5
1AF
  8
1
  6
CONTINUOUS
 62
     7
 66
     1
 10
0.0
 20
0.0
 30
0.0
  0
VERTEX
  5
3A8
  8
1
  6
CONTINUOUS
 62
     7
 10
552.7307119975927
 20
241.4335913197553
 30
0.0
  0
VERTEX
  5
3A9
  8
1
  6
CONTINUOUS
 62
     7
 10
552.4770776989147
 20
241.4337771403045
 30
0.0
  0
VERTEX
  5
3AA
  8
1
  6
CONTINUOUS
 62
     7
 10
551.725921826739
 20
241.4339558198647
 30
0.0
  0
VERTEX
  5
3AB
  8
1
  6
CONTINUOUS
 62
     7
 10
550.5061108799803
 20
241.4341204918805
 30
0.0
  0
VERTEX
  5
3AC
  8
1
  6
CONTINUOUS
 62
     7
 10
548.8645215092448
 20
241.4342648280988
 30
0.0
  0
VERTEX
  5
3AD
  8
1
  6
CONTINUOUS
 62
     7
 10
546.8642390734362
 20
241.4343832817596
 30
0.0
  0
VERTEX
  5
3AE
  8
1
  6
CONTINUOUS
 62
     7
 10
544.5821333047916
 20
241.4344713007552
 30
0.0
  0
VERTEX
  5
3AF
  8
1
  6
CONTINUOUS
 62
     7
 10
542.1059042481803
 20
241.434525502565
 30
0.0
  0
VERTEX
  5
3B0
  8
1
  6
CONTINUOUS
 62
     7
 10
539.5307119975632
 20
241.4345438042437
 30
0.0
  0
VERTEX
  5
3B1
  8
1
  6
CONTINUOUS
 62
     7
 10
536.9555197469473
 20
241.4345255024681
 30
0.0
  0
VERTEX
  5
3B2
  8
1
  6
CONTINUOUS
 62
     7
 10
534.4792906903394
 20
241.4344713005653
 30
0.0
  0
VERTEX
  5
3B3
  8
1
  6
CONTINUOUS
 62
     7
 10
532.1971849217002
 20
241.4343832814839
 30
0.0
  0
VERTEX
  5
3B4
  8
1
  6
CONTINUOUS
 62
     7
 10
530.1969024858989
 20
241.4342648277479
 30
0.0
  0
VERTEX
  5
3B5
  8
1
  6
CONTINUOUS
 62
     7
 10
528.5553131151725
 20
241.4341204914678
 30
0.0
  0
VERTEX
  5
3B6
  8
1
  6
CONTINUOUS
 62
     7
 10
527.3355021684239
 20
241.4339558194062
 30
0.0
  0
VERTEX
  5
3B7
  8
1
  6
CONTINUOUS
 62
     7
 10
526.5843462962591
 20
241.4337771398177
 30
0.0
  0
VERTEX
  5
3B8
  8
1
  6
CONTINUOUS
 62
     7
 10
526.3307119975926
 20
241.433591319259
 30
0.0
  0
SEQEND
  5
64A
  8
1
  6
CONTINUOUS
 62
     7
  0
POLYLINE
  5
1B0
  8
1
  6
CONTINUOUS
 62
     7
 66
     1
 10
0.0
 20
0.0
 30
0.0
  0
VERTEX
  5
3B9
  8
1
  6
CONTINUOUS
 62
     7
 10
552.5807119636158
 20
241.5835913873102
 30
0.0
  0
VERTEX
  5
3BA
  8
1
  6
CONTINUOUS
 62
     7
 10
552.3297876504547
 20
241.583775090791
 30
0.0
  0
VERTEX
  5
3BB
  8
1
  6
CONTINUOUS
 62
     7
 10
551.5870245595753
 20
241.5839517323529
 30
0.0
  0
VERTEX
  5
3BC
  8
1
  6
CONTINUOUS
 62
     7
 10
550.3809653530152
 20
241.5841145240703
 30
0.0
  0
VERTEX
  5
3BD
  8
1
  6
CONTINUOUS
 62
     7
 10
548.7579560874817
 20
241.5842572102355
 30
0.0
  0
VERTEX
  5
3BE
  8
1
  6
CONTINUOUS
 62
     7
 10
546.7803652429367
 20
241.5843743077502
 30
0.0
  0
VERTEX
  5
3BF
  8
1
  6
CONTINUOUS
 62
     7
 10
544.5241870466343
 20
241.5844613168285
 30
0.0
  0
VERTEX
  5
3C0
  8
1
  6
CONTINUOUS
 62
     7
 10
542.0761211913089
 20
241.5845148939136
 30
0.0
  0
VERTEX
  5
3C1
  8
1
  6
CONTINUOUS
 62
     7
 10
539.5302411671647
 20
241.5845329801623
 30
0.0
  0
VERTEX
  5
3C2
  8
1
  6
CONTINUOUS
 62
     7
 10
536.9843792359413
 20
241.5845148805621
 30
0.0
  0
VERTEX
  5
3C3
  8
1
  6
CONTINUOUS
 62
     7
 10
534.536366964109
 20
241.5844612906386
 30
0.0
  0
VERTEX
  5
3C4
  8
1
  6
CONTINUOUS
 62
     7
 10
532.280275782783
 20
241.5843742697283
 30
0.0
  0
VERTEX
  5
3C5
  8
1
  6
CONTINUOUS
 62
     7
 10
530.3028020409137
 20
241.5842571618428
 30
0.0
  0
VERTEX
  5
3C6
  8
1
  6
CONTINUOUS
 62
     7
 10
528.6799354657715
 20
241.5841144671663
 30
0.0
  0
VERTEX
  5
3C7
  8
1
  6
CONTINUOUS
 62
     7
 10
527.4740390540572
 20
241.5839516691242
 30
0.0
  0
VERTEX
  5
3C8
  8
1
  6
CONTINUOUS
 62
     7
 10
526.7314526066506
 20
241.5837750236676
 30
0.0
  0
VERTEX
  5
3C9
  8
1
  6
CONTINUOUS
 62
     7
 10
526.48071199759
 20
241.5835913188713
 30
0.0
  0
SEQEND
  5
64B
  8
1
  6
CONTINUOUS
 62
     7
  0
POLYLINE
  5
1B1
  8
1
  6
CONTINUOUS
 62
     7
 66
     1
 10
0.0
 20
0.0
 30
0.0
  0
VERTEX
  5
3CA
  8
1
  6
CONTINUOUS
 62
     7
 10
552.48071199759
 20
241.58359131936
 30
0.0
  0
VERTEX
  5
3CB
  8
1
  6
CONTINUOUS
 62
     7
 10
552.2318813788091
 20
241.5837736205806
 30
0.0
  0
VERTEX
  5
3CC
  8
1
  6
CONTINUOUS
 62
     7
 10
551.4949519436008
 20
241.5839489160582
 30
0.0
  0
VERTEX
  5
3CD
  8
1
  6
CONTINUOUS
 62
     7
 10
550.2982434768853
 20
241.5841104692859
 30
0.0
  0
VERTEX
  5
3CE
  8
1
  6
CONTINUOUS
 62
     7
 10
548.6877448139173
 20
241.5842520718637
 30
0.0
  0
VERTEX
  5
3CF
  8
1
  6
CONTINUOUS
 62
     7
 10
546.7253465151374
 20
241.5843682820839
 30
0.0
  0
VERTEX
  5
3D0
  8
1
  6
CONTINUOUS
 62
     7
 10
544.4864624466427
 20
241.5844546340531
 30
0.0
  0
VERTEX
  5
3D1
  8
1
  6
CONTINUOUS
 62
     7
 10
542.0571316676056
 20
241.5845078093134
 30
0.0
  0
VERTEX
  5
3D2
  8
1
  6
CONTINUOUS
 62
     7
 10
539.5307119974814
 20
241.5845257643695
 30
0.0
  0
VERTEX
  5
3D3
  8
1
  6
CONTINUOUS
 62
     7
 10
537.0042923273613
 20
241.5845078092185
 30
0.0
  0
VERTEX
  5
3D4
  8
1
  6
CONTINUOUS
 62
     7
 10
534.5749615483367
 20
241.5844546338668
 30
0.0
  0
VERTEX
  5
3D5
  8
1
  6
CONTINUOUS
 62
     7
 10
532.336077479862
 20
241.5843682818135
 30
0.0
  0
VERTEX
  5
3D6
  8
1
  6
CONTINUOUS
 62
     7
 10
530.373679181109
 20
241.5842520715194
 30
0.0
  0
VERTEX
  5
3D7
  8
1
  6
CONTINUOUS
 62
     7
 10
528.763180518174
 20
241.584110468881
 30
0.0
  0
VERTEX
  5
3D8
  8
1
  6
CONTINUOUS
 62
     7
 10
527.566472051496
 20
241.5839489156084
 30
0.0
  0
VERTEX
  5
3D9
  8
1
  6
CONTINUOUS
 62
     7
 10
526.8295426163284
 20
241.5837736201031
 30
0.0
  0
VERTEX
  5
3DA
  8
1
  6
CONTINUOUS
 62
     7
 10
526.5807119975899
 20
241.5835913188731
 30
0.0
  0
SEQEND
  5
64C
  8
1
  6
CONTINUOUS
 62
     7
  0
POLYLINE
  5
1B2
  8
1
  6
CONTINUOUS
 62
     7
 66
     1
 10
0.0
 20
0.0
 30
0.0
  0
VERTEX
  5
3DB
  8
1
  6
CONTINUOUS
 62
     7
 10
546.6463067647669
 20
254.684201311287
 30
0.0
  0
VERTEX
  5
3DC
  8
1
  6
CONTINUOUS
 62
     7
 10
544.8258969256177
 20
254.6842911185613
 30
0.0
  0
VERTEX
  5
3DD
  8
1
  6
CONTINUOUS
 62
     7
 10
542.7945988304513
 20
254.6843530539709
 30
0.0
  0
VERTEX
  5
3DE
  8
1
  6
CONTINUOUS
 62
     7
 10
540.6333118092331
 20
254.6843846508503
 30
0.0
  0
VERTEX
  5
3DF
  8
1
  6
CONTINUOUS
 62
     7
 10
538.4281121854214
 20
254.6843846508089
 30
0.0
  0
VERTEX
  5
3E0
  8
1
  6
CONTINUOUS
 62
     7
 10
536.2668251642045
 20
254.6843530538482
 30
0.0
  0
VERTEX
  5
3E1
  8
1
  6
CONTINUOUS
 62
     7
 10
534.2355270690406
 20
254.6842911183622
 30
0.0
  0
VERTEX
  5
3E2
  8
1
  6
CONTINUOUS
 62
     7
 10
532.4151172298951
 20
254.6842013110195
 30
0.0
  0
SEQEND
  5
64D
  8
1
  6
CONTINUOUS
 62
     7
  0
LINE
  5
1B3
  8
1
  6
CONTINUOUS
 62
     7
 10
530.7841412408915
 20
254.6842407062547
 30
0.0
 11
532.4151172301658
 21
254.6842013110196
 31
0.0
  0
LINE
  5
1B4
  8
1
  6
CONTINUOUS
 62
     7
 10
546.6463067645866
 20
254.6842013112871
 30
0.0
 11
548.2772827539807
 21
254.6842407065835
 31
0.0
  0
POLYLINE
  5
1B5
  8
1
  6
CONTINUOUS
 62
     7
 66
     1
 10
0.0
 20
0.0
 30
0.0
  0
VERTEX
  5
3E3
  8
1
  6
CONTINUOUS
 62
     7
 10
547.4807119979014
 20
222.5829768813236
 30
0.0
  0
VERTEX
  5
3E4
  8
1
  6
CONTINUOUS
 62
     7
 10
549.0473576902458
 20
222.5831064805741
 30
0.0
  0
VERTEX
  5
3E5
  8
1
  6
CONTINUOUS
 62
     7
 10
550.2157187294423
 20
222.5832563730519
 30
0.0
  0
VERTEX
  5
3E6
  8
1
  6
CONTINUOUS
 62
     7
 10
550.9368976061903
 20
222.5834202855515
 30
0.0
  0
VERTEX
  5
3E7
  8
1
  6
CONTINUOUS
 62
     7
 10
551.1807119970042
 20
222.5835913581105
 30
0.0
  0
SEQEND
  5
64E
  8
1
  6
CONTINUOUS
 62
     7
  0
POLYLINE
  5
1B6
  8
1
  6
CONTINUOUS
 62
     7
 66
     1
 10
0.0
 20
0.0
 30
0.0
  0
VERTEX
  5
3E8
  8
1
  6
CONTINUOUS
 62
     7
 10
527.8807119979471
 20
222.5835913683683
 30
0.0
  0
VERTEX
  5
3E9
  8
1
  6
CONTINUOUS
 62
     7
 10
528.1245037652394
 20
222.5834202929767
 30
0.0
  0
VERTEX
  5
3EA
  8
1
  6
CONTINUOUS
 62
     7
 10
528.8456757322153
 20
222.5832563775551
 30
0.0
  0
VERTEX
  5
3EB
  8
1
  6
CONTINUOUS
 62
     7
 10
530.0140449309174
 20
222.5831064824006
 30
0.0
  0
VERTEX
  5
3EC
  8
1
  6
CONTINUOUS
 62
     7
 10
531.5807119979464
 20
222.5829768810248
 30
0.0
  0
SEQEND
  5
64F
  8
1
  6
CONTINUOUS
 62
     7
  0
POLYLINE
  5
1B7
  8
1
  6
CONTINUOUS
 62
     7
 66
     1
 10
0.0
 20
0.0
 30
0.0
  0
VERTEX
  5
3ED
  8
1
  6
CONTINUOUS
 62
     7
 10
552.0307119968448
 20
227.4041808914697
 30
0.0
  0
VERTEX
  5
3EE
  8
1
  6
CONTINUOUS
 62
     7
 10
551.7905570903756
 20
227.4043568588228
 30
0.0
  0
VERTEX
  5
3EF
  8
1
  6
CONTINUOUS
 62
     7
 10
551.0792594084611
 20
227.4045260642267
 30
0.0
  0
VERTEX
  5
3F0
  8
1
  6
CONTINUOUS
 62
     7
 10
549.9241539428158
 20
227.4046820051599
 30
0.0
  0
VERTEX
  5
3F1
  8
1
  6
CONTINUOUS
 62
     7
 10
548.3696311070958
 20
227.4048186888516
 30
0.0
  0
VERTEX
  5
3F2
  8
1
  6
CONTINUOUS
 62
     7
 10
546.4754308244229
 20
227.4049308625817
 30
0.0
  0
VERTEX
  5
3F3
  8
1
  6
CONTINUOUS
 62
     7
 10
544.3143467371062
 20
227.4050142155418
 30
0.0
  0
VERTEX
  5
3F4
  8
1
  6
CONTINUOUS
 62
     7
 10
541.9694287652046
 20
227.4050655444986
 30
0.0
  0
VERTEX
  5
3F5
  8
1
  6
CONTINUOUS
 62
     7
 10
539.5307915189059
 20
227.4050828768931
 30
0.0
  0
VERTEX
  5
3F6
  8
1
  6
CONTINUOUS
 62
     7
 10
537.0921512166329
 20
227.4050655466458
 30
0.0
  0
VERTEX
  5
3F7
  8
1
  6
CONTINUOUS
 62
     7
 10
534.7472241942497
 20
227.4050142197537
 30
0.0
  0
VERTEX
  5
3F8
  8
1
  6
CONTINUOUS
 62
     7
 10
532.5861254097514
 20
227.4049308686964
 30
0.0
  0
VERTEX
  5
3F9
  8
1
  6
CONTINUOUS
 62
     7
 10
530.691905348006
 20
227.4048186966342
 30
0.0
  0
VERTEX
  5
3FA
  8
1
  6
CONTINUOUS
 62
     7
 10
529.1373584114272
 20
227.4046820143113
 30
0.0
  0
VERTEX
  5
3FB
  8
1
  6
CONTINUOUS
 62
     7
 10
527.9822254493271
 20
227.4045260743951
 30
0.0
  0
VERTEX
  5
3FC
  8
1
  6
CONTINUOUS
 62
     7
 10
527.2708979320433
 20
227.4043568696175
 30
0.0
  0
VERTEX
  5
3FD
  8
1
  6
CONTINUOUS
 62
     7
 10
527.0307119978564
 20
227.4041809024759
 30
0.0
  0
SEQEND
  5
650
  8
1
  6
CONTINUOUS
 62
     7
  0
POLYLINE
  5
1B8
  8
1
  6
CONTINUOUS
 62
     7
 66
     1
 10
0.0
 20
0.0
 30
0.0
  0
VERTEX
  5
3FE
  8
1
  6
CONTINUOUS
 62
     7
 10
551.1807119970042
 20
222.5835913581105
 30
0.0
  0
VERTEX
  5
3FF
  8
1
  6
CONTINUOUS
 62
     7
 10
550.9568876242668
 20
222.5837553596836
 30
0.0
  0
VERTEX
  5
400
  8
1
  6
CONTINUOUS
 62
     7
 10
550.2939581847987
 20
222.58391305912
 30
0.0
  0
VERTEX
  5
401
  8
1
  6
CONTINUOUS
 62
     7
 10
549.2173998908758
 20
222.5840583960698
 30
0.0
  0
VERTEX
  5
402
  8
1
  6
CONTINUOUS
 62
     7
 10
547.7685846080243
 20
222.5841857852704
 30
0.0
  0
VERTEX
  5
403
  8
1
  6
CONTINUOUS
 62
     7
 10
546.0031899445939
 20
222.5842903311868
 30
0.0
  0
VERTEX
  5
404
  8
1
  6
CONTINUOUS
 62
     7
 10
543.9890595752177
 20
222.5843680161457
 30
0.0
  0
VERTEX
  5
405
  8
1
  6
CONTINUOUS
 62
     7
 10
541.8035960253925
 20
222.5844158547334
 30
0.0
  0
VERTEX
  5
406
  8
1
  6
CONTINUOUS
 62
     7
 10
539.530786111816
 20
222.5844320085252
 30
0.0
  0
VERTEX
  5
407
  8
1
  6
CONTINUOUS
 62
     7
 10
537.2579733500621
 20
222.5844158567347
 30
0.0
  0
VERTEX
  5
408
  8
1
  6
CONTINUOUS
 62
     7
 10
535.0725013651595
 20
222.5843680200712
 30
0.0
  0
VERTEX
  5
409
  8
1
  6
CONTINUOUS
 62
     7
 10
533.0583572979635
 20
222.5842903368858
 30
0.0
  0
VERTEX
  5
40A
  8
1
  6
CONTINUOUS
 62
     7
 10
531.2929442003751
 20
222.5841857925238
 30
0.0
  0
VERTEX
  5
40B
  8
1
  6
CONTINUOUS
 62
     7
 10
529.8441064554473
 20
222.5840584045988
 30
0.0
  0
VERTEX
  5
40C
  8
1
  6
CONTINUOUS
 62
     7
 10
528.7675225347416
 20
222.583913068597
 30
0.0
  0
VERTEX
  5
40D
  8
1
  6
CONTINUOUS
 62
     7
 10
528.1045652886154
 20
222.5837553697443
 30
0.0
  0
VERTEX
  5
40E
  8
1
  6
CONTINUOUS
 62
     7
 10
527.8807119979471
 20
222.5835913683683
 30
0.0
  0
SEQEND
  5
651
  8
1
  6
CONTINUOUS
 62
     7
  0
POLYLINE
  5
1B9
  8
1
  6
CONTINUOUS
 62
     7
 66
     1
 10
0.0
 20
0.0
 30
0.0
  0
VERTEX
  5
40F
  8
1
  6
CONTINUOUS
 62
     7
 10
547.4807119978768
 20
222.5830068449263
 30
0.0
  0
VERTEX
  5
410
  8
1
  6
CONTINUOUS
 62
     7
 10
548.9232808963524
 20
222.5831315797325
 30
0.0
  0
VERTEX
  5
411
  8
1
  6
CONTINUOUS
 62
     7
 10
549.9962506845034
 20
222.5832744073047
 30
0.0
  0
VERTEX
  5
412
  8
1
  6
CONTINUOUS
 62
     7
 10
550.6573998270505
 20
222.5834297073548
 30
0.0
  0
VERTEX
  5
413
  8
1
  6
CONTINUOUS
 62
     7
 10
550.8807119979472
 20
222.5835913688006
 30
0.0
  0
SEQEND
  5
652
  8
1
  6
CONTINUOUS
 62
     7
  0
POLYLINE
  5
1BA
  8
1
  6
CONTINUOUS
 62
     7
 66
     1
 10
0.0
 20
0.0
 30
0.0
  0
VERTEX
  5
414
  8
1
  6
CONTINUOUS
 62
     7
 10
528.1807119979471
 20
222.5835913683739
 30
0.0
  0
VERTEX
  5
415
  8
1
  6
CONTINUOUS
 62
     7
 10
528.4040241688459
 20
222.5834297069365
 30
0.0
  0
VERTEX
  5
416
  8
1
  6
CONTINUOUS
 62
     7
 10
529.0651733113796
 20
222.5832744069112
 30
0.0
  0
VERTEX
  5
417
  8
1
  6
CONTINUOUS
 62
     7
 10
530.1381430995029
 20
222.5831315793794
 30
0.0
  0
VERTEX
  5
418
  8
1
  6
CONTINUOUS
 62
     7
 10
531.5807119979395
 20
222.5830068446274
 30
0.0
  0
SEQEND
  5
653
  8
1
  6
CONTINUOUS
 62
     7
  0
POLYLINE
  5
1BB
  8
1
  6
CONTINUOUS
 62
     7
 66
     1
 10
0.0
 20
0.0
 30
0.0
  0
VERTEX
  5
419
  8
1
  6
CONTINUOUS
 62
     7
 10
550.8807119979472
 20
222.5835913688006
 30
0.0
  0
VERTEX
  5
41A
  8
1
  6
CONTINUOUS
 62
     7
 10
550.6626249305145
 20
222.5837511463183
 30
0.0
  0
VERTEX
  5
41B
  8
1
  6
CONTINUOUS
 62
     7
 10
550.0167446919332
 20
222.5839047836674
 30
0.0
  0
VERTEX
  5
41C
  8
1
  6
CONTINUOUS
 62
     7
 10
548.9678920975582
 20
222.5840463766507
 30
0.0
  0
VERTEX
  5
41D
  8
1
  6
CONTINUOUS
 62
     7
 10
547.5563739643876
 20
222.5841704839293
 30
0.0
  0
VERTEX
  5
41E
  8
1
  6
CONTINUOUS
 62
     7
 10
545.8364341426907
 20
222.5842723361301
 30
0.0
  0
VERTEX
  5
41F
  8
1
  6
CONTINUOUS
 62
     7
 10
543.8741689552617
 20
222.5843480191301
 30
0.0
  0
VERTEX
  5
420
  8
1
  6
CONTINUOUS
 62
     7
 10
541.7449871528023
 20
222.5843946244741
 30
0.0
  0
VERTEX
  5
421
  8
1
  6
CONTINUOUS
 62
     7
 10
539.5307119979219
 20
222.5844103611448
 30
0.0
  0
VERTEX
  5
422
  8
1
  6
CONTINUOUS
 62
     7
 10
537.3164368430424
 20
222.5843946243909
 30
0.0
  0
VERTEX
  5
423
  8
1
  6
CONTINUOUS
 62
     7
 10
535.1872550405859
 20
222.5843480189668
 30
0.0
  0
VERTEX
  5
424
  8
1
  6
CONTINUOUS
 62
     7
 10
533.2249898531616
 20
222.584272335893
 30
0.0
  0
VERTEX
  5
425
  8
1
  6
CONTINUOUS
 62
     7
 10
531.5050500314709
 20
222.5841704836276
 30
0.0
  0
VERTEX
  5
426
  8
1
  6
CONTINUOUS
 62
     7
 10
530.093531898308
 20
222.5840463762959
 30
0.0
  0
VERTEX
  5
427
  8
1
  6
CONTINUOUS
 62
     7
 10
529.0446793039416
 20
222.5839047832732
 30
0.0
  0
VERTEX
  5
428
  8
1
  6
CONTINUOUS
 62
     7
 10
528.3987990653699
 20
222.5837511458998
 30
0.0
  0
VERTEX
  5
429
  8
1
  6
CONTINUOUS
 62
     7
 10
528.1807119979471
 20
222.5835913683739
 30
0.0
  0
SEQEND
  5
654
  8
1
  6
CONTINUOUS
 62
     7
  0
LINE
  5
1BC
  8
1
  6
CONTINUOUS
 62
     7
 10
532.4151172301629
 20
249.6843372546414
 30
0.0
 11
532.415117230069
 21
254.6842013110195
 31
0.0
  0
LINE
  5
1BD
  8
1
  6
CONTINUOUS
 62
     7
 10
546.6463067646188
 20
254.684201311287
 30
0.0
 11
546.6463067647128
 21
249.684337254909
 31
0.0
  0
ARC
  5
1BE
  8
1
  6
CONTINUOUS
 62
     7
 10
514.6820816032894
 20
252.1835912910502
 30
0.0
 40
12.55015177351127
 50
348.5097734137036
 51
11.49022658844916
  0
LINE
  5
1BF
  8
1
  6
CONTINUOUS
 62
     7
 10
530.78414124085
 20
249.6842407192733
 30
0.0
 11
530.7841412407558
 21
254.6842407062547
 31
0.0
  0
LINE
  5
1C0
  8
1
  6
CONTINUOUS
 62
     7
 10
548.2772827539318
 20
254.6842407065835
 30
0.0
 11
548.2772827540259
 21
249.6842407196021
 31
0.0
  0
ARC
  5
1C1
  8
1
  6
CONTINUOUS
 62
     7
 10
564.3792052311892
 20
252.1835912919844
 30
0.0
 40
12.5500173621092
 50
168.5096486759937
 51
191.4903513261617
  0
POLYLINE
  5
1C2
  8
1
  6
CONTINUOUS
 62
     7
 66
     1
 10
0.0
 20
0.0
 30
0.0
  0
VERTEX
  5
42A
  8
1
  6
CONTINUOUS
 62
     7
 10
532.3807119979659
 20
221.5835913710566
 30
0.0
  0
VERTEX
  5
42B
  8
1
  6
CONTINUOUS
 62
     7
 10
532.5180972430484
 20
221.5834907182591
 30
0.0
  0
VERTEX
  5
42C
  8
1
  6
CONTINUOUS
 62
     7
 10
532.9249733404472
 20
221.5833939334973
 30
0.0
  0
VERTEX
  5
42D
  8
1
  6
CONTINUOUS
 62
     7
 10
533.5857042699178
 20
221.5833047361554
 30
0.0
  0
VERTEX
  5
42E
  8
1
  6
CONTINUOUS
 62
     7
 10
534.4748985123823
 20
221.5832265540372
 30
0.0
  0
VERTEX
  5
42F
  8
1
  6
CONTINUOUS
 62
     7
 10
535.5583848317682
 20
221.5831623916376
 30
0.0
  0
VERTEX
  5
430
  8
1
  6
CONTINUOUS
 62
     7
 10
536.7945254564469
 20
221.5831147146816
 30
0.0
  0
VERTEX
  5
431
  8
1
  6
CONTINUOUS
 62
     7
 10
538.1358161954468
 20
221.583085355368
 30
0.0
  0
VERTEX
  5
432
  8
1
  6
CONTINUOUS
 62
     7
 10
539.5307119978718
 20
221.5830754419587
 30
0.0
  0
VERTEX
  5
433
  8
1
  6
CONTINUOUS
 62
     7
 10
540.9256078003004
 20
221.5830853554205
 30
0.0
  0
VERTEX
  5
434
  8
1
  6
CONTINUOUS
 62
     7
 10
542.2668985393111
 20
221.5831147147845
 30
0.0
  0
VERTEX
  5
435
  8
1
  6
CONTINUOUS
 62
     7
 10
543.5030391640072
 20
221.5831623917869
 30
0.0
  0
VERTEX
  5
436
  8
1
  6
CONTINUOUS
 62
     7
 10
544.5865254834165
 20
221.5832265542273
 30
0.0
  0
VERTEX
  5
437
  8
1
  6
CONTINUOUS
 62
     7
 10
545.4757197259095
 20
221.5833047363789
 30
0.0
  0
VERTEX
  5
438
  8
1
  6
CONTINUOUS
 62
     7
 10
546.1364506554125
 20
221.5833939337457
 30
0.0
  0
VERTEX
  5
439
  8
1
  6
CONTINUOUS
 62
     7
 10
546.5433267528467
 20
221.5834907185227
 30
0.0
  0
VERTEX
  5
43A
  8
1
  6
CONTINUOUS
 62
     7
 10
546.6807119979659
 20
221.5835913713254
 30
0.0
  0
SEQEND
  5
655
  8
1
  6
CONTINUOUS
 62
     7
  0
POLYLINE
  5
1C3
  8
1
  6
CONTINUOUS
 62
     7
 66
     1
 10
0.0
 20
0.0
 30
0.0
  0
VERTEX
  5
43B
  8
1
  6
CONTINUOUS
 62
     7
 10
546.6807119979659
 20
221.5835913713254
 30
0.0
  0
VERTEX
  5
43C
  8
1
  6
CONTINUOUS
 62
     7
 10
546.5433267528513
 20
221.5836920241229
 30
0.0
  0
VERTEX
  5
43D
  8
1
  6
CONTINUOUS
 62
     7
 10
546.1364506554306
 20
221.5837888088846
 30
0.0
  0
VERTEX
  5
43E
  8
1
  6
CONTINUOUS
 62
     7
 10
545.4757197259487
 20
221.5838780062265
 30
0.0
  0
VERTEX
  5
43F
  8
1
  6
CONTINUOUS
 62
     7
 10
544.586525483483
 20
221.5839561883448
 30
0.0
  0
VERTEX
  5
440
  8
1
  6
CONTINUOUS
 62
     7
 10
543.503039164105
 20
221.5840203507444
 30
0.0
  0
VERTEX
  5
441
  8
1
  6
CONTINUOUS
 62
     7
 10
542.2668985394415
 20
221.5840680277003
 30
0.0
  0
VERTEX
  5
442
  8
1
  6
CONTINUOUS
 62
     7
 10
540.925607800462
 20
221.584097387014
 30
0.0
  0
VERTEX
  5
443
  8
1
  6
CONTINUOUS
 62
     7
 10
539.5307119980599
 20
221.5841073004233
 30
0.0
  0
VERTEX
  5
444
  8
1
  6
CONTINUOUS
 62
     7
 10
538.1358161956543
 20
221.5840973869615
 30
0.0
  0
VERTEX
  5
445
  8
1
  6
CONTINUOUS
 62
     7
 10
536.7945254566641
 20
221.5840680275975
 30
0.0
  0
VERTEX
  5
446
  8
1
  6
CONTINUOUS
 62
     7
 10
535.5583848319833
 20
221.5840203505951
 30
0.0
  0
VERTEX
  5
447
  8
1
  6
CONTINUOUS
 62
     7
 10
534.4748985125818
 20
221.5839561881547
 30
0.0
  0
VERTEX
  5
448
  8
1
  6
CONTINUOUS
 62
     7
 10
533.5857042700876
 20
221.583878006003
 30
0.0
  0
VERTEX
  5
449
  8
1
  6
CONTINUOUS
 62
     7
 10
532.9249733405733
 20
221.5837888086363
 30
0.0
  0
VERTEX
  5
44A
  8
1
  6
CONTINUOUS
 62
     7
 10
532.5180972431173
 20
221.5836920238592
 30
0.0
  0
VERTEX
  5
44B
  8
1
  6
CONTINUOUS
 62
     7
 10
532.3807119979659
 20
221.5835913710566
 30
0.0
  0
SEQEND
  5
656
  8
1
  6
CONTINUOUS
 62
     7
  0
POLYLINE
  5
1C4
  8
1
  6
CONTINUOUS
 62
     7
 66
     1
 10
0.0
 20
0.0
 30
0.0
  0
VERTEX
  5
44C
  8
1
  6
CONTINUOUS
 62
     7
 10
546.4307119966847
 20
221.5835913809472
 30
0.0
  0
VERTEX
  5
44D
  8
1
  6
CONTINUOUS
 62
     7
 10
546.2981060314393
 20
221.5836885136411
 30
0.0
  0
VERTEX
  5
44E
  8
1
  6
CONTINUOUS
 62
     7
 10
545.9054360995128
 20
221.5837819132508
 30
0.0
  0
VERTEX
  5
44F
  8
1
  6
CONTINUOUS
 62
     7
 10
545.2677921010337
 20
221.5838679905258
 30
0.0
  0
VERTEX
  5
450
  8
1
  6
CONTINUOUS
 62
     7
 10
544.4096780366191
 20
221.5839434376055
 30
0.0
  0
VERTEX
  5
451
  8
1
  6
CONTINUOUS
 62
     7
 10
543.3640703439279
 20
221.5840053551362
 30
0.0
  0
VERTEX
  5
452
  8
1
  6
CONTINUOUS
 62
     7
 10
542.1711506472025
 20
221.5840513636912
 30
0.0
  0
VERTEX
  5
453
  8
1
  6
CONTINUOUS
 62
     7
 10
540.8767616189291
 20
221.5840796952094
 30
0.0
  0
VERTEX
  5
454
  8
1
  6
CONTINUOUS
 62
     7
 10
539.5306452932579
 20
221.5840892609396
 30
0.0
  0
VERTEX
  5
455
  8
1
  6
CONTINUOUS
 62
     7
 10
538.1845315309798
 20
221.5840796932808
 30
0.0
  0
VERTEX
  5
456
  8
1
  6
CONTINUOUS
 62
     7
 10
536.8901500943771
 20
221.5840513599081
 30
0.0
  0
VERTEX
  5
457
  8
1
  6
CONTINUOUS
 62
     7
 10
535.6972427258598
 20
221.5840053496439
 30
0.0
  0
VERTEX
  5
458
  8
1
  6
CONTINUOUS
 62
     7
 10
534.6516516241539
 20
221.5839434306151
 30
0.0
  0
VERTEX
  5
459
  8
1
  6
CONTINUOUS
 62
     7
 10
533.7935577759276
 20
221.583867982306
 30
0.0
  0
VERTEX
  5
45A
  8
1
  6
CONTINUOUS
 62
     7
 10
533.1559368419521
 20
221.5837819041174
 30
0.0
  0
VERTEX
  5
45B
  8
1
  6
CONTINUOUS
 62
     7
 10
532.7632919364997
 20
221.583688503945
 30
0.0
  0
VERTEX
  5
45C
  8
1
  6
CONTINUOUS
 62
     7
 10
532.6307119979573
 20
221.5835913710613
 30
0.0
  0
SEQEND
  5
657
  8
1
  6
CONTINUOUS
 62
     7
  0
POLYLINE
  5
1C5
  8
1
  6
CONTINUOUS
 62
     7
 66
     1
 10
0.0
 20
0.0
 30
0.0
  0
VERTEX
  5
45D
  8
1
  6
CONTINUOUS
 62
     7
 10
532.6307119979573
 20
221.5835913710613
 30
0.0
  0
VERTEX
  5
45E
  8
1
  6
CONTINUOUS
 62
     7
 10
532.7632951898605
 20
221.5834942370023
 30
0.0
  0
VERTEX
  5
45F
  8
1
  6
CONTINUOUS
 62
     7
 10
533.1559496053454
 20
221.5834008358015
 30
0.0
  0
VERTEX
  5
460
  8
1
  6
CONTINUOUS
 62
     7
 10
533.7935855702902
 20
221.5833147568587
 30
0.0
  0
VERTEX
  5
461
  8
1
  6
CONTINUOUS
 62
     7
 10
534.6516987915054
 20
221.58323930818
 30
0.0
  0
VERTEX
  5
462
  8
1
  6
CONTINUOUS
 62
     7
 10
535.697312054532
 20
221.5831773892513
 30
0.0
  0
VERTEX
  5
463
  8
1
  6
CONTINUOUS
 62
     7
 10
536.8902425350487
 20
221.5831313796117
 30
0.0
  0
VERTEX
  5
464
  8
1
  6
CONTINUOUS
 62
     7
 10
538.1846460212224
 20
221.5831030474073
 30
0.0
  0
VERTEX
  5
465
  8
1
  6
CONTINUOUS
 62
     7
 10
539.530778702674
 20
221.5830934814424
 30
0.0
  0
VERTEX
  5
466
  8
1
  6
CONTINUOUS
 62
     7
 10
540.8769088206694
 20
221.583103049336
 30
0.0
  0
VERTEX
  5
467
  8
1
  6
CONTINUOUS
 62
     7
 10
542.1713047149885
 20
221.5831313833949
 30
0.0
  0
VERTEX
  5
468
  8
1
  6
CONTINUOUS
 62
     7
 10
543.3642228670066
 20
221.5831773947437
 30
0.0
  0
VERTEX
  5
469
  8
1
  6
CONTINUOUS
 62
     7
 10
544.4098195386732
 20
221.5832393151704
 30
0.0
  0
VERTEX
  5
46A
  8
1
  6
CONTINUOUS
 62
     7
 10
545.2679125432717
 20
221.5833147650786
 30
0.0
  0
VERTEX
  5
46B
  8
1
  6
CONTINUOUS
 62
     7
 10
545.905525443266
 20
221.5834008449349
 30
0.0
  0
VERTEX
  5
46C
  8
1
  6
CONTINUOUS
 62
     7
 10
546.2981548318504
 20
221.5834942466983
 30
0.0
  0
VERTEX
  5
46D
  8
1
  6
CONTINUOUS
 62
     7
 10
546.4307119966847
 20
221.5835913809472
 30
0.0
  0
SEQEND
  5
658
  8
1
  6
CONTINUOUS
 62
     7
  0
LINE
  5
1C6
  8
1
  6
CONTINUOUS
 62
     7
 10
517.3143405260487
 20
275.9335606446615
 30
0.0
 11
517.3143405260494
 21
275.8843128030019
 31
0.0
  0
LINE
  5
1C7
  8
1
  6
CONTINUOUS
 62
     7
 10
517.3143405259859
 20
280.2843128030058
 30
0.0
 11
517.3143405259866
 21
280.2350649613463
 31
0.0
  0
LINE
  5
1C8
  8
1
  6
CONTINUOUS
 62
     7
 10
518.3072366163298
 20
282.0843128030216
 30
0.0
 11
518.3072366164452
 21
274.0849105696075
 31
0.0
  0
LINE
  5
1C9
  8
1
  6
CONTINUOUS
 62
     7
 10
516.9692880075987
 20
277.5757437259952
 30
0.0
 11
517.3143405259397
 21
275.9335606446641
 31
0.0
  0
LINE
  5
1CA
  8
1
  6
CONTINUOUS
 62
     7
 10
517.3143405260485
 20
275.9508482403177
 30
0.0
 11
517.3143405260494
 21
275.8843128030019
 31
0.0
  0
LINE
  5
1CB
  8
1
  6
CONTINUOUS
 62
     7
 10
516.9692880078389
 20
277.5930313216513
 30
0.0
 11
517.31434052618
 21
275.9508482403202
 31
0.0
  0
LINE
  5
1CC
  8
1
  6
CONTINUOUS
 62
     7
 10
517.3143405265437
 20
277.6214249619519
 30
0.0
 11
516.9692880078388
 21
277.593031321651
 31
0.0
  0
LINE
  5
1CD
  8
1
  6
CONTINUOUS
 62
     7
 10
517.3143405260099
 20
278.6212755203047
 30
0.0
 11
517.3143405260244
 21
277.621424961951
 31
0.0
  0
LINE
  5
1CE
  8
1
  6
CONTINUOUS
 62
     7
 10
517.314340526525
 20
278.6212755203038
 30
0.0
 11
516.9692880078203
 21
278.5928818800029
 31
0.0
  0
LINE
  5
1CF
  8
1
  6
CONTINUOUS
 62
     7
 10
517.3143405261004
 20
280.2350649613437
 30
0.0
 11
516.9692880078203
 21
278.5928818800027
 31
0.0
  0
LINE
  5
1D0
  8
1
  6
CONTINUOUS
 62
     7
 10
517.3143405259859
 20
280.2843128030058
 30
0.0
 11
517.3143405259866
 21
280.235064960711
 31
0.0
  0
LINE
  5
1D1
  8
1
  6
CONTINUOUS
 62
     7
 10
516.96928800758
 20
278.5755942843468
 30
0.0
 11
517.3143405254963
 21
278.547200644056
 31
0.0
  0
LINE
  5
1D2
  8
1
  6
CONTINUOUS
 62
     7
 10
518.3072366164452
 20
274.0849105696075
 30
0.0
 11
518.3072366164452
 21
274.0843128030147
 31
0.0
  0
LINE
  5
1D3
  8
1
  6
CONTINUOUS
 62
     7
 10
516.9692880078175
 20
278.5928818800029
 30
0.0
 11
517.3143405217528
 21
278.5928818800078
 31
0.0
  0
LINE
  5
1D4
  8
1
  6
CONTINUOUS
 62
     7
 10
516.9692880075958
 20
277.5757437259949
 30
0.0
 11
516.9706492389656
 21
277.5757437259949
 31
0.0
  0
LINE
  5
1D5
  8
1
  6
CONTINUOUS
 62
     7
 10
516.9692880075773
 20
278.5755942843468
 30
0.0
 11
517.3143405265396
 21
278.5755942843517
 31
0.0
  0
LINE
  5
1D6
  8
1
  6
CONTINUOUS
 62
     7
 10
517.314340521196
 20
280.3096064374717
 30
0.0
 11
517.3143405211962
 21
280.2843127899076
 31
0.0
  0
LINE
  5
1D7
  8
1
  6
CONTINUOUS
 62
     7
 10
518.3072366115423
 20
282.1096064374844
 30
0.0
 11
518.3072366115426
 21
282.0843127970261
 31
0.0
  0
LINE
  5
1D8
  8
1
  6
CONTINUOUS
 62
     7
 10
516.9692880030403
 20
277.605863718067
 30
0.0
 11
517.0303308434516
 21
277.6019760790838
 31
0.0
  0
LINE
  5
1D9
  8
1
  6
CONTINUOUS
 62
     7
 10
517.3143405213217
 20
280.2482176561798
 30
0.0
 11
516.9692880030293
 21
278.6058354900745
 31
0.0
  0
LINE
  5
1DA
  8
1
  6
CONTINUOUS
 62
     7
 10
517.314340521196
 20
280.3096064374717
 30
0.0
 11
517.3143405211962
 21
280.2843127894579
 31
0.0
  0
LINE
  5
1DB
  8
1
  6
CONTINUOUS
 62
     7
 10
517.3143405210783
 20
280.2557313229727
 30
0.0
 11
516.9692880027861
 21
278.6133491568676
 31
0.0
  0
LINE
  5
1DC
  8
1
  6
CONTINUOUS
 62
     7
 10
517.314340520709
 20
277.6257180455615
 30
0.0
 11
516.9692880027974
 21
277.6133773848608
 31
0.0
  0
LINE
  5
1DD
  8
1
  6
CONTINUOUS
 62
     7
 10
516.9692880030402
 20
277.605863718067
 30
0.0
 11
517.0701524787655
 21
277.6058637180683
 31
0.0
  0
LINE
  5
1DE
  8
1
  6
CONTINUOUS
 62
     7
 10
516.969288002786
 20
278.6133491568676
 30
0.0
 11
516.9698738398793
 21
278.6133491568676
 31
0.0
  0
LINE
  5
1DF
  8
1
  6
CONTINUOUS
 62
     7
 10
516.9692880027969
 20
277.6133773848608
 30
0.0
 11
517.1706840633788
 21
277.6133773848634
 31
0.0
  0
LINE
  5
1E0
  8
1
  6
CONTINUOUS
 62
     7
 10
529.5307120027464
 20
293.0653305816818
 30
0.0
 11
529.5307120028202
 21
288.0590111716172
 31
0.0
  0
LINE
  5
1E1
  8
1
  6
CONTINUOUS
 62
     7
 10
527.5307120028202
 20
288.0590111715878
 30
0.0
 11
527.5307120027464
 21
293.0653305816523
 31
0.0
  0
LINE
  5
1E2
  8
1
  6
CONTINUOUS
 62
     7
 10
529.5307120040188
 20
288.0590111716172
 30
0.0
 11
529.530712004307
 21
268.059027165822
 31
0.0
  0
LINE
  5
1E3
  8
1
  6
CONTINUOUS
 62
     7
 10
527.5307120040188
 20
288.0590111715878
 30
0.0
 11
527.530712004307
 21
268.0590271657925
 31
0.0
  0
LINE
  5
1E4
  8
1
  6
CONTINUOUS
 62
     7
 10
527.5307120031804
 20
263.0653545729596
 30
0.0
 11
529.5307120031804
 21
263.065354572989
 31
0.0
  0
LINE
  5
1E5
  8
1
  6
CONTINUOUS
 62
     7
 10
529.5307120031817
 20
263.0653505744377
 30
0.0
 11
529.5307120031084
 21
268.059027165822
 31
0.0
  0
LINE
  5
1E6
  8
1
  6
CONTINUOUS
 62
     7
 10
527.5307120031084
 20
268.0590271657925
 30
0.0
 11
527.5307120031817
 21
263.0653505744084
 31
0.0
  0
POLYLINE
  5
1E7
  8
1
  6
CONTINUOUS
 62
     7
 66
     1
 10
0.0
 20
0.0
 30
0.0
  0
VERTEX
  5
46E
  8
1
  6
CONTINUOUS
 62
     7
 10
524.5307119931583
 20
293.1159178505349
 30
0.0
  0
VERTEX
  5
46F
  8
1
  6
CONTINUOUS
 62
     7
 10
525.506163603069
 20
293.1160393530726
 30
0.0
  0
VERTEX
  5
470
  8
1
  6
CONTINUOUS
 62
     7
 10
526.4441291546157
 20
293.1163991913828
 30
0.0
  0
VERTEX
  5
471
  8
1
  6
CONTINUOUS
 62
     7
 10
527.3085631576806
 20
293.116983537081
 30
0.0
  0
VERTEX
  5
472
  8
1
  6
CONTINUOUS
 62
     7
 10
528.0662458983162
 20
293.1177699340897
 30
0.0
  0
VERTEX
  5
473
  8
1
  6
CONTINUOUS
 62
     7
 10
528.6880600537221
 20
293.1187281616129
 30
0.0
  0
VERTEX
  5
474
  8
1
  6
CONTINUOUS
 62
     7
 10
529.1501096546307
 20
293.1198213955042
 30
0.0
  0
VERTEX
  5
475
  8
1
  6
CONTINUOUS
 62
     7
 10
529.434638394005
 20
293.1210076233984
 30
0.0
  0
VERTEX
  5
476
  8
1
  6
CONTINUOUS
 62
     7
 10
529.5307119919596
 20
293.1222412592227
 30
0.0
  0
SEQEND
  5
659
  8
1
  6
CONTINUOUS
 62
     7
  0
LINE
  5
1E8
  8
1
  6
CONTINUOUS
 62
     7
 10
524.5307119931583
 20
293.1159178505348
 30
0.0
 11
523.0307119931583
 21
293.1159178505127
 31
0.0
  0
POLYLINE
  5
1E9
  8
1
  6
CONTINUOUS
 62
     7
 66
     1
 10
0.0
 20
0.0
 30
0.0
  0
VERTEX
  5
477
  8
1
  6
CONTINUOUS
 62
     7
 10
523.0307119931583
 20
293.1159178505127
 30
0.0
  0
VERTEX
  5
478
  8
1
  6
CONTINUOUS
 62
     7
 10
522.8356216711762
 20
293.1158935500052
 30
0.0
  0
VERTEX
  5
479
  8
1
  6
CONTINUOUS
 62
     7
 10
522.6480285608669
 20
293.1158215823431
 30
0.0
  0
VERTEX
  5
47A
  8
1
  6
CONTINUOUS
 62
     7
 10
522.4751417602539
 20
293.1157047132035
 30
0.0
  0
VERTEX
  5
47B
  8
1
  6
CONTINUOUS
 62
     7
 10
522.3236052121267
 20
293.1155474338018
 30
0.0
  0
VERTEX
  5
47C
  8
1
  6
CONTINUOUS
 62
     7
 10
522.1992423810456
 20
293.1153557882971
 30
0.0
  0
VERTEX
  5
47D
  8
1
  6
CONTINUOUS
 62
     7
 10
522.1068324608639
 20
293.1151371415189
 30
0.0
  0
VERTEX
  5
47E
  8
1
  6
CONTINUOUS
 62
     7
 10
522.049926712989
 20
293.11489989594
 30
0.0
  0
VERTEX
  5
47F
  8
1
  6
CONTINUOUS
 62
     7
 10
522.0307119933981
 20
293.1146531687751
 30
0.0
  0
SEQEND
  5
65A
  8
1
  6
CONTINUOUS
 62
     7
  0
LINE
  5
1EA
  8
1
  6
CONTINUOUS
 62
     7
 10
522.030711993398
 20
293.1146531687749
 30
0.0
 11
522.0307120001108
 21
293.0792420805263
 31
0.0
  0
POLYLINE
  5
1EB
  8
1
  6
CONTINUOUS
 62
     7
 66
     1
 10
0.0
 20
0.0
 30
0.0
  0
VERTEX
  5
480
  8
1
  6
CONTINUOUS
 62
     7
 10
522.0307120001108
 20
293.0792420805262
 30
0.0
  0
VERTEX
  5
481
  8
1
  6
CONTINUOUS
 62
     7
 10
522.0499267197539
 20
293.0789953533619
 30
0.0
  0
VERTEX
  5
482
  8
1
  6
CONTINUOUS
 62
     7
 10
522.1068324676905
 20
293.0787581077847
 30
0.0
  0
VERTEX
  5
483
  8
1
  6
CONTINUOUS
 62
     7
 10
522.1992423879406
 20
293.0785394610091
 30
0.0
  0
VERTEX
  5
484
  8
1
  6
CONTINUOUS
 62
     7
 10
522.3236052190928
 20
293.0783478155081
 30
0.0
  0
VERTEX
  5
485
  8
1
  6
CONTINUOUS
 62
     7
 10
522.4751417672898
 20
293.0781905361107
 30
0.0
  0
VERTEX
  5
486
  8
1
  6
CONTINUOUS
 62
     7
 10
522.6480285679665
 20
293.0780736669761
 30
0.0
  0
VERTEX
  5
487
  8
1
  6
CONTINUOUS
 62
     7
 10
522.8356216783295
 20
293.0780016993197
 30
0.0
  0
VERTEX
  5
488
  8
1
  6
CONTINUOUS
 62
     7
 10
523.0307120003506
 20
293.0779773988178
 30
0.0
  0
SEQEND
  5
65B
  8
1
  6
CONTINUOUS
 62
     7
  0
LINE
  5
1EC
  8
1
  6
CONTINUOUS
 62
     7
 10
524.5307120003506
 20
293.0779773988399
 30
0.0
 11
523.0307120003506
 21
293.0779773988178
 31
0.0
  0
POLYLINE
  5
1ED
  8
1
  6
CONTINUOUS
 62
     7
 66
     1
 10
0.0
 20
0.0
 30
0.0
  0
VERTEX
  5
489
  8
1
  6
CONTINUOUS
 62
     7
 10
529.5307120015493
 20
293.0716539902976
 30
0.0
  0
VERTEX
  5
48A
  8
1
  6
CONTINUOUS
 62
     7
 10
529.4346384033262
 20
293.0728876261193
 30
0.0
  0
VERTEX
  5
48B
  8
1
  6
CONTINUOUS
 62
     7
 10
529.150109663638
 20
293.0740738540054
 30
0.0
  0
VERTEX
  5
48C
  8
1
  6
CONTINUOUS
 62
     7
 10
528.6880600623851
 20
293.0751670878834
 30
0.0
  0
VERTEX
  5
48D
  8
1
  6
CONTINUOUS
 62
     7
 10
528.0662459066232
 20
293.0761253153885
 30
0.0
  0
VERTEX
  5
48E
  8
1
  6
CONTINUOUS
 62
     7
 10
527.3085631656407
 20
293.0769117123751
 30
0.0
  0
VERTEX
  5
48F
  8
1
  6
CONTINUOUS
 62
     7
 10
526.44412916226
 20
293.077496058048
 30
0.0
  0
VERTEX
  5
490
  8
1
  6
CONTINUOUS
 62
     7
 10
525.5061636104504
 20
293.0778558963307
 30
0.0
  0
VERTEX
  5
491
  8
1
  6
CONTINUOUS
 62
     7
 10
524.5307120003506
 20
293.0779773988398
 30
0.0
  0
SEQEND
  5
65C
  8
1
  6
CONTINUOUS
 62
     7
  0
POLYLINE
  5
1EE
  8
1
  6
CONTINUOUS
 62
     7
 66
     1
 10
0.0
 20
0.0
 30
0.0
  0
VERTEX
  5
492
  8
1
  6
CONTINUOUS
 62
     7
 10
527.5307120015493
 20
293.0716539902673
 30
0.0
  0
VERTEX
  5
493
  8
1
  6
CONTINUOUS
 62
     7
 10
527.4730678427414
 20
293.0723941717604
 30
0.0
  0
VERTEX
  5
494
  8
1
  6
CONTINUOUS
 62
     7
 10
527.3023505990144
 20
293.0731059084922
 30
0.0
  0
VERTEX
  5
495
  8
1
  6
CONTINUOUS
 62
     7
 10
527.0251208383071
 20
293.0737618488192
 30
0.0
  0
VERTEX
  5
496
  8
1
  6
CONTINUOUS
 62
     7
 10
526.6520323448547
 20
293.0743367853224
 30
0.0
  0
VERTEX
  5
497
  8
1
  6
CONTINUOUS
 62
     7
 10
526.1974227002344
 20
293.0748086235145
 30
0.0
  0
VERTEX
  5
498
  8
1
  6
CONTINUOUS
 62
     7
 10
525.6787622981462
 20
293.0751592309184
 30
0.0
  0
VERTEX
  5
499
  8
1
  6
CONTINUOUS
 62
     7
 10
525.1159829669805
 20
293.075375133888
 30
0.0
  0
VERTEX
  5
49A
  8
1
  6
CONTINUOUS
 62
     7
 10
524.5307120008301
 20
293.0754480353935
 30
0.0
  0
SEQEND
  5
65D
  8
1
  6
CONTINUOUS
 62
     7
  0
LINE
  5
1EF
  8
1
  6
CONTINUOUS
 62
     7
 10
523.03071200083
 20
293.0754480353715
 30
0.0
 11
524.53071200083
 21
293.0754480353935
 31
0.0
  0
POLYLINE
  5
1F0
  8
1
  6
CONTINUOUS
 62
     7
 66
     1
 10
0.0
 20
0.0
 30
0.0
  0
VERTEX
  5
49B
  8
1
  6
CONTINUOUS
 62
     7
 10
520.0307120001108
 20
293.0792420804977
 30
0.0
  0
VERTEX
  5
49C
  8
1
  6
CONTINUOUS
 62
     7
 10
520.0883561589187
 20
293.0785018990046
 30
0.0
  0
VERTEX
  5
49D
  8
1
  6
CONTINUOUS
 62
     7
 10
520.2590734026458
 20
293.0777901622728
 30
0.0
  0
VERTEX
  5
49E
  8
1
  6
CONTINUOUS
 62
     7
 10
520.5363031633531
 20
293.0771342219458
 30
0.0
  0
VERTEX
  5
49F
  8
1
  6
CONTINUOUS
 62
     7
 10
520.9093916568055
 20
293.0765592854426
 30
0.0
  0
VERTEX
  5
4A0
  8
1
  6
CONTINUOUS
 62
     7
 10
521.3640013014258
 20
293.0760874472505
 30
0.0
  0
VERTEX
  5
4A1
  8
1
  6
CONTINUOUS
 62
     7
 10
521.8826617035139
 20
293.0757368398466
 30
0.0
  0
VERTEX
  5
4A2
  8
1
  6
CONTINUOUS
 62
     7
 10
522.4454410346796
 20
293.075520936877
 30
0.0
  0
VERTEX
  5
4A3
  8
1
  6
CONTINUOUS
 62
     7
 10
523.03071200083
 20
293.0754480353714
 30
0.0
  0
SEQEND
  5
65E
  8
1
  6
CONTINUOUS
 62
     7
  0
LINE
  5
1F1
  8
1
  6
CONTINUOUS
 62
     7
 10
520.0307120001108
 20
293.0792420804968
 30
0.0
 11
520.0307119933981
 21
293.1146531687455
 31
0.0
  0
POLYLINE
  5
1F2
  8
1
  6
CONTINUOUS
 62
     7
 66
     1
 10
0.0
 20
0.0
 30
0.0
  0
VERTEX
  5
4A4
  8
1
  6
CONTINUOUS
 62
     7
 10
523.0307119926789
 20
293.1184472139591
 30
0.0
  0
VERTEX
  5
4A5
  8
1
  6
CONTINUOUS
 62
     7
 10
522.4454410266454
 20
293.1183743124364
 30
0.0
  0
VERTEX
  5
4A6
  8
1
  6
CONTINUOUS
 62
     7
 10
521.8826616956405
 20
293.1181584094502
 30
0.0
  0
VERTEX
  5
4A7
  8
1
  6
CONTINUOUS
 62
     7
 10
521.3640012937442
 20
293.1178078020312
 30
0.0
  0
VERTEX
  5
4A8
  8
1
  6
CONTINUOUS
 62
     7
 10
520.9093916493332
 20
293.1173359638258
 30
0.0
  0
VERTEX
  5
4A9
  8
1
  6
CONTINUOUS
 62
     7
 10
520.5363031560942
 20
293.1167610273118
 30
0.0
  0
VERTEX
  5
4AA
  8
1
  6
CONTINUOUS
 62
     7
 10
520.2590733955917
 20
293.1161050869768
 30
0.0
  0
VERTEX
  5
4AB
  8
1
  6
CONTINUOUS
 62
     7
 10
520.0883561520498
 20
293.1153933502401
 30
0.0
  0
VERTEX
  5
4AC
  8
1
  6
CONTINUOUS
 62
     7
 10
520.0307119933981
 20
293.1146531687454
 30
0.0
  0
SEQEND
  5
65F
  8
1
  6
CONTINUOUS
 62
     7
  0
LINE
  5
1F3
  8
1
  6
CONTINUOUS
 62
     7
 10
523.0307119926789
 20
293.1184472139591
 30
0.0
 11
524.530711992679
 21
293.1184472139811
 31
0.0
  0
POLYLINE
  5
1F4
  8
1
  6
CONTINUOUS
 62
     7
 66
     1
 10
0.0
 20
0.0
 30
0.0
  0
VERTEX
  5
4AD
  8
1
  6
CONTINUOUS
 62
     7
 10
524.5307119926788
 20
293.1184472139811
 30
0.0
  0
VERTEX
  5
4AE
  8
1
  6
CONTINUOUS
 62
     7
 10
525.1159829587123
 20
293.1185201155038
 30
0.0
  0
VERTEX
  5
4AF
  8
1
  6
CONTINUOUS
 62
     7
 10
525.6787622897174
 20
293.11873601849
 30
0.0
  0
VERTEX
  5
4B0
  8
1
  6
CONTINUOUS
 62
     7
 10
526.1974226916137
 20
293.1190866259091
 30
0.0
  0
VERTEX
  5
4B1
  8
1
  6
CONTINUOUS
 62
     7
 10
526.6520323360248
 20
293.1195584641144
 30
0.0
  0
VERTEX
  5
4B2
  8
1
  6
CONTINUOUS
 62
     7
 10
527.0251208292639
 20
293.1201334006284
 30
0.0
  0
VERTEX
  5
4B3
  8
1
  6
CONTINUOUS
 62
     7
 10
527.3023505897663
 20
293.1207893409634
 30
0.0
  0
VERTEX
  5
4B4
  8
1
  6
CONTINUOUS
 62
     7
 10
527.4730678333082
 20
293.1215010777001
 30
0.0
  0
VERTEX
  5
4B5
  8
1
  6
CONTINUOUS
 62
     7
 10
527.5307119919596
 20
293.1222412591948
 30
0.0
  0
SEQEND
  5
660
  8
1
  6
CONTINUOUS
 62
     7
  0
LINE
  5
1F5
  8
1
  6
CONTINUOUS
 62
     7
 10
527.5307119919596
 20
293.1222412591948
 30
0.0
 11
527.5307119907609
 21
293.1285646678106
 31
0.0
  0
LINE
  5
1F6
  8
1
  6
CONTINUOUS
 62
     7
 10
527.5307119907609
 20
293.1285646678106
 30
0.0
 11
529.530711990761
 21
293.12856466784
 31
0.0
  0
LINE
  5
1F7
  8
1
  6
CONTINUOUS
 62
     7
 10
529.530711990761
 20
293.12856466784
 30
0.0
 11
529.5307119919596
 21
293.1222412592242
 31
0.0
  0
LINE
  5
1F8
  8
1
  6
CONTINUOUS
 62
     7
 10
529.530712002748
 20
293.0653305816818
 30
0.0
 11
529.5307120015493
 21
293.0716539902976
 31
0.0
  0
LINE
  5
1F9
  8
1
  6
CONTINUOUS
 62
     7
 10
527.5307120015493
 20
293.0716539902682
 30
0.0
 11
527.530712002748
 21
293.0653305816524
 31
0.0
  0
POLYLINE
  5
1FA
  8
1
  6
CONTINUOUS
 62
     7
 66
     1
 10
0.0
 20
0.0
 30
0.0
  0
VERTEX
  5
4B6
  8
1
  6
CONTINUOUS
 62
     7
 10
527.5307120019817
 20
263.0716779815745
 30
0.0
  0
VERTEX
  5
4B7
  8
1
  6
CONTINUOUS
 62
     7
 10
527.4730678431738
 20
263.0724181630677
 30
0.0
  0
VERTEX
  5
4B8
  8
1
  6
CONTINUOUS
 62
     7
 10
527.3023505994466
 20
263.0731298997994
 30
0.0
  0
VERTEX
  5
4B9
  8
1
  6
CONTINUOUS
 62
     7
 10
527.0251208387394
 20
263.0737858401264
 30
0.0
  0
VERTEX
  5
4BA
  8
1
  6
CONTINUOUS
 62
     7
 10
526.652032345287
 20
263.0743607766296
 30
0.0
  0
VERTEX
  5
4BB
  8
1
  6
CONTINUOUS
 62
     7
 10
526.1974227006666
 20
263.0748326148217
 30
0.0
  0
VERTEX
  5
4BC
  8
1
  6
CONTINUOUS
 62
     7
 10
525.6787622985785
 20
263.0751832222256
 30
0.0
  0
VERTEX
  5
4BD
  8
1
  6
CONTINUOUS
 62
     7
 10
525.1159829674127
 20
263.0753991251952
 30
0.0
  0
VERTEX
  5
4BE
  8
1
  6
CONTINUOUS
 62
     7
 10
524.5307120012624
 20
263.0754720267008
 30
0.0
  0
SEQEND
  5
661
  8
1
  6
CONTINUOUS
 62
     7
  0
LINE
  5
1FB
  8
1
  6
CONTINUOUS
 62
     7
 10
520.0307120001108
 20
293.0792420804968
 30
0.0
 11
520.0307120005432
 21
263.079266071804
 31
0.0
  0
POLYLINE
  5
1FC
  8
1
  6
CONTINUOUS
 62
     7
 66
     1
 10
0.0
 20
0.0
 30
0.0
  0
VERTEX
  5
4BF
  8
1
  6
CONTINUOUS
 62
     7
 10
520.0307120005432
 20
263.0792660718049
 30
0.0
  0
VERTEX
  5
4C0
  8
1
  6
CONTINUOUS
 62
     7
 10
520.0883561593511
 20
263.0785258903118
 30
0.0
  0
VERTEX
  5
4C1
  8
1
  6
CONTINUOUS
 62
     7
 10
520.2590734030781
 20
263.07781415358
 30
0.0
  0
VERTEX
  5
4C2
  8
1
  6
CONTINUOUS
 62
     7
 10
520.5363031637854
 20
263.077158213253
 30
0.0
  0
VERTEX
  5
4C3
  8
1
  6
CONTINUOUS
 62
     7
 10
520.9093916572378
 20
263.0765832767498
 30
0.0
  0
VERTEX
  5
4C4
  8
1
  6
CONTINUOUS
 62
     7
 10
521.3640013018581
 20
263.0761114385577
 30
0.0
  0
VERTEX
  5
4C5
  8
1
  6
CONTINUOUS
 62
     7
 10
521.8826617039463
 20
263.0757608311538
 30
0.0
  0
VERTEX
  5
4C6
  8
1
  6
CONTINUOUS
 62
     7
 10
522.4454410351119
 20
263.0755449281842
 30
0.0
  0
VERTEX
  5
4C7
  8
1
  6
CONTINUOUS
 62
     7
 10
523.0307120012624
 20
263.0754720266787
 30
0.0
  0
SEQEND
  5
662
  8
1
  6
CONTINUOUS
 62
     7
  0
LINE
  5
1FD
  8
1
  6
CONTINUOUS
 62
     7
 10
523.0307120012624
 20
263.0754720266787
 30
0.0
 11
524.5307120012624
 21
263.0754720267007
 31
0.0
  0
LINE
  5
1FE
  8
1
  6
CONTINUOUS
 62
     7
 10
529.5307119919596
 20
293.1222412592242
 30
0.0
 11
529.5307119919603
 21
293.0716539902965
 31
0.0
  0
LINE
  5
1FF
  8
1
  6
CONTINUOUS
 62
     7
 10
572.5307119972234
 20
261.0835912247081
 30
0.0
 11
572.5307119965843
 21
295.0835912247081
 31
0.0
  0
LINE
  5
200
  8
1
  6
CONTINUOUS
 62
     7
 10
573.0307119965936
 20
294.5835912247176
 30
0.0
 11
573.030711997214
 21
261.5835912247176
 31
0.0
  0
LINE
  5
201
  8
1
  6
CONTINUOUS
 62
     7
 10
570.030711997214
 20
261.5835912246612
 30
0.0
 11
570.0307119965936
 21
294.5835912246612
 31
0.0
  0
LINE
  5
202
  8
1
  6
CONTINUOUS
 62
     7
 10
539.5307119968378
 20
281.5097767744212
 30
0.0
 11
539.5307119968504
 21
280.8339944743582
 31
0.0
  0
ARC
  5
203
  8
1
  6
CONTINUOUS
 62
     7
 10
559.0213433963297
 20
273.0197380975032
 30
0.0
 40
20.99874555952298
 50
158.1529800041277
 51
175.1410183429652
  0
POLYLINE
  5
204
  8
1
  6
CONTINUOUS
 62
     7
 66
     1
 10
0.0
 20
0.0
 30
0.0
  0
VERTEX
  5
4C8
  8
1
  6
CONTINUOUS
 62
     7
 10
553.5307119608079
 20
259.38359120014
 30
0.0
  0
VERTEX
  5
4C9
  8
1
  6
CONTINUOUS
 62
     7
 10
553.2618783426059
 20
259.3837882928773
 30
0.0
  0
VERTEX
  5
4CA
  8
1
  6
CONTINUOUS
 62
     7
 10
552.4653153766968
 20
259.3839778135491
 30
0.0
  0
VERTEX
  5
4CB
  8
1
  6
CONTINUOUS
 62
     7
 10
551.1716373345735
 20
259.3841524783152
 30
0.0
  0
VERTEX
  5
4CC
  8
1
  6
CONTINUOUS
 62
     7
 10
549.4305640908728
 20
259.3843055742918
 30
0.0
  0
VERTEX
  5
4CD
  8
1
  6
CONTINUOUS
 62
     7
 10
547.3090102414931
 20
259.3844312175477
 30
0.0
  0
VERTEX
  5
4CE
  8
1
  6
CONTINUOUS
 62
     7
 10
544.8885133776992
 20
259.3845245792408
 30
0.0
  0
VERTEX
  5
4CF
  8
1
  6
CONTINUOUS
 62
     7
 10
542.2621003552532
 20
259.3845820712049
 30
0.0
  0
VERTEX
  5
4D0
  8
1
  6
CONTINUOUS
 62
     7
 10
539.5307119971187
 20
259.3846014838539
 30
0.0
  0
VERTEX
  5
4D1
  8
1
  6
CONTINUOUS
 62
     7
 10
536.7993236389893
 20
259.3845820711023
 30
0.0
  0
VERTEX
  5
4D2
  8
1
  6
CONTINUOUS
 62
     7
 10
534.1729106165591
 20
259.3845245790393
 30
0.0
  0
VERTEX
  5
4D3
  8
1
  6
CONTINUOUS
 62
     7
 10
531.7524137527904
 20
259.3844312172553
 30
0.0
  0
VERTEX
  5
4D4
  8
1
  6
CONTINUOUS
 62
     7
 10
529.6308599034446
 20
259.3843055739196
 30
0.0
  0
VERTEX
  5
4D5
  8
1
  6
CONTINUOUS
 62
     7
 10
527.8897866597854
 20
259.3841524778775
 30
0.0
  0
VERTEX
  5
4D6
  8
1
  6
CONTINUOUS
 62
     7
 10
526.5961086177093
 20
259.3839778130628
 30
0.0
  0
VERTEX
  5
4D7
  8
1
  6
CONTINUOUS
 62
     7
 10
525.7995456518515
 20
259.383788292361
 30
0.0
  0
VERTEX
  5
4D8
  8
1
  6
CONTINUOUS
 62
     7
 10
525.5307120337028
 20
259.3835911996136
 30
0.0
  0
SEQEND
  5
663
  8
1
  6
CONTINUOUS
 62
     7
  0
POLYLINE
  5
205
  8
1
  6
CONTINUOUS
 62
     7
 66
     1
 10
0.0
 20
0.0
 30
0.0
  0
VERTEX
  5
4D9
  8
1
  6
CONTINUOUS
 62
     7
 10
525.8307120329272
 20
259.0835912019623
 30
0.0
  0
VERTEX
  5
4DA
  8
1
  6
CONTINUOUS
 62
     7
 10
525.9941873324807
 20
259.0834390132169
 30
0.0
  0
VERTEX
  5
4DB
  8
1
  6
CONTINUOUS
 62
     7
 10
526.4804111447935
 20
259.0832904547827
 30
0.0
  0
SEQEND
  5
664
  8
1
  6
CONTINUOUS
 62
     7
  0
POLYLINE
  5
206
  8
1
  6
CONTINUOUS
 62
     7
 66
     1
 10
0.0
 20
0.0
 30
0.0
  0
VERTEX
  5
4DC
  8
1
  6
CONTINUOUS
 62
     7
 10
553.2307119615946
 20
259.0835912024774
 30
0.0
  0
VERTEX
  5
4DD
  8
1
  6
CONTINUOUS
 62
     7
 10
552.9676390638529
 20
259.0837840717989
 30
0.0
  0
VERTEX
  5
4DE
  8
1
  6
CONTINUOUS
 62
     7
 10
552.1881453044239
 20
259.0839695313134
 30
0.0
  0
VERTEX
  5
4DF
  8
1
  6
CONTINUOUS
 62
     7
 10
550.922188934694
 20
259.084140453263
 30
0.0
  0
VERTEX
  5
4E0
  8
1
  6
CONTINUOUS
 62
     7
 10
549.218424403413
 20
259.0842902686117
 30
0.0
  0
VERTEX
  5
4E1
  8
1
  6
CONTINUOUS
 62
     7
 10
547.1423324222791
 20
259.084413219512
 30
0.0
  0
VERTEX
  5
4E2
  8
1
  6
CONTINUOUS
 62
     7
 10
544.7737033484568
 20
259.0845045805975
 30
0.0
  0
VERTEX
  5
4E3
  8
1
  6
CONTINUOUS
 62
     7
 10
542.2035706050839
 20
259.084560840591
 30
0.0
  0
VERTEX
  5
4E4
  8
1
  6
CONTINUOUS
 62
     7
 10
539.5307119974877
 20
259.0845798372546
 30
0.0
  0
VERTEX
  5
4E5
  8
1
  6
CONTINUOUS
 62
     7
 10
536.8578533898827
 20
259.0845608404905
 30
0.0
  0
VERTEX
  5
4E6
  8
1
  6
CONTINUOUS
 62
     7
 10
534.287720646484
 20
259.0845045804003
 30
0.0
  0
VERTEX
  5
4E7
  8
1
  6
CONTINUOUS
 62
     7
 10
531.9190915726199
 20
259.084413219226
 30
0.0
  0
VERTEX
  5
4E8
  8
1
  6
CONTINUOUS
 62
     7
 10
529.8429995914296
 20
259.0842902682475
 30
0.0
  0
VERTEX
  5
4E9
  8
1
  6
CONTINUOUS
 62
     7
 10
528.1392350600798
 20
259.0841404528348
 30
0.0
  0
VERTEX
  5
4EA
  8
1
  6
CONTINUOUS
 62
     7
 10
526.8732786902716
 20
259.0839695308376
 30
0.0
  0
VERTEX
  5
4EB
  8
1
  6
CONTINUOUS
 62
     7
 10
526.0937849307575
 20
259.0837840712937
 30
0.0
  0
VERTEX
  5
4EC
  8
1
  6
CONTINUOUS
 62
     7
 10
525.8307120329272
 20
259.0835912019623
 30
0.0
  0
SEQEND
  5
665
  8
1
  6
CONTINUOUS
 62
     7
  0
POLYLINE
  5
207
  8
1
  6
CONTINUOUS
 62
     7
 66
     1
 10
0.0
 20
0.0
 30
0.0
  0
VERTEX
  5
4ED
  8
1
  6
CONTINUOUS
 62
     7
 10
552.5810128498256
 20
259.0832904552734
 30
0.0
  0
VERTEX
  5
4EE
  8
1
  6
CONTINUOUS
 62
     7
 10
553.0672366620345
 20
259.0834390137258
 30
0.0
  0
VERTEX
  5
4EF
  8
1
  6
CONTINUOUS
 62
     7
 10
553.2307119615946
 20
259.0835912024773
 30
0.0
  0
SEQEND
  5
666
  8
1
  6
CONTINUOUS
 62
     7
  0
POLYLINE
  5
208
  8
1
  6
CONTINUOUS
 62
     7
 66
     1
 10
0.0
 20
0.0
 30
0.0
  0
VERTEX
  5
4F0
  8
1
  6
CONTINUOUS
 62
     7
 10
553.5307119972422
 20
260.0835912712124
 30
0.0
  0
VERTEX
  5
4F1
  8
1
  6
CONTINUOUS
 62
     7
 10
553.261705922876
 20
260.0837883536128
 30
0.0
  0
VERTEX
  5
4F2
  8
1
  6
CONTINUOUS
 62
     7
 10
552.4650254523793
 20
260.0839778622368
 30
0.0
  0
VERTEX
  5
4F3
  8
1
  6
CONTINUOUS
 62
     7
 10
551.1712865694496
 20
260.0841525143745
 30
0.0
  0
VERTEX
  5
4F4
  8
1
  6
CONTINUOUS
 62
     7
 10
549.4302069338207
 20
260.0843055982422
 30
0.0
  0
VERTEX
  5
4F5
  8
1
  6
CONTINUOUS
 62
     7
 10
547.3086952594809
 20
260.0844312309125
 30
0.0
  0
VERTEX
  5
4F6
  8
1
  6
CONTINUOUS
 62
     7
 10
544.8882800503175
 20
260.0845245843925
 30
0.0
  0
VERTEX
  5
4F7
  8
1
  6
CONTINUOUS
 62
     7
 10
542.2619765054336
 20
260.0845820711603
 30
0.0
  0
VERTEX
  5
4F8
  8
1
  6
CONTINUOUS
 62
     7
 10
539.530711997211
 20
260.0846014820316
 30
0.0
  0
VERTEX
  5
4F9
  8
1
  6
CONTINUOUS
 62
     7
 10
536.7994474889896
 20
260.0845820710576
 30
0.0
  0
VERTEX
  5
4FA
  8
1
  6
CONTINUOUS
 62
     7
 10
534.1731439441093
 20
260.0845245841911
 30
0.0
  0
VERTEX
  5
4FB
  8
1
  6
CONTINUOUS
 62
     7
 10
531.7527287349516
 20
260.0844312306201
 30
0.0
  0
VERTEX
  5
4FC
  8
1
  6
CONTINUOUS
 62
     7
 10
529.6312170606195
 20
260.08430559787
 30
0.0
  0
VERTEX
  5
4FD
  8
1
  6
CONTINUOUS
 62
     7
 10
527.890137425
 20
260.0841525139369
 30
0.0
  0
VERTEX
  5
4FE
  8
1
  6
CONTINUOUS
 62
     7
 10
526.5963985420811
 20
260.0839778617506
 30
0.0
  0
VERTEX
  5
4FF
  8
1
  6
CONTINUOUS
 62
     7
 10
525.7997180715962
 20
260.0837883530965
 30
0.0
  0
VERTEX
  5
500
  8
1
  6
CONTINUOUS
 62
     7
 10
525.5307119972422
 20
260.083591270686
 30
0.0
  0
SEQEND
  5
667
  8
1
  6
CONTINUOUS
 62
     7
  0
POLYLINE
  5
209
  8
1
  6
CONTINUOUS
 62
     7
 66
     1
 10
0.0
 20
0.0
 30
0.0
  0
VERTEX
  5
501
  8
1
  6
CONTINUOUS
 62
     7
 10
553.030711962087
 20
260.5835913401925
 30
0.0
  0
VERTEX
  5
502
  8
1
  6
CONTINUOUS
 62
     7
 10
552.7711469680423
 20
260.5837813739672
 30
0.0
  0
VERTEX
  5
503
  8
1
  6
CONTINUOUS
 62
     7
 10
552.0028060797729
 20
260.5839641028083
 30
0.0
  0
VERTEX
  5
504
  8
1
  6
CONTINUOUS
 62
     7
 10
550.7552135027418
 20
260.5841325051924
 30
0.0
  0
VERTEX
  5
505
  8
1
  6
CONTINUOUS
 62
     7
 10
549.076309129438
 20
260.5842801101026
 30
0.0
  0
VERTEX
  5
506
  8
1
  6
CONTINUOUS
 62
     7
 10
547.030606404905
 20
260.5844012456847
 30
0.0
  0
VERTEX
  5
507
  8
1
  6
CONTINUOUS
 62
     7
 10
544.6967133382674
 20
260.5844912571924
 30
0.0
  0
VERTEX
  5
508
  8
1
  6
CONTINUOUS
 62
     7
 10
542.1643119176636
 20
260.5845466858509
 30
0.0
  0
VERTEX
  5
509
  8
1
  6
CONTINUOUS
 62
     7
 10
539.5307119973502
 20
260.5845654017627
 30
0.0
  0
VERTEX
  5
50A
  8
1
  6
CONTINUOUS
 62
     7
 10
536.8971120770323
 20
260.5845466857518
 30
0.0
  0
VERTEX
  5
50B
  8
1
  6
CONTINUOUS
 62
     7
 10
534.3647106564151
 20
260.5844912569983
 30
0.0
  0
VERTEX
  5
50C
  8
1
  6
CONTINUOUS
 62
     7
 10
532.0308175897558
 20
260.5844012454028
 30
0.0
  0
VERTEX
  5
50D
  8
1
  6
CONTINUOUS
 62
     7
 10
529.9851148651937
 20
260.5842801097438
 30
0.0
  0
VERTEX
  5
50E
  8
1
  6
CONTINUOUS
 62
     7
 10
528.3062104918542
 20
260.5841325047704
 30
0.0
  0
VERTEX
  5
50F
  8
1
  6
CONTINUOUS
 62
     7
 10
527.0586179147825
 20
260.5839641023395
 30
0.0
  0
VERTEX
  5
510
  8
1
  6
CONTINUOUS
 62
     7
 10
526.290277026469
 20
260.5837813734693
 30
0.0
  0
VERTEX
  5
511
  8
1
  6
CONTINUOUS
 62
     7
 10
526.0307120323785
 20
260.5835913396851
 30
0.0
  0
SEQEND
  5
668
  8
1
  6
CONTINUOUS
 62
     7
  0
POLYLINE
  5
20A
  8
1
  6
CONTINUOUS
 62
     7
 66
     1
 10
0.0
 20
0.0
 30
0.0
  0
VERTEX
  5
512
  8
1
  6
CONTINUOUS
 62
     7
 10
553.5307119607759
 20
261.0835911957142
 30
0.0
  0
VERTEX
  5
513
  8
1
  6
CONTINUOUS
 62
     7
 10
553.2618783427314
 20
261.0837882884516
 30
0.0
  0
VERTEX
  5
514
  8
1
  6
CONTINUOUS
 62
     7
 10
552.4653153769532
 20
261.0839778091233
 30
0.0
  0
VERTEX
  5
515
  8
1
  6
CONTINUOUS
 62
     7
 10
551.1716373349303
 20
261.0841524738894
 30
0.0
  0
VERTEX
  5
516
  8
1
  6
CONTINUOUS
 62
     7
 10
549.4305640912977
 20
261.084305569866
 30
0.0
  0
VERTEX
  5
517
  8
1
  6
CONTINUOUS
 62
     7
 10
547.3090102419535
 20
261.0844312131219
 30
0.0
  0
VERTEX
  5
518
  8
1
  6
CONTINUOUS
 62
     7
 10
544.8885133781646
 20
261.084524574815
 30
0.0
  0
VERTEX
  5
519
  8
1
  6
CONTINUOUS
 62
     7
 10
542.2621003556965
 20
261.0845820667792
 30
0.0
  0
VERTEX
  5
51A
  8
1
  6
CONTINUOUS
 62
     7
 10
539.5307119975174
 20
261.0846014794282
 30
0.0
  0
VERTEX
  5
51B
  8
1
  6
CONTINUOUS
 62
     7
 10
536.799323639327
 20
261.0845820666765
 30
0.0
  0
VERTEX
  5
51C
  8
1
  6
CONTINUOUS
 62
     7
 10
534.1729106168254
 20
261.0845245746136
 30
0.0
  0
VERTEX
  5
51D
  8
1
  6
CONTINUOUS
 62
     7
 10
531.7524137529822
 20
261.0844312128295
 30
0.0
  0
VERTEX
  5
51E
  8
1
  6
CONTINUOUS
 62
     7
 10
529.6308599035649
 20
261.0843055694939
 30
0.0
  0
VERTEX
  5
51F
  8
1
  6
CONTINUOUS
 62
     7
 10
527.8897866598431
 20
261.0841524734518
 30
0.0
  0
VERTEX
  5
520
  8
1
  6
CONTINUOUS
 62
     7
 10
526.5961086177184
 20
261.0839778086371
 30
0.0
  0
VERTEX
  5
521
  8
1
  6
CONTINUOUS
 62
     7
 10
525.7995456518299
 20
261.0837882879353
 30
0.0
  0
VERTEX
  5
522
  8
1
  6
CONTINUOUS
 62
     7
 10
525.5307120336707
 20
261.0835911951879
 30
0.0
  0
SEQEND
  5
669
  8
1
  6
CONTINUOUS
 62
     7
  0
POLYLINE
  5
20B
  8
1
  6
CONTINUOUS
 62
     7
 66
     1
 10
0.0
 20
0.0
 30
0.0
  0
VERTEX
  5
523
  8
1
  6
CONTINUOUS
 62
     7
 10
553.0307119972045
 20
262.0835912659961
 30
0.0
  0
VERTEX
  5
524
  8
1
  6
CONTINUOUS
 62
     7
 10
552.7713132827434
 20
262.0837813097393
 30
0.0
  0
VERTEX
  5
525
  8
1
  6
CONTINUOUS
 62
     7
 10
552.0030856862815
 20
262.0839640501982
 30
0.0
  0
VERTEX
  5
526
  8
1
  6
CONTINUOUS
 62
     7
 10
550.7555517635243
 20
262.0841324647596
 30
0.0
  0
VERTEX
  5
527
  8
1
  6
CONTINUOUS
 62
     7
 10
549.0766535434994
 20
262.0842800813463
 30
0.0
  0
VERTEX
  5
528
  8
1
  6
CONTINUOUS
 62
     7
 10
547.0309101432672
 20
262.0844012271355
 30
0.0
  0
VERTEX
  5
529
  8
1
  6
CONTINUOUS
 62
     7
 10
544.6969383344343
 20
262.0844912465627
 30
0.0
  0
VERTEX
  5
52A
  8
1
  6
CONTINUOUS
 62
     7
 10
542.1644313447099
 20
262.0845466802317
 30
0.0
  0
VERTEX
  5
52B
  8
1
  6
CONTINUOUS
 62
     7
 10
539.5307119974652
 20
262.0845653978576
 30
0.0
  0
VERTEX
  5
52C
  8
1
  6
CONTINUOUS
 62
     7
 10
536.8969926502106
 20
262.0845466801326
 30
0.0
  0
VERTEX
  5
52D
  8
1
  6
CONTINUOUS
 62
     7
 10
534.3644856604565
 20
262.0844912463685
 30
0.0
  0
VERTEX
  5
52E
  8
1
  6
CONTINUOUS
 62
     7
 10
532.0305138515754
 20
262.0844012268536
 30
0.0
  0
VERTEX
  5
52F
  8
1
  6
CONTINUOUS
 62
     7
 10
529.9847704512783
 20
262.0842800809874
 30
0.0
  0
VERTEX
  5
530
  8
1
  6
CONTINUOUS
 62
     7
 10
528.3058722311745
 20
262.0841324643376
 30
0.0
  0
VERTEX
  5
531
  8
1
  6
CONTINUOUS
 62
     7
 10
527.0583383083272
 20
262.0839640497293
 30
0.0
  0
VERTEX
  5
532
  8
1
  6
CONTINUOUS
 62
     7
 10
526.2901107117673
 20
262.0837813092415
 30
0.0
  0
VERTEX
  5
533
  8
1
  6
CONTINUOUS
 62
     7
 10
526.0307119972045
 20
262.0835912654886
 30
0.0
  0
SEQEND
  5
66A
  8
1
  6
CONTINUOUS
 62
     7
  0
LINE
  5
20C
  8
1
  6
CONTINUOUS
 62
     7
 10
556.0307119971388
 20
265.583591224398
 30
0.0
 11
556.0307119966689
 21
290.583591224398
 31
0.0
  0
LINE
  5
20D
  8
1
  6
CONTINUOUS
 62
     7
 10
550.8630020530718
 20
287.1000124972327
 30
0.0
 11
550.8755843719655
 21
287.0537891733065
 31
0.0
  0
LINE
  5
20E
  8
1
  6
CONTINUOUS
 62
     7
 10
550.8345595740344
 20
286.7325906748362
 30
0.0
 11
550.8345595743666
 21
269.0835912243003
 31
0.0
  0
LINE
  5
20F
  8
1
  6
CONTINUOUS
 62
     7
 10
550.8755843719549
 20
287.0537891733003
 30
0.0
 11
550.8345595740337
 21
286.7325906748359
 31
0.0
  0
ARC
  5
210
  8
1
  6
CONTINUOUS
 62
     7
 10
535.8612188530177
 20
275.1358215452129
 30
0.0
 40
2.262149692528273
 50
272.9680278554124
 51
351.4219649203183
  0
LINE
  5
211
  8
1
  6
CONTINUOUS
 62
     7
 10
539.5307119967985
 20
283.634801915614
 30
0.0
 11
539.5307119968385
 21
281.5097767744212
 31
0.0
  0
LINE
  5
212
  8
1
  6
CONTINUOUS
 62
     7
 10
539.5142067498066
 20
283.6365737999895
 30
0.0
 11
539.5307119967983
 21
283.6348019156091
 31
0.0
  0
ARC
  5
213
  8
1
  6
CONTINUOUS
 62
     7
 10
535.8102437894886
 20
253.133354465798
 30
0.0
 40
19.7440675346681
 50
89.51216266622708
 51
104.7261677908281
  0
POLYLINE
  5
214
  8
1
  6
CONTINUOUS
 62
     7
 66
     1
 10
0.0
 20
0.0
 30
0.0
  0
VERTEX
  5
534
  8
1
  6
CONTINUOUS
 62
     7
 10
530.7913080823706
 20
272.2288640735919
 30
0.0
  0
VERTEX
  5
535
  8
1
  6
CONTINUOUS
 62
     7
 10
530.700589602914
 20
272.1677568429105
 30
0.0
  0
VERTEX
  5
536
  8
1
  6
CONTINUOUS
 62
     7
 10
530.6746490184836
 20
272.1405443575946
 30
0.0
  0
SEQEND
  5
66B
  8
1
  6
CONTINUOUS
 62
     7
  0
ARC
  5
215
  8
1
  6
CONTINUOUS
 62
     7
 10
535.2428348978981
 20
242.7194756041583
 30
0.0
 40
41.14750433585258
 50
84.82851962728427
 51
90.67769987436067
  0
LINE
  5
216
  8
1
  6
CONTINUOUS
 62
     7
 10
538.9517415783988
 20
283.699484441448
 30
0.0
 11
539.5142067498066
 21
283.6365737999895
 31
0.0
  0
LINE
  5
217
  8
1
  6
CONTINUOUS
 62
     7
 10
534.7561496910317
 20
283.8641016272299
 30
0.0
 11
529.5307120040792
 21
283.8641016271317
 31
0.0
  0
POLYLINE
  5
218
  8
1
  6
CONTINUOUS
 62
     7
 66
     1
 10
0.0
 20
0.0
 30
0.0
  0
VERTEX
  5
537
  8
1
  6
CONTINUOUS
 62
     7
 10
546.7307119970529
 20
270.0839808978965
 30
0.0
  0
VERTEX
  5
538
  8
1
  6
CONTINUOUS
 62
     7
 10
546.7321054916964
 20
270.0922169077098
 30
0.0
  0
VERTEX
  5
539
  8
1
  6
CONTINUOUS
 62
     7
 10
546.7395951899202
 20
270.130826559422
 30
0.0
  0
VERTEX
  5
53A
  8
1
  6
CONTINUOUS
 62
     7
 10
546.7486377775567
 20
270.1692311233577
 30
0.0
  0
VERTEX
  5
53B
  8
1
  6
CONTINUOUS
 62
     7
 10
546.7592260955703
 20
270.2073311619414
 30
0.0
  0
VERTEX
  5
53C
  8
1
  6
CONTINUOUS
 62
     7
 10
546.7713529849251
 20
270.2450272375969
 30
0.0
  0
VERTEX
  5
53D
  8
1
  6
CONTINUOUS
 62
     7
 10
546.7854538820603
 20
270.2833641988751
 30
0.0
  0
VERTEX
  5
53E
  8
1
  6
CONTINUOUS
 62
     7
 10
546.801195281221
 20
270.3211927388436
 30
0.0
  0
VERTEX
  5
53F
  8
1
  6
CONTINUOUS
 62
     7
 10
546.8185441101709
 20
270.358397967291
 30
0.0
  0
VERTEX
  5
540
  8
1
  6
CONTINUOUS
 62
     7
 10
546.8374672966742
 20
270.3948649940057
 30
0.0
  0
VERTEX
  5
541
  8
1
  6
CONTINUOUS
 62
     7
 10
546.8599631912778
 20
270.4338494116496
 30
0.0
  0
VERTEX
  5
542
  8
1
  6
CONTINUOUS
 62
     7
 10
546.8843052933132
 20
270.4718218139301
 30
0.0
  0
VERTEX
  5
543
  8
1
  6
CONTINUOUS
 62
     7
 10
546.9104154491165
 20
270.508634796666
 30
0.0
  0
VERTEX
  5
544
  8
1
  6
CONTINUOUS
 62
     7
 10
546.9389324568536
 20
270.5450264738361
 30
0.0
  0
VERTEX
  5
545
  8
1
  6
CONTINUOUS
 62
     7
 10
546.9692099605606
 20
270.5800480420355
 30
0.0
  0
VERTEX
  5
546
  8
1
  6
CONTINUOUS
 62
     7
 10
547.0011313292905
 20
270.6135566027723
 30
0.0
  0
VERTEX
  5
547
  8
1
  6
CONTINUOUS
 62
     7
 10
547.028134411465
 20
270.6395182869027
 30
0.0
  0
VERTEX
  5
548
  8
1
  6
CONTINUOUS
 62
     7
 10
547.0561505793881
 20
270.6644202699767
 30
0.0
  0
VERTEX
  5
549
  8
1
  6
CONTINUOUS
 62
     7
 10
547.0851036155283
 20
270.6882013481832
 30
0.0
  0
VERTEX
  5
54A
  8
1
  6
CONTINUOUS
 62
     7
 10
547.114917302354
 20
270.7108003177115
 30
0.0
  0
VERTEX
  5
54B
  8
1
  6
CONTINUOUS
 62
     7
 10
547.1464653348065
 20
270.7327985328589
 30
0.0
  0
VERTEX
  5
54C
  8
1
  6
CONTINUOUS
 62
     7
 10
547.1788612128622
 20
270.7535147401725
 30
0.0
  0
VERTEX
  5
54D
  8
1
  6
CONTINUOUS
 62
     7
 10
547.2120129740053
 20
270.772903484551
 30
0.0
  0
VERTEX
  5
54E
  8
1
  6
CONTINUOUS
 62
     7
 10
547.2458286557204
 20
270.7909193108928
 30
0.0
  0
VERTEX
  5
54F
  8
1
  6
CONTINUOUS
 62
     7
 10
547.28957148786
 20
270.8117575015991
 30
0.0
  0
VERTEX
  5
550
  8
1
  6
CONTINUOUS
 62
     7
 10
547.3342248157217
 20
270.8303668394857
 30
0.0
  0
VERTEX
  5
551
  8
1
  6
CONTINUOUS
 62
     7
 10
547.3795999998906
 20
270.8466984939685
 30
0.0
  0
VERTEX
  5
552
  8
1
  6
CONTINUOUS
 62
     7
 10
547.4267351101603
 20
270.8610563404862
 30
0.0
  0
VERTEX
  5
553
  8
1
  6
CONTINUOUS
 62
     7
 10
547.4744242131064
 20
270.8730234382324
 30
0.0
  0
VERTEX
  5
554
  8
1
  6
CONTINUOUS
 62
     7
 10
547.522475857186
 20
270.8825872711723
 30
0.0
  0
VERTEX
  5
555
  8
1
  6
CONTINUOUS
 62
     7
 10
547.5307119970379
 20
270.8839808958288
 30
0.0
  0
SEQEND
  5
66C
  8
1
  6
CONTINUOUS
 62
     7
  0
LINE
  5
219
  8
1
  6
CONTINUOUS
 62
     7
 10
530.6746490184836
 20
272.1405443575946
 30
0.0
 11
530.6521725335056
 21
272.112114246353
 31
0.0
  0
LINE
  5
21A
  8
1
  6
CONTINUOUS
 62
     7
 10
549.2102076148558
 20
287.8173609619171
 30
0.0
 11
549.5880229718916
 21
287.5210498342545
 31
0.0
  0
LINE
  5
21B
  8
1
  6
CONTINUOUS
 62
     7
 10
529.5307119920323
 20
288.0836813952839
 30
0.0
 11
548.5307119967156
 21
288.083681395641
 31
0.0
  0
ARC
  5
21C
  8
1
  6
CONTINUOUS
 62
     7
 10
548.5307119967343
 20
287.0836813982444
 30
0.0
 40
0.9999999973965834
 50
47.19575857306166
 51
90.00000000107701
  0
LINE
  5
21D
  8
1
  6
CONTINUOUS
 62
     7
 10
549.5880229718915
 20
287.5210498342544
 30
0.0
 11
549.65369261829
 21
287.4789756693124
 31
0.0
  0
LINE
  5
21E
  8
1
  6
CONTINUOUS
 62
     7
 10
526.2807120021082
 20
244.3199561253872
 30
0.0
 11
526.7307120019761
 21
243.083591290713
 31
0.0
  0
LINE
  5
21F
  8
1
  6
CONTINUOUS
 62
     7
 10
552.3307119931474
 20
243.0835912911942
 30
0.0
 11
552.7807119929688
 21
244.3199561258853
 31
0.0
  0
LINE
  5
220
  8
1
  6
CONTINUOUS
 62
     7
 10
526.2807119974508
 20
248.9835912996
 30
0.0
 11
526.2807119975386
 21
244.3199561504974
 31
0.0
  0
LINE
  5
221
  8
1
  6
CONTINUOUS
 62
     7
 10
552.7807119975386
 20
244.3199561509955
 30
0.0
 11
552.7807119974508
 21
248.9835913000981
 31
0.0
  0
LINE
  5
222
  8
1
  6
CONTINUOUS
 62
     7
 10
552.7807119629559
 20
248.9835913690878
 30
0.0
 11
552.0807119647652
 21
249.6835913636073
 31
0.0
  0
LINE
  5
223
  8
1
  6
CONTINUOUS
 62
     7
 10
526.9807120301101
 20
249.6835913631354
 30
0.0
 11
526.2807120319457
 21
248.9835913685897
 31
0.0
  0
LINE
  5
224
  8
1
  6
CONTINUOUS
 62
     7
 10
526.2807120318254
 20
255.3835912139465
 30
0.0
 11
526.9807120300162
 21
254.683591219427
 31
0.0
  0
LINE
  5
225
  8
1
  6
CONTINUOUS
 62
     7
 10
552.0807119646712
 20
254.6835912198988
 30
0.0
 11
552.7807119628358
 21
255.3835912144446
 31
0.0
  0
LINE
  5
226
  8
1
  6
CONTINUOUS
 62
     7
 10
526.2807119972648
 20
258.8835912738231
 30
0.0
 11
526.2807119973305
 21
255.3835912829361
 31
0.0
  0
LINE
  5
227
  8
1
  6
CONTINUOUS
 62
     7
 10
552.7807119973306
 20
255.3835912834343
 30
0.0
 11
552.7807119972647
 21
258.8835912743212
 31
0.0
  0
LINE
  5
228
  8
1
  6
CONTINUOUS
 62
     7
 10
552.7807119627699
 20
258.883591343311
 30
0.0
 11
552.5807119632868
 21
259.0835913417451
 31
0.0
  0
LINE
  5
229
  8
1
  6
CONTINUOUS
 62
     7
 10
526.4807120312352
 20
259.0835913412545
 30
0.0
 11
526.2807120317597
 21
258.8835913428128
 31
0.0
  0
LINE
  5
22A
  8
1
  6
CONTINUOUS
 62
     7
 10
526.3307120021626
 20
240.5068254902748
 30
0.0
 11
526.4276382099932
 21
240.2405229237076
 31
0.0
  0
LINE
  5
22B
  8
1
  6
CONTINUOUS
 62
     7
 10
552.6337857852371
 20
240.2405229242002
 30
0.0
 11
552.7307119930578
 21
240.5068254907711
 31
0.0
  0
LINE
  5
22C
  8
1
  6
CONTINUOUS
 62
     7
 10
526.3307119975927
 20
241.433591319259
 30
0.0
 11
526.3307119976101
 21
240.5068255152903
 31
0.0
  0
LINE
  5
22D
  8
1
  6
CONTINUOUS
 62
     7
 10
552.7307119976101
 20
240.5068255157865
 30
0.0
 11
552.7307119975928
 21
241.4335913197553
 31
0.0
  0
LINE
  5
22E
  8
1
  6
CONTINUOUS
 62
     7
 10
552.730711963228
 20
241.4335913884846
 30
0.0
 11
552.5807119636158
 21
241.5835913873102
 31
0.0
  0
LINE
  5
22F
  8
1
  6
CONTINUOUS
 62
     7
 10
526.480712031564
 20
241.5835913868196
 30
0.0
 11
526.3307120319574
 21
241.4335913879883
 31
0.0
  0
ARC
  5
230
  8
1
  6
CONTINUOUS
 62
     7
 10
517.0307121217836
 20
236.8203215245728
 30
0.0
 40
9.999999875895785
 50
359.9999999811776
 51
20.00301998384731
  0
ARC
  5
231
  8
1
  6
CONTINUOUS
 62
     7
 10
562.0307118736054
 20
236.8203215254132
 30
0.0
 40
9.999999875925807
 50
159.989973714024
 51
179.9995594202896
  0
LINE
  5
232
  8
1
  6
CONTINUOUS
 62
     7
 10
552.415688695378
 20
241.598417537406
 30
0.0
 11
552.3307202162881
 21
241.7351615232985
 31
0.0
  0
LINE
  5
233
  8
1
  6
CONTINUOUS
 62
     7
 10
526.7117630907778
 20
241.6606145534584
 30
0.0
 11
526.6457560390674
 21
241.5984275151582
 31
0.0
  0
LINE
  5
234
  8
1
  6
CONTINUOUS
 62
     7
 10
526.7307119975872
 20
241.7335913184417
 30
0.0
 11
526.7117630907778
 21
241.6606145534584
 31
0.0
  0
LINE
  5
235
  8
1
  6
CONTINUOUS
 62
     7
 10
526.7307119975617
 20
243.0835913149704
 30
0.0
 11
526.7307119975872
 21
241.7335913184854
 31
0.0
  0
LINE
  5
236
  8
1
  6
CONTINUOUS
 62
     7
 10
552.3307119975871
 20
241.7335913189666
 30
0.0
 11
552.3307119975618
 21
243.0835913154516
 31
0.0
  0
LINE
  5
237
  8
1
  6
CONTINUOUS
 62
     7
 10
527.0307119988682
 20
227.4041808909997
 30
0.0
 11
527.8807119988901
 21
222.5835913576725
 31
0.0
  0
LINE
  5
238
  8
1
  6
CONTINUOUS
 62
     7
 10
551.1807119970041
 20
222.5835913581105
 30
0.0
 11
552.0307119968447
 21
227.4041808914697
 31
0.0
  0
LINE
  5
239
  8
1
  6
CONTINUOUS
 62
     7
 10
527.0307119976794
 20
236.8203215241992
 30
0.0
 11
527.0307119978564
 21
227.4041809024759
 31
0.0
  0
LINE
  5
23A
  8
1
  6
CONTINUOUS
 62
     7
 10
552.0307119978564
 20
227.4041809029458
 30
0.0
 11
552.0307119976795
 21
236.8203215246691
 31
0.0
  0
POLYLINE
  5
23B
  8
1
  6
CONTINUOUS
 62
     7
 66
     1
 10
0.0
 20
0.0
 30
0.0
  0
VERTEX
  5
556
  8
1
  6
CONTINUOUS
 62
     7
 10
546.7394350426247
 20
221.585749274863
 30
0.0
  0
VERTEX
  5
557
  8
1
  6
CONTINUOUS
 62
     7
 10
546.7508349303173
 20
221.5866703496197
 30
0.0
  0
VERTEX
  5
558
  8
1
  6
CONTINUOUS
 62
     7
 10
546.7743015163414
 20
221.5890844447021
 30
0.0
  0
VERTEX
  5
559
  8
1
  6
CONTINUOUS
 62
     7
 10
546.8034694856939
 20
221.5930657284671
 30
0.0
  0
VERTEX
  5
55A
  8
1
  6
CONTINUOUS
 62
     7
 10
546.8319353198858
 20
221.5980140918033
 30
0.0
  0
VERTEX
  5
55B
  8
1
  6
CONTINUOUS
 62
     7
 10
546.8625322762423
 20
221.6045268592851
 30
0.0
  0
VERTEX
  5
55C
  8
1
  6
CONTINUOUS
 62
     7
 10
546.8946246223221
 20
221.6127207623613
 30
0.0
  0
VERTEX
  5
55D
  8
1
  6
CONTINUOUS
 62
     7
 10
546.9275842806762
 20
221.6226352842132
 30
0.0
  0
VERTEX
  5
55E
  8
1
  6
CONTINUOUS
 62
     7
 10
546.9609044313273
 20
221.6342634871494
 30
0.0
  0
VERTEX
  5
55F
  8
1
  6
CONTINUOUS
 62
     7
 10
546.9942246747091
 20
221.6475819495762
 30
0.0
  0
VERTEX
  5
560
  8
1
  6
CONTINUOUS
 62
     7
 10
547.027285985382
 20
221.6625597977554
 30
0.0
  0
VERTEX
  5
561
  8
1
  6
CONTINUOUS
 62
     7
 10
547.0598940340648
 20
221.6791617899319
 30
0.0
  0
VERTEX
  5
562
  8
1
  6
CONTINUOUS
 62
     7
 10
547.0918953917231
 20
221.6973492404546
 30
0.0
  0
VERTEX
  5
563
  8
1
  6
CONTINUOUS
 62
     7
 10
547.1231631181653
 20
221.7170802713609
 30
0.0
  0
VERTEX
  5
564
  8
1
  6
CONTINUOUS
 62
     7
 10
547.1535881215023
 20
221.7383098767479
 30
0.0
  0
VERTEX
  5
565
  8
1
  6
CONTINUOUS
 62
     7
 10
547.1830739247432
 20
221.7609899532182
 30
0.0
  0
VERTEX
  5
566
  8
1
  6
CONTINUOUS
 62
     7
 10
547.2115334429895
 20
221.7850693407334
 30
0.0
  0
VERTEX
  5
567
  8
1
  6
CONTINUOUS
 62
     7
 10
547.2388869651519
 20
221.8104938837342
 30
0.0
  0
VERTEX
  5
568
  8
1
  6
CONTINUOUS
 62
     7
 10
547.2650608723196
 20
221.8372065121652
 30
0.0
  0
VERTEX
  5
569
  8
1
  6
CONTINUOUS
 62
     7
 10
547.2899868165579
 20
221.8651473396359
 30
0.0
  0
VERTEX
  5
56A
  8
1
  6
CONTINUOUS
 62
     7
 10
547.3136011934113
 20
221.8942537758016
 30
0.0
  0
VERTEX
  5
56B
  8
1
  6
CONTINUOUS
 62
     7
 10
547.3358448052389
 20
221.9244606506081
 30
0.0
  0
VERTEX
  5
56C
  8
1
  6
CONTINUOUS
 62
     7
 10
547.356662650329
 20
221.9557003484986
 30
0.0
  0
VERTEX
  5
56D
  8
1
  6
CONTINUOUS
 62
     7
 10
547.3760037957773
 20
221.9879029510917
 30
0.0
  0
VERTEX
  5
56E
  8
1
  6
CONTINUOUS
 62
     7
 10
547.3938213064711
 20
222.0209963872508
 30
0.0
  0
VERTEX
  5
56F
  8
1
  6
CONTINUOUS
 62
     7
 10
547.4118022598542
 20
222.0587729056006
 30
0.0
  0
VERTEX
  5
570
  8
1
  6
CONTINUOUS
 62
     7
 10
547.4277275604687
 20
222.0972912584477
 30
0.0
  0
VERTEX
  5
571
  8
1
  6
CONTINUOUS
 62
     7
 10
547.4415405565678
 20
222.1363265165349
 30
0.0
  0
VERTEX
  5
572
  8
1
  6
CONTINUOUS
 62
     7
 10
547.4532479550668
 20
222.1757736677728
 30
0.0
  0
VERTEX
  5
573
  8
1
  6
CONTINUOUS
 62
     7
 10
547.462860236833
 20
222.2155314580264
 30
0.0
  0
VERTEX
  5
574
  8
1
  6
CONTINUOUS
 62
     7
 10
547.4703906858554
 20
222.2554993295096
 30
0.0
  0
VERTEX
  5
575
  8
1
  6
CONTINUOUS
 62
     7
 10
547.4758557412969
 20
222.2955775761162
 30
0.0
  0
VERTEX
  5
576
  8
1
  6
CONTINUOUS
 62
     7
 10
547.4792752764506
 20
222.3356675720335
 30
0.0
  0
VERTEX
  5
577
  8
1
  6
CONTINUOUS
 62
     7
 10
547.4806462096423
 20
222.3733318872618
 30
0.0
  0
VERTEX
  5
578
  8
1
  6
CONTINUOUS
 62
     7
 10
547.4807119979508
 20
222.3835913690245
 30
0.0
  0
SEQEND
  5
66D
  8
1
  6
CONTINUOUS
 62
     7
  0
POLYLINE
  5
23C
  8
1
  6
CONTINUOUS
 62
     7
 66
     1
 10
0.0
 20
0.0
 30
0.0
  0
VERTEX
  5
579
  8
1
  6
CONTINUOUS
 62
     7
 10
531.5807119979534
 20
222.3835934033373
 30
0.0
  0
VERTEX
  5
57A
  8
1
  6
CONTINUOUS
 62
     7
 10
531.580806509035
 20
222.371294669844
 30
0.0
  0
VERTEX
  5
57B
  8
1
  6
CONTINUOUS
 62
     7
 10
531.5824032516048
 20
222.3315995846854
 30
0.0
  0
VERTEX
  5
57C
  8
1
  6
CONTINUOUS
 62
     7
 10
531.5859462936066
 20
222.2922268485659
 30
0.0
  0
VERTEX
  5
57D
  8
1
  6
CONTINUOUS
 62
     7
 10
531.5913985727304
 20
222.2532674741277
 30
0.0
  0
VERTEX
  5
57E
  8
1
  6
CONTINUOUS
 62
     7
 10
531.5987190837365
 20
222.2148101985944
 30
0.0
  0
VERTEX
  5
57F
  8
1
  6
CONTINUOUS
 62
     7
 10
531.6078628907472
 20
222.1769412793252
 30
0.0
  0
VERTEX
  5
580
  8
1
  6
CONTINUOUS
 62
     7
 10
531.6187811568416
 20
222.1397442933879
 30
0.0
  0
VERTEX
  5
581
  8
1
  6
CONTINUOUS
 62
     7
 10
531.6314211869446
 20
222.1032999412685
 30
0.0
  0
VERTEX
  5
582
  8
1
  6
CONTINUOUS
 62
     7
 10
531.6457264803937
 20
222.0676858545612
 30
0.0
  0
VERTEX
  5
583
  8
1
  6
CONTINUOUS
 62
     7
 10
531.6616367896822
 20
222.0329764074875
 30
0.0
  0
VERTEX
  5
584
  8
1
  6
CONTINUOUS
 62
     7
 10
531.6790881818735
 20
221.9992425319112
 30
0.0
  0
VERTEX
  5
585
  8
1
  6
CONTINUOUS
 62
     7
 10
531.69801309897
 20
221.9665515353672
 30
0.0
  0
VERTEX
  5
586
  8
1
  6
CONTINUOUS
 62
     7
 10
531.7183404131802
 20
221.9349669213561
 30
0.0
  0
VERTEX
  5
587
  8
1
  6
CONTINUOUS
 62
     7
 10
531.7399954724118
 20
221.904548210965
 30
0.0
  0
VERTEX
  5
588
  8
1
  6
CONTINUOUS
 62
     7
 10
531.7629001305361
 20
221.8753507644894
 30
0.0
  0
VERTEX
  5
589
  8
1
  6
CONTINUOUS
 62
     7
 10
531.7869727558091
 20
221.8474256013552
 30
0.0
  0
VERTEX
  5
58A
  8
1
  6
CONTINUOUS
 62
     7
 10
531.8121282092761
 20
221.8208192161506
 30
0.0
  0
VERTEX
  5
58B
  8
1
  6
CONTINUOUS
 62
     7
 10
531.838277782907
 20
221.7955733878881
 30
0.0
  0
VERTEX
  5
58C
  8
1
  6
CONTINUOUS
 62
     7
 10
531.8653290843093
 20
221.7717249788448
 30
0.0
  0
VERTEX
  5
58D
  8
1
  6
CONTINUOUS
 62
     7
 10
531.8931858509163
 20
221.7493057182774
 30
0.0
  0
VERTEX
  5
58E
  8
1
  6
CONTINUOUS
 62
     7
 10
531.9217476711004
 20
221.7283419649259
 30
0.0
  0
VERTEX
  5
58F
  8
1
  6
CONTINUOUS
 62
     7
 10
531.950909581914
 20
221.708854440532
 30
0.0
  0
VERTEX
  5
590
  8
1
  6
CONTINUOUS
 62
     7
 10
531.9805615020508
 20
221.6908579243669
 30
0.0
  0
VERTEX
  5
591
  8
1
  6
CONTINUOUS
 62
     7
 10
532.0105874422712
 20
221.6743608959418
 30
0.0
  0
VERTEX
  5
592
  8
1
  6
CONTINUOUS
 62
     7
 10
532.0408644103692
 20
221.6593651096658
 30
0.0
  0
VERTEX
  5
593
  8
1
  6
CONTINUOUS
 62
     7
 10
532.0712608871363
 20
221.6458650813236
 30
0.0
  0
VERTEX
  5
594
  8
1
  6
CONTINUOUS
 62
     7
 10
532.1016346789041
 20
221.6338474627106
 30
0.0
  0
VERTEX
  5
595
  8
1
  6
CONTINUOUS
 62
     7
 10
532.1318298155018
 20
221.6232902801107
 30
0.0
  0
VERTEX
  5
596
  8
1
  6
CONTINUOUS
 62
     7
 10
532.1616718630431
 20
221.6141620220418
 30
0.0
  0
VERTEX
  5
597
  8
1
  6
CONTINUOUS
 62
     7
 10
532.1909602676637
 20
221.6064206030841
 30
0.0
  0
VERTEX
  5
598
  8
1
  6
CONTINUOUS
 62
     7
 10
532.2194541727001
 20
221.6000123649521
 30
0.0
  0
VERTEX
  5
599
  8
1
  6
CONTINUOUS
 62
     7
 10
532.246841099161
 20
221.5948716751335
 30
0.0
  0
VERTEX
  5
59A
  8
1
  6
CONTINUOUS
 62
     7
 10
532.2726534747553
 20
221.5909227294819
 30
0.0
  0
VERTEX
  5
59B
  8
1
  6
CONTINUOUS
 62
     7
 10
532.2960246435193
 20
221.5880862903059
 30
0.0
  0
VERTEX
  5
59C
  8
1
  6
CONTINUOUS
 62
     7
 10
532.315193340006
 20
221.5862785905306
 30
0.0
  0
VERTEX
  5
59D
  8
1
  6
CONTINUOUS
 62
     7
 10
532.321891551577
 20
221.5857564499882
 30
0.0
  0
SEQEND
  5
66E
  8
1
  6
CONTINUOUS
 62
     7
  0
LINE
  5
23D
  8
1
  6
CONTINUOUS
 62
     7
 10
531.5807119979471
 20
222.5841758922788
 30
0.0
 11
531.5807119979509
 21
222.3835913689586
 31
0.0
  0
LINE
  5
23E
  8
1
  6
CONTINUOUS
 62
     7
 10
547.4807119979508
 20
222.3835913692575
 30
0.0
 11
547.4807119979471
 21
222.5841758925776
 31
0.0
  0
ARC
  5
23F
  8
1
  6
CONTINUOUS
 62
     7
 10
523.4307119993695
 20
278.0843128030921
 30
0.0
 40
6.499999999999997
 50
199.7831703734814
 51
217.9798724456684
  0
ARC
  5
240
  8
1
  6
CONTINUOUS
 62
     7
 10
523.4307119993695
 20
278.0843128030921
 30
0.0
 40
6.500000000000021
 50
142.0201275559844
 51
160.2168296281714
  0
LINE
  5
241
  8
1
  6
CONTINUOUS
 62
     7
 10
520.0307119993104
 20
282.0843128030434
 30
0.0
 11
518.3072366163299
 21
282.0843128030185
 31
0.0
  0
LINE
  5
242
  8
1
  6
CONTINUOUS
 62
     7
 10
518.3072366164452
 20
274.0843128030179
 30
0.0
 11
520.0307119994258
 21
274.0843128030427
 31
0.0
  0
ARC
  5
243
  8
1
  6
CONTINUOUS
 62
     7
 10
523.4307119945731
 20
278.1096064375498
 30
0.0
 40
6.500000000000043
 50
142.0201275559038
 51
160.2168296281125
  0
LINE
  5
244
  8
1
  6
CONTINUOUS
 62
     7
 10
520.0307119945221
 20
282.1096064375045
 30
0.0
 11
518.3072366115423
 21
282.1096064374825
 31
0.0
  0
LINE
  5
245
  8
1
  6
CONTINUOUS
 62
     7
 10
572.5307119972234
 20
261.0835912247085
 30
0.0
 11
573.030711997214
 21
261.583591224718
 31
0.0
  0
LINE
  5
246
  8
1
  6
CONTINUOUS
 62
     7
 10
573.0307119965936
 20
294.5835912247172
 30
0.0
 11
572.5307119965843
 21
295.0835912247077
 31
0.0
  0
LINE
  5
247
  8
1
  6
CONTINUOUS
 62
     7
 10
572.5307119965843
 20
295.0835912247077
 30
0.0
 11
570.5307119965842
 21
295.0835912246702
 31
0.0
  0
LINE
  5
248
  8
1
  6
CONTINUOUS
 62
     7
 10
570.5307119972234
 20
261.083591224671
 30
0.0
 11
572.5307119972234
 21
261.0835912247086
 31
0.0
  0
ARC
  5
249
  8
1
  6
CONTINUOUS
 62
     7
 10
570.530711997214
 20
261.5835912246714
 30
0.0
 40
0.4999999999999449
 50
180.0000000011219
 51
270.0000000010774
  0
ARC
  5
24A
  8
1
  6
CONTINUOUS
 62
     7
 10
570.5307119965937
 20
294.5835912246698
 30
0.0
 40
0.5000000000000004
 50
90.00000000107661
 51
180.0000000010321
  0
LINE
  5
24B
  8
1
  6
CONTINUOUS
 62
     7
 10
525.5307120337027
 20
259.3835911996136
 30
0.0
 11
525.8307120329273
 21
259.0835912019623
 31
0.0
  0
LINE
  5
24C
  8
1
  6
CONTINUOUS
 62
     7
 10
553.2307119615947
 20
259.0835912024774
 30
0.0
 11
553.5307119608079
 21
259.38359120014
 31
0.0
  0
LINE
  5
24D
  8
1
  6
CONTINUOUS
 62
     7
 10
525.5307119972422
 20
260.083591270686
 30
0.0
 11
525.5307119972554
 21
259.3835912725083
 31
0.0
  0
LINE
  5
24E
  8
1
  6
CONTINUOUS
 62
     7
 10
553.5307119972554
 20
259.3835912730347
 30
0.0
 11
553.5307119972421
 21
260.0835912712124
 31
0.0
  0
LINE
  5
24F
  8
1
  6
CONTINUOUS
 62
     7
 10
553.5307119607949
 20
260.0835913441071
 30
0.0
 11
553.030711962087
 21
260.5835913401926
 31
0.0
  0
LINE
  5
250
  8
1
  6
CONTINUOUS
 62
     7
 10
526.0307120323785
 20
260.583591339685
 30
0.0
 11
525.5307120336896
 21
260.0835913435808
 31
0.0
  0
LINE
  5
251
  8
1
  6
CONTINUOUS
 62
     7
 10
525.5307120336707
 20
261.0835911951879
 30
0.0
 11
526.0307120323783
 21
260.5835911991023
 31
0.0
  0
LINE
  5
252
  8
1
  6
CONTINUOUS
 62
     7
 10
553.030711962087
 20
260.5835911996099
 30
0.0
 11
553.530711960776
 21
261.0835911957142
 31
0.0
  0
LINE
  5
253
  8
1
  6
CONTINUOUS
 62
     7
 10
525.530711997214
 20
261.5835912667809
 30
0.0
 11
525.5307119972234
 21
261.0835912680826
 31
0.0
  0
LINE
  5
254
  8
1
  6
CONTINUOUS
 62
     7
 10
553.5307119972233
 20
261.0835912686089
 30
0.0
 11
553.5307119972139
 21
261.5835912673072
 31
0.0
  0
POLYLINE
  5
255
  8
1
  6
CONTINUOUS
 62
     7
 66
     1
 10
0.0
 20
0.0
 30
0.0
  0
VERTEX
  5
59E
  8
1
  6
CONTINUOUS
 62
     7
 10
525.9627885187115
 20
262.078956440178
 30
0.0
  0
VERTEX
  5
59F
  8
1
  6
CONTINUOUS
 62
     7
 10
525.9471387767785
 20
262.0765575143355
 30
0.0
  0
VERTEX
  5
5A0
  8
1
  6
CONTINUOUS
 62
     7
 10
525.9281927395809
 20
262.0729683872379
 30
0.0
  0
VERTEX
  5
5A1
  8
1
  6
CONTINUOUS
 62
     7
 10
525.9083944306734
 20
262.0683990101103
 30
0.0
  0
VERTEX
  5
5A2
  8
1
  6
CONTINUOUS
 62
     7
 10
525.8880659312126
 20
262.0628116889545
 30
0.0
  0
VERTEX
  5
5A3
  8
1
  6
CONTINUOUS
 62
     7
 10
525.8673756367457
 20
262.0561601289199
 30
0.0
  0
VERTEX
  5
5A4
  8
1
  6
CONTINUOUS
 62
     7
 10
525.846557999703
 20
262.048443273004
 30
0.0
  0
VERTEX
  5
5A5
  8
1
  6
CONTINUOUS
 62
     7
 10
525.8258050592483
 20
262.0396759279338
 30
0.0
  0
VERTEX
  5
5A6
  8
1
  6
CONTINUOUS
 62
     7
 10
525.8052624371994
 20
262.0298787951706
 30
0.0
  0
VERTEX
  5
5A7
  8
1
  6
CONTINUOUS
 62
     7
 10
525.7850421932053
 20
262.0190753671432
 30
0.0
  0
VERTEX
  5
5A8
  8
1
  6
CONTINUOUS
 62
     7
 10
525.7652341759241
 20
262.007291129825
 30
0.0
  0
VERTEX
  5
5A9
  8
1
  6
CONTINUOUS
 62
     7
 10
525.7459135485825
 20
261.9945534126637
 30
0.0
  0
VERTEX
  5
5AA
  8
1
  6
CONTINUOUS
 62
     7
 10
525.7271454470975
 20
261.9808913878577
 30
0.0
  0
VERTEX
  5
5AB
  8
1
  6
CONTINUOUS
 62
     7
 10
525.7089878327637
 20
261.9663360825815
 30
0.0
  0
VERTEX
  5
5AC
  8
1
  6
CONTINUOUS
 62
     7
 10
525.6914932540498
 20
261.9509203729687
 30
0.0
  0
VERTEX
  5
5AD
  8
1
  6
CONTINUOUS
 62
     7
 10
525.674709949264
 20
261.9346789569663
 30
0.0
  0
VERTEX
  5
5AE
  8
1
  6
CONTINUOUS
 62
     7
 10
525.6586825450087
 20
261.9176483094887
 30
0.0
  0
VERTEX
  5
5AF
  8
1
  6
CONTINUOUS
 62
     7
 10
525.6434525018942
 20
261.8998666237833
 30
0.0
  0
VERTEX
  5
5B0
  8
1
  6
CONTINUOUS
 62
     7
 10
525.6290583990673
 20
261.8813737421214
 30
0.0
  0
VERTEX
  5
5B1
  8
1
  6
CONTINUOUS
 62
     7
 10
525.6155361141386
 20
261.8622110781024
 30
0.0
  0
VERTEX
  5
5B2
  8
1
  6
CONTINUOUS
 62
     7
 10
525.6029189342415
 20
261.8424215321775
 30
0.0
  0
VERTEX
  5
5B3
  8
1
  6
CONTINUOUS
 62
     7
 10
525.5912376213479
 20
261.8220494015895
 30
0.0
  0
VERTEX
  5
5B4
  8
1
  6
CONTINUOUS
 62
     7
 10
525.5805204470764
 20
261.8011402855755
 30
0.0
  0
VERTEX
  5
5B5
  8
1
  6
CONTINUOUS
 62
     7
 10
525.569788684997
 20
261.7773687318923
 30
0.0
  0
VERTEX
  5
5B6
  8
1
  6
CONTINUOUS
 62
     7
 10
525.5603447803092
 20
261.7531633327634
 30
0.0
  0
VERTEX
  5
5B7
  8
1
  6
CONTINUOUS
 62
     7
 10
525.5522193798158
 20
261.72865958927
 30
0.0
  0
VERTEX
  5
5B8
  8
1
  6
CONTINUOUS
 62
     7
 10
525.5454076378543
 20
261.7039228124616
 30
0.0
  0
VERTEX
  5
5B9
  8
1
  6
CONTINUOUS
 62
     7
 10
525.5399023670964
 20
261.6790161497503
 30
0.0
  0
VERTEX
  5
5BA
  8
1
  6
CONTINUOUS
 62
     7
 10
525.5356945306702
 20
261.6540022639464
 30
0.0
  0
VERTEX
  5
5BB
  8
1
  6
CONTINUOUS
 62
     7
 10
525.5327730453658
 20
261.6289432295112
 30
0.0
  0
VERTEX
  5
5BC
  8
1
  6
CONTINUOUS
 62
     7
 10
525.5311246279366
 20
261.6039003907641
 30
0.0
  0
VERTEX
  5
5BD
  8
1
  6
CONTINUOUS
 62
     7
 10
525.5307119972161
 20
261.5835927452401
 30
0.0
  0
SEQEND
  5
66F
  8
1
  6
CONTINUOUS
 62
     7
  0
POLYLINE
  5
256
  8
1
  6
CONTINUOUS
 62
     7
 66
     1
 10
0.0
 20
0.0
 30
0.0
  0
VERTEX
  5
5BE
  8
1
  6
CONTINUOUS
 62
     7
 10
553.5307119972132
 20
261.5835903690094
 30
0.0
  0
VERTEX
  5
5BF
  8
1
  6
CONTINUOUS
 62
     7
 10
553.5307086938401
 20
261.5854087830122
 30
0.0
  0
VERTEX
  5
5C0
  8
1
  6
CONTINUOUS
 62
     7
 10
553.5300004137893
 20
261.6102572976333
 30
0.0
  0
VERTEX
  5
5C1
  8
1
  6
CONTINUOUS
 62
     7
 10
553.5280705935339
 20
261.6349179371588
 30
0.0
  0
VERTEX
  5
5C2
  8
1
  6
CONTINUOUS
 62
     7
 10
553.5249418169569
 20
261.6593335018357
 30
0.0
  0
VERTEX
  5
5C3
  8
1
  6
CONTINUOUS
 62
     7
 10
553.5206391323109
 20
261.6834481835649
 30
0.0
  0
VERTEX
  5
5C4
  8
1
  6
CONTINUOUS
 62
     7
 10
553.5151900474972
 20
261.7072076942438
 30
0.0
  0
VERTEX
  5
5C5
  8
1
  6
CONTINUOUS
 62
     7
 10
553.508624513916
 20
261.7305593915851
 30
0.0
  0
VERTEX
  5
5C6
  8
1
  6
CONTINUOUS
 62
     7
 10
553.5009749014639
 20
261.753452402344
 30
0.0
  0
VERTEX
  5
5C7
  8
1
  6
CONTINUOUS
 62
     7
 10
553.4922759669867
 20
261.775837743042
 30
0.0
  0
VERTEX
  5
5C8
  8
1
  6
CONTINUOUS
 62
     7
 10
553.4825648184008
 20
261.7976684382311
 30
0.0
  0
VERTEX
  5
5C9
  8
1
  6
CONTINUOUS
 62
     7
 10
553.4718808766714
 20
261.818899636508
 30
0.0
  0
VERTEX
  5
5CA
  8
1
  6
CONTINUOUS
 62
     7
 10
553.4602658379837
 20
261.8394887244865
 30
0.0
  0
VERTEX
  5
5CB
  8
1
  6
CONTINUOUS
 62
     7
 10
553.4477636385877
 20
261.8593954392173
 30
0.0
  0
VERTEX
  5
5CC
  8
1
  6
CONTINUOUS
 62
     7
 10
553.4344204252338
 20
261.8785819795195
 30
0.0
  0
VERTEX
  5
5CD
  8
1
  6
CONTINUOUS
 62
     7
 10
553.4202845345919
 20
261.8970131169596
 30
0.0
  0
VERTEX
  5
5CE
  8
1
  6
CONTINUOUS
 62
     7
 10
553.4054064857492
 20
261.9146563074677
 30
0.0
  0
VERTEX
  5
5CF
  8
1
  6
CONTINUOUS
 62
     7
 10
553.3898389910145
 20
261.9314818046978
 30
0.0
  0
VERTEX
  5
5D0
  8
1
  6
CONTINUOUS
 62
     7
 10
553.3736369915582
 20
261.9474627767531
 30
0.0
  0
VERTEX
  5
5D1
  8
1
  6
CONTINUOUS
 62
     7
 10
553.3568577266261
 20
261.9625754281032
 30
0.0
  0
VERTEX
  5
5D2
  8
1
  6
CONTINUOUS
 62
     7
 10
553.3395608479681
 20
261.9767991290914
 30
0.0
  0
VERTEX
  5
5D3
  8
1
  6
CONTINUOUS
 62
     7
 10
553.3218085957577
 20
261.9901165558377
 30
0.0
  0
VERTEX
  5
5D4
  8
1
  6
CONTINUOUS
 62
     7
 10
553.3036660593455
 20
262.0025138438676
 30
0.0
  0
VERTEX
  5
5D5
  8
1
  6
CONTINUOUS
 62
     7
 10
553.285201557953
 20
262.0139807590814
 30
0.0
  0
VERTEX
  5
5D6
  8
1
  6
CONTINUOUS
 62
     7
 10
553.2664871969733
 20
262.0245108893806
 30
0.0
  0
VERTEX
  5
5D7
  8
1
  6
CONTINUOUS
 62
     7
 10
553.2475996938125
 20
262.0341018585625
 30
0.0
  0
VERTEX
  5
5D8
  8
1
  6
CONTINUOUS
 62
     7
 10
553.2286216443124
 20
262.0427555586645
 30
0.0
  0
VERTEX
  5
5D9
  8
1
  6
CONTINUOUS
 62
     7
 10
553.2096435674131
 20
262.0504783830105
 30
0.0
  0
VERTEX
  5
5DA
  8
1
  6
CONTINUOUS
 62
     7
 10
553.1907674538409
 20
262.0572814079442
 30
0.0
  0
VERTEX
  5
5DB
  8
1
  6
CONTINUOUS
 62
     7
 10
553.1721135102368
 20
262.0631803898304
 30
0.0
  0
VERTEX
  5
5DC
  8
1
  6
CONTINUOUS
 62
     7
 10
553.1538343134036
 20
262.068195259572
 30
0.0
  0
VERTEX
  5
5DD
  8
1
  6
CONTINUOUS
 62
     7
 10
553.1361471860147
 20
262.0723484464987
 30
0.0
  0
VERTEX
  5
5DE
  8
1
  6
CONTINUOUS
 62
     7
 10
553.119410150362
 20
262.075661211017
 30
0.0
  0
VERTEX
  5
5DF
  8
1
  6
CONTINUOUS
 62
     7
 10
553.1042708701605
 20
262.0781509966861
 30
0.0
  0
VERTEX
  5
5E0
  8
1
  6
CONTINUOUS
 62
     7
 10
553.0981691890593
 20
262.0790201552592
 30
0.0
  0
SEQEND
  5
670
  8
1
  6
CONTINUOUS
 62
     7
  0
ARC
  5
257
  8
1
  6
CONTINUOUS
 62
     7
 10
569.030711997167
 20
264.083591224643
 30
0.0
 40
1.000000000000001
 50
0.0000000010580266
 51
90.00000000107701
  0
ARC
  5
258
  8
1
  6
CONTINUOUS
 62
     7
 10
569.0307119966407
 20
292.0835912246417
 30
0.0
 40
1.000000000000001
 50
270.000000001077
 51
0.0000000010958843
  0
LINE
  5
259
  8
1
  6
CONTINUOUS
 62
     7
 10
556.5307119971482
 20
265.0835912244077
 30
0.0
 11
569.0307119971482
 21
265.0835912246426
 31
0.0
  0
LINE
  5
25A
  8
1
  6
CONTINUOUS
 62
     7
 10
569.0307119966594
 20
291.0835912246421
 30
0.0
 11
556.5307119966594
 21
291.0835912244071
 31
0.0
  0
ARC
  5
25B
  8
1
  6
CONTINUOUS
 62
     7
 10
556.5307119971387
 20
265.583591224408
 30
0.0
 40
0.4999999999999449
 50
180.000000001111
 51
270.000000001077
  0
ARC
  5
25C
  8
1
  6
CONTINUOUS
 62
     7
 10
556.5307119966689
 20
290.5835912244068
 30
0.0
 40
0.5000000000000004
 50
90.00000000107701
 51
180.0000000010428
  0
ARC
  5
25D
  8
1
  6
CONTINUOUS
 62
     7
 10
555.5307119971347
 20
265.7949160897944
 30
0.0
 40
0.5000000000000369
 50
0.0000000010434178
 51
60.00000000105985
  0
ARC
  5
25E
  8
1
  6
CONTINUOUS
 62
     7
 10
555.5307119966728
 20
290.3722663589828
 30
0.0
 40
0.500000000000056
 50
300.0000000010942
 51
0.0000000011108341
  0
LINE
  5
25F
  8
1
  6
CONTINUOUS
 62
     7
 10
555.780711996681
 20
289.9392536570956
 30
0.0
 11
550.8629722650747
 21
287.099995299125
 31
0.0
  0
LINE
  5
260
  8
1
  6
CONTINUOUS
 62
     7
 10
550.8345595743663
 20
269.0835912243005
 30
0.0
 11
555.7807119971267
 21
266.227928791691
 31
0.0
  0
POLYLINE
  5
261
  8
1
  6
CONTINUOUS
 62
     7
 66
     1
 10
0.0
 20
0.0
 30
0.0
  0
VERTEX
  5
5E1
  8
1
  6
CONTINUOUS
 62
     7
 10
549.4681760129782
 20
262.0855489689886
 30
0.0
  0
VERTEX
  5
5E2
  8
1
  6
CONTINUOUS
 62
     7
 10
549.3591404453051
 20
262.0984197513338
 30
0.0
  0
VERTEX
  5
5E3
  8
1
  6
CONTINUOUS
 62
     7
 10
549.2419151966302
 20
262.1262009339763
 30
0.0
  0
VERTEX
  5
5E4
  8
1
  6
CONTINUOUS
 62
     7
 10
549.1172069410327
 20
262.1730894982829
 30
0.0
  0
VERTEX
  5
5E5
  8
1
  6
CONTINUOUS
 62
     7
 10
548.9962231391974
 20
262.2384157838554
 30
0.0
  0
VERTEX
  5
5E6
  8
1
  6
CONTINUOUS
 62
     7
 10
548.8840381210492
 20
262.3208246862687
 30
0.0
  0
VERTEX
  5
5E7
  8
1
  6
CONTINUOUS
 62
     7
 10
548.7838250872392
 20
262.4186402027772
 30
0.0
  0
VERTEX
  5
5E8
  8
1
  6
CONTINUOUS
 62
     7
 10
548.6979968498528
 20
262.5298896611691
 30
0.0
  0
SEQEND
  5
671
  8
1
  6
CONTINUOUS
 62
     7
  0
ARC
  5
262
  8
1
  6
CONTINUOUS
 62
     7
 10
549.5307119369459
 20
263.0835912624382
 30
0.0
 40
0.9999999397602612
 50
179.9896230616991
 51
213.6213330876141
  0
POLYLINE
  5
263
  8
1
  6
CONTINUOUS
 62
     7
 66
     1
 10
0.0
 20
0.0
 30
0.0
  0
VERTEX
  5
5E9
  8
1
  6
CONTINUOUS
 62
     7
 10
530.530711980243
 20
263.083407182899
 30
0.0
  0
VERTEX
  5
5EA
  8
1
  6
CONTINUOUS
 62
     7
 10
530.5305387798875
 20
263.0649793158678
 30
0.0
  0
VERTEX
  5
5EB
  8
1
  6
CONTINUOUS
 62
     7
 10
530.528383114278
 20
263.0153831851504
 30
0.0
  0
VERTEX
  5
5EC
  8
1
  6
CONTINUOUS
 62
     7
 10
530.5237974412029
 20
262.9661974804971
 30
0.0
  0
VERTEX
  5
5ED
  8
1
  6
CONTINUOUS
 62
     7
 10
530.5168284094805
 20
262.9175357904509
 30
0.0
  0
VERTEX
  5
5EE
  8
1
  6
CONTINUOUS
 62
     7
 10
530.5075275963663
 20
262.8695088424801
 30
0.0
  0
VERTEX
  5
5EF
  8
1
  6
CONTINUOUS
 62
     7
 10
530.4959514906163
 20
262.8222242477465
 30
0.0
  0
VERTEX
  5
5F0
  8
1
  6
CONTINUOUS
 62
     7
 10
530.482161454277
 20
262.7757862509453
 30
0.0
  0
VERTEX
  5
5F1
  8
1
  6
CONTINUOUS
 62
     7
 10
530.4662236681454
 20
262.7302954852359
 30
0.0
  0
VERTEX
  5
5F2
  8
1
  6
CONTINUOUS
 62
     7
 10
530.4482090654393
 20
262.6858487321996
 30
0.0
  0
VERTEX
  5
5F3
  8
1
  6
CONTINUOUS
 62
     7
 10
530.4281932580212
 20
262.6425386865345
 30
0.0
  0
VERTEX
  5
5F4
  8
1
  6
CONTINUOUS
 62
     7
 10
530.4062564595923
 20
262.6004537251133
 30
0.0
  0
VERTEX
  5
5F5
  8
1
  6
CONTINUOUS
 62
     7
 10
530.3824834104976
 20
262.5596776797275
 30
0.0
  0
VERTEX
  5
5F6
  8
1
  6
CONTINUOUS
 62
     7
 10
530.3569633092883
 20
262.520289612631
 30
0.0
  0
VERTEX
  5
5F7
  8
1
  6
CONTINUOUS
 62
     7
 10
530.3297897569214
 20
262.4823635936422
 30
0.0
  0
VERTEX
  5
5F8
  8
1
  6
CONTINUOUS
 62
     7
 10
530.3010607205008
 20
262.4459684771226
 30
0.0
  0
VERTEX
  5
5F9
  8
1
  6
CONTINUOUS
 62
     7
 10
530.2708785249781
 20
262.4111676767133
 30
0.0
  0
VERTEX
  5
5FA
  8
1
  6
CONTINUOUS
 62
     7
 10
530.2393498831652
 20
262.3780189349959
 30
0.0
  0
VERTEX
  5
5FB
  8
1
  6
CONTINUOUS
 62
     7
 10
530.2065859771436
 20
262.3465740844744
 30
0.0
  0
VERTEX
  5
5FC
  8
1
  6
CONTINUOUS
 62
     7
 10
530.1727026078579
 20
262.3168787952472
 30
0.0
  0
VERTEX
  5
5FD
  8
1
  6
CONTINUOUS
 62
     7
 10
530.1378204347442
 20
262.2889723033907
 30
0.0
  0
VERTEX
  5
5FE
  8
1
  6
CONTINUOUS
 62
     7
 10
530.1020653343987
 20
262.262887112435
 30
0.0
  0
VERTEX
  5
5FF
  8
1
  6
CONTINUOUS
 62
     7
 10
530.0655689173191
 20
262.238648658104
 30
0.0
  0
VERTEX
  5
600
  8
1
  6
CONTINUOUS
 62
     7
 10
530.0284692564433
 20
262.2162749237939
 30
0.0
  0
VERTEX
  5
601
  8
1
  6
CONTINUOUS
 62
     7
 10
529.9909119031071
 20
262.1957759908307
 30
0.0
  0
VERTEX
  5
602
  8
1
  6
CONTINUOUS
 62
     7
 10
529.9530513003477
 20
262.1771535035263
 30
0.0
  0
VERTEX
  5
603
  8
1
  6
CONTINUOUS
 62
     7
 10
529.9150527604864
 20
262.1604000247969
 30
0.0
  0
VERTEX
  5
604
  8
1
  6
CONTINUOUS
 62
     7
 10
529.8770952768248
 20
262.1454982551401
 30
0.0
  0
VERTEX
  5
605
  8
1
  6
CONTINUOUS
 62
     7
 10
529.8393756458678
 20
262.1324200904661
 30
0.0
  0
VERTEX
  5
606
  8
1
  6
CONTINUOUS
 62
     7
 10
529.8021148464376
 20
262.1211255151434
 30
0.0
  0
VERTEX
  5
607
  8
1
  6
CONTINUOUS
 62
     7
 10
529.7655688412992
 20
262.1115614006002
 30
0.0
  0
VERTEX
  5
608
  8
1
  6
CONTINUOUS
 62
     7
 10
529.7300495490334
 20
262.103660505398
 30
0.0
  0
VERTEX
  5
609
  8
1
  6
CONTINUOUS
 62
     7
 10
529.6959733633761
 20
262.0973416118047
 30
0.0
  0
VERTEX
  5
60A
  8
1
  6
CONTINUOUS
 62
     7
 10
529.663993454607
 20
262.0925132289972
 30
0.0
  0
VERTEX
  5
60B
  8
1
  6
CONTINUOUS
 62
     7
 10
529.6353695301499
 20
262.0890831892118
 30
0.0
  0
VERTEX
  5
60C
  8
1
  6
CONTINUOUS
 62
     7
 10
529.6125114286887
 20
262.0869427688863
 30
0.0
  0
VERTEX
  5
60D
  8
1
  6
CONTINUOUS
 62
     7
 10
529.5993294406119
 20
262.0859485958656
 30
0.0
  0
VERTEX
  5
60E
  8
1
  6
CONTINUOUS
 62
     7
 10
529.593248893408
 20
262.0855490257525
 30
0.0
  0
SEQEND
  5
672
  8
1
  6
CONTINUOUS
 62
     7
  0
LINE
  5
264
  8
1
  6
CONTINUOUS
 62
     7
 10
530.6521799267182
 20
272.1121757615585
 30
0.0
 11
530.5307119970543
 21
270.0835912447459
 31
0.0
  0
LINE
  5
265
  8
1
  6
CONTINUOUS
 62
     7
 10
530.5307119970543
 20
270.0835912447458
 30
0.0
 11
530.5307119971858
 21
263.0835912629698
 31
0.0
  0
LINE
  5
266
  8
1
  6
CONTINUOUS
 62
     7
 10
548.5307119971858
 20
263.0835912633081
 30
0.0
 11
548.5307119970918
 21
268.0835912502911
 31
0.0
  0
LINE
  5
267
  8
1
  6
CONTINUOUS
 62
     7
 10
549.5307119710392
 20
269.083591224276
 30
0.0
 11
550.8345595743662
 21
269.0835912243005
 31
0.0
  0
POLYLINE
  5
268
  8
1
  6
CONTINUOUS
 62
     7
 66
     1
 10
0.0
 20
0.0
 30
0.0
  0
VERTEX
  5
60F
  8
1
  6
CONTINUOUS
 62
     7
 10
548.5307119970843
 20
268.0835912511432
 30
0.0
  0
VERTEX
  5
610
  8
1
  6
CONTINUOUS
 62
     7
 10
548.5319165408816
 20
268.1326589238776
 30
0.0
  0
VERTEX
  5
611
  8
1
  6
CONTINUOUS
 62
     7
 10
548.5355272703722
 20
268.1816083883519
 30
0.0
  0
VERTEX
  5
612
  8
1
  6
CONTINUOUS
 62
     7
 10
548.5415354869936
 20
268.2303217210124
 30
0.0
  0
VERTEX
  5
613
  8
1
  6
CONTINUOUS
 62
     7
 10
548.5499267164262
 20
268.2786815671678
 30
0.0
  0
VERTEX
  5
614
  8
1
  6
CONTINUOUS
 62
     7
 10
548.5606807434636
 20
268.3265714237068
 30
0.0
  0
VERTEX
  5
615
  8
1
  6
CONTINUOUS
 62
     7
 10
548.5737716607129
 20
268.3738759197643
 30
0.0
  0
VERTEX
  5
616
  8
1
  6
CONTINUOUS
 62
     7
 10
548.589167931007
 20
268.4204810946605
 30
0.0
  0
VERTEX
  5
617
  8
1
  6
CONTINUOUS
 62
     7
 10
548.6068324633816
 20
268.4662746724416
 30
0.0
  0
VERTEX
  5
618
  8
1
  6
CONTINUOUS
 62
     7
 10
548.6267227024296
 20
268.5111463323623
 30
0.0
  0
VERTEX
  5
619
  8
1
  6
CONTINUOUS
 62
     7
 10
548.6487907308215
 20
268.5549879746588
 30
0.0
  0
VERTEX
  5
61A
  8
1
  6
CONTINUOUS
 62
     7
 10
548.6729833847419
 20
268.5976939809704
 30
0.0
  0
VERTEX
  5
61B
  8
1
  6
CONTINUOUS
 62
     7
 10
548.6992423819662
 20
268.6391614687827
 30
0.0
  0
VERTEX
  5
61C
  8
1
  6
CONTINUOUS
 62
     7
 10
548.7275044622675
 20
268.6792905392818
 30
0.0
  0
VERTEX
  5
61D
  8
1
  6
CONTINUOUS
 62
     7
 10
548.7577015398156
 20
268.7179845180183
 30
0.0
  0
VERTEX
  5
61E
  8
1
  6
CONTINUOUS
 62
     7
 10
548.7897608672026
 20
268.7551501878053
 30
0.0
  0
VERTEX
  5
61F
  8
1
  6
CONTINUOUS
 62
     7
 10
548.8236052106973
 20
268.790698013286
 30
0.0
  0
VERTEX
  5
620
  8
1
  6
CONTINUOUS
 62
     7
 10
548.8591530363079
 20
268.8245423566329
 30
0.0
  0
VERTEX
  5
621
  8
1
  6
CONTINUOUS
 62
     7
 10
548.8963187062047
 20
268.8566016838567
 30
0.0
  0
VERTEX
  5
622
  8
1
  6
CONTINUOUS
 62
     7
 10
548.9350126850293
 20
268.8867987612284
 30
0.0
  0
VERTEX
  5
623
  8
1
  6
CONTINUOUS
 62
     7
 10
548.9751417555927
 20
268.9150608413427
 30
0.0
  0
VERTEX
  5
624
  8
1
  6
CONTINUOUS
 62
     7
 10
549.0166092434448
 20
268.9413198383725
 30
0.0
  0
VERTEX
  5
625
  8
1
  6
CONTINUOUS
 62
     7
 10
549.0593152497701
 20
268.9655124920936
 30
0.0
  0
VERTEX
  5
626
  8
1
  6
CONTINUOUS
 62
     7
 10
549.1031568920536
 20
268.9875805202848
 30
0.0
  0
VERTEX
  5
627
  8
1
  6
CONTINUOUS
 62
     7
 10
549.148028551934
 20
269.0074707591336
 30
0.0
  0
VERTEX
  5
628
  8
1
  6
CONTINUOUS
 62
     7
 10
549.1938221296471
 20
269.0251352913137
 30
0.0
  0
VERTEX
  5
629
  8
1
  6
CONTINUOUS
 62
     7
 10
549.2404273044478
 20
269.0405315614214
 30
0.0
  0
VERTEX
  5
62A
  8
1
  6
CONTINUOUS
 62
     7
 10
549.287731800383
 20
269.0536224784955
 30
0.0
  0
VERTEX
  5
62B
  8
1
  6
CONTINUOUS
 62
     7
 10
549.3356216567728
 20
269.0643765053725
 30
0.0
  0
VERTEX
  5
62C
  8
1
  6
CONTINUOUS
 62
     7
 10
549.3839815027536
 20
269.0727677346625
 30
0.0
  0
VERTEX
  5
62D
  8
1
  6
CONTINUOUS
 62
     7
 10
549.4326948352152
 20
269.0787759511624
 30
0.0
  0
VERTEX
  5
62E
  8
1
  6
CONTINUOUS
 62
     7
 10
549.481644299468
 20
269.0823866805559
 30
0.0
  0
VERTEX
  5
62F
  8
1
  6
CONTINUOUS
 62
     7
 10
549.53071197196
 20
269.0835912242835
 30
0.0
  0
SEQEND
  5
673
  8
1
  6
CONTINUOUS
 62
     7
  0
ARC
  5
269
  8
1
  6
CONTINUOUS
 62
     7
 10
551.145723564268
 20
290.097761153095
 30
0.0
 40
3.011169402717189
 50
239.0718284471704
 51
264.8239742923597
  0
LINE
  5
26A
  8
1
  6
CONTINUOUS
 62
     7
 10
549.5980936372408
 20
287.514742999688
 30
0.0
 11
549.5880219252996
 21
287.5210505245949
 31
0.0
  0
LINE
  5
26B
  8
1
  6
CONTINUOUS
 62
     7
 10
529.5307119922625
 20
272.1121142261079
 30
0.0
 11
530.6522122062066
 21
272.112114226129
 31
0.0
  0
ENDBLK
  8
0
  0
ENDSEC
  0
SECTION
  2
ENTITIES
  0
POINT
  5
70
  8
1
 62
     7
 10
475.0
 20
310.0000000000001
 30
0.0
  0
POINT
  5
71
  8
1
 62
     1
 10
475.0
 20
218.3333333333333
 30
0.0
  0
POINT
  5
72
  8
1
 62
     1
 10
505.4999792077734
 20
278.0640778955828
 30
0.0
  0
POINT
  5
73
  8
1
 62
     1
 10
475.0
 20
298.3333333333333
 30
0.0
  0
POINT
  5
74
  8
1
 62
     7
 10
475.0
 20
375.0
 30
0.0
  0
LINE
  5
75
  8
1
  6
CENTER
 62
     1
 10
475.0012187134909
 20
310.0000000000001
 30
0.0
 11
475.0012187134909
 21
375.0
 31
0.0
  0
LINE
  5
77
  8
1
  6
CENTER
 62
     1
 10
475.0126468192693
 20
218.3333333333333
 30
0.0
 11
475.0126468192693
 21
298.3333333333333
 31
0.0
  0
LINE
  5
78
  8
1
  6
CENTER
 62
     1
 10
539.5307119969041
 20
278.0640778955828
 30
0.0
 11
539.5307119980271
 21
218.3333333333245
 31
0.0
  0
INSERT
  5
114
  8
1
  6
CONTINUOUS
 62
     7
  2
D_FRAME_VIEW_1491
 10
0.0
 20
0.0
 30
0.0
  0
INSERT
  5
19E
  8
1
  6
CONTINUOUS
 62
     7
  2
D_FRAME_VIEW_2212
 10
0.0
 20
0.0
 30
0.0
  0
INSERT
  5
26C
  8
1
  6
CONTINUOUS
 62
     7
  2
D_FRAME_VIEW_1854
 10
0.0
 20
0.0
 30
0.0
  0
TEXT
  5
26D
  8
1
  6
CONTINUOUS
 62
     7
 10
525.0514880580217
 20
308.0185715476637
 30
0.0
 40
3.0
  1
SKE-16H-15T
  0
LINE
  5
26E
  8
1
  6
CENTER
 62
     1
 10
513.969288002786
 20
278.0640778955828
 30
0.0
 11
576.030711997214
 21
278.0640778955828
 31
0.0
  0
LINE
  5
26F
  8
1
  6
CENTER
 62
     1
 10
478.9999920053498
 20
278.0843128030182
 30
0.0
 11
490.9999920053498
 21
278.0843128030182
 31
0.0
  0
LINE
  5
270
  8
1
  6
CENTER
 62
     1
 10
444.5000207927059
 20
278.1298413451873
 30
0.0
 11
453.5000207927059
 21
278.1298413451873
 31
0.0
  0
LINE
  5
271
  8
1
  6
CENTER
 62
     1
 10
465.000007999559
 20
272.1096064374844
 30
0.0
 11
465.000007999559
 21
284.1096064374844
 31
0.0
  0
LINE
  5
272
  8
1
  6
CENTER
 62
     1
 10
469.0126468192693
 20
288.0969516231723
 30
0.0
 11
481.0126468192693
 21
288.0969516231723
 31
0.0
  0
LINE
  5
273
  8
1
  6
CENTER
 62
     1
 10
449.0000207927059
 20
273.6298413451873
 30
0.0
 11
449.0000207927059
 21
282.6298413451873
 31
0.0
  0
LINE
  5
274
  8
1
  6
CENTER
 62
     1
 10
470.6000000020376
 20
278.0969596202747
 30
0.0
 11
479.4000000020377
 21
278.0969596202747
 31
0.0
  0
LINE
  5
275
  8
1
  6
CENTER
 62
     1
 10
459.0012187440108
 20
334.5307119972234
 30
0.0
 11
491.0012186829709
 21
334.5307119972234
 31
0.0
  0
LINE
  5
276
  8
1
  6
CENTER
 62
     1
 10
459.000007999559
 20
278.1096064374844
 30
0.0
 11
471.000007999559
 21
278.1096064374844
 31
0.0
  0
LINE
  5
277
  8
1
  6
CENTER
 62
     1
 10
496.4999792077735
 20
278.0640778955828
 30
0.0
 11
505.4999792077734
 21
278.0640778955828
 31
0.0
  0
LINE
  5
278
  8
1
  6
CENTER
 62
     1
 10
484.9999920053498
 20
272.0843128030182
 30
0.0
 11
484.9999920053498
 21
284.0843128030182
 31
0.0
  0
LINE
  5
279
  8
1
  6
CENTER
 62
     1
 10
500.9999792077735
 20
273.5640778955828
 30
0.0
 11
500.9999792077735
 21
282.5640778955828
 31
0.0
  0
LINE
  5
27A
  8
1
  6
CENTER
 62
     1
 10
468.987353184806
 20
268.0969676173771
 30
0.0
 11
480.987353184806
 21
268.0969676173771
 31
0.0
  0
ENDSEC
  0
EOF
