  0
SECTION
  2
HEADER
  9
$ACADVER
  1
AC1006
  9
$DWGCODEPAGE
  3
ansi_932
  9
$INSBASE
 10
0.0
 20
0.0
 30
0.0
  9
$EXTMIN
 10
-82.80455235234373
 20
194.4376706886905
  9
$EXTMAX
 10
99.19544764765628
 20
271.8603979614178
  9
$LIMMIN
 10
0.0
 20
0.0
  9
$LIMMAX
 10
12.0
 20
9.0
  9
$ORTHOMODE
 70
     0
  9
$REGENMODE
 70
     1
  9
$FILLMODE
 70
     1
  9
$QTEXTMODE
 70
     0
  9
$MIRRTEXT
 70
     1
  9
$DRAGMODE
 70
     2
  9
$LTSCALE
 40
1.0
  9
$OSMODE
 70
    37
  9
$ATTMODE
 70
     1
  9
$TEXTSIZE
 40
0.2
  9
$TRACEWID
 40
0.05
  9
$TEXTSTYLE
  7
STANDARD
  9
$CLAYER
  8
0
  9
$CELTYPE
  6
BYLAYER
  9
$CECOLOR
 62
   256
  9
$DIMSCALE
 40
1.0
  9
$DIMASZ
 40
3.0
  9
$DIMEXO
 40
0.0625
  9
$DIMDLI
 40
0.38
  9
$DIMRND
 40
0.0
  9
$DIMDLE
 40
0.0
  9
$DIMEXE
 40
1.5
  9
$DIMTP
 40
0.0
  9
$DIMTM
 40
0.0
  9
$DIMTXT
 40
3.0
  9
$DIMCEN
 40
0.09
  9
$DIMTSZ
 40
0.0
  9
$DIMTOL
 70
     0
  9
$DIMLIM
 70
     0
  9
$DIMTIH
 70
     1
  9
$DIMTOH
 70
     1
  9
$DIMSE1
 70
     0
  9
$DIMSE2
 70
     0
  9
$DIMTAD
 70
     1
  9
$DIMZIN
 70
     0
  9
$DIMBLK
  1

  9
$DIMASO
 70
     1
  9
$DIMSHO
 70
     1
  9
$DIMPOST
  1

  9
$DIMAPOST
  1

  9
$DIMALT
 70
     0
  9
$DIMALTD
 70
     2
  9
$DIMALTF
 40
25.4
  9
$DIMLFAC
 40
1.0
  9
$DIMTOFL
 70
     0
  9
$DIMTVP
 40
0.0
  9
$DIMTIX
 70
     0
  9
$DIMSOXD
 70
     0
  9
$DIMSAH
 70
     0
  9
$DIMBLK1
  1

  9
$DIMBLK2
  1

  9
$LUNITS
 70
     2
  9
$LUPREC
 70
     4
  9
$SKETCHINC
 40
0.1
  9
$FILLETRAD
 40
0.5
  9
$AUNITS
 70
     0
  9
$AUPREC
 70
     0
  9
$MENU
  1
.
  9
$ELEVATION
 40
0.0
  9
$THICKNESS
 40
0.0
  9
$LIMCHECK
 70
     0
  9
$CHAMFERA
 40
0.0
  9
$CHAMFERB
 40
0.0
  9
$SKPOLY
 70
     0
  9
$TDCREATE
 40
2459270.615360718
  9
$TDUPDATE
 40
2459270.615363055
  9
$TDINDWG
 40
0.0000000116
  9
$TDUSRTIMER
 40
0.0000000116
  9
$USRTIMER
 70
     1
  9
$ANGBASE
 50
0.0
  9
$ANGDIR
 70
     0
  9
$PDMODE
 70
     0
  9
$PDSIZE
 40
0.0
  9
$PLINEWID
 40
0.0
  9
$COORDS
 70
     1
  9
$SPLFRAME
 70
     0
  9
$SPLINETYPE
 70
     6
  9
$SPLINESEGS
 70
     8
  9
$ATTDIA
 70
     0
  9
$ATTREQ
 70
     1
  9
$HANDLING
 70
     1
  9
$HANDSEED
  5
41B
  9
$SURFTAB1
 70
     6
  9
$SURFTAB2
 70
     6
  9
$SURFTYPE
 70
     6
  9
$SURFU
 70
     6
  9
$SURFV
 70
     6
  9
$UCSNAME
  2

  9
$UCSORG
 10
0.0
 20
0.0
 30
0.0
  9
$UCSXDIR
 10
1.0
 20
0.0
 30
0.0
  9
$UCSYDIR
 10
0.0
 20
1.0
 30
0.0
  9
$USERI1
 70
     0
  9
$USERI2
 70
     0
  9
$USERI3
 70
     0
  9
$USERI4
 70
     0
  9
$USERI5
 70
     0
  9
$USERR1
 40
0.0
  9
$USERR2
 40
0.0
  9
$USERR3
 40
0.0
  9
$USERR4
 40
0.0
  9
$USERR5
 40
0.0
  9
$WORLDVIEW
 70
     1
  0
ENDSEC
  0
SECTION
  2
TABLES
  0
TABLE
  2
VPORT
 70
     1
  0
VPORT
  2
*ACTIVE
 70
     0
 10
0.0
 20
0.0
 11
1.0
 21
1.0
 12
8.195447647656273
 22
233.1490343250541
 13
0.0
 23
0.0
 14
0.5
 24
0.5
 15
0.5
 25
0.5
 16
0.0
 26
0.0
 36
1.0
 17
0.0
 27
0.0
 37
0.0
 40
77.42272727272729
 41
1.6
 42
50.0
 43
0.0
 44
0.0
 50
0.0
 51
0.0
 71
     0
 72
   100
 73
     1
 74
     3
 75
     0
 76
     0
 77
     0
 78
     0
  0
ENDTAB
  0
TABLE
  2
LTYPE
 70
     2
  0
LTYPE
  2
CONTINUOUS
 70
     0
  3
Solid line
 72
    65
 73
     0
 40
0.0
  0
LTYPE
  2
CENTER
 70
     0
  3

 72
    65
 73
     0
 40
0.0
  0
ENDTAB
  0
TABLE
  2
LAYER
 70
     1
  0
LAYER
  2
0
 70
     0
 62
     7
  6
CONTINUOUS
  0
ENDTAB
  0
TABLE
  2
STYLE
 70
     2
  0
STYLE
  2
STANDARD
 70
     0
 40
0.0
 41
1.0
 50
0.0
 71
     0
 42
0.2
  3
txt
  4

  0
STYLE
  2
ＭＳ_ゴシック
 70
     0
 40
0.0
 41
1.0
 50
0.0
 71
     0
 42
0.2
  3
ＭＳ ゴシック.shx
  4

  0
ENDTAB
  0
TABLE
  2
VIEW
 70
     0
  0
ENDTAB
  0
TABLE
  2
UCS
 70
     0
  0
ENDTAB
  0
ENDSEC
  0
SECTION
  2
BLOCKS
  0
BLOCK
  8
0
  2
D_FRAME_VIEW_14144
 70
     0
 10
0.0
 20
0.0
 30
0.0
  0
ENDBLK
  8
0
  0
BLOCK
  8
0
  2
D_FRAME_VIEW_15385
 70
     0
 10
0.0
 20
0.0
 30
0.0
  0
ENDBLK
  8
0
  0
BLOCK
  8
0
  2
D_FRAME_VIEW_14934
 70
     0
 10
0.0
 20
0.0
 30
0.0
  0
ENDBLK
  8
0
  0
ENDSEC
  0
SECTION
  2
ENTITIES
  0
INSERT
  5
70
  8
0
  6
CONTINUOUS
 62
     7
  2
D_FRAME_VIEW_14144
 10
0.0
 20
0.0
 30
0.0
  0
LINE
  5
71
  8
0
  6
CONTINUOUS
 62
     7
 10
65.39544764765628
 20
225.0603979614177
 30
0.0
 11
64.6954476476563
 21
224.3603979614177
 31
0.0
  0
LINE
  5
72
  8
0
  6
CONTINUOUS
 62
     7
 10
86.6954476476563
 20
224.3603979614177
 30
0.0
 11
85.99544764765629
 21
225.0603979614177
 31
0.0
  0
LINE
  5
73
  8
0
  6
CONTINUOUS
 62
     7
 10
-38.80455235234373
 20
220.4603979617388
 30
0.0
 11
-43.10455235234373
 21
220.4603979617388
 31
0.0
  0
ARC
  5
74
  8
0
  6
CONTINUOUS
 62
     7
 10
-43.10455235234373
 20
223.4603979617388
 30
0.0
 40
2.999999999999996
 50
180.0
 51
270.0
  0
LINE
  5
75
  8
0
  6
CONTINUOUS
 62
     7
 10
33.19544764765633
 20
254.760397961418
 30
0.0
 11
33.09544764823401
 21
254.760397961418
 31
0.0
  0
ARC
  5
76
  8
0
  6
CONTINUOUS
 62
     7
 10
-45.60455235234374
 20
232.9603979617388
 30
0.0
 40
0.5000000000000004
 50
90.0
 51
180.0
  0
LINE
  5
77
  8
0
  6
CONTINUOUS
 62
     7
 10
-35.80455235234373
 20
251.2532911805522
 30
0.0
 11
-35.80455235234374
 21
223.4603979617388
 31
0.0
  0
ARC
  5
78
  8
0
  6
CONTINUOUS
 62
     7
 10
-73.00455235234374
 20
232.9603979617388
 30
0.0
 40
0.5000000000000004
 50
0.0
 51
90.0
  0
LINE
  5
79
  8
0
  6
CONTINUOUS
 62
     7
 10
2.095447647656162
 20
238.4603979614178
 30
0.0
 11
2.09544764765616
 21
234.5603979614178
 31
0.0
  0
LINE
  5
7A
  8
0
  6
CONTINUOUS
 62
     7
 10
-13.30455235234379
 20
239.4603979614178
 30
0.0
 11
-12.30455235234379
 21
238.4603979614178
 31
0.0
  0
LINE
  5
7B
  8
0
  6
CONTINUOUS
 62
     7
 10
24.99544764765616
 20
234.4603979614178
 30
0.0
 11
25.09544764765616
 21
234.5603979614178
 31
0.0
  0
LINE
  5
7C
  8
0
  6
CONTINUOUS
 62
     7
 10
33.09544764823401
 20
250.160397961418
 30
0.0
 11
33.19544764765633
 21
250.160397961418
 31
0.0
  0
LINE
  5
7D
  8
0
  6
CONTINUOUS
 62
     7
 10
-72.50455235234374
 20
223.4603979617388
 30
0.0
 11
-72.50455235234374
 21
232.9603979617388
 31
0.0
  0
ARC
  5
7E
  8
0
  6
CONTINUOUS
 62
     7
 10
-79.80455235234373
 20
223.4603979617388
 30
0.0
 40
2.999999999999989
 50
180.0
 51
270.0
  0
LINE
  5
7F
  8
0
  6
CONTINUOUS
 62
     7
 10
23.29544764765616
 20
204.9603979614177
 30
0.0
 11
23.29544764765616
 21
209.9603979614177
 31
0.0
  0
LINE
  5
80
  8
0
  6
CONTINUOUS
 62
     7
 10
-6.804552352343783
 20
266.4603979614179
 30
0.0
 11
-12.30455235234378
 21
266.4603979614179
 31
0.0
  0
LINE
  5
81
  8
0
  6
CONTINUOUS
 62
     7
 10
-12.30455235234378
 20
266.4603979614179
 30
0.0
 11
-13.30455235234379
 21
265.4603979614179
 31
0.0
  0
ARC
  5
82
  8
0
  6
CONTINUOUS
 62
     7
 10
-38.80455235234373
 20
223.4603979617388
 30
0.0
 40
3.000000000000003
 50
270.0
 51
0.0000000000000568
  0
LINE
  5
83
  8
0
  6
CONTINUOUS
 62
     7
 10
23.29544764765615
 20
201.9603979614177
 30
0.0
 11
23.29544764765615
 21
202.8103979614177
 31
0.0
  0
LINE
  5
84
  8
0
  6
CONTINUOUS
 62
     7
 10
-45.60455235234374
 20
233.4603979617388
 30
0.0
 11
-39.30455235234373
 21
233.4603979617388
 31
0.0
  0
ARC
  5
85
  8
0
  6
CONTINUOUS
 62
     7
 10
-75.50455235234374
 20
223.4603979617388
 30
0.0
 40
3.000000000000003
 50
270.0
 51
0.0
  0
LINE
  5
86
  8
0
  6
CONTINUOUS
 62
     7
 10
-79.80455235234373
 20
220.4603979617388
 30
0.0
 11
-75.50455235234374
 21
220.4603979617388
 31
0.0
  0
LINE
  5
87
  8
0
  6
CONTINUOUS
 62
     7
 10
-82.80455235234373
 20
251.2532911805522
 30
0.0
 11
-82.80455235234372
 21
223.4603979617388
 31
0.0
  0
LINE
  5
88
  8
0
  6
CONTINUOUS
 62
     7
 10
22.89544764765614
 20
203.1103979614177
 30
0.0
 11
22.89544764765614
 21
203.9603979614177
 31
0.0
  0
CIRCLE
  5
89
  8
0
  6
CONTINUOUS
 62
     7
 10
-76.80455235234373
 20
227.4603979617388
 30
0.0
 40
2.499999999999988
  0
LINE
  5
8A
  8
0
  6
CONTINUOUS
 62
     7
 10
-3.30455235234379
 20
238.4603979614178
 30
0.0
 11
2.09544764765616
 21
238.4603979614178
 31
0.0
  0
LINE
  5
8B
  8
0
  6
CONTINUOUS
 62
     7
 10
-39.30455235234373
 20
268.4603979617387
 30
0.0
 11
-38.80455235234373
 21
268.4603979617387
 31
0.0
  0
LINE
  5
8C
  8
0
  6
CONTINUOUS
 62
     7
 10
-35.80455235234373
 20
265.4603979617387
 30
0.0
 11
-35.80455235234373
 21
253.6675047429253
 31
0.0
  0
ARC
  5
8D
  8
0
  6
CONTINUOUS
 62
     7
 10
-38.80455235234373
 20
265.4603979617387
 30
0.0
 40
2.999999999999996
 50
0.0
 51
90.0
  0
ARC
  5
8E
  8
0
  6
CONTINUOUS
 62
     7
 10
2.095447647656146
 20
268.3603979614178
 30
0.0
 40
0.5000000000000004
 50
90.0
 51
180.0000000000128
  0
LINE
  5
8F
  8
0
  6
CONTINUOUS
 62
     7
 10
22.99544764765615
 20
200.9603979614177
 30
0.0
 11
23.29544764765615
 21
201.9603979614177
 31
0.0
  0
ARC
  5
90
  8
0
  6
CONTINUOUS
 62
     7
 10
8.145447647656145
 20
200.7603979614178
 30
0.0
 40
0.7999999999999995
 50
180.0
 51
270.0
  0
LINE
  5
91
  8
0
  6
CONTINUOUS
 62
     7
 10
33.19544764765633
 20
250.160397961418
 30
0.0
 11
33.69544764765634
 21
250.660397961418
 31
0.0
  0
LINE
  5
92
  8
0
  6
CONTINUOUS
 62
     7
 10
-6.804552352343786
 20
239.2103979614178
 30
0.0
 11
-3.30455235234379
 21
239.2103979614178
 31
0.0
  0
LINE
  5
93
  8
0
  6
CONTINUOUS
 62
     7
 10
25.09544764765616
 20
234.5603979614178
 30
0.0
 11
25.09544764765616
 21
236.4603979617388
 31
0.0
  0
LINE
  5
94
  8
0
  6
CONTINUOUS
 62
     7
 10
-46.10455235234374
 20
223.4603979617388
 30
0.0
 11
-46.10455235234374
 21
232.9603979617388
 31
0.0
  0
LINE
  5
95
  8
0
  6
CONTINUOUS
 62
     7
 10
3.345447647656147
 20
210.5103979614178
 30
0.0
 11
3.895447647656154
 21
209.9603979614177
 31
0.0
  0
LINE
  5
96
  8
0
  6
CONTINUOUS
 62
     7
 10
4.295447647656149
 20
203.9603979614177
 30
0.0
 11
4.295447647656149
 21
203.1103979614177
 31
0.0
  0
ARC
  5
97
  8
0
  6
CONTINUOUS
 62
     7
 10
4.145447647656147
 20
203.1103979614177
 30
0.0
 40
0.1500000000000008
 50
270.0
 51
0.0
  0
LINE
  5
98
  8
0
  6
CONTINUOUS
 62
     7
 10
3.895447647656138
 20
209.9603979614177
 30
0.0
 11
3.895447647656137
 21
204.9603979614177
 31
0.0
  0
ARC
  5
99
  8
0
  6
CONTINUOUS
 62
     7
 10
5.595447647656211
 20
264.4603979614179
 30
0.0
 40
2.000000000000001
 50
0.0000000000001953
 51
89.99999999999996
  0
LINE
  5
9A
  8
0
  6
CONTINUOUS
 62
     7
 10
2.09544764765616
 20
238.4607964577439
 30
0.0
 11
2.095447647656162
 21
238.4603979614178
 31
0.0
  0
CIRCLE
  5
9B
  8
0
  6
CONTINUOUS
 62
     7
 10
-41.80455235234373
 20
227.4603979617388
 30
0.0
 40
2.499999999999995
  0
ARC
  5
9C
  8
0
  6
CONTINUOUS
 62
     7
 10
23.04544764765615
 20
203.1103979614177
 30
0.0
 40
0.1500000000000112
 50
180.0
 51
270.0
  0
LINE
  5
9D
  8
0
  6
CONTINUOUS
 62
     7
 10
-73.00455235234374
 20
233.4603979617388
 30
0.0
 11
-79.30455235234373
 21
233.4603979617388
 31
0.0
  0
LINE
  5
9E
  8
0
  6
CONTINUOUS
 62
     7
 10
23.29544764765615
 20
202.8103979614177
 30
0.0
 11
23.14544764765615
 21
202.9603979614177
 31
0.0
  0
LINE
  5
9F
  8
0
  6
CONTINUOUS
 62
     7
 10
22.89544764765614
 20
203.9603979614177
 30
0.0
 11
23.29544764765615
 21
204.9603979614177
 31
0.0
  0
LINE
  5
A0
  8
0
  6
CONTINUOUS
 62
     7
 10
3.895447647656147
 20
204.9603979614177
 30
0.0
 11
4.295447647656149
 21
203.9603979614177
 31
0.0
  0
ARC
  5
A1
  8
0
  6
CONTINUOUS
 62
     7
 10
19.04544764765615
 20
200.7603979614178
 30
0.0
 40
0.7999999999999952
 50
270.0
 51
0.0
  0
LINE
  5
A2
  8
0
  6
CONTINUOUS
 62
     7
 10
2.09544764765616
 20
238.4603979614178
 30
0.0
 11
2.095932814426514
 21
238.4603979614178
 31
0.0
  0
ARC
  5
A3
  8
0
  6
CONTINUOUS
 62
     7
 10
4.59544764765616
 20
243.4603979614178
 30
0.0
 40
17.99999999999999
 50
59.99999999787595
 51
75.52242287759492
  0
LINE
  5
A4
  8
0
  6
CONTINUOUS
 62
     7
 10
23.29544764765614
 20
209.9603979614177
 30
0.0
 11
23.84544764765615
 21
210.5103979614177
 31
0.0
  0
LINE
  5
A5
  8
0
  6
CONTINUOUS
 62
     7
 10
3.895447647656149
 20
201.9603979614177
 30
0.0
 11
4.195447647656149
 21
200.9603979614177
 31
0.0
  0
LINE
  5
A6
  8
0
  6
CONTINUOUS
 62
     7
 10
7.345447647656145
 20
200.9603979614177
 30
0.0
 11
7.345447647656145
 21
200.7603979614178
 31
0.0
  0
LINE
  5
A7
  8
0
  6
CONTINUOUS
 62
     7
 10
3.895447647656144
 20
202.8103979614177
 30
0.0
 11
3.895447647656144
 21
201.9603979614177
 31
0.0
  0
LINE
  5
A8
  8
0
  6
CONTINUOUS
 62
     7
 10
-12.30455235234379
 20
238.4603979614178
 30
0.0
 11
-6.804552352343786
 21
238.4603979614178
 31
0.0
  0
LINE
  5
A9
  8
0
  6
CONTINUOUS
 62
     7
 10
2.09544764765616
 20
234.5603979614178
 30
0.0
 11
2.195447647656159
 21
234.4603979614178
 31
0.0
  0
ARC
  5
AA
  8
0
  6
CONTINUOUS
 62
     7
 10
9.595447647656211
 20
262.8253146924549
 30
0.0
 40
1.999999999999962
 50
180.0
 51
255.52248781407
  0
LINE
  5
AB
  8
0
  6
CONTINUOUS
 62
     7
 10
-3.304552352343787
 20
265.7103979614178
 30
0.0
 11
-6.804552352343783
 21
265.7103979614178
 31
0.0
  0
LINE
  5
AC
  8
0
  6
CONTINUOUS
 62
     7
 10
4.045447647656145
 20
202.9603979614177
 30
0.0
 11
3.895447647656144
 21
202.8103979614177
 31
0.0
  0
LINE
  5
AD
  8
0
  6
CONTINUOUS
 62
     7
 10
33.69544764765634
 20
254.260397961418
 30
0.0
 11
33.19544764765633
 21
254.760397961418
 31
0.0
  0
LINE
  5
AE
  8
0
  6
CONTINUOUS
 62
     7
 10
1.595447647656147
 20
266.4603979614179
 30
0.0
 11
-3.304552352343786
 21
266.4603979614179
 31
0.0
  0
LINE
  5
AF
  8
0
  6
CONTINUOUS
 62
     7
 10
5.59544764765621
 20
266.4603979614179
 30
0.0
 11
3.595447647656146
 21
266.4603979614179
 31
0.0
  0
LINE
  5
B0
  8
0
  6
CONTINUOUS
 62
     7
 10
19.84544764765615
 20
200.7603979614178
 30
0.0
 11
19.84544764765615
 21
200.9603979614177
 31
0.0
  0
LINE
  5
B1
  8
0
  6
CONTINUOUS
 62
     7
 10
3.095447647656145
 20
268.8603979614178
 30
0.0
 11
2.095447647656151
 21
268.8603979614178
 31
0.0
  0
ARC
  5
B2
  8
0
  6
CONTINUOUS
 62
     7
 10
3.095447647656145
 20
268.3603979614178
 30
0.0
 40
0.5000000000000004
 50
359.9999999999873
 51
90.0
  0
LINE
  5
B3
  8
0
  6
CONTINUOUS
 62
     7
 10
15.59544764823405
 20
220.4603979617388
 30
0.0
 11
13.59544764823405
 21
220.4603979617388
 31
0.0
  0
LINE
  5
B4
  8
0
  6
CONTINUOUS
 62
     7
 10
85.3954476476563
 20
204.9603979614177
 30
0.0
 11
85.3954476476563
 21
209.9603979614177
 31
0.0
  0
LINE
  5
B5
  8
0
  6
CONTINUOUS
 62
     7
 10
15.59544764823405
 20
223.4603979617388
 30
0.0
 11
15.59544764823405
 21
220.4603979617389
 31
0.0
  0
LINE
  5
B6
  8
0
  6
CONTINUOUS
 62
     7
 10
33.09544764823401
 20
236.4603979617388
 30
0.0
 11
30.09544764823402
 21
236.4603979617388
 31
0.0
  0
LINE
  5
B7
  8
0
  6
CONTINUOUS
 62
     7
 10
84.99544764765629
 20
203.9603979614177
 30
0.0
 11
85.3954476476563
 21
204.9603979614177
 31
0.0
  0
LINE
  5
B8
  8
0
  6
CONTINUOUS
 62
     7
 10
65.99544764765629
 20
202.8103979614177
 30
0.0
 11
65.99544764765629
 21
201.9603979614177
 31
0.0
  0
ARC
  5
B9
  8
0
  6
CONTINUOUS
 62
     7
 10
66.2454476476563
 20
203.1103979614177
 30
0.0
 40
0.1499999999999974
 50
270.0
 51
0.0
  0
ARC
  5
BA
  8
0
  6
CONTINUOUS
 62
     7
 10
55.44544764765629
 20
216.6971281543331
 30
0.0
 40
10.0
 50
0.0
 51
19.99999999999994
  0
LINE
  5
BB
  8
0
  6
CONTINUOUS
 62
     7
 10
30.09544764823402
 20
268.4603979617387
 30
0.0
 11
33.09544764823401
 21
268.4603979617387
 31
0.0
  0
LINE
  5
BC
  8
0
  6
CONTINUOUS
 62
     7
 10
86.6954476476563
 20
220.5210060260087
 30
0.0
 11
86.6954476476563
 21
224.3603979614177
 31
0.0
  0
LINE
  5
BD
  8
0
  6
CONTINUOUS
 62
     7
 10
65.4454476476563
 20
216.6971281543331
 30
0.0
 11
65.4454476476563
 21
210.5103979614177
 31
0.0
  0
ARC
  5
BE
  8
0
  6
CONTINUOUS
 62
     7
 10
95.94544764765631
 20
216.6971281543331
 30
0.0
 40
10.00000000000001
 50
160.0
 51
180.0
  0
LINE
  5
BF
  8
0
  6
CONTINUOUS
 62
     7
 10
86.54852143979721
 20
220.1173295875898
 30
0.0
 11
86.6954476476563
 21
220.5210060260087
 31
0.0
  0
LINE
  5
C0
  8
0
  6
CONTINUOUS
 62
     7
 10
65.9954476476563
 20
204.9603979614177
 30
0.0
 11
66.3954476476563
 21
203.9603979614177
 31
0.0
  0
LINE
  5
C1
  8
0
  6
CONTINUOUS
 62
     7
 10
13.74189425764078
 20
253.313951352332
 30
0.0
 11
14.24189425764078
 21
252.813951352332
 31
0.0
  0
ARC
  5
C2
  8
0
  6
CONTINUOUS
 62
     7
 10
14.09544764823405
 20
253.6675047429253
 30
0.0
 40
0.5000000000000004
 50
180.0
 51
224.9999999999997
  0
LINE
  5
C3
  8
0
  6
CONTINUOUS
 62
     7
 10
14.24189425764078
 20
252.1068445711455
 30
0.0
 11
13.74189425764078
 21
251.6068445711455
 31
0.0
  0
ARC
  5
C4
  8
0
  6
CONTINUOUS
 62
     7
 10
81.1454476476563
 20
200.7603979614178
 30
0.0
 40
0.7999999999999952
 50
270.0
 51
0.0
  0
LINE
  5
C5
  8
0
  6
CONTINUOUS
 62
     7
 10
87.09544764765629
 20
234.4603979614178
 30
0.0
 11
87.19544764765628
 21
234.5603979614178
 31
0.0
  0
LINE
  5
C6
  8
0
  6
CONTINUOUS
 62
     7
 10
33.69544764765601
 20
246.4603979614179
 30
0.0
 11
33.69544764765601
 21
238.4603979614178
 31
0.0
  0
LINE
  5
C7
  8
0
  6
CONTINUOUS
 62
     7
 10
66.3954476476563
 20
203.9603979614177
 30
0.0
 11
66.3954476476563
 21
203.1103979614177
 31
0.0
  0
LINE
  5
C8
  8
0
  6
CONTINUOUS
 62
     7
 10
69.4454476476563
 20
200.9603979614177
 30
0.0
 11
69.4454476476563
 21
200.7603979614178
 31
0.0
  0
LINE
  5
C9
  8
0
  6
CONTINUOUS
 62
     7
 10
13.59544764823405
 20
220.4603979617389
 30
0.0
 11
13.59544764823405
 21
223.4603979617388
 31
0.0
  0
LINE
  5
CA
  8
0
  6
CONTINUOUS
 62
     7
 10
84.99544764765629
 20
203.1103979614177
 30
0.0
 11
84.99544764765629
 21
203.9603979614177
 31
0.0
  0
LINE
  5
CB
  8
0
  6
CONTINUOUS
 62
     7
 10
18.59544764823404
 20
268.4603979617387
 30
0.0
 11
15.59544764823405
 21
268.4603979617387
 31
0.0
  0
LINE
  5
CC
  8
0
  6
CONTINUOUS
 62
     7
 10
81.9454476476563
 20
200.7603979614178
 30
0.0
 11
81.9454476476563
 21
200.9603979614177
 31
0.0
  0
ARC
  5
CD
  8
0
  6
CONTINUOUS
 62
     7
 10
14.09544764823405
 20
251.2532911805522
 30
0.0
 40
0.5000000000000092
 50
135.0
 51
179.9999999999996
  0
LINE
  5
CE
  8
0
  6
CONTINUOUS
 62
     7
 10
33.09544764823401
 20
268.4603979617387
 30
0.0
 11
33.09544764823402
 21
236.4603979617388
 31
0.0
  0
LINE
  5
CF
  8
0
  6
CONTINUOUS
 62
     7
 10
64.1954476476563
 20
234.5603979614178
 30
0.0
 11
64.29544764765629
 21
234.4603979614178
 31
0.0
  0
LINE
  5
D0
  8
0
  6
CONTINUOUS
 62
     7
 10
30.09544764823402
 20
236.4603979617388
 30
0.0
 11
18.59544764823404
 21
236.4603979617388
 31
0.0
  0
LINE
  5
D1
  8
0
  6
CONTINUOUS
 62
     7
 10
2.595447647656153
 20
230.7603979614178
 30
0.0
 11
13.59544764823405
 21
230.7603979614178
 31
0.0
  0
LINE
  5
D2
  8
0
  6
CONTINUOUS
 62
     7
 10
15.59544764823406
 20
236.4603979617388
 30
0.0
 11
18.59544764823404
 21
236.4603979617388
 31
0.0
  0
LINE
  5
D3
  8
0
  6
CONTINUOUS
 62
     7
 10
15.59544764823405
 20
230.7603979614178
 30
0.0
 11
24.59544764765618
 21
230.7603979614177
 31
0.0
  0
LINE
  5
D4
  8
0
  6
CONTINUOUS
 62
     7
 10
64.6954476476563
 20
220.5210060260087
 30
0.0
 11
64.84237385551539
 21
220.1173295875898
 31
0.0
  0
LINE
  5
D5
  8
0
  6
CONTINUOUS
 62
     7
 10
87.19544764765628
 20
234.5603979614178
 30
0.0
 11
87.19544764765628
 21
236.4603979614178
 31
0.0
  0
LINE
  5
D6
  8
0
  6
CONTINUOUS
 62
     7
 10
13.59544764823405
 20
268.4603979617387
 30
0.0
 11
15.59544764823405
 21
268.4603979617387
 31
0.0
  0
LINE
  5
D7
  8
0
  6
CONTINUOUS
 62
     7
 10
30.09544764823402
 20
268.4603979617387
 30
0.0
 11
18.59544764823404
 21
268.4603979617387
 31
0.0
  0
LINE
  5
D8
  8
0
  6
CONTINUOUS
 62
     7
 10
65.9954476476563
 20
201.9603979614177
 30
0.0
 11
66.29544764765629
 21
200.9603979614177
 31
0.0
  0
ARC
  5
D9
  8
0
  6
CONTINUOUS
 62
     7
 10
13.88834086704751
 20
252.4603979617388
 30
0.0
 40
0.49999999999997
 50
315.0000000000002
 51
45.0
  0
LINE
  5
DA
  8
0
  6
CONTINUOUS
 62
     7
 10
15.59544764823405
 20
265.4603979617387
 30
0.0
 11
15.59544764823405
 21
255.8743537985893
 31
0.0
  0
LINE
  5
DB
  8
0
  6
CONTINUOUS
 62
     7
 10
16.59544764823405
 20
251.4959318676715
 30
0.0
 11
16.59544764823405
 21
253.424864055806
 31
0.0
  0
ARC
  5
DC
  8
0
  6
CONTINUOUS
 62
     7
 10
70.24544764765629
 20
200.7603979614178
 30
0.0
 40
0.7999999999999952
 50
180.0
 51
270.0
  0
LINE
  5
DD
  8
0
  6
CONTINUOUS
 62
     7
 10
85.3954476476563
 20
201.9603979614177
 30
0.0
 11
85.3954476476563
 21
202.8103979614177
 31
0.0
  0
LINE
  5
DE
  8
0
  6
CONTINUOUS
 62
     7
 10
85.9454476476563
 20
210.5103979614177
 30
0.0
 11
85.9454476476563
 21
216.6971281543331
 31
0.0
  0
ARC
  5
DF
  8
0
  6
CONTINUOUS
 62
     7
 10
85.1454476476563
 20
203.1103979614177
 30
0.0
 40
0.1500000000000112
 50
180.0
 51
270.0
  0
LINE
  5
E0
  8
0
  6
CONTINUOUS
 62
     7
 10
33.69544764765602
 20
266.4603979614179
 30
0.0
 11
33.69544764765602
 21
262.4603979614179
 31
0.0
  0
ARC
  5
E1
  8
0
  6
CONTINUOUS
 62
     7
 10
16.59544764823405
 20
249.0464421248884
 30
0.0
 40
0.9999999999999974
 50
135.5846914028072
 51
180.0000000000002
  0
LINE
  5
E2
  8
0
  6
CONTINUOUS
 62
     7
 10
13.59544764823405
 20
265.4603979617387
 30
0.0
 11
13.59544764823405
 21
253.6675047429253
 31
0.0
  0
LINE
  5
E3
  8
0
  6
CONTINUOUS
 62
     7
 10
15.59544764823405
 20
249.0464421248884
 30
0.0
 11
15.59544764823405
 21
223.4603979617388
 31
0.0
  0
LINE
  5
E4
  8
0
  6
CONTINUOUS
 62
     7
 10
65.4454476476563
 20
210.5103979614177
 30
0.0
 11
65.9954476476563
 21
209.9603979614177
 31
0.0
  0
LINE
  5
E5
  8
0
  6
CONTINUOUS
 62
     7
 10
66.14544764765628
 20
202.9603979614177
 30
0.0
 11
65.99544764765629
 21
202.8103979614177
 31
0.0
  0
ARC
  5
E6
  8
0
  6
CONTINUOUS
 62
     7
 10
14.09544764823405
 20
251.4959318676715
 30
0.0
 40
2.499999999999974
 50
315.584691402807
 51
0.0
  0
ARC
  5
E7
  8
0
  6
CONTINUOUS
 62
     7
 10
16.59544764823405
 20
255.8743537985893
 30
0.0
 40
1.000000000000021
 50
180.0
 51
224.415308597193
  0
LINE
  5
E8
  8
0
  6
CONTINUOUS
 62
     7
 10
13.59544764823405
 20
265.4603979617387
 30
0.0
 11
13.59544764823405
 21
268.4603979617387
 31
0.0
  0
LINE
  5
E9
  8
0
  6
CONTINUOUS
 62
     7
 10
85.39544764765628
 20
209.9603979614177
 30
0.0
 11
85.9454476476563
 21
210.5103979614177
 31
0.0
  0
LINE
  5
EA
  8
0
  6
CONTINUOUS
 62
     7
 10
64.1954476476563
 20
236.4603979614178
 30
0.0
 11
64.1954476476563
 21
234.5603979614178
 31
0.0
  0
LINE
  5
EB
  8
0
  6
CONTINUOUS
 62
     7
 10
65.99544764765629
 20
209.9603979614177
 30
0.0
 11
65.99544764765629
 21
204.9603979614177
 31
0.0
  0
LINE
  5
EC
  8
0
  6
CONTINUOUS
 62
     7
 10
85.3954476476563
 20
202.8103979614177
 30
0.0
 11
85.24544764765629
 21
202.9603979614177
 31
0.0
  0
ARC
  5
ED
  8
0
  6
CONTINUOUS
 62
     7
 10
14.09544764823405
 20
253.424864055806
 30
0.0
 40
2.5
 50
0.0
 51
44.41530859719296
  0
LINE
  5
EE
  8
0
  6
CONTINUOUS
 62
     7
 10
13.59544764823405
 20
251.2532911805522
 30
0.0
 11
13.59544764823405
 21
223.4603979617388
 31
0.0
  0
LINE
  5
EF
  8
0
  6
CONTINUOUS
 62
     7
 10
15.59544764823405
 20
268.4603979617387
 30
0.0
 11
15.59544764823405
 21
265.4603979617387
 31
0.0
  0
LINE
  5
F0
  8
0
  6
CONTINUOUS
 62
     7
 10
64.6954476476563
 20
224.3603979614177
 30
0.0
 11
64.6954476476563
 21
220.5210060260087
 31
0.0
  0
LINE
  5
F1
  8
0
  6
CONTINUOUS
 62
     7
 10
85.09544764765629
 20
200.9603979614177
 30
0.0
 11
85.39544764765628
 21
201.9603979614177
 31
0.0
  0
LINE
  5
F2
  8
0
  6
CONTINUOUS
 62
     7
 10
33.69544764765602
 20
262.4603979614179
 30
0.0
 11
33.69544764765602
 21
258.4603979614178
 31
0.0
  0
LINE
  5
F3
  8
0
  6
CONTINUOUS
 62
     7
 10
2.095447647656146
 20
266.1472266021292
 30
0.0
 11
3.095447647656145
 21
266.1472266021292
 31
0.0
  0
LINE
  5
F4
  8
0
  6
CONTINUOUS
 62
     7
 10
24.59544764765616
 20
234.2603979614177
 30
0.0
 11
15.59544764823405
 21
234.2603979614178
 31
0.0
  0
LINE
  5
F5
  8
0
  6
CONTINUOUS
 62
     7
 10
2.095447647656146
 20
266.1472266021292
 30
0.0
 11
1.595447647656147
 21
266.2498656153339
 31
0.0
  0
LINE
  5
F6
  8
0
  6
CONTINUOUS
 62
     7
 10
2.595447647656155
 20
220.5210060260087
 30
0.0
 11
13.59544764823405
 21
220.5210060260087
 31
0.0
  0
LINE
  5
F7
  8
0
  6
CONTINUOUS
 62
     7
 10
4.295447647656149
 20
203.9603979614177
 30
0.0
 11
22.89544764765614
 21
203.9603979614177
 31
0.0
  0
POLYLINE
  5
F8
  8
0
  6
CONTINUOUS
 62
     7
 66
     1
 10
0.0
 20
0.0
 30
0.0
  0
VERTEX
  5
2A0
  8
0
  6
CONTINUOUS
 62
     7
 10
1.595447647656147
 20
254.8791955597302
 30
0.0
  0
VERTEX
  5
2A1
  8
0
  6
CONTINUOUS
 62
     7
 10
1.595751889941313
 20
254.897471966155
 30
0.0
  0
VERTEX
  5
2A2
  8
0
  6
CONTINUOUS
 62
     7
 10
1.596665143434595
 20
254.9157441225842
 30
0.0
  0
VERTEX
  5
2A3
  8
0
  6
CONTINUOUS
 62
     7
 10
1.598660922699214
 20
254.9385213536794
 30
0.0
  0
VERTEX
  5
2A4
  8
0
  6
CONTINUOUS
 62
     7
 10
1.601608051473358
 20
254.961230421222
 30
0.0
  0
VERTEX
  5
2A5
  8
0
  6
CONTINUOUS
 62
     7
 10
1.605521617777956
 20
254.9839095232302
 30
0.0
  0
VERTEX
  5
2A6
  8
0
  6
CONTINUOUS
 62
     7
 10
1.610392477982649
 20
255.0064419498308
 30
0.0
  0
VERTEX
  5
2A7
  8
0
  6
CONTINUOUS
 62
     7
 10
1.616331920652804
 20
255.0291861013681
 30
0.0
  0
VERTEX
  5
2A8
  8
0
  6
CONTINUOUS
 62
     7
 10
1.623258941388006
 20
255.0516958765436
 30
0.0
  0
VERTEX
  5
2A9
  8
0
  6
CONTINUOUS
 62
     7
 10
1.631200582057532
 20
255.0740096335801
 30
0.0
  0
VERTEX
  5
2AA
  8
0
  6
CONTINUOUS
 62
     7
 10
1.640128390577535
 20
255.0960009988027
 30
0.0
  0
VERTEX
  5
2AB
  8
0
  6
CONTINUOUS
 62
     7
 10
1.649686751616646
 20
255.1169041348962
 30
0.0
  0
VERTEX
  5
2AC
  8
0
  6
CONTINUOUS
 62
     7
 10
1.660152882376356
 20
255.1374233535719
 30
0.0
  0
VERTEX
  5
2AD
  8
0
  6
CONTINUOUS
 62
     7
 10
1.671561659716362
 20
255.1575900398804
 30
0.0
  0
VERTEX
  5
2AE
  8
0
  6
CONTINUOUS
 62
     7
 10
1.683867140532419
 20
255.1772869178481
 30
0.0
  0
VERTEX
  5
2AF
  8
0
  6
CONTINUOUS
 62
     7
 10
1.697325125008656
 20
255.1968413467255
 30
0.0
  0
VERTEX
  5
2B0
  8
0
  6
CONTINUOUS
 62
     7
 10
1.711690788307118
 20
255.2158179102967
 30
0.0
  0
VERTEX
  5
2B1
  8
0
  6
CONTINUOUS
 62
     7
 10
1.72701345953051
 20
255.2342442570244
 30
0.0
  0
VERTEX
  5
2B2
  8
0
  6
CONTINUOUS
 62
     7
 10
1.743218202201638
 20
255.2519932665101
 30
0.0
  0
VERTEX
  5
2B3
  8
0
  6
CONTINUOUS
 62
     7
 10
1.75887981446117
 20
255.2676743190267
 30
0.0
  0
VERTEX
  5
2B4
  8
0
  6
CONTINUOUS
 62
     7
 10
1.775249847431923
 20
255.2827012942411
 30
0.0
  0
VERTEX
  5
2B5
  8
0
  6
CONTINUOUS
 62
     7
 10
1.792375147075238
 20
255.2970899737128
 30
0.0
  0
VERTEX
  5
2B6
  8
0
  6
CONTINUOUS
 62
     7
 10
1.810171694415457
 20
255.3107428640554
 30
0.0
  0
VERTEX
  5
2B7
  8
0
  6
CONTINUOUS
 62
     7
 10
1.829006972285009
 20
255.3238823073575
 30
0.0
  0
VERTEX
  5
2B8
  8
0
  6
CONTINUOUS
 62
     7
 10
1.848487590463493
 20
255.3361747341364
 30
0.0
  0
VERTEX
  5
2B9
  8
0
  6
CONTINUOUS
 62
     7
 10
1.868672235841182
 20
255.3476286338281
 30
0.0
  0
VERTEX
  5
2BA
  8
0
  6
CONTINUOUS
 62
     7
 10
1.889440481354212
 20
255.3581476265799
 30
0.0
  0
VERTEX
  5
2BB
  8
0
  6
CONTINUOUS
 62
     7
 10
1.908340147062914
 20
255.366673140585
 30
0.0
  0
VERTEX
  5
2BC
  8
0
  6
CONTINUOUS
 62
     7
 10
1.927635862221075
 20
255.3744029244446
 30
0.0
  0
VERTEX
  5
2BD
  8
0
  6
CONTINUOUS
 62
     7
 10
1.947372373987533
 20
255.3813373853889
 30
0.0
  0
VERTEX
  5
2BE
  8
0
  6
CONTINUOUS
 62
     7
 10
1.967442620451988
 20
255.387421890818
 30
0.0
  0
VERTEX
  5
2BF
  8
0
  6
CONTINUOUS
 62
     7
 10
1.98823348294251
 20
255.3927327333447
 30
0.0
  0
VERTEX
  5
2C0
  8
0
  6
CONTINUOUS
 62
     7
 10
2.009295768971771
 20
255.3971144828128
 30
0.0
  0
VERTEX
  5
2C1
  8
0
  6
CONTINUOUS
 62
     7
 10
2.030679659281644
 20
255.400560734438
 30
0.0
  0
VERTEX
  5
2C2
  8
0
  6
CONTINUOUS
 62
     7
 10
2.05225144810031
 20
255.4030338253491
 30
0.0
  0
VERTEX
  5
2C3
  8
0
  6
CONTINUOUS
 62
     7
 10
2.073802455503955
 20
255.4045121618139
 30
0.0
  0
VERTEX
  5
2C4
  8
0
  6
CONTINUOUS
 62
     7
 10
2.095447647656183
 20
255.4050068929752
 30
0.0
  0
SEQEND
  5
412
  8
0
  6
CONTINUOUS
 62
     7
  0
LINE
  5
F9
  8
0
  6
CONTINUOUS
 62
     7
 10
1.595447647656147
 20
250.0416003631054
 30
0.0
 11
1.595447647656145
 21
250.3898711961191
 31
0.0
  0
LINE
  5
FA
  8
0
  6
CONTINUOUS
 62
     7
 10
2.213399483632109
 20
238.5571242315309
 30
0.0
 11
2.095447647656713
 21
238.4603979614183
 31
0.0
  0
LINE
  5
FB
  8
0
  6
CONTINUOUS
 62
     7
 10
7.702319201198224
 20
225.0603979614177
 30
0.0
 11
7.702319201198224
 21
230.0603979614177
 31
0.0
  0
LINE
  5
FC
  8
0
  6
CONTINUOUS
 62
     7
 10
24.59544764765615
 20
224.3603979614177
 30
0.0
 11
15.59544764823405
 21
224.3603979614177
 31
0.0
  0
LINE
  5
FD
  8
0
  6
CONTINUOUS
 62
     7
 10
3.895447647656149
 20
201.9603979614177
 30
0.0
 11
23.29544764765615
 21
201.9603979614177
 31
0.0
  0
LINE
  5
FE
  8
0
  6
CONTINUOUS
 62
     7
 10
3.895447647656138
 20
209.9603979614177
 30
0.0
 11
23.29544764765616
 21
209.9603979614177
 31
0.0
  0
LINE
  5
FF
  8
0
  6
CONTINUOUS
 62
     7
 10
6.039655167710725
 20
225.0603979614177
 30
0.0
 11
13.59544764823405
 21
225.0603979614177
 31
0.0
  0
LINE
  5
100
  8
0
  6
CONTINUOUS
 62
     7
 10
19.48857609411408
 20
230.0603979614177
 30
0.0
 11
19.48857609411408
 21
225.0603979614177
 31
0.0
  0
POLYLINE
  5
101
  8
0
  6
CONTINUOUS
 62
     7
 66
     1
 10
0.0
 20
0.0
 30
0.0
  0
VERTEX
  5
2C5
  8
0
  6
CONTINUOUS
 62
     7
 10
3.595447647656144
 20
250.0416003631054
 30
0.0
  0
VERTEX
  5
2C6
  8
0
  6
CONTINUOUS
 62
     7
 10
3.595077950219067
 20
250.0214540514591
 30
0.0
  0
VERTEX
  5
2C7
  8
0
  6
CONTINUOUS
 62
     7
 10
3.593967999351216
 20
250.0013129040783
 30
0.0
  0
VERTEX
  5
2C8
  8
0
  6
CONTINUOUS
 62
     7
 10
3.592111071558893
 20
249.9811503234482
 30
0.0
  0
VERTEX
  5
2C9
  8
0
  6
CONTINUOUS
 62
     7
 10
3.589508812465295
 20
249.961046102345
 30
0.0
  0
VERTEX
  5
2CA
  8
0
  6
CONTINUOUS
 62
     7
 10
3.58611066788208
 20
249.9407546087735
 30
0.0
  0
VERTEX
  5
2CB
  8
0
  6
CONTINUOUS
 62
     7
 10
3.581947768881728
 20
249.9205782458422
 30
0.0
  0
VERTEX
  5
2CC
  8
0
  6
CONTINUOUS
 62
     7
 10
3.577006862266634
 20
249.9004900403357
 30
0.0
  0
VERTEX
  5
2CD
  8
0
  6
CONTINUOUS
 62
     7
 10
3.571300422624393
 20
249.8805744744645
 30
0.0
  0
VERTEX
  5
2CE
  8
0
  6
CONTINUOUS
 62
     7
 10
3.564069033200652
 20
249.8586939899676
 30
0.0
  0
VERTEX
  5
2CF
  8
0
  6
CONTINUOUS
 62
     7
 10
3.555899878231102
 20
249.8370981538983
 30
0.0
  0
VERTEX
  5
2D0
  8
0
  6
CONTINUOUS
 62
     7
 10
3.546764063725217
 20
249.8157522923804
 30
0.0
  0
VERTEX
  5
2D1
  8
0
  6
CONTINUOUS
 62
     7
 10
3.536695326466097
 20
249.7947751409591
 30
0.0
  0
VERTEX
  5
2D2
  8
0
  6
CONTINUOUS
 62
     7
 10
3.525483357546265
 20
249.7738219838138
 30
0.0
  0
VERTEX
  5
2D3
  8
0
  6
CONTINUOUS
 62
     7
 10
3.513319596294083
 20
249.7533397224457
 30
0.0
  0
VERTEX
  5
2D4
  8
0
  6
CONTINUOUS
 62
     7
 10
3.500161112205285
 20
249.7332960302027
 30
0.0
  0
VERTEX
  5
2D5
  8
0
  6
CONTINUOUS
 62
     7
 10
3.486067099412697
 20
249.7138202439983
 30
0.0
  0
VERTEX
  5
2D6
  8
0
  6
CONTINUOUS
 62
     7
 10
3.472067991840825
 20
249.6961809721859
 30
0.0
  0
VERTEX
  5
2D7
  8
0
  6
CONTINUOUS
 62
     7
 10
3.457281074694528
 20
249.679120974531
 30
0.0
  0
VERTEX
  5
2D8
  8
0
  6
CONTINUOUS
 62
     7
 10
3.441661787853423
 20
249.6626190014951
 30
0.0
  0
VERTEX
  5
2D9
  8
0
  6
CONTINUOUS
 62
     7
 10
3.425282770829071
 20
249.6467816108261
 30
0.0
  0
VERTEX
  5
2DA
  8
0
  6
CONTINUOUS
 62
     7
 10
3.407803811043048
 20
249.6313457122004
 30
0.0
  0
VERTEX
  5
2DB
  8
0
  6
CONTINUOUS
 62
     7
 10
3.389577874340384
 20
249.6166881748971
 30
0.0
  0
VERTEX
  5
2DC
  8
0
  6
CONTINUOUS
 62
     7
 10
3.370547063841756
 20
249.6027942461688
 30
0.0
  0
VERTEX
  5
2DD
  8
0
  6
CONTINUOUS
 62
     7
 10
3.35081944721519
 20
249.5897742108578
 30
0.0
  0
VERTEX
  5
2DE
  8
0
  6
CONTINUOUS
 62
     7
 10
3.332613221161794
 20
249.5789062512577
 30
0.0
  0
VERTEX
  5
2DF
  8
0
  6
CONTINUOUS
 62
     7
 10
3.313906278196239
 20
249.5688056273081
 30
0.0
  0
VERTEX
  5
2E0
  8
0
  6
CONTINUOUS
 62
     7
 10
3.294651949386525
 20
249.5594677259996
 30
0.0
  0
VERTEX
  5
2E1
  8
0
  6
CONTINUOUS
 62
     7
 10
3.274952692029881
 20
249.5509623866677
 30
0.0
  0
VERTEX
  5
2E2
  8
0
  6
CONTINUOUS
 62
     7
 10
3.254417062294741
 20
249.5431671993423
 30
0.0
  0
VERTEX
  5
2E3
  8
0
  6
CONTINUOUS
 62
     7
 10
3.233489390462403
 20
249.5362971363224
 30
0.0
  0
VERTEX
  5
2E4
  8
0
  6
CONTINUOUS
 62
     7
 10
3.2121155545738
 20
249.5303549729279
 30
0.0
  0
VERTEX
  5
2E5
  8
0
  6
CONTINUOUS
 62
     7
 10
3.190429661268738
 20
249.5253978466277
 30
0.0
  0
VERTEX
  5
2E6
  8
0
  6
CONTINUOUS
 62
     7
 10
3.167061285173831
 20
249.5212298428137
 30
0.0
  0
VERTEX
  5
2E7
  8
0
  6
CONTINUOUS
 62
     7
 10
3.143444282635367
 20
249.5182260682957
 30
0.0
  0
VERTEX
  5
2E8
  8
0
  6
CONTINUOUS
 62
     7
 10
3.119510605904836
 20
249.5164005237541
 30
0.0
  0
VERTEX
  5
2E9
  8
0
  6
CONTINUOUS
 62
     7
 10
3.095447647656145
 20
249.5157890298612
 30
0.0
  0
SEQEND
  5
413
  8
0
  6
CONTINUOUS
 62
     7
  0
LINE
  5
102
  8
0
  6
CONTINUOUS
 62
     7
 10
4.949639414760856
 20
238.685420647462
 30
0.0
 11
3.203142802242896
 21
238.6854206474619
 31
0.0
  0
LINE
  5
103
  8
0
  6
CONTINUOUS
 62
     7
 10
2.095447647656146
 20
249.5157890298612
 30
0.0
 11
3.095447647656145
 21
249.5157890298612
 31
0.0
  0
ARC
  5
104
  8
0
  6
CONTINUOUS
 62
     7
 10
9.595447647656245
 20
256.9603979614179
 30
0.0
 40
2.000000000000034
 50
180.0000000000016
 51
269.999999999999
  0
LINE
  5
105
  8
0
  6
CONTINUOUS
 62
     7
 10
-12.30455235234378
 20
266.4603979614179
 30
0.0
 11
-12.30455235234379
 21
238.4603979614178
 31
0.0
  0
LINE
  5
106
  8
0
  6
CONTINUOUS
 62
     7
 10
-13.30455235234379
 20
239.4603979614178
 30
0.0
 11
-13.30455235234379
 21
265.4603979614179
 31
0.0
  0
LINE
  5
107
  8
0
  6
CONTINUOUS
 62
     7
 10
3.295447647656168
 20
225.0603979614178
 30
0.0
 11
6.039655167710731
 21
225.0603979614177
 31
0.0
  0
LINE
  5
108
  8
0
  6
CONTINUOUS
 62
     7
 10
21.15124012760159
 20
230.0603979614177
 30
0.0
 11
15.59544764823405
 21
230.0603979614177
 31
0.0
  0
ARC
  5
109
  8
0
  6
CONTINUOUS
 62
     7
 10
-6.696549149781143
 20
227.5603979614178
 30
0.0
 40
10.29999999999986
 50
345.952958993637
 51
14.04704100636286
  0
LINE
  5
10A
  8
0
  6
CONTINUOUS
 62
     7
 10
3.595447647656142
 20
250.3898711961191
 30
0.0
 11
3.595447647656144
 21
250.0416003631054
 31
0.0
  0
LINE
  5
10B
  8
0
  6
CONTINUOUS
 62
     7
 10
13.59544764823405
 20
224.3603979614177
 30
0.0
 11
2.595447647656157
 21
224.3603979614177
 31
0.0
  0
LINE
  5
10C
  8
0
  6
CONTINUOUS
 62
     7
 10
3.595447647656144
 20
254.8791955597302
 30
0.0
 11
3.595447647656142
 21
254.5309247267166
 31
0.0
  0
LINE
  5
10D
  8
0
  6
CONTINUOUS
 62
     7
 10
3.595447647656144
 20
266.2498656153339
 30
0.0
 11
3.095447647656145
 21
266.1472266021292
 31
0.0
  0
LINE
  5
10E
  8
0
  6
CONTINUOUS
 62
     7
 10
1.595447647656145
 20
254.5309247267166
 30
0.0
 11
1.595447647656147
 21
254.8791955597302
 31
0.0
  0
ARC
  5
10F
  8
0
  6
CONTINUOUS
 62
     7
 10
9.595447647656183
 20
247.9603979614179
 30
0.0
 40
1.999999999999974
 50
89.99999999999926
 51
180.0000000000008
  0
LINE
  5
110
  8
0
  6
CONTINUOUS
 62
     7
 10
-6.804552352343783
 20
266.4603979614179
 30
0.0
 11
-6.804552352343786
 21
238.4603979614178
 31
0.0
  0
LINE
  5
111
  8
0
  6
CONTINUOUS
 62
     7
 10
3.095447647656145
 20
255.4050068929745
 30
0.0
 11
2.095447647656183
 21
255.4050068929752
 31
0.0
  0
POLYLINE
  5
112
  8
0
  6
CONTINUOUS
 62
     7
 66
     1
 10
0.0
 20
0.0
 30
0.0
  0
VERTEX
  5
2EA
  8
0
  6
CONTINUOUS
 62
     7
 10
2.095447647656146
 20
249.5157890298612
 30
0.0
  0
VERTEX
  5
2EB
  8
0
  6
CONTINUOUS
 62
     7
 10
2.081078512672507
 20
249.5160069987681
 30
0.0
  0
VERTEX
  5
2EC
  8
0
  6
CONTINUOUS
 62
     7
 10
2.066709377688868
 20
249.5166614425489
 30
0.0
  0
VERTEX
  5
2ED
  8
0
  6
CONTINUOUS
 62
     7
 10
2.052326312420917
 20
249.5177552515927
 30
0.0
  0
VERTEX
  5
2EE
  8
0
  6
CONTINUOUS
 62
     7
 10
2.03797110772159
 20
249.5192873272748
 30
0.0
  0
VERTEX
  5
2EF
  8
0
  6
CONTINUOUS
 62
     7
 10
2.023516633035068
 20
249.5212784269761
 30
0.0
  0
VERTEX
  5
2F0
  8
0
  6
CONTINUOUS
 62
     7
 10
2.009118952491975
 20
249.5237141151405
 30
0.0
  0
VERTEX
  5
2F1
  8
0
  6
CONTINUOUS
 62
     7
 10
1.994764063409529
 20
249.5265983837361
 30
0.0
  0
VERTEX
  5
2F2
  8
0
  6
CONTINUOUS
 62
     7
 10
1.980494567787034
 20
249.5299241194139
 30
0.0
  0
VERTEX
  5
2F3
  8
0
  6
CONTINUOUS
 62
     7
 10
1.961956364332633
 20
249.5349424521213
 30
0.0
  0
VERTEX
  5
2F4
  8
0
  6
CONTINUOUS
 62
     7
 10
1.94361226136255
 20
249.5407058047321
 30
0.0
  0
VERTEX
  5
2F5
  8
0
  6
CONTINUOUS
 62
     7
 10
1.925432548881806
 20
249.547227335897
 30
0.0
  0
VERTEX
  5
2F6
  8
0
  6
CONTINUOUS
 62
     7
 10
1.907508756944121
 20
249.5544776100946
 30
0.0
  0
VERTEX
  5
2F7
  8
0
  6
CONTINUOUS
 62
     7
 10
1.889572286288757
 20
249.5625854566499
 30
0.0
  0
VERTEX
  5
2F8
  8
0
  6
CONTINUOUS
 62
     7
 10
1.87195973412098
 20
249.5714189081209
 30
0.0
  0
VERTEX
  5
2F9
  8
0
  6
CONTINUOUS
 62
     7
 10
1.854642541998975
 20
249.5809947100192
 30
0.0
  0
VERTEX
  5
2FA
  8
0
  6
CONTINUOUS
 62
     7
 10
1.837707734153919
 20
249.5912668580686
 30
0.0
  0
VERTEX
  5
2FB
  8
0
  6
CONTINUOUS
 62
     7
 10
1.821212454643463
 20
249.6021953086123
 30
0.0
  0
VERTEX
  5
2FC
  8
0
  6
CONTINUOUS
 62
     7
 10
1.805149633165408
 20
249.6137790003528
 30
0.0
  0
VERTEX
  5
2FD
  8
0
  6
CONTINUOUS
 62
     7
 10
1.789494245204125
 20
249.6260372373813
 30
0.0
  0
VERTEX
  5
2FE
  8
0
  6
CONTINUOUS
 62
     7
 10
1.774320877193685
 20
249.638912777778
 30
0.0
  0
VERTEX
  5
2FF
  8
0
  6
CONTINUOUS
 62
     7
 10
1.759419959710537
 20
249.6526044251395
 30
0.0
  0
VERTEX
  5
300
  8
0
  6
CONTINUOUS
 62
     7
 10
1.74506011301033
 20
249.6668870917131
 30
0.0
  0
VERTEX
  5
301
  8
0
  6
CONTINUOUS
 62
     7
 10
1.731219412738138
 20
249.6817837985074
 30
0.0
  0
VERTEX
  5
302
  8
0
  6
CONTINUOUS
 62
     7
 10
1.717962773849191
 20
249.6972260764364
 30
0.0
  0
VERTEX
  5
303
  8
0
  6
CONTINUOUS
 62
     7
 10
1.704943971284236
 20
249.7136677910922
 30
0.0
  0
VERTEX
  5
304
  8
0
  6
CONTINUOUS
 62
     7
 10
1.692581492229382
 20
249.7306341154264
 30
0.0
  0
VERTEX
  5
305
  8
0
  6
CONTINUOUS
 62
     7
 10
1.680857007166517
 20
249.7481530637003
 30
0.0
  0
VERTEX
  5
306
  8
0
  6
CONTINUOUS
 62
     7
 10
1.669827193597363
 20
249.7661434993362
 30
0.0
  0
VERTEX
  5
307
  8
0
  6
CONTINUOUS
 62
     7
 10
1.65934794419733
 20
249.7848760287515
 30
0.0
  0
VERTEX
  5
308
  8
0
  6
CONTINUOUS
 62
     7
 10
1.649617004263304
 20
249.8040361503514
 30
0.0
  0
VERTEX
  5
309
  8
0
  6
CONTINUOUS
 62
     7
 10
1.640621743928671
 20
249.8236558520584
 30
0.0
  0
VERTEX
  5
30A
  8
0
  6
CONTINUOUS
 62
     7
 10
1.632407616926774
 20
249.8436448376675
 30
0.0
  0
VERTEX
  5
30B
  8
0
  6
CONTINUOUS
 62
     7
 10
1.624790830842477
 20
249.8645470707684
 30
0.0
  0
VERTEX
  5
30C
  8
0
  6
CONTINUOUS
 62
     7
 10
1.618025836791404
 20
249.8857743110733
 30
0.0
  0
VERTEX
  5
30D
  8
0
  6
CONTINUOUS
 62
     7
 10
1.612106990072679
 20
249.9073636348012
 30
0.0
  0
VERTEX
  5
30E
  8
0
  6
CONTINUOUS
 62
     7
 10
1.607069363187063
 20
249.9292117369583
 30
0.0
  0
VERTEX
  5
30F
  8
0
  6
CONTINUOUS
 62
     7
 10
1.602861252463334
 20
249.9516593030676
 30
0.0
  0
VERTEX
  5
310
  8
0
  6
CONTINUOUS
 62
     7
 10
1.599585936094133
 20
249.9743023912419
 30
0.0
  0
VERTEX
  5
311
  8
0
  6
CONTINUOUS
 62
     7
 10
1.597246791937837
 20
249.99718161139
 30
0.0
  0
VERTEX
  5
312
  8
0
  6
CONTINUOUS
 62
     7
 10
1.595865507452662
 20
250.0201822642667
 30
0.0
  0
VERTEX
  5
313
  8
0
  6
CONTINUOUS
 62
     7
 10
1.595447647656147
 20
250.0416003631054
 30
0.0
  0
SEQEND
  5
414
  8
0
  6
CONTINUOUS
 62
     7
  0
LINE
  5
113
  8
0
  6
CONTINUOUS
 62
     7
 10
4.195447647656147
 20
200.9603979614177
 30
0.0
 11
22.99544764765614
 21
200.9603979614177
 31
0.0
  0
LINE
  5
114
  8
0
  6
CONTINUOUS
 62
     7
 10
3.295447647656168
 20
230.0603979614177
 30
0.0
 11
6.03965516771073
 21
230.0603979614177
 31
0.0
  0
LINE
  5
115
  8
0
  6
CONTINUOUS
 62
     7
 10
9.59544764765621
 20
254.9603979614179
 30
0.0
 11
13.59544764823405
 21
254.9603979614179
 31
0.0
  0
LINE
  5
116
  8
0
  6
CONTINUOUS
 62
     7
 10
13.59544764823405
 20
249.9603979614179
 30
0.0
 11
9.59544764765621
 21
249.9603979614179
 31
0.0
  0
LINE
  5
117
  8
0
  6
CONTINUOUS
 62
     7
 10
7.59544764765621
 20
247.9603979614179
 30
0.0
 11
7.59544764765621
 21
246.8145646280845
 31
0.0
  0
LINE
  5
118
  8
0
  6
CONTINUOUS
 62
     7
 10
13.59544764823405
 20
234.2603979614178
 30
0.0
 11
2.595447647656155
 21
234.2603979614178
 31
0.0
  0
LINE
  5
119
  8
0
  6
CONTINUOUS
 62
     7
 10
21.15124012760159
 20
230.0603979614177
 30
0.0
 11
23.89544764765615
 21
230.0603979614177
 31
0.0
  0
LINE
  5
11A
  8
0
  6
CONTINUOUS
 62
     7
 10
13.59544764823405
 20
230.0603979614177
 30
0.0
 11
6.039655167710715
 21
230.0603979614177
 31
0.0
  0
LINE
  5
11B
  8
0
  6
CONTINUOUS
 62
     7
 10
3.895447647656147
 20
204.9603979614177
 30
0.0
 11
23.29544764765615
 21
204.9603979614177
 31
0.0
  0
LINE
  5
11C
  8
0
  6
CONTINUOUS
 62
     7
 10
21.15124012760159
 20
230.0603979614177
 30
0.0
 11
21.15124012760159
 21
225.0603979614177
 31
0.0
  0
LINE
  5
11D
  8
0
  6
CONTINUOUS
 62
     7
 10
3.295447647656156
 20
230.0603979614177
 30
0.0
 11
3.295644439198798
 21
230.0595871799227
 31
0.0
  0
LINE
  5
11E
  8
0
  6
CONTINUOUS
 62
     7
 10
19.04544764765615
 20
199.9603979614178
 30
0.0
 11
8.145447647656145
 21
199.9603979614178
 31
0.0
  0
LINE
  5
11F
  8
0
  6
CONTINUOUS
 62
     7
 10
3.595447647656144
 20
254.5309247267166
 30
0.0
 11
3.595447647656144
 21
250.3898711961191
 31
0.0
  0
POLYLINE
  5
120
  8
0
  6
CONTINUOUS
 62
     7
 66
     1
 10
0.0
 20
0.0
 30
0.0
  0
VERTEX
  5
314
  8
0
  6
CONTINUOUS
 62
     7
 10
3.095447647656145
 20
255.4050068929745
 30
0.0
  0
VERTEX
  5
315
  8
0
  6
CONTINUOUS
 62
     7
 10
3.115031774608167
 20
255.4046019273807
 30
0.0
  0
VERTEX
  5
316
  8
0
  6
CONTINUOUS
 62
     7
 10
3.134615901560188
 20
255.4033851741264
 30
0.0
  0
VERTEX
  5
317
  8
0
  6
CONTINUOUS
 62
     7
 10
3.154235513141586
 20
255.4013465879356
 30
0.0
  0
VERTEX
  5
318
  8
0
  6
CONTINUOUS
 62
     7
 10
3.173784155464231
 20
255.3984899665242
 30
0.0
  0
VERTEX
  5
319
  8
0
  6
CONTINUOUS
 62
     7
 10
3.193589790799516
 20
255.3947416567217
 30
0.0
  0
VERTEX
  5
31A
  8
0
  6
CONTINUOUS
 62
     7
 10
3.21324825426723
 20
255.3901526577143
 30
0.0
  0
VERTEX
  5
31B
  8
0
  6
CONTINUOUS
 62
     7
 10
3.232795376013882
 20
255.3847085657125
 30
0.0
  0
VERTEX
  5
31C
  8
0
  6
CONTINUOUS
 62
     7
 10
3.252120663272318
 20
255.3784346843138
 30
0.0
  0
VERTEX
  5
31D
  8
0
  6
CONTINUOUS
 62
     7
 10
3.27043574841205
 20
255.3716401087956
 30
0.0
  0
VERTEX
  5
31E
  8
0
  6
CONTINUOUS
 62
     7
 10
3.288481212576586
 20
255.3641038283748
 30
0.0
  0
VERTEX
  5
31F
  8
0
  6
CONTINUOUS
 62
     7
 10
3.306286482463542
 20
255.3558105136815
 30
0.0
  0
VERTEX
  5
320
  8
0
  6
CONTINUOUS
 62
     7
 10
3.323761265433796
 20
255.3467995521118
 30
0.0
  0
VERTEX
  5
321
  8
0
  6
CONTINUOUS
 62
     7
 10
3.341167061806106
 20
255.3369153891163
 30
0.0
  0
VERTEX
  5
322
  8
0
  6
CONTINUOUS
 62
     7
 10
3.358174215240291
 20
255.3263243410319
 30
0.0
  0
VERTEX
  5
323
  8
0
  6
CONTINUOUS
 62
     7
 10
3.374810402398419
 20
255.3150073113319
 30
0.0
  0
VERTEX
  5
324
  8
0
  6
CONTINUOUS
 62
     7
 10
3.390992157871898
 20
255.3030194178029
 30
0.0
  0
VERTEX
  5
325
  8
0
  6
CONTINUOUS
 62
     7
 10
3.406638674784602
 20
255.2904294878208
 30
0.0
  0
VERTEX
  5
326
  8
0
  6
CONTINUOUS
 62
     7
 10
3.421786287568321
 20
255.2772176005283
 30
0.0
  0
VERTEX
  5
327
  8
0
  6
CONTINUOUS
 62
     7
 10
3.436458447862492
 20
255.2633621760059
 30
0.0
  0
VERTEX
  5
328
  8
0
  6
CONTINUOUS
 62
     7
 10
3.450585725631816
 20
255.2489276007476
 30
0.0
  0
VERTEX
  5
329
  8
0
  6
CONTINUOUS
 62
     7
 10
3.46435989667599
 20
255.2336948059216
 30
0.0
  0
VERTEX
  5
32A
  8
0
  6
CONTINUOUS
 62
     7
 10
3.477532279032636
 20
255.2179144978348
 30
0.0
  0
VERTEX
  5
32B
  8
0
  6
CONTINUOUS
 62
     7
 10
3.490122552726862
 20
255.2015612870705
 30
0.0
  0
VERTEX
  5
32C
  8
0
  6
CONTINUOUS
 62
     7
 10
3.502071594735548
 20
255.1847097284457
 30
0.0
  0
VERTEX
  5
32D
  8
0
  6
CONTINUOUS
 62
     7
 10
3.513724852237308
 20
255.1668063067492
 30
0.0
  0
VERTEX
  5
32E
  8
0
  6
CONTINUOUS
 62
     7
 10
3.524660098163428
 20
255.1484282332563
 30
0.0
  0
VERTEX
  5
32F
  8
0
  6
CONTINUOUS
 62
     7
 10
3.534892699313456
 20
255.1295446788435
 30
0.0
  0
VERTEX
  5
330
  8
0
  6
CONTINUOUS
 62
     7
 10
3.544371707487387
 20
255.1102434497742
 30
0.0
  0
VERTEX
  5
331
  8
0
  6
CONTINUOUS
 62
     7
 10
3.553217888992996
 20
255.0902325212409
 30
0.0
  0
VERTEX
  5
332
  8
0
  6
CONTINUOUS
 62
     7
 10
3.561257583520915
 20
255.069852999319
 30
0.0
  0
VERTEX
  5
333
  8
0
  6
CONTINUOUS
 62
     7
 10
3.568499547833609
 20
255.0490700992273
 30
0.0
  0
VERTEX
  5
334
  8
0
  6
CONTINUOUS
 62
     7
 10
3.574904424804065
 20
255.0279810324731
 30
0.0
  0
VERTEX
  5
335
  8
0
  6
CONTINUOUS
 62
     7
 10
3.579644562648038
 20
255.0099908670862
 30
0.0
  0
VERTEX
  5
336
  8
0
  6
CONTINUOUS
 62
     7
 10
3.583774456421034
 20
254.9918300664708
 30
0.0
  0
VERTEX
  5
337
  8
0
  6
CONTINUOUS
 62
     7
 10
3.587295639017846
 20
254.9734771414136
 30
0.0
  0
VERTEX
  5
338
  8
0
  6
CONTINUOUS
 62
     7
 10
3.590192749268936
 20
254.9549931340531
 30
0.0
  0
VERTEX
  5
339
  8
0
  6
CONTINUOUS
 62
     7
 10
3.592483370813656
 20
254.9361826267573
 30
0.0
  0
VERTEX
  5
33A
  8
0
  6
CONTINUOUS
 62
     7
 10
3.594125568692888
 20
254.9172799557582
 30
0.0
  0
VERTEX
  5
33B
  8
0
  6
CONTINUOUS
 62
     7
 10
3.59511651710241
 20
254.8982623303915
 30
0.0
  0
VERTEX
  5
33C
  8
0
  6
CONTINUOUS
 62
     7
 10
3.595447647656144
 20
254.8791955597302
 30
0.0
  0
SEQEND
  5
415
  8
0
  6
CONTINUOUS
 62
     7
  0
LINE
  5
121
  8
0
  6
CONTINUOUS
 62
     7
 10
15.59544764823405
 20
225.0603979614177
 30
0.0
 11
21.15124012760159
 21
225.0603979614177
 31
0.0
  0
LINE
  5
122
  8
0
  6
CONTINUOUS
 62
     7
 10
3.345447647656159
 20
210.5103979614178
 30
0.0
 11
23.84544764765614
 21
210.5103979614177
 31
0.0
  0
LINE
  5
123
  8
0
  6
CONTINUOUS
 62
     7
 10
4.045447647656145
 20
202.9603979614177
 30
0.0
 11
23.14544764765615
 21
202.9603979614177
 31
0.0
  0
LINE
  5
124
  8
0
  6
CONTINUOUS
 62
     7
 10
23.29544764765615
 20
202.8103979614177
 30
0.0
 11
3.895447647656144
 21
202.8103979614177
 31
0.0
  0
LINE
  5
125
  8
0
  6
CONTINUOUS
 62
     7
 10
21.15124012760158
 20
225.0603979614177
 30
0.0
 11
23.89544764765614
 21
225.0603979614177
 31
0.0
  0
ARC
  5
126
  8
0
  6
CONTINUOUS
 62
     7
 10
33.88745375774333
 20
227.5603979614177
 30
0.0
 40
10.30000903417174
 50
165.9529715672788
 51
194.047028432721
  0
LINE
  5
127
  8
0
  6
CONTINUOUS
 62
     7
 10
-3.304552352343787
 20
266.4603979614179
 30
0.0
 11
-3.30455235234379
 21
238.4603979614178
 31
0.0
  0
LINE
  5
128
  8
0
  6
CONTINUOUS
 62
     7
 10
15.59544764823405
 20
220.5210060260087
 30
0.0
 11
24.59544764765617
 21
220.5210060260087
 31
0.0
  0
LINE
  5
129
  8
0
  6
CONTINUOUS
 62
     7
 10
6.03965516771072
 20
225.0603979614177
 30
0.0
 11
6.039655167710719
 21
230.0603979614177
 31
0.0
  0
LINE
  5
12A
  8
0
  6
CONTINUOUS
 62
     7
 10
1.595447647656147
 20
250.3898711961191
 30
0.0
 11
1.595447647656147
 21
254.5309247267166
 31
0.0
  0
ARC
  5
12B
  8
0
  6
CONTINUOUS
 62
     7
 10
19.32395974598132
 20
216.1121612146567
 30
0.0
 40
26.76141114375832
 50
113.7461071368018
 51
122.4883859150581
  0
LINE
  5
12C
  8
0
  6
CONTINUOUS
 62
     7
 10
2.213399483632108
 20
238.5571242315309
 30
0.0
 11
3.203142802242896
 21
238.6854206474619
 31
0.0
  0
LINE
  5
12D
  8
0
  6
CONTINUOUS
 62
     7
 10
33.09544764823402
 20
239.0603979608399
 30
0.0
 11
33.69544764765601
 21
238.4603979614178
 31
0.0
  0
LINE
  5
12E
  8
0
  6
CONTINUOUS
 62
     7
 10
24.59544764765616
 20
230.7603979614177
 30
0.0
 11
24.59544764765616
 21
234.2603979614177
 31
0.0
  0
LINE
  5
12F
  8
0
  6
CONTINUOUS
 62
     7
 10
2.595447647656151
 20
224.3603979614178
 30
0.0
 11
2.595447647656151
 21
220.5210060260087
 31
0.0
  0
LINE
  5
130
  8
0
  6
CONTINUOUS
 62
     7
 10
1.595447647656147
 20
266.2498656153339
 30
0.0
 11
1.595447647656147
 21
268.2250076589073
 31
0.0
  0
LINE
  5
131
  8
0
  6
CONTINUOUS
 62
     7
 10
3.295447647656151
 20
225.0603979614177
 30
0.0
 11
2.595447647656151
 21
224.3603979614178
 31
0.0
  0
LINE
  5
132
  8
0
  6
CONTINUOUS
 62
     7
 10
2.595447647656155
 20
220.5210060260087
 30
0.0
 11
2.742373855515241
 21
220.1173295875898
 31
0.0
  0
LINE
  5
133
  8
0
  6
CONTINUOUS
 62
     7
 10
24.44852143979707
 20
220.1173295875898
 30
0.0
 11
24.59544764765615
 21
220.5210060260087
 31
0.0
  0
ARC
  5
134
  8
0
  6
CONTINUOUS
 62
     7
 10
33.84544764765616
 20
216.6971281543331
 30
0.0
 40
10.0
 50
160.0
 51
180.0
  0
LINE
  5
135
  8
0
  6
CONTINUOUS
 62
     7
 10
23.84544764765615
 20
210.5103979614177
 30
0.0
 11
23.84544764765615
 21
216.6971281543331
 31
0.0
  0
LINE
  5
136
  8
0
  6
CONTINUOUS
 62
     7
 10
3.345447647656151
 20
216.6971281543331
 30
0.0
 11
3.345447647656147
 21
210.5103979614178
 31
0.0
  0
LINE
  5
137
  8
0
  6
CONTINUOUS
 62
     7
 10
1.595447647656147
 20
268.2250076589073
 30
0.0
 11
1.595447647656147
 21
268.3603979614178
 31
0.0
  0
ARC
  5
138
  8
0
  6
CONTINUOUS
 62
     7
 10
-6.654552352343851
 20
216.6971281543331
 30
0.0
 40
9.999999999999996
 50
0.0
 51
19.99999999999994
  0
LINE
  5
139
  8
0
  6
CONTINUOUS
 62
     7
 10
2.09544764765616
 20
234.5603979614178
 30
0.0
 11
13.59544764823405
 21
234.5603979614178
 31
0.0
  0
LINE
  5
13A
  8
0
  6
CONTINUOUS
 62
     7
 10
24.99544764765616
 20
234.4603979614178
 30
0.0
 11
15.59544764823405
 21
234.4603979614178
 31
0.0
  0
ARC
  5
13B
  8
0
  6
CONTINUOUS
 62
     7
 10
6.809103961575328
 20
244.1180061444559
 30
0.0
 40
3.917002982866133
 50
296.3479663750875
 51
333.7686327136635
  0
LINE
  5
13C
  8
0
  6
CONTINUOUS
 62
     7
 10
3.595447647656144
 20
268.3603979614178
 30
0.0
 11
3.595447647656144
 21
268.2250076589073
 31
0.0
  0
LINE
  5
13D
  8
0
  6
CONTINUOUS
 62
     7
 10
3.695952711044507
 20
237.4603979614178
 30
0.0
 11
13.59544764823405
 21
237.4603979614178
 31
0.0
  0
LINE
  5
13E
  8
0
  6
CONTINUOUS
 62
     7
 10
33.19544764765633
 20
250.160397961418
 30
0.0
 11
33.19544764765633
 21
254.760397961418
 31
0.0
  0
LINE
  5
13F
  8
0
  6
CONTINUOUS
 62
     7
 10
33.69544764765634
 20
254.260397961418
 30
0.0
 11
33.69544764765634
 21
250.660397961418
 31
0.0
  0
LINE
  5
140
  8
0
  6
CONTINUOUS
 62
     7
 10
13.59544764823405
 20
234.4603979614178
 30
0.0
 11
2.195447647656159
 21
234.4603979614178
 31
0.0
  0
LINE
  5
141
  8
0
  6
CONTINUOUS
 62
     7
 10
2.795447647656156
 20
234.4603979614178
 30
0.0
 11
2.595447647656155
 21
234.2603979614178
 31
0.0
  0
LINE
  5
142
  8
0
  6
CONTINUOUS
 62
     7
 10
15.59544764823405
 20
234.5603979614178
 30
0.0
 11
25.09544764765617
 21
234.5603979614178
 31
0.0
  0
LINE
  5
143
  8
0
  6
CONTINUOUS
 62
     7
 10
33.09544764823402
 20
259.0603979608398
 30
0.0
 11
33.69544764765602
 21
258.4603979614178
 31
0.0
  0
LINE
  5
144
  8
0
  6
CONTINUOUS
 62
     7
 10
2.595447647656155
 20
234.2603979614178
 30
0.0
 11
2.595447647656153
 21
230.7603979614178
 31
0.0
  0
LINE
  5
145
  8
0
  6
CONTINUOUS
 62
     7
 10
4.949639414760856
 20
238.685420647462
 30
0.0
 11
4.949639414760867
 21
238.4603979614178
 31
0.0
  0
LINE
  5
146
  8
0
  6
CONTINUOUS
 62
     7
 10
33.69544764765601
 20
246.4603979614179
 30
0.0
 11
33.09544764823402
 21
245.8603979619959
 31
0.0
  0
LINE
  5
147
  8
0
  6
CONTINUOUS
 62
     7
 10
7.595447647656212
 20
264.4603979614179
 30
0.0
 11
7.595447647656211
 21
256.9603979614179
 31
0.0
  0
LINE
  5
148
  8
0
  6
CONTINUOUS
 62
     7
 10
24.59544764765616
 20
234.2603979614177
 30
0.0
 11
24.39544764765616
 21
234.4603979614177
 31
0.0
  0
LINE
  5
149
  8
0
  6
CONTINUOUS
 62
     7
 10
2.595447647656153
 20
230.7603979614178
 30
0.0
 11
3.295447647656158
 21
230.0603979614177
 31
0.0
  0
LINE
  5
14A
  8
0
  6
CONTINUOUS
 62
     7
 10
23.89544764765616
 20
230.0603979614177
 30
0.0
 11
24.59544764765616
 21
230.7603979614177
 31
0.0
  0
LINE
  5
14B
  8
0
  6
CONTINUOUS
 62
     7
 10
24.59544764765616
 20
220.5210060260087
 30
0.0
 11
24.59544764765616
 21
224.3603979614177
 31
0.0
  0
POLYLINE
  5
14C
  8
0
  6
CONTINUOUS
 62
     7
 66
     1
 10
0.0
 20
0.0
 30
0.0
  0
VERTEX
  5
33D
  8
0
  6
CONTINUOUS
 62
     7
 10
4.949639414760867
 20
238.4603979614178
 30
0.0
  0
VERTEX
  5
33E
  8
0
  6
CONTINUOUS
 62
     7
 10
4.949373637704653
 20
238.4338100138785
 30
0.0
  0
VERTEX
  5
33F
  8
0
  6
CONTINUOUS
 62
     7
 10
4.94857579106487
 20
238.4072220663393
 30
0.0
  0
VERTEX
  5
340
  8
0
  6
CONTINUOUS
 62
     7
 10
4.9474955676263
 20
238.3849287323237
 30
0.0
  0
VERTEX
  5
341
  8
0
  6
CONTINUOUS
 62
     7
 10
4.946043150534608
 20
238.3626940428157
 30
0.0
  0
VERTEX
  5
342
  8
0
  6
CONTINUOUS
 62
     7
 10
4.944214633316525
 20
238.3404664620028
 30
0.0
  0
VERTEX
  5
343
  8
0
  6
CONTINUOUS
 62
     7
 10
4.942017284043906
 20
238.3183316959116
 30
0.0
  0
VERTEX
  5
344
  8
0
  6
CONTINUOUS
 62
     7
 10
4.939409863037414
 20
238.2959480963947
 30
0.0
  0
VERTEX
  5
345
  8
0
  6
CONTINUOUS
 62
     7
 10
4.936429856251829
 20
238.2736940074498
 30
0.0
  0
VERTEX
  5
346
  8
0
  6
CONTINUOUS
 62
     7
 10
4.933071256640686
 20
238.2515177733011
 30
0.0
  0
VERTEX
  5
347
  8
0
  6
CONTINUOUS
 62
     7
 10
4.929348505073508
 20
238.2295039002117
 30
0.0
  0
VERTEX
  5
348
  8
0
  6
CONTINUOUS
 62
     7
 10
4.924367185586819
 20
238.2031133209548
 30
0.0
  0
VERTEX
  5
349
  8
0
  6
CONTINUOUS
 62
     7
 10
4.918867385433987
 20
238.1769801671263
 30
0.0
  0
VERTEX
  5
34A
  8
0
  6
CONTINUOUS
 62
     7
 10
4.911075957193648
 20
238.1438946673773
 30
0.0
  0
VERTEX
  5
34B
  8
0
  6
CONTINUOUS
 62
     7
 10
4.902472461609792
 20
238.1113126679886
 30
0.0
  0
VERTEX
  5
34C
  8
0
  6
CONTINUOUS
 62
     7
 10
4.893011835862689
 20
238.0790507767304
 30
0.0
  0
VERTEX
  5
34D
  8
0
  6
CONTINUOUS
 62
     7
 10
4.882799319079084
 20
238.0474413509935
 30
0.0
  0
VERTEX
  5
34E
  8
0
  6
CONTINUOUS
 62
     7
 10
4.871796931141982
 20
238.0163317047271
 30
0.0
  0
VERTEX
  5
34F
  8
0
  6
CONTINUOUS
 62
     7
 10
4.860099293635551
 20
237.9859504221749
 30
0.0
  0
VERTEX
  5
350
  8
0
  6
CONTINUOUS
 62
     7
 10
4.847634566155588
 20
237.9560841961602
 30
0.0
  0
VERTEX
  5
351
  8
0
  6
CONTINUOUS
 62
     7
 10
4.83451221624627
 20
237.9269723011737
 30
0.0
  0
VERTEX
  5
352
  8
0
  6
CONTINUOUS
 62
     7
 10
4.823776597425254
 20
237.9046760286231
 30
0.0
  0
VERTEX
  5
353
  8
0
  6
CONTINUOUS
 62
     7
 10
4.81267345739713
 20
237.8828760635595
 30
0.0
  0
VERTEX
  5
354
  8
0
  6
CONTINUOUS
 62
     7
 10
4.793305939127205
 20
237.8475192891041
 30
0.0
  0
VERTEX
  5
355
  8
0
  6
CONTINUOUS
 62
     7
 10
4.773003903264606
 20
237.8135898682825
 30
0.0
  0
VERTEX
  5
356
  8
0
  6
CONTINUOUS
 62
     7
 10
4.755998945768295
 20
237.7872960530645
 30
0.0
  0
VERTEX
  5
357
  8
0
  6
CONTINUOUS
 62
     7
 10
4.738468376827872
 20
237.7619757912297
 30
0.0
  0
VERTEX
  5
358
  8
0
  6
CONTINUOUS
 62
     7
 10
4.720365170557239
 20
237.7375366616425
 30
0.0
  0
VERTEX
  5
359
  8
0
  6
CONTINUOUS
 62
     7
 10
4.701796710548973
 20
237.7141011547033
 30
0.0
  0
VERTEX
  5
35A
  8
0
  6
CONTINUOUS
 62
     7
 10
4.679674315910901
 20
237.6881379569365
 30
0.0
  0
VERTEX
  5
35B
  8
0
  6
CONTINUOUS
 62
     7
 10
4.657006807899523
 20
237.6635463212396
 30
0.0
  0
VERTEX
  5
35C
  8
0
  6
CONTINUOUS
 62
     7
 10
4.63373068954459
 20
237.6402317477894
 30
0.0
  0
VERTEX
  5
35D
  8
0
  6
CONTINUOUS
 62
     7
 10
4.609990917729968
 20
237.6183171235733
 30
0.0
  0
VERTEX
  5
35E
  8
0
  6
CONTINUOUS
 62
     7
 10
4.585639270440663
 20
237.5976548809805
 30
0.0
  0
VERTEX
  5
35F
  8
0
  6
CONTINUOUS
 62
     7
 10
4.560896787968622
 20
237.578424617319
 30
0.0
  0
VERTEX
  5
360
  8
0
  6
CONTINUOUS
 62
     7
 10
4.535689474949206
 20
237.5605549994897
 30
0.0
  0
VERTEX
  5
361
  8
0
  6
CONTINUOUS
 62
     7
 10
4.510161808189934
 20
237.5441375597892
 30
0.0
  0
VERTEX
  5
362
  8
0
  6
CONTINUOUS
 62
     7
 10
4.480300197368388
 20
237.5269742423839
 30
0.0
  0
VERTEX
  5
363
  8
0
  6
CONTINUOUS
 62
     7
 10
4.450102120994363
 20
237.5117581153591
 30
0.0
  0
VERTEX
  5
364
  8
0
  6
CONTINUOUS
 62
     7
 10
4.419460920783089
 20
237.4984334449892
 30
0.0
  0
VERTEX
  5
365
  8
0
  6
CONTINUOUS
 62
     7
 10
4.388577033221575
 20
237.4870899076282
 30
0.0
  0
VERTEX
  5
366
  8
0
  6
CONTINUOUS
 62
     7
 10
4.357225896326283
 20
237.4776631896344
 30
0.0
  0
VERTEX
  5
367
  8
0
  6
CONTINUOUS
 62
     7
 10
4.325720785905513
 20
237.4702700075492
 30
0.0
  0
VERTEX
  5
368
  8
0
  6
CONTINUOUS
 62
     7
 10
4.293947784838658
 20
237.4648994277934
 30
0.0
  0
VERTEX
  5
369
  8
0
  6
CONTINUOUS
 62
     7
 10
4.262109864214729
 20
237.4616060073061
 30
0.0
  0
VERTEX
  5
36A
  8
0
  6
CONTINUOUS
 62
     7
 10
4.231676438548067
 20
237.4604123711924
 30
0.0
  0
VERTEX
  5
36B
  8
0
  6
CONTINUOUS
 62
     7
 10
4.22795065005856
 20
237.4603979614178
 30
0.0
  0
SEQEND
  5
416
  8
0
  6
CONTINUOUS
 62
     7
  0
LINE
  5
14D
  8
0
  6
CONTINUOUS
 62
     7
 10
33.69544764765602
 20
266.4603979614179
 30
0.0
 11
33.09544764823402
 21
265.8603979619958
 31
0.0
  0
LINE
  5
14E
  8
0
  6
CONTINUOUS
 62
     7
 10
3.595447647656144
 20
268.2250076589073
 30
0.0
 11
3.595447647656144
 21
266.2498656153339
 31
0.0
  0
LINE
  5
14F
  8
0
  6
CONTINUOUS
 62
     7
 10
24.59544764765616
 20
224.3603979614177
 30
0.0
 11
23.89544764765616
 21
225.0603979614177
 31
0.0
  0
LINE
  5
150
  8
0
  6
CONTINUOUS
 62
     7
 10
61.99544764765629
 20
233.4603979617388
 30
0.0
 11
59.19544764765629
 21
233.4603979617388
 31
0.0
  0
CIRCLE
  5
151
  8
0
  6
CONTINUOUS
 62
     7
 10
58.19544764765629
 20
227.4603979617388
 30
0.0
 40
2.499999999999995
  0
LINE
  5
152
  8
0
  6
CONTINUOUS
 62
     7
 10
89.3954476476563
 20
233.4603979617388
 30
0.0
 11
92.1954476476563
 21
233.4603979617388
 31
0.0
  0
CIRCLE
  5
153
  8
0
  6
CONTINUOUS
 62
     7
 10
93.1954476476563
 20
227.4603979617388
 30
0.0
 40
2.499999999999988
  0
LINE
  5
154
  8
0
  6
CONTINUOUS
 62
     7
 10
85.99544764765629
 20
230.0603979614177
 30
0.0
 11
82.6954476476563
 21
230.0603979614177
 31
0.0
  0
ARC
  5
155
  8
0
  6
CONTINUOUS
 62
     7
 10
55.19544764765629
 20
223.4603979617388
 30
0.0
 40
2.999999999999996
 50
179.9999999999999
 51
270.0
  0
LINE
  5
156
  8
0
  6
CONTINUOUS
 62
     7
 10
68.6954476476563
 20
230.0603979614177
 30
0.0
 11
65.3954476476563
 21
230.0603979614177
 31
0.0
  0
ARC
  5
157
  8
0
  6
CONTINUOUS
 62
     7
 10
59.49544764765629
 20
223.4603979617388
 30
0.0
 40
3.000000000000003
 50
270.0
 51
0.0
  0
LINE
  5
158
  8
0
  6
CONTINUOUS
 62
     7
 10
65.39544764765628
 20
225.0603979614177
 30
0.0
 11
68.6954476476563
 21
225.0603979614177
 31
0.0
  0
LINE
  5
159
  8
0
  6
CONTINUOUS
 62
     7
 10
82.6954476476563
 20
225.0603979614177
 30
0.0
 11
85.99544764765629
 21
225.0603979614177
 31
0.0
  0
LINE
  5
15A
  8
0
  6
CONTINUOUS
 62
     7
 10
68.6954476476563
 20
230.0603979614177
 30
0.0
 11
75.6954476476563
 21
230.0603979614177
 31
0.0
  0
ARC
  5
15B
  8
0
  6
CONTINUOUS
 62
     7
 10
75.69545480750197
 20
227.5603979614177
 30
0.0
 40
2.500000000010227
 50
90.00016409157567
 51
269.9998359084244
  0
ARC
  5
15C
  8
0
  6
CONTINUOUS
 62
     7
 10
89.3954476476563
 20
232.9603979617388
 30
0.0
 40
0.5000000000000004
 50
90.0
 51
180.0
  0
LINE
  5
15D
  8
0
  6
CONTINUOUS
 62
     7
 10
64.6954476476563
 20
220.5210060260087
 30
0.0
 11
75.6954476476563
 21
220.5210060260087
 31
0.0
  0
LINE
  5
15E
  8
0
  6
CONTINUOUS
 62
     7
 10
65.99544764765629
 20
209.9603979614177
 30
0.0
 11
75.6954476476563
 21
209.9603979614177
 31
0.0
  0
ARC
  5
15F
  8
0
  6
CONTINUOUS
 62
     7
 10
96.1954476476563
 20
265.4603979617387
 30
0.0
 40
2.999999999999989
 50
0.0
 51
90.0
  0
LINE
  5
160
  8
0
  6
CONTINUOUS
 62
     7
 10
64.6954476476563
 20
230.7603979614178
 30
0.0
 11
75.6954476476563
 21
230.7603979614178
 31
0.0
  0
LINE
  5
161
  8
0
  6
CONTINUOUS
 62
     7
 10
65.44544764765631
 20
210.5103979614177
 30
0.0
 11
85.94544764765628
 21
210.5103979614177
 31
0.0
  0
LINE
  5
162
  8
0
  6
CONTINUOUS
 62
     7
 10
65.9954476476563
 20
204.9603979614177
 30
0.0
 11
75.6954476476563
 21
204.9603979614177
 31
0.0
  0
LINE
  5
163
  8
0
  6
CONTINUOUS
 62
     7
 10
75.6954476476563
 20
204.9603979614177
 30
0.0
 11
85.3954476476563
 21
204.9603979614177
 31
0.0
  0
LINE
  5
164
  8
0
  6
CONTINUOUS
 62
     7
 10
75.6954476476563
 20
209.9603979614177
 30
0.0
 11
85.39544764765631
 21
209.9603979614177
 31
0.0
  0
LINE
  5
165
  8
0
  6
CONTINUOUS
 62
     7
 10
65.9954476476563
 20
201.9603979614177
 30
0.0
 11
75.6954476476563
 21
201.9603979614177
 31
0.0
  0
ARC
  5
166
  8
0
  6
CONTINUOUS
 62
     7
 10
96.19544764765628
 20
223.4603979617388
 30
0.0
 40
3.000000000000003
 50
270.0
 51
0.0
  0
LINE
  5
167
  8
0
  6
CONTINUOUS
 62
     7
 10
55.69544764765628
 20
268.4603979617387
 30
0.0
 11
55.19544764765628
 21
268.4603979617387
 31
0.0
  0
LINE
  5
168
  8
0
  6
CONTINUOUS
 62
     7
 10
75.6954476476563
 20
234.2603979614178
 30
0.0
 11
64.6954476476563
 21
234.2603979614178
 31
0.0
  0
LINE
  5
169
  8
0
  6
CONTINUOUS
 62
     7
 10
99.19544764765628
 20
249.0464421248884
 30
0.0
 11
99.19544764765628
 21
249.7462963371121
 31
0.0
  0
LINE
  5
16A
  8
0
  6
CONTINUOUS
 62
     7
 10
52.19544764765629
 20
249.0464421248884
 30
0.0
 11
52.19544764765629
 21
223.4603979617388
 31
0.0
  0
LINE
  5
16B
  8
0
  6
CONTINUOUS
 62
     7
 10
75.6954476476563
 20
230.7603979614178
 30
0.0
 11
86.6954476476563
 21
230.7603979614178
 31
0.0
  0
LINE
  5
16C
  8
0
  6
CONTINUOUS
 62
     7
 10
75.6954476476563
 20
230.0603979614177
 30
0.0
 11
82.6954476476563
 21
230.0603979614177
 31
0.0
  0
LINE
  5
16D
  8
0
  6
CONTINUOUS
 62
     7
 10
92.6954476476563
 20
233.9603979617388
 30
0.0
 11
92.6954476476563
 21
236.4603979617388
 31
0.0
  0
LINE
  5
16E
  8
0
  6
CONTINUOUS
 62
     7
 10
86.6954476476563
 20
224.3603979614177
 30
0.0
 11
64.6954476476563
 21
224.3603979614177
 31
0.0
  0
LINE
  5
16F
  8
0
  6
CONTINUOUS
 62
     7
 10
88.8954476476563
 20
223.4603979617388
 30
0.0
 11
88.8954476476563
 21
232.9603979617388
 31
0.0
  0
LINE
  5
170
  8
0
  6
CONTINUOUS
 62
     7
 10
86.6954476476563
 20
234.2603979614178
 30
0.0
 11
75.6954476476563
 21
234.2603979614178
 31
0.0
  0
LINE
  5
171
  8
0
  6
CONTINUOUS
 62
     7
 10
75.6954476476563
 20
220.5210060260087
 30
0.0
 11
86.6954476476563
 21
220.5210060260087
 31
0.0
  0
LINE
  5
172
  8
0
  6
CONTINUOUS
 62
     7
 10
99.19544764765628
 20
249.0464421248884
 30
0.0
 11
99.19544764765628
 21
223.4603979617388
 31
0.0
  0
LINE
  5
173
  8
0
  6
CONTINUOUS
 62
     7
 10
99.19544764765628
 20
265.4603979617387
 30
0.0
 11
99.19544764765628
 21
255.8743537985893
 31
0.0
  0
ARC
  5
174
  8
0
  6
CONTINUOUS
 62
     7
 10
91.89544764765628
 20
223.4603979617388
 30
0.0
 40
2.999999999999989
 50
180.0
 51
270.0
  0
LINE
  5
175
  8
0
  6
CONTINUOUS
 62
     7
 10
68.69544764765631
 20
225.0603979614177
 30
0.0
 11
75.6954476476563
 21
225.0603979614177
 31
0.0
  0
ARC
  5
176
  8
0
  6
CONTINUOUS
 62
     7
 10
59.19544764765629
 20
233.9603979617388
 30
0.0
 40
0.5000000000000004
 50
180.0
 51
270.0
  0
LINE
  5
177
  8
0
  6
CONTINUOUS
 62
     7
 10
62.49544764765629
 20
223.4603979617388
 30
0.0
 11
62.49544764765629
 21
232.9603979617388
 31
0.0
  0
LINE
  5
178
  8
0
  6
CONTINUOUS
 62
     7
 10
75.6954476476563
 20
225.0603979614177
 30
0.0
 11
82.6954476476563
 21
225.0603979614177
 31
0.0
  0
ARC
  5
179
  8
0
  6
CONTINUOUS
 62
     7
 10
75.69543804720439
 20
227.5603979614177
 30
0.0
 40
2.500000000018436
 50
270.0002200261503
 51
89.99977997384975
  0
LINE
  5
17A
  8
0
  6
CONTINUOUS
 62
     7
 10
82.6954476476563
 20
225.0603979614177
 30
0.0
 11
82.6954476476563
 21
230.0603979614177
 31
0.0
  0
ARC
  5
17B
  8
0
  6
CONTINUOUS
 62
     7
 10
61.99544764765629
 20
232.9603979617388
 30
0.0
 40
0.5000000000000004
 50
0.0
 51
90.0
  0
LINE
  5
17C
  8
0
  6
CONTINUOUS
 62
     7
 10
52.19544764765629
 20
265.4603979617387
 30
0.0
 11
52.19544764765629
 21
255.8743537985893
 31
0.0
  0
LINE
  5
17D
  8
0
  6
CONTINUOUS
 62
     7
 10
68.6954476476563
 20
230.0603979614177
 30
0.0
 11
68.6954476476563
 21
225.0603979614177
 31
0.0
  0
LINE
  5
17E
  8
0
  6
CONTINUOUS
 62
     7
 10
58.69544764765629
 20
233.9603979617388
 30
0.0
 11
58.69544764765629
 21
236.4603979617388
 31
0.0
  0
LINE
  5
17F
  8
0
  6
CONTINUOUS
 62
     7
 10
55.19544764765629
 20
220.4603979617388
 30
0.0
 11
59.49544764765629
 21
220.4603979617388
 31
0.0
  0
ARC
  5
180
  8
0
  6
CONTINUOUS
 62
     7
 10
92.1954476476563
 20
233.9603979617388
 30
0.0
 40
0.5000000000000004
 50
270.0
 51
0.0
  0
LINE
  5
181
  8
0
  6
CONTINUOUS
 62
     7
 10
96.19544764765628
 20
220.4603979617388
 30
0.0
 11
91.89544764765628
 21
220.4603979617388
 31
0.0
  0
ARC
  5
182
  8
0
  6
CONTINUOUS
 62
     7
 10
55.19544764765628
 20
265.4603979617387
 30
0.0
 40
3.000000000000003
 50
90.0
 51
180.0
  0
LINE
  5
183
  8
0
  6
CONTINUOUS
 62
     7
 10
95.6954476476563
 20
268.4603979617387
 30
0.0
 11
96.1954476476563
 21
268.4603979617387
 31
0.0
  0
LINE
  5
184
  8
0
  6
CONTINUOUS
 62
     7
 10
99.19544764765628
 20
251.4959318676715
 30
0.0
 11
99.19544764765628
 21
249.7462963371121
 31
0.0
  0
LINE
  5
185
  8
0
  6
CONTINUOUS
 62
     7
 10
73.69544764765628
 20
242.9603979614178
 30
0.0
 11
73.69544764765628
 21
241.9603979614178
 31
0.0
  0
LINE
  5
186
  8
0
  6
CONTINUOUS
 62
     7
 10
75.19544764765628
 20
264.4603979614179
 30
0.0
 11
76.1954476476563
 21
264.4603979614179
 31
0.0
  0
LINE
  5
187
  8
0
  6
CONTINUOUS
 62
     7
 10
92.69544764765628
 20
236.4603979617388
 30
0.0
 11
89.69544764765628
 21
236.4603979617388
 31
0.0
  0
LINE
  5
188
  8
0
  6
CONTINUOUS
 62
     7
 10
75.19544764765628
 20
242.9603979614178
 30
0.0
 11
73.69544764765628
 21
242.9603979614178
 31
0.0
  0
LINE
  5
189
  8
0
  6
CONTINUOUS
 62
     7
 10
58.69544764765627
 20
268.4603979617387
 30
0.0
 11
55.69544764765628
 21
268.4603979617387
 31
0.0
  0
LINE
  5
18A
  8
0
  6
CONTINUOUS
 62
     7
 10
75.19544764765628
 20
262.9603979614179
 30
0.0
 11
73.69544764765628
 21
262.9603979614179
 31
0.0
  0
LINE
  5
18B
  8
0
  6
CONTINUOUS
 62
     7
 10
77.6954476476563
 20
261.9603979614179
 30
0.0
 11
77.6954476476563
 21
262.9603979614179
 31
0.0
  0
LINE
  5
18C
  8
0
  6
CONTINUOUS
 62
     7
 10
75.19544764765628
 20
244.4603979614178
 30
0.0
 11
76.1954476476563
 21
244.4603979614178
 31
0.0
  0
LINE
  5
18D
  8
0
  6
CONTINUOUS
 62
     7
 10
89.69544764765628
 20
268.4603979617387
 30
0.0
 11
61.69544764765629
 21
268.4603979617387
 31
0.0
  0
LINE
  5
18E
  8
0
  6
CONTINUOUS
 62
     7
 10
58.69544764765629
 20
236.4603979617388
 30
0.0
 11
58.69544764765627
 21
268.4603979617387
 31
0.0
  0
LINE
  5
18F
  8
0
  6
CONTINUOUS
 62
     7
 10
99.19544764765628
 20
255.1744995863654
 30
0.0
 11
99.19544764765628
 21
253.424864055806
 31
0.0
  0
LINE
  5
190
  8
0
  6
CONTINUOUS
 62
     7
 10
76.1954476476563
 20
260.4603979614178
 30
0.0
 11
75.19544764765628
 21
260.4603979614178
 31
0.0
  0
LINE
  5
191
  8
0
  6
CONTINUOUS
 62
     7
 10
52.19544764765628
 20
249.7462963371121
 30
0.0
 11
52.19544764765628
 21
251.4959318676715
 31
0.0
  0
LINE
  5
192
  8
0
  6
CONTINUOUS
 62
     7
 10
99.19544764765628
 20
255.1744995863654
 30
0.0
 11
99.19544764765628
 21
255.8743537985893
 31
0.0
  0
LINE
  5
193
  8
0
  6
CONTINUOUS
 62
     7
 10
52.19544764765628
 20
255.8743537985893
 30
0.0
 11
52.19544764765628
 21
255.1744995863654
 31
0.0
  0
LINE
  5
194
  8
0
  6
CONTINUOUS
 62
     7
 10
52.19544764765628
 20
249.7462963371121
 30
0.0
 11
52.19544764765628
 21
249.0464421248884
 31
0.0
  0
LINE
  5
195
  8
0
  6
CONTINUOUS
 62
     7
 10
76.1954476476563
 20
264.4603979614179
 30
0.0
 11
76.1954476476563
 21
262.9603979614179
 31
0.0
  0
CIRCLE
  5
196
  8
0
  6
CONTINUOUS
 62
     7
 10
75.69544764765628
 20
242.4603979614178
 30
0.0
 40
4.000000000000004
  0
LINE
  5
197
  8
0
  6
CONTINUOUS
 62
     7
 10
76.1954476476563
 20
244.4603979614178
 30
0.0
 11
76.1954476476563
 21
242.9603979614178
 31
0.0
  0
CIRCLE
  5
198
  8
0
  6
CONTINUOUS
 62
     7
 10
75.69544764765628
 20
262.4603979614179
 30
0.0
 40
4.000000000000004
  0
LINE
  5
199
  8
0
  6
CONTINUOUS
 62
     7
 10
92.69544764765631
 20
268.4603979617387
 30
0.0
 11
92.6954476476563
 21
236.4603979617388
 31
0.0
  0
LINE
  5
19A
  8
0
  6
CONTINUOUS
 62
     7
 10
75.19544764765628
 20
242.9603979614178
 30
0.0
 11
75.19544764765628
 21
244.4603979614178
 31
0.0
  0
LINE
  5
19B
  8
0
  6
CONTINUOUS
 62
     7
 10
77.6954476476563
 20
241.9603979614178
 30
0.0
 11
77.6954476476563
 21
242.9603979614178
 31
0.0
  0
LINE
  5
19C
  8
0
  6
CONTINUOUS
 62
     7
 10
76.1954476476563
 20
241.9603979614178
 30
0.0
 11
77.6954476476563
 21
241.9603979614178
 31
0.0
  0
LINE
  5
19D
  8
0
  6
CONTINUOUS
 62
     7
 10
76.1954476476563
 20
240.4603979614178
 30
0.0
 11
75.19544764765628
 21
240.4603979614178
 31
0.0
  0
LINE
  5
19E
  8
0
  6
CONTINUOUS
 62
     7
 10
73.69544764765628
 20
241.9603979614178
 30
0.0
 11
75.19544764765628
 21
241.9603979614178
 31
0.0
  0
LINE
  5
19F
  8
0
  6
CONTINUOUS
 62
     7
 10
77.6954476476563
 20
242.9603979614178
 30
0.0
 11
76.1954476476563
 21
242.9603979614178
 31
0.0
  0
LINE
  5
1A0
  8
0
  6
CONTINUOUS
 62
     7
 10
73.69544764765628
 20
261.9603979614179
 30
0.0
 11
75.19544764765628
 21
261.9603979614179
 31
0.0
  0
LINE
  5
1A1
  8
0
  6
CONTINUOUS
 62
     7
 10
75.19544764765628
 20
260.4603979614178
 30
0.0
 11
75.19544764765628
 21
261.9603979614179
 31
0.0
  0
LINE
  5
1A2
  8
0
  6
CONTINUOUS
 62
     7
 10
77.6954476476563
 20
262.9603979614179
 30
0.0
 11
76.1954476476563
 21
262.9603979614179
 31
0.0
  0
LINE
  5
1A3
  8
0
  6
CONTINUOUS
 62
     7
 10
61.69544764765629
 20
236.4603979617388
 30
0.0
 11
89.69544764765628
 21
236.4603979617388
 31
0.0
  0
CIRCLE
  5
1A4
  8
0
  6
CONTINUOUS
 62
     7
 10
75.69544764765628
 20
252.4603979617388
 30
0.0
 40
2.399999999999985
  0
LINE
  5
1A5
  8
0
  6
CONTINUOUS
 62
     7
 10
58.6954476476563
 20
268.4603979617387
 30
0.0
 11
61.69544764765629
 21
268.4603979617387
 31
0.0
  0
LINE
  5
1A6
  8
0
  6
CONTINUOUS
 62
     7
 10
95.6954476476563
 20
268.4603979617387
 30
0.0
 11
92.69544764765631
 21
268.4603979617387
 31
0.0
  0
LINE
  5
1A7
  8
0
  6
CONTINUOUS
 62
     7
 10
52.19544764765629
 20
251.4959318676715
 30
0.0
 11
52.19544764765629
 21
253.424864055806
 31
0.0
  0
LINE
  5
1A8
  8
0
  6
CONTINUOUS
 62
     7
 10
52.19544764765628
 20
253.424864055806
 30
0.0
 11
52.19544764765628
 21
255.1744995863654
 31
0.0
  0
LINE
  5
1A9
  8
0
  6
CONTINUOUS
 62
     7
 10
76.1954476476563
 20
241.9603979614178
 30
0.0
 11
76.1954476476563
 21
240.4603979614178
 31
0.0
  0
LINE
  5
1AA
  8
0
  6
CONTINUOUS
 62
     7
 10
89.69544764765628
 20
268.4603979617387
 30
0.0
 11
92.69544764765628
 21
268.4603979617387
 31
0.0
  0
LINE
  5
1AB
  8
0
  6
CONTINUOUS
 62
     7
 10
75.19544764765628
 20
240.4603979614178
 30
0.0
 11
75.19544764765628
 21
241.9603979614178
 31
0.0
  0
LINE
  5
1AC
  8
0
  6
CONTINUOUS
 62
     7
 10
99.19544764765628
 20
251.4959318676715
 30
0.0
 11
99.19544764765628
 21
253.424864055806
 31
0.0
  0
LINE
  5
1AD
  8
0
  6
CONTINUOUS
 62
     7
 10
76.1954476476563
 20
261.9603979614179
 30
0.0
 11
77.6954476476563
 21
261.9603979614179
 31
0.0
  0
LINE
  5
1AE
  8
0
  6
CONTINUOUS
 62
     7
 10
73.69544764765628
 20
262.9603979614179
 30
0.0
 11
73.69544764765628
 21
261.9603979614179
 31
0.0
  0
LINE
  5
1AF
  8
0
  6
CONTINUOUS
 62
     7
 10
76.1954476476563
 20
261.9603979614179
 30
0.0
 11
76.1954476476563
 21
260.4603979614178
 31
0.0
  0
LINE
  5
1B0
  8
0
  6
CONTINUOUS
 62
     7
 10
75.19544764765628
 20
262.9603979614179
 30
0.0
 11
75.19544764765628
 21
264.4603979614179
 31
0.0
  0
LINE
  5
1B1
  8
0
  6
CONTINUOUS
 62
     7
 10
61.69544764765629
 20
236.4603979617388
 30
0.0
 11
58.6954476476563
 21
236.4603979617388
 31
0.0
  0
LINE
  5
1B2
  8
0
  6
CONTINUOUS
 62
     7
 10
-68.60455235234373
 20
203.9603979614177
 30
0.0
 11
-50.00455235234374
 21
203.9603979614177
 31
0.0
  0
LINE
  5
1B3
  8
0
  6
CONTINUOUS
 62
     7
 10
-68.70455235234373
 20
200.9603979614177
 30
0.0
 11
-49.90455235234375
 21
200.9603979614177
 31
0.0
  0
LINE
  5
1B4
  8
0
  6
CONTINUOUS
 62
     7
 10
-82.80455235234373
 20
265.4603979617387
 30
0.0
 11
-82.80455235234373
 21
253.6675047429253
 31
0.0
  0
LINE
  5
1B5
  8
0
  6
CONTINUOUS
 62
     7
 10
-53.85455235234374
 20
199.9603979614178
 30
0.0
 11
-59.30455235234374
 21
199.9603979614178
 31
0.0
  0
CIRCLE
  5
1B6
  8
0
  6
CONTINUOUS
 62
     7
 10
-59.30455235234373
 20
252.4603979614178
 30
0.0
 40
14.0
  0
LINE
  5
1B7
  8
0
  6
CONTINUOUS
 62
     7
 10
-35.80455235234373
 20
252.1068445711455
 30
0.0
 11
-35.80455235234373
 21
252.813951352332
 31
0.0
  0
LINE
  5
1B8
  8
0
  6
CONTINUOUS
 62
     7
 10
-70.80455235234373
 20
236.4603979617388
 30
0.0
 11
-73.30455235234373
 21
236.4603979617388
 31
0.0
  0
LINE
  5
1B9
  8
0
  6
CONTINUOUS
 62
     7
 10
-73.30455235234373
 20
268.4603979617387
 30
0.0
 11
-74.30455235234373
 21
268.4603979617387
 31
0.0
  0
LINE
  5
1BA
  8
0
  6
CONTINUOUS
 62
     7
 10
-48.30455235234373
 20
234.2603979614178
 30
0.0
 11
-70.30455235234375
 21
234.2603979614178
 31
0.0
  0
CIRCLE
  5
1BB
  8
0
  6
CONTINUOUS
 62
     7
 10
-59.30455235234373
 20
252.4603979614178
 30
0.0
 40
13.0
  0
LINE
  5
1BC
  8
0
  6
CONTINUOUS
 62
     7
 10
-59.30455235234374
 20
199.9603979614178
 30
0.0
 11
-64.75455235234374
 21
199.9603979614178
 31
0.0
  0
CIRCLE
  5
1BD
  8
0
  6
CONTINUOUS
 62
     7
 10
-59.30455235234373
 20
252.4603979614178
 30
0.0
 40
9.315500000000004
  0
LINE
  5
1BE
  8
0
  6
CONTINUOUS
 62
     7
 10
-44.30455235234375
 20
255.1734593520385
 30
0.0
 11
-44.30455235234375
 21
268.4603979617387
 31
0.0
  0
LINE
  5
1BF
  8
0
  6
CONTINUOUS
 62
     7
 10
-79.30455235234373
 20
268.4603979617387
 30
0.0
 11
-74.30455235234376
 21
268.4603979617387
 31
0.0
  0
LINE
  5
1C0
  8
0
  6
CONTINUOUS
 62
     7
 10
-82.80455235234373
 20
251.6068445711455
 30
0.0
 11
-82.80455235234373
 21
252.1068445711455
 31
0.0
  0
LINE
  5
1C1
  8
0
  6
CONTINUOUS
 62
     7
 10
-73.30455235234373
 20
268.4603979617387
 30
0.0
 11
-61.81620427599663
 21
268.4603979617387
 31
0.0
  0
LINE
  5
1C2
  8
0
  6
CONTINUOUS
 62
     7
 10
-56.79290042869081
 20
268.4603979617387
 30
0.0
 11
-45.30455235234373
 21
268.4603979617387
 31
0.0
  0
LINE
  5
1C3
  8
0
  6
CONTINUOUS
 62
     7
 10
-69.60455235234375
 20
225.0603979614177
 30
0.0
 11
-66.30455235234373
 21
225.0603979614177
 31
0.0
  0
LINE
  5
1C4
  8
0
  6
CONTINUOUS
 62
     7
 10
-48.30455235234373
 20
224.3603979614177
 30
0.0
 11
-59.30455235234374
 21
224.3603979614177
 31
0.0
  0
LINE
  5
1C5
  8
0
  6
CONTINUOUS
 62
     7
 10
-35.80455235234373
 20
251.6068445711455
 30
0.0
 11
-35.80455235234373
 21
251.2532911805522
 31
0.0
  0
LINE
  5
1C6
  8
0
  6
CONTINUOUS
 62
     7
 10
-70.30455235234375
 20
230.7603979614178
 30
0.0
 11
-48.30455235234373
 21
230.7603979614178
 31
0.0
  0
LINE
  5
1C7
  8
0
  6
CONTINUOUS
 62
     7
 10
-70.30455235234375
 20
220.5210060260087
 30
0.0
 11
-48.30455235234373
 21
220.5210060260087
 31
0.0
  0
LINE
  5
1C8
  8
0
  6
CONTINUOUS
 62
     7
 10
-74.30455235234372
 20
249.7473365707971
 30
0.0
 11
-74.30455235234372
 21
236.4603979617388
 31
0.0
  0
POLYLINE
  5
1C9
  8
0
  6
CONTINUOUS
 62
     7
 66
     1
 10
0.0
 20
0.0
 30
0.0
  0
VERTEX
  5
36C
  8
0
  6
CONTINUOUS
 62
     7
 10
-75.80455235234373
 20
233.4603979617388
 30
0.0
  0
VERTEX
  5
36D
  8
0
  6
CONTINUOUS
 62
     7
 10
-75.83477417088474
 20
233.4613162336745
 30
0.0
  0
VERTEX
  5
36E
  8
0
  6
CONTINUOUS
 62
     7
 10
-75.86526057103663
 20
233.4641066218073
 30
0.0
  0
VERTEX
  5
36F
  8
0
  6
CONTINUOUS
 62
     7
 10
-75.89589224345453
 20
233.4688224846258
 30
0.0
  0
VERTEX
  5
370
  8
0
  6
CONTINUOUS
 62
     7
 10
-75.92654987879358
 20
233.4755171806185
 30
0.0
  0
VERTEX
  5
371
  8
0
  6
CONTINUOUS
 62
     7
 10
-75.9571141677089
 20
233.4842440682742
 30
0.0
  0
VERTEX
  5
372
  8
0
  6
CONTINUOUS
 62
     7
 10
-75.98746580085562
 20
233.4950565060813
 30
0.0
  0
VERTEX
  5
373
  8
0
  6
CONTINUOUS
 62
     7
 10
-76.01315141518432
 20
233.5059911612085
 30
0.0
  0
VERTEX
  5
374
  8
0
  6
CONTINUOUS
 62
     7
 10
-76.03858109644153
 20
233.5185499009997
 30
0.0
  0
VERTEX
  5
375
  8
0
  6
CONTINUOUS
 62
     7
 10
-76.0636348976944
 20
233.5327576517882
 30
0.0
  0
VERTEX
  5
376
  8
0
  6
CONTINUOUS
 62
     7
 10
-76.08258806566809
 20
233.5448324111314
 30
0.0
  0
VERTEX
  5
377
  8
0
  6
CONTINUOUS
 62
     7
 10
-76.10123773112859
 20
233.5579363633966
 30
0.0
  0
VERTEX
  5
378
  8
0
  6
CONTINUOUS
 62
     7
 10
-76.11951092026632
 20
233.5720685081041
 30
0.0
  0
VERTEX
  5
379
  8
0
  6
CONTINUOUS
 62
     7
 10
-76.13733465927174
 20
233.5872278447738
 30
0.0
  0
VERTEX
  5
37A
  8
0
  6
CONTINUOUS
 62
     7
 10
-76.1553430426126
 20
233.6041051508923
 30
0.0
  0
VERTEX
  5
37B
  8
0
  6
CONTINUOUS
 62
     7
 10
-76.17275291230882
 20
233.6221272906819
 30
0.0
  0
VERTEX
  5
37C
  8
0
  6
CONTINUOUS
 62
     7
 10
-76.18946217459322
 20
233.6412672224862
 30
0.0
  0
VERTEX
  5
37D
  8
0
  6
CONTINUOUS
 62
     7
 10
-76.20180148474451
 20
233.6567675938381
 30
0.0
  0
VERTEX
  5
37E
  8
0
  6
CONTINUOUS
 62
     7
 10
-76.21365387768125
 20
233.6729385802902
 30
0.0
  0
VERTEX
  5
37F
  8
0
  6
CONTINUOUS
 62
     7
 10
-76.22496672401158
 20
233.6897504831164
 30
0.0
  0
VERTEX
  5
380
  8
0
  6
CONTINUOUS
 62
     7
 10
-76.23568739434361
 20
233.7071736035902
 30
0.0
  0
VERTEX
  5
381
  8
0
  6
CONTINUOUS
 62
     7
 10
-76.2440685589208
 20
233.722019457972
 30
0.0
  0
VERTEX
  5
382
  8
0
  6
CONTINUOUS
 62
     7
 10
-76.25200663721598
 20
233.7372779288098
 30
0.0
  0
VERTEX
  5
383
  8
0
  6
CONTINUOUS
 62
     7
 10
-76.25947187175181
 20
233.7529201394732
 30
0.0
  0
VERTEX
  5
384
  8
0
  6
CONTINUOUS
 62
     7
 10
-76.26643450505102
 20
233.7689172133319
 30
0.0
  0
VERTEX
  5
385
  8
0
  6
CONTINUOUS
 62
     7
 10
-76.27304674733095
 20
233.7857233483466
 30
0.0
  0
VERTEX
  5
386
  8
0
  6
CONTINUOUS
 62
     7
 10
-76.27909154278997
 20
233.8028879775627
 30
0.0
  0
VERTEX
  5
387
  8
0
  6
CONTINUOUS
 62
     7
 10
-76.28454128680362
 20
233.8203663629397
 30
0.0
  0
VERTEX
  5
388
  8
0
  6
CONTINUOUS
 62
     7
 10
-76.28936837474745
 20
233.8381137664369
 30
0.0
  0
VERTEX
  5
389
  8
0
  6
CONTINUOUS
 62
     7
 10
-76.29393774169777
 20
233.8579640124185
 30
0.0
  0
VERTEX
  5
38A
  8
0
  6
CONTINUOUS
 62
     7
 10
-76.29771408520415
 20
233.8781309243953
 30
0.0
  0
VERTEX
  5
38B
  8
0
  6
CONTINUOUS
 62
     7
 10
-76.30068056164424
 20
233.8985361388413
 30
0.0
  0
VERTEX
  5
38C
  8
0
  6
CONTINUOUS
 62
     7
 10
-76.30282032739574
 20
233.9191012922311
 30
0.0
  0
VERTEX
  5
38D
  8
0
  6
CONTINUOUS
 62
     7
 10
-76.30411653883634
 20
233.9397480210388
 30
0.0
  0
VERTEX
  5
38E
  8
0
  6
CONTINUOUS
 62
     7
 10
-76.30455235234373
 20
233.9603979617388
 30
0.0
  0
SEQEND
  5
417
  8
0
  6
CONTINUOUS
 62
     7
  0
LINE
  5
1CA
  8
0
  6
CONTINUOUS
 62
     7
 10
-82.80455235234373
 20
253.313951352332
 30
0.0
 11
-82.80455235234373
 21
253.6675047429253
 31
0.0
  0
LINE
  5
1CB
  8
0
  6
CONTINUOUS
 62
     7
 10
-66.30455235234373
 20
230.0603979614177
 30
0.0
 11
-69.60455235234372
 21
230.0603979614177
 31
0.0
  0
LINE
  5
1CC
  8
0
  6
CONTINUOUS
 62
     7
 10
-49.00455235234374
 20
230.0603979614177
 30
0.0
 11
-52.30455235234374
 21
230.0603979614177
 31
0.0
  0
LINE
  5
1CD
  8
0
  6
CONTINUOUS
 62
     7
 10
-35.80455235234373
 20
253.6675047429253
 30
0.0
 11
-35.80455235234373
 21
253.313951352332
 31
0.0
  0
LINE
  5
1CE
  8
0
  6
CONTINUOUS
 62
     7
 10
-35.80455235234373
 20
252.1068445711455
 30
0.0
 11
-35.80455235234373
 21
251.6068445711455
 31
0.0
  0
LINE
  5
1CF
  8
0
  6
CONTINUOUS
 62
     7
 10
-82.80455235234373
 20
251.2532911805522
 30
0.0
 11
-82.80455235234373
 21
251.6068445711455
 31
0.0
  0
LINE
  5
1D0
  8
0
  6
CONTINUOUS
 62
     7
 10
-66.30455235234373
 20
225.0603979614177
 30
0.0
 11
-59.30455235234374
 21
225.0603979614177
 31
0.0
  0
LINE
  5
1D1
  8
0
  6
CONTINUOUS
 62
     7
 10
-66.30455235234372
 20
230.0603979614177
 30
0.0
 11
-59.30455235234374
 21
230.0603979614177
 31
0.0
  0
LINE
  5
1D2
  8
0
  6
CONTINUOUS
 62
     7
 10
-52.30455235234374
 20
225.0603979614177
 30
0.0
 11
-52.30455235234374
 21
230.0603979614177
 31
0.0
  0
LINE
  5
1D3
  8
0
  6
CONTINUOUS
 62
     7
 10
-35.80455235234373
 20
253.313951352332
 30
0.0
 11
-35.80455235234373
 21
252.813951352332
 31
0.0
  0
LINE
  5
1D4
  8
0
  6
CONTINUOUS
 62
     7
 10
-44.30455235234372
 20
268.4603979617387
 30
0.0
 11
-39.30455235234373
 21
268.4603979617387
 31
0.0
  0
LINE
  5
1D5
  8
0
  6
CONTINUOUS
 62
     7
 10
-42.30455235234373
 20
236.4603979617388
 30
0.0
 11
-44.30455235234371
 21
236.4603979617388
 31
0.0
  0
LINE
  5
1D6
  8
0
  6
CONTINUOUS
 62
     7
 10
-74.30455235234372
 20
268.4603979617387
 30
0.0
 11
-74.30455235234372
 21
255.1734593520383
 31
0.0
  0
LINE
  5
1D7
  8
0
  6
CONTINUOUS
 62
     7
 10
-74.30455235234375
 20
236.4603979617388
 30
0.0
 11
-76.30455235234373
 21
236.4603979617388
 31
0.0
  0
LINE
  5
1D8
  8
0
  6
CONTINUOUS
 62
     7
 10
-79.30455235234373
 20
268.4603979617387
 30
0.0
 11
-79.80455235234373
 21
268.4603979617387
 31
0.0
  0
LINE
  5
1D9
  8
0
  6
CONTINUOUS
 62
     7
 10
-44.30455235234373
 20
268.4603979617387
 30
0.0
 11
-45.30455235234373
 21
268.4603979617387
 31
0.0
  0
POLYLINE
  5
1DA
  8
0
  6
CONTINUOUS
 62
     7
 66
     1
 10
0.0
 20
0.0
 30
0.0
  0
VERTEX
  5
38F
  8
0
  6
CONTINUOUS
 62
     7
 10
-42.30455235234372
 20
233.9603979617388
 30
0.0
  0
VERTEX
  5
390
  8
0
  6
CONTINUOUS
 62
     7
 10
-42.30486412295521
 20
233.9427949578066
 30
0.0
  0
VERTEX
  5
391
  8
0
  6
CONTINUOUS
 62
     7
 10
-42.30579536555076
 20
233.9252091507172
 30
0.0
  0
VERTEX
  5
392
  8
0
  6
CONTINUOUS
 62
     7
 10
-42.30733997627208
 20
233.9076908051175
 30
0.0
  0
VERTEX
  5
393
  8
0
  6
CONTINUOUS
 62
     7
 10
-42.30949185126086
 20
233.8902901856539
 30
0.0
  0
VERTEX
  5
394
  8
0
  6
CONTINUOUS
 62
     7
 10
-42.31234517484695
 20
233.8724760413124
 30
0.0
  0
VERTEX
  5
395
  8
0
  6
CONTINUOUS
 62
     7
 10
-42.31582929890421
 20
233.8548208883933
 30
0.0
  0
VERTEX
  5
396
  8
0
  6
CONTINUOUS
 62
     7
 10
-42.31992555488691
 20
233.8373734400833
 30
0.0
  0
VERTEX
  5
397
  8
0
  6
CONTINUOUS
 62
     7
 10
-42.32461527424939
 20
233.8201824095691
 30
0.0
  0
VERTEX
  5
398
  8
0
  6
CONTINUOUS
 62
     7
 10
-42.32971234338026
 20
233.8037912302973
 30
0.0
  0
VERTEX
  5
399
  8
0
  6
CONTINUOUS
 62
     7
 10
-42.33533986075873
 20
233.787663121426
 30
0.0
  0
VERTEX
  5
39A
  8
0
  6
CONTINUOUS
 62
     7
 10
-42.34147373947964
 20
233.7718326017686
 30
0.0
  0
VERTEX
  5
39B
  8
0
  6
CONTINUOUS
 62
     7
 10
-42.34808989263785
 20
233.7563341901384
 30
0.0
  0
VERTEX
  5
39C
  8
0
  6
CONTINUOUS
 62
     7
 10
-42.35789659585197
 20
233.735682280203
 30
0.0
  0
VERTEX
  5
39D
  8
0
  6
CONTINUOUS
 62
     7
 10
-42.3685293691658
 20
233.7156890486695
 30
0.0
  0
VERTEX
  5
39E
  8
0
  6
CONTINUOUS
 62
     7
 10
-42.37991919827748
 20
233.6964156053819
 30
0.0
  0
VERTEX
  5
39F
  8
0
  6
CONTINUOUS
 62
     7
 10
-42.39258388130217
 20
233.6770680223938
 30
0.0
  0
VERTEX
  5
3A0
  8
0
  6
CONTINUOUS
 62
     7
 10
-42.40599172490822
 20
233.658514676402
 30
0.0
  0
VERTEX
  5
3A1
  8
0
  6
CONTINUOUS
 62
     7
 10
-42.42006899863134
 20
233.6407854554253
 30
0.0
  0
VERTEX
  5
3A2
  8
0
  6
CONTINUOUS
 62
     7
 10
-42.43474197200727
 20
233.6239102474828
 30
0.0
  0
VERTEX
  5
3A3
  8
0
  6
CONTINUOUS
 62
     7
 10
-42.44993691457172
 20
233.6079189405932
 30
0.0
  0
VERTEX
  5
3A4
  8
0
  6
CONTINUOUS
 62
     7
 10
-42.46558009586045
 20
233.5928414227756
 30
0.0
  0
VERTEX
  5
3A5
  8
0
  6
CONTINUOUS
 62
     7
 10
-42.48308553758469
 20
233.5774388169152
 30
0.0
  0
VERTEX
  5
3A6
  8
0
  6
CONTINUOUS
 62
     7
 10
-42.50105469048648
 20
233.5630484378469
 30
0.0
  0
VERTEX
  5
3A7
  8
0
  6
CONTINUOUS
 62
     7
 10
-42.5194145814048
 20
233.5496730003505
 30
0.0
  0
VERTEX
  5
3A8
  8
0
  6
CONTINUOUS
 62
     7
 10
-42.53809223717861
 20
233.5373152192055
 30
0.0
  0
VERTEX
  5
3A9
  8
0
  6
CONTINUOUS
 62
     7
 10
-42.56416295101255
 20
233.5219782104738
 30
0.0
  0
VERTEX
  5
3AA
  8
0
  6
CONTINUOUS
 62
     7
 10
-42.59067215515748
 20
233.5084531232834
 30
0.0
  0
VERTEX
  5
3AB
  8
0
  6
CONTINUOUS
 62
     7
 10
-42.61747959477071
 20
233.4967129572648
 30
0.0
  0
VERTEX
  5
3AC
  8
0
  6
CONTINUOUS
 62
     7
 10
-42.64849449308812
 20
233.4853786958284
 30
0.0
  0
VERTEX
  5
3AD
  8
0
  6
CONTINUOUS
 62
     7
 10
-42.67974658692136
 20
233.4762333033619
 30
0.0
  0
VERTEX
  5
3AE
  8
0
  6
CONTINUOUS
 62
     7
 10
-42.711107148017
 20
233.4692196567926
 30
0.0
  0
VERTEX
  5
3AF
  8
0
  6
CONTINUOUS
 62
     7
 10
-42.74244744812157
 20
233.4642806330475
 30
0.0
  0
VERTEX
  5
3B0
  8
0
  6
CONTINUOUS
 62
     7
 10
-42.77363875898163
 20
233.4613591090539
 30
0.0
  0
VERTEX
  5
3B1
  8
0
  6
CONTINUOUS
 62
     7
 10
-42.80455235234373
 20
233.4603979617388
 30
0.0
  0
SEQEND
  5
418
  8
0
  6
CONTINUOUS
 62
     7
  0
LINE
  5
1DB
  8
0
  6
CONTINUOUS
 62
     7
 10
-45.30455235234373
 20
236.4603979617388
 30
0.0
 11
-47.80455235234373
 21
236.4603979617388
 31
0.0
  0
LINE
  5
1DC
  8
0
  6
CONTINUOUS
 62
     7
 10
-52.30455235234375
 20
225.0603979614177
 30
0.0
 11
-49.00455235234375
 21
225.0603979614177
 31
0.0
  0
LINE
  5
1DD
  8
0
  6
CONTINUOUS
 62
     7
 10
-59.30455235234374
 20
230.0603979614177
 30
0.0
 11
-52.30455235234375
 21
230.0603979614177
 31
0.0
  0
ARC
  5
1DE
  8
0
  6
CONTINUOUS
 62
     7
 10
-59.30455235234376
 20
227.5603979614177
 30
0.0
 40
2.500000000000002
 50
89.99999999999969
 51
270.0000000000003
  0
LINE
  5
1DF
  8
0
  6
CONTINUOUS
 62
     7
 10
-42.30455235234372
 20
233.9603979617388
 30
0.0
 11
-42.30455235234373
 21
236.4603979617388
 31
0.0
  0
LINE
  5
1E0
  8
0
  6
CONTINUOUS
 62
     7
 10
-66.30455235234373
 20
230.0603979614177
 30
0.0
 11
-66.30455235234373
 21
225.0603979614177
 31
0.0
  0
LINE
  5
1E1
  8
0
  6
CONTINUOUS
 62
     7
 10
-59.30455235234374
 20
225.0603979614177
 30
0.0
 11
-52.30455235234375
 21
225.0603979614177
 31
0.0
  0
LINE
  5
1E2
  8
0
  6
CONTINUOUS
 62
     7
 10
-82.80455235234373
 20
252.813951352332
 30
0.0
 11
-82.80455235234373
 21
253.313951352332
 31
0.0
  0
LINE
  5
1E3
  8
0
  6
CONTINUOUS
 62
     7
 10
-69.55455235234373
 20
210.5103979614177
 30
0.0
 11
-59.30455235234374
 21
210.5103979614177
 31
0.0
  0
LINE
  5
1E4
  8
0
  6
CONTINUOUS
 62
     7
 10
-69.00455235234375
 20
209.9603979614177
 30
0.0
 11
-49.60455235234373
 21
209.9603979614177
 31
0.0
  0
LINE
  5
1E5
  8
0
  6
CONTINUOUS
 62
     7
 10
-59.30455235234374
 20
210.5103979614177
 30
0.0
 11
-49.05455235234375
 21
210.5103979614177
 31
0.0
  0
LINE
  5
1E6
  8
0
  6
CONTINUOUS
 62
     7
 10
-69.00455235234374
 20
204.9603979614177
 30
0.0
 11
-49.60455235234374
 21
204.9603979614177
 31
0.0
  0
LINE
  5
1E7
  8
0
  6
CONTINUOUS
 62
     7
 10
-69.00455235234374
 20
201.9603979614177
 30
0.0
 11
-49.60455235234374
 21
201.9603979614177
 31
0.0
  0
LINE
  5
1E8
  8
0
  6
CONTINUOUS
 62
     7
 10
-49.60455235234373
 20
202.8103979614177
 30
0.0
 11
-69.00455235234375
 21
202.8103979614177
 31
0.0
  0
LINE
  5
1E9
  8
0
  6
CONTINUOUS
 62
     7
 10
-45.30455235234373
 20
236.4603979617388
 30
0.0
 11
-44.30455235234373
 21
236.4603979617388
 31
0.0
  0
LINE
  5
1EA
  8
0
  6
CONTINUOUS
 62
     7
 10
-59.30455235234374
 20
224.3603979614177
 30
0.0
 11
-70.30455235234375
 21
224.3603979614177
 31
0.0
  0
LINE
  5
1EB
  8
0
  6
CONTINUOUS
 62
     7
 10
-82.80455235234373
 20
252.813951352332
 30
0.0
 11
-82.80455235234373
 21
252.1068445711455
 31
0.0
  0
LINE
  5
1EC
  8
0
  6
CONTINUOUS
 62
     7
 10
-76.30455235234373
 20
236.4603979617388
 30
0.0
 11
-76.30455235234373
 21
233.9603979617388
 31
0.0
  0
LINE
  5
1ED
  8
0
  6
CONTINUOUS
 62
     7
 10
-44.30455235234375
 20
236.4603979617388
 30
0.0
 11
-44.30455235234375
 21
249.7473365707974
 31
0.0
  0
LINE
  5
1EE
  8
0
  6
CONTINUOUS
 62
     7
 10
-74.30455235234372
 20
236.4603979617388
 30
0.0
 11
-73.30455235234373
 21
236.4603979617388
 31
0.0
  0
ARC
  5
1EF
  8
0
  6
CONTINUOUS
 62
     7
 10
-79.80455235234373
 20
265.4603979617387
 30
0.0
 40
3.000000000000003
 50
90.0
 51
180.0
  0
ARC
  5
1F0
  8
0
  6
CONTINUOUS
 62
     7
 10
-59.30455235234373
 20
227.5603979614177
 30
0.0
 40
2.499999999999974
 50
269.9999999999997
 51
90.0000000000003
  0
LINE
  5
1F1
  8
0
  6
CONTINUOUS
 62
     7
 10
-68.85455235234375
 20
202.9603979614177
 30
0.0
 11
-49.75455235234374
 21
202.9603979614177
 31
0.0
  0
LINE
  5
1F2
  8
0
  6
CONTINUOUS
 62
     7
 10
-49.60455235234373
 20
204.9603979614177
 30
0.0
 11
-49.60455235234373
 21
209.9603979614177
 31
0.0
  0
LINE
  5
1F3
  8
0
  6
CONTINUOUS
 62
     7
 10
-69.00455235234375
 20
202.8103979614177
 30
0.0
 11
-69.00455235234375
 21
201.9603979614177
 31
0.0
  0
LINE
  5
1F4
  8
0
  6
CONTINUOUS
 62
     7
 10
-49.60455235234373
 20
201.9603979614177
 30
0.0
 11
-49.60455235234373
 21
202.8103979614177
 31
0.0
  0
ARC
  5
1F5
  8
0
  6
CONTINUOUS
 62
     7
 10
-59.30455235234374
 20
252.4603979614178
 30
0.0
 40
16.4
 50
0.0
 51
7.482410001342032
  0
ARC
  5
1F6
  8
0
  6
CONTINUOUS
 62
     7
 10
-75.06916204983327
 20
250.3898711961191
 30
0.0
 40
0.5000000000000162
 50
187.4824100013421
 51
259.9999999999994
  0
LINE
  5
1F7
  8
0
  6
CONTINUOUS
 62
     7
 10
-48.30455235234373
 20
220.5210060260087
 30
0.0
 11
-48.30455235234373
 21
224.3603979614177
 31
0.0
  0
LINE
  5
1F8
  8
0
  6
CONTINUOUS
 62
     7
 10
-49.60455235234373
 20
202.8103979614177
 30
0.0
 11
-49.75455235234374
 21
202.9603979614177
 31
0.0
  0
LINE
  5
1F9
  8
0
  6
CONTINUOUS
 62
     7
 10
-48.30455235234373
 20
230.7603979614178
 30
0.0
 11
-48.30455235234373
 21
234.2603979614178
 31
0.0
  0
LINE
  5
1FA
  8
0
  6
CONTINUOUS
 62
     7
 10
-68.85455235234375
 20
202.9603979614177
 30
0.0
 11
-69.00455235234375
 21
202.8103979614177
 31
0.0
  0
LINE
  5
1FB
  8
0
  6
CONTINUOUS
 62
     7
 10
-70.80455235234373
 20
234.5603979614178
 30
0.0
 11
-47.80455235234373
 21
234.5603979614178
 31
0.0
  0
LINE
  5
1FC
  8
0
  6
CONTINUOUS
 62
     7
 10
-62.24916128390105
 20
266.1472266021291
 30
0.0
 11
-61.86748299414863
 21
268.3118317477408
 31
0.0
  0
ARC
  5
1FD
  8
0
  6
CONTINUOUS
 62
     7
 10
-59.30455235234374
 20
252.4603979614178
 30
0.0
 40
16.40000000000001
 50
352.5175899986578
 51
0.0
  0
LINE
  5
1FE
  8
0
  6
CONTINUOUS
 62
     7
 10
-52.55455235234373
 20
252.4403756896753
 30
0.0
 11
-53.55455235234373
 21
252.4403756896753
 31
0.0
  0
ARC
  5
1FF
  8
0
  6
CONTINUOUS
 62
     7
 10
-59.30455235234373
 20
252.4496835925774
 30
0.0
 40
5.750007533652144
 50
359.9072516371157
 51
180.0927483628844
  0
ARC
  5
200
  8
0
  6
CONTINUOUS
 62
     7
 10
-59.30455235234373
 20
252.4489597811097
 30
0.0
 40
6.750005458266374
 50
359.9271360081475
 51
180.0728639918525
  0
LINE
  5
201
  8
0
  6
CONTINUOUS
 62
     7
 10
-53.55455235234373
 20
247.6450578903533
 30
0.0
 11
-52.55455235234373
 21
247.2944033814749
 31
0.0
  0
ARC
  5
202
  8
0
  6
CONTINUOUS
 62
     7
 10
-59.30455235234373
 20
252.4603979614178
 30
0.0
 40
16.39999999999999
 50
172.5175899986579
 51
187.4824100013421
  0
LINE
  5
203
  8
0
  6
CONTINUOUS
 62
     7
 10
-55.80455235234373
 20
237.4603979614178
 30
0.0
 11
-48.80455235234375
 21
237.4603979614178
 31
0.0
  0
ARC
  5
204
  8
0
  6
CONTINUOUS
 62
     7
 10
-57.23402558704492
 20
268.2250076589073
 30
0.0
 40
0.5000000000000049
 50
9.999999999999538
 51
82.51758999865788
  0
LINE
  5
205
  8
0
  6
CONTINUOUS
 62
     7
 10
-52.55455235234373
 20
252.4403756896753
 30
0.0
 11
-52.55455235234373
 21
247.2944033814749
 31
0.0
  0
LINE
  5
206
  8
0
  6
CONTINUOUS
 62
     7
 10
-62.82804960798689
 20
266.0079276779214
 30
0.0
 11
-62.17785773874141
 21
266.5523554583255
 31
0.0
  0
LINE
  5
207
  8
0
  6
CONTINUOUS
 62
     7
 10
-56.80455235234374
 20
238.6854206474619
 30
0.0
 11
-56.80455235234374
 21
238.4603979614178
 31
0.0
  0
LINE
  5
208
  8
0
  6
CONTINUOUS
 62
     7
 10
-72.99138099305495
 20
249.5157890298605
 30
0.0
 11
-75.15598613866673
 21
249.8974673196129
 31
0.0
  0
LINE
  5
209
  8
0
  6
CONTINUOUS
 62
     7
 10
-69.60455235234375
 20
225.0603979614177
 30
0.0
 11
-70.30455235234375
 21
224.3603979614177
 31
0.0
  0
LINE
  5
20A
  8
0
  6
CONTINUOUS
 62
     7
 10
-48.30455235234373
 20
234.2603979614178
 30
0.0
 11
-48.50455235234374
 21
234.4603979614177
 31
0.0
  0
LINE
  5
20B
  8
0
  6
CONTINUOUS
 62
     7
 10
-66.05455235234373
 20
247.2944033814749
 30
0.0
 11
-66.05455235234373
 21
252.4403756896753
 31
0.0
  0
LINE
  5
20C
  8
0
  6
CONTINUOUS
 62
     7
 10
-56.74162171053882
 20
268.3118317477408
 30
0.0
 11
-56.35994342078712
 21
266.1472266021292
 31
0.0
  0
LINE
  5
20D
  8
0
  6
CONTINUOUS
 62
     7
 10
-48.30455235234373
 20
224.3603979614177
 30
0.0
 11
-49.00455235234374
 21
225.0603979614177
 31
0.0
  0
ARC
  5
20E
  8
0
  6
CONTINUOUS
 62
     7
 10
-59.30455235234373
 20
252.4603979614178
 30
0.0
 40
7.499999999999997
 50
219.9445051898149
 51
320.0554948101851
  0
ARC
  5
20F
  8
0
  6
CONTINUOUS
 62
     7
 10
-61.37507911764253
 20
268.2250076589073
 30
0.0
 40
0.5000000000000049
 50
97.48241000134202
 51
169.999999999999
  0
ARC
  5
210
  8
0
  6
CONTINUOUS
 62
     7
 10
-75.06916204983327
 20
254.5309247267167
 30
0.0
 40
0.4999999999999615
 50
99.9999999999999
 51
172.5175899986579
  0
LINE
  5
211
  8
0
  6
CONTINUOUS
 62
     7
 10
-66.05455235234373
 20
252.4403756896753
 30
0.0
 11
-65.05455235234373
 21
252.4403756896753
 31
0.0
  0
LINE
  5
212
  8
0
  6
CONTINUOUS
 62
     7
 10
-65.05455235234373
 20
247.6450578903533
 30
0.0
 11
-66.05455235234373
 21
247.2944033814749
 31
0.0
  0
LINE
  5
213
  8
0
  6
CONTINUOUS
 62
     7
 10
-70.30455235234375
 20
234.2603979614178
 30
0.0
 11
-70.30455235234375
 21
230.7603979614178
 31
0.0
  0
LINE
  5
214
  8
0
  6
CONTINUOUS
 62
     7
 10
-49.00455235234374
 20
230.0603979614177
 30
0.0
 11
-48.30455235234373
 21
230.7603979614178
 31
0.0
  0
LINE
  5
215
  8
0
  6
CONTINUOUS
 62
     7
 10
-70.10455235234373
 20
234.4603979614177
 30
0.0
 11
-70.30455235234375
 21
234.2603979614178
 31
0.0
  0
ARC
  5
216
  8
0
  6
CONTINUOUS
 62
     7
 10
-79.55455235234373
 20
216.6971281543331
 30
0.0
 40
9.999999999999995
 50
0.0
 51
19.99999999999994
  0
LINE
  5
217
  8
0
  6
CONTINUOUS
 62
     7
 10
-61.80455235234373
 20
238.4603979614178
 30
0.0
 11
-61.80455235234373
 21
238.6854206474619
 31
0.0
  0
LINE
  5
218
  8
0
  6
CONTINUOUS
 62
     7
 10
-70.30455235234375
 20
224.3603979614177
 30
0.0
 11
-70.30455235234375
 21
220.5210060260087
 31
0.0
  0
LINE
  5
219
  8
0
  6
CONTINUOUS
 62
     7
 10
-48.45147856020283
 20
220.1173295875898
 30
0.0
 11
-48.30455235234373
 21
220.5210060260087
 31
0.0
  0
LINE
  5
21A
  8
0
  6
CONTINUOUS
 62
     7
 10
-49.60455235234375
 20
209.9603979614177
 30
0.0
 11
-49.05455235234374
 21
210.5103979614177
 31
0.0
  0
LINE
  5
21B
  8
0
  6
CONTINUOUS
 62
     7
 10
-43.45311856602077
 20
249.8974673196129
 30
0.0
 11
-45.61772371163237
 21
249.5157890298612
 31
0.0
  0
POLYLINE
  5
21C
  8
0
  6
CONTINUOUS
 62
     7
 66
     1
 10
0.0
 20
0.0
 30
0.0
  0
VERTEX
  5
3B2
  8
0
  6
CONTINUOUS
 62
     7
 10
-56.80455235234374
 20
238.4603979614178
 30
0.0
  0
VERTEX
  5
3B3
  8
0
  6
CONTINUOUS
 62
     7
 10
-56.80420028318097
 20
238.4338674174773
 30
0.0
  0
VERTEX
  5
3B4
  8
0
  6
CONTINUOUS
 62
     7
 10
-56.80314469536814
 20
238.407357104967
 30
0.0
  0
VERTEX
  5
3B5
  8
0
  6
CONTINUOUS
 62
     7
 10
-56.80137981712894
 20
238.3808061359912
 30
0.0
  0
VERTEX
  5
3B6
  8
0
  6
CONTINUOUS
 62
     7
 10
-56.79890976805896
 20
238.3543162485162
 30
0.0
  0
VERTEX
  5
3B7
  8
0
  6
CONTINUOUS
 62
     7
 10
-56.79572020550852
 20
238.3277852298894
 30
0.0
  0
VERTEX
  5
3B8
  8
0
  6
CONTINUOUS
 62
     7
 10
-56.79182433357962
 20
238.3013569759249
 30
0.0
  0
VERTEX
  5
3B9
  8
0
  6
CONTINUOUS
 62
     7
 10
-56.78721017243069
 20
238.2749701983309
 30
0.0
  0
VERTEX
  5
3BA
  8
0
  6
CONTINUOUS
 62
     7
 10
-56.78189357572993
 20
238.2487280932978
 30
0.0
  0
VERTEX
  5
3BB
  8
0
  6
CONTINUOUS
 62
     7
 10
-56.77231154374602
 20
238.2085207146162
 30
0.0
  0
VERTEX
  5
3BC
  8
0
  6
CONTINUOUS
 62
     7
 10
-56.76106551949832
 20
238.1687088099914
 30
0.0
  0
VERTEX
  5
3BD
  8
0
  6
CONTINUOUS
 62
     7
 10
-56.74808059430763
 20
238.1291072736228
 30
0.0
  0
VERTEX
  5
3BE
  8
0
  6
CONTINUOUS
 62
     7
 10
-56.73347981491643
 20
238.0901362036325
 30
0.0
  0
VERTEX
  5
3BF
  8
0
  6
CONTINUOUS
 62
     7
 10
-56.71716649564605
 20
238.0515771655078
 30
0.0
  0
VERTEX
  5
3C0
  8
0
  6
CONTINUOUS
 62
     7
 10
-56.69929099312236
 20
238.0138078084838
 30
0.0
  0
VERTEX
  5
3C1
  8
0
  6
CONTINUOUS
 62
     7
 10
-56.67972014029847
 20
237.976578425923
 30
0.0
  0
VERTEX
  5
3C2
  8
0
  6
CONTINUOUS
 62
     7
 10
-56.65861484392219
 20
237.940227546574
 30
0.0
  0
VERTEX
  5
3C3
  8
0
  6
CONTINUOUS
 62
     7
 10
-56.643168167451
 20
237.9156746237023
 30
0.0
  0
VERTEX
  5
3C4
  8
0
  6
CONTINUOUS
 62
     7
 10
-56.62703692462793
 20
237.8916105421174
 30
0.0
  0
VERTEX
  5
3C5
  8
0
  6
CONTINUOUS
 62
     7
 10
-56.6109073630605
 20
237.8689663150532
 30
0.0
  0
VERTEX
  5
3C6
  8
0
  6
CONTINUOUS
 62
     7
 10
-56.59419716719763
 20
237.8468337297564
 30
0.0
  0
VERTEX
  5
3C7
  8
0
  6
CONTINUOUS
 62
     7
 10
-56.57686537378184
 20
237.8251559665611
 30
0.0
  0
VERTEX
  5
3C8
  8
0
  6
CONTINUOUS
 62
     7
 10
-56.55899099671745
 20
237.8040273863038
 30
0.0
  0
VERTEX
  5
3C9
  8
0
  6
CONTINUOUS
 62
     7
 10
-56.54035025034061
 20
237.7831969264277
 30
0.0
  0
VERTEX
  5
3CA
  8
0
  6
CONTINUOUS
 62
     7
 10
-56.52119888844324
 20
237.7629614106861
 30
0.0
  0
VERTEX
  5
3CB
  8
0
  6
CONTINUOUS
 62
     7
 10
-56.5014909348548
 20
237.743267286935
 30
0.0
  0
VERTEX
  5
3CC
  8
0
  6
CONTINUOUS
 62
     7
 10
-56.48131808265596
 20
237.7241995192333
 30
0.0
  0
VERTEX
  5
3CD
  8
0
  6
CONTINUOUS
 62
     7
 10
-56.45954490108242
 20
237.7047626253616
 30
0.0
  0
VERTEX
  5
3CE
  8
0
  6
CONTINUOUS
 62
     7
 10
-56.43729050694923
 20
237.6860321384979
 30
0.0
  0
VERTEX
  5
3CF
  8
0
  6
CONTINUOUS
 62
     7
 10
-56.41365650622741
 20
237.6673077208262
 30
0.0
  0
VERTEX
  5
3D0
  8
0
  6
CONTINUOUS
 62
     7
 10
-56.3895660898833
 20
237.6493745789621
 30
0.0
  0
VERTEX
  5
3D1
  8
0
  6
CONTINUOUS
 62
     7
 10
-56.36715756779093
 20
237.633672377164
 30
0.0
  0
VERTEX
  5
3D2
  8
0
  6
CONTINUOUS
 62
     7
 10
-56.34444176582898
 20
237.6186620044773
 30
0.0
  0
VERTEX
  5
3D3
  8
0
  6
CONTINUOUS
 62
     7
 10
-56.32137002833282
 20
237.6043025680809
 30
0.0
  0
VERTEX
  5
3D4
  8
0
  6
CONTINUOUS
 62
     7
 10
-56.29804160800288
 20
237.5906460688939
 30
0.0
  0
VERTEX
  5
3D5
  8
0
  6
CONTINUOUS
 62
     7
 10
-56.25736422709155
 20
237.5687918790657
 30
0.0
  0
VERTEX
  5
3D6
  8
0
  6
CONTINUOUS
 62
     7
 10
-56.21603752698441
 20
237.5489815082797
 30
0.0
  0
VERTEX
  5
3D7
  8
0
  6
CONTINUOUS
 62
     7
 10
-56.17637061005377
 20
237.5320924173035
 30
0.0
  0
VERTEX
  5
3D8
  8
0
  6
CONTINUOUS
 62
     7
 10
-56.13633461720244
 20
237.5170419688439
 30
0.0
  0
VERTEX
  5
3D9
  8
0
  6
CONTINUOUS
 62
     7
 10
-56.09533359954809
 20
237.5036083992495
 30
0.0
  0
VERTEX
  5
3DA
  8
0
  6
CONTINUOUS
 62
     7
 10
-56.05414312369569
 20
237.4920465547188
 30
0.0
  0
VERTEX
  5
3DB
  8
0
  6
CONTINUOUS
 62
     7
 10
-56.0126316321882
 20
237.4822859978373
 30
0.0
  0
VERTEX
  5
3DC
  8
0
  6
CONTINUOUS
 62
     7
 10
-55.97110141526626
 20
237.4743647927873
 30
0.0
  0
VERTEX
  5
3DD
  8
0
  6
CONTINUOUS
 62
     7
 10
-55.9293110987571
 20
237.4682108544701
 30
0.0
  0
VERTEX
  5
3DE
  8
0
  6
CONTINUOUS
 62
     7
 10
-55.88765115836035
 20
237.4638566484566
 30
0.0
  0
VERTEX
  5
3DF
  8
0
  6
CONTINUOUS
 62
     7
 10
-55.84597318971168
 20
237.4612561725652
 30
0.0
  0
VERTEX
  5
3E0
  8
0
  6
CONTINUOUS
 62
     7
 10
-55.80455235234373
 20
237.4603979614178
 30
0.0
  0
SEQEND
  5
419
  8
0
  6
CONTINUOUS
 62
     7
  0
LINE
  5
21D
  8
0
  6
CONTINUOUS
 62
     7
 10
-75.15598613866673
 20
255.0233286032228
 30
0.0
 11
-72.9913809930551
 21
255.4050068929745
 31
0.0
  0
ARC
  5
21E
  8
0
  6
CONTINUOUS
 62
     7
 10
-59.30455235234373
 20
252.4603979614178
 30
0.0
 40
8.499999999999986
 50
217.4280055430424
 51
322.5719944569574
  0
LINE
  5
21F
  8
0
  6
CONTINUOUS
 62
     7
 10
-53.55455235234373
 20
247.6450578903533
 30
0.0
 11
-53.55455235234373
 21
252.4403756896753
 31
0.0
  0
LINE
  5
220
  8
0
  6
CONTINUOUS
 62
     7
 10
-65.05455235234373
 20
252.4403756896753
 30
0.0
 11
-65.05455235234373
 21
247.6450578903533
 31
0.0
  0
LINE
  5
221
  8
0
  6
CONTINUOUS
 62
     7
 10
-56.43047149467456
 20
266.5518108254027
 30
0.0
 11
-55.780730083197
 21
266.0076048366179
 31
0.0
  0
POLYLINE
  5
222
  8
0
  6
CONTINUOUS
 62
     7
 66
     1
 10
0.0
 20
0.0
 30
0.0
  0
VERTEX
  5
3E1
  8
0
  6
CONTINUOUS
 62
     7
 10
-62.80455235234373
 20
237.4603979614178
 30
0.0
  0
VERTEX
  5
3E2
  8
0
  6
CONTINUOUS
 62
     7
 10
-62.77431077225672
 20
237.4608553845197
 30
0.0
  0
VERTEX
  5
3E3
  8
0
  6
CONTINUOUS
 62
     7
 10
-62.74389384605583
 20
237.462239384029
 30
0.0
  0
VERTEX
  5
3E4
  8
0
  6
CONTINUOUS
 62
     7
 10
-62.71323127514121
 20
237.4645765171937
 30
0.0
  0
VERTEX
  5
3E5
  8
0
  6
CONTINUOUS
 62
     7
 10
-62.68243622348159
 20
237.4678821423642
 30
0.0
  0
VERTEX
  5
3E6
  8
0
  6
CONTINUOUS
 62
     7
 10
-62.6513839023692
 20
237.4721979419655
 30
0.0
  0
VERTEX
  5
3E7
  8
0
  6
CONTINUOUS
 62
     7
 10
-62.62025038672897
 20
237.4775282928094
 30
0.0
  0
VERTEX
  5
3E8
  8
0
  6
CONTINUOUS
 62
     7
 10
-62.58895500657821
 20
237.4839157058674
 30
0.0
  0
VERTEX
  5
3E9
  8
0
  6
CONTINUOUS
 62
     7
 10
-62.55763997800649
 20
237.4913601502881
 30
0.0
  0
VERTEX
  5
3EA
  8
0
  6
CONTINUOUS
 62
     7
 10
-62.52021308718793
 20
237.501674235681
 30
0.0
  0
VERTEX
  5
3EB
  8
0
  6
CONTINUOUS
 62
     7
 10
-62.48281783106621
 20
237.5135680412007
 30
0.0
  0
VERTEX
  5
3EC
  8
0
  6
CONTINUOUS
 62
     7
 10
-62.44532329270291
 20
237.5271485399288
 30
0.0
  0
VERTEX
  5
3ED
  8
0
  6
CONTINUOUS
 62
     7
 10
-62.4080016079288
 20
237.5423851580736
 30
0.0
  0
VERTEX
  5
3EE
  8
0
  6
CONTINUOUS
 62
     7
 10
-62.37064108735181
 20
237.5594423497959
 30
0.0
  0
VERTEX
  5
3EF
  8
0
  6
CONTINUOUS
 62
     7
 10
-62.33362247759916
 20
237.5782273129189
 30
0.0
  0
VERTEX
  5
3F0
  8
0
  6
CONTINUOUS
 62
     7
 10
-62.29683928167567
 20
237.5988717355415
 30
0.0
  0
VERTEX
  5
3F1
  8
0
  6
CONTINUOUS
 62
     7
 10
-62.26059201893678
 20
237.621287029729
 30
0.0
  0
VERTEX
  5
3F2
  8
0
  6
CONTINUOUS
 62
     7
 10
-62.23798179400221
 20
237.6363847318999
 30
0.0
  0
VERTEX
  5
3F3
  8
0
  6
CONTINUOUS
 62
     7
 10
-62.21566403694319
 20
237.6521835393832
 30
0.0
  0
VERTEX
  5
3F4
  8
0
  6
CONTINUOUS
 62
     7
 10
-62.19554159313151
 20
237.6672360862294
 30
0.0
  0
VERTEX
  5
3F5
  8
0
  6
CONTINUOUS
 62
     7
 10
-62.17572180655078
 20
237.682855586574
 30
0.0
  0
VERTEX
  5
3F6
  8
0
  6
CONTINUOUS
 62
     7
 10
-62.1561698660696
 20
237.6990833039933
 30
0.0
  0
VERTEX
  5
3F7
  8
0
  6
CONTINUOUS
 62
     7
 10
-62.136963172581
 20
237.715868118454
 30
0.0
  0
VERTEX
  5
3F8
  8
0
  6
CONTINUOUS
 62
     7
 10
-62.10480247110426
 20
237.7460100389938
 30
0.0
  0
VERTEX
  5
3F9
  8
0
  6
CONTINUOUS
 62
     7
 10
-62.07375759261894
 20
237.7778007015649
 30
0.0
  0
VERTEX
  5
3FA
  8
0
  6
CONTINUOUS
 62
     7
 10
-62.04546679112087
 20
237.8094070930157
 30
0.0
  0
VERTEX
  5
3FB
  8
0
  6
CONTINUOUS
 62
     7
 10
-62.01836608850297
 20
237.8424083510294
 30
0.0
  0
VERTEX
  5
3FC
  8
0
  6
CONTINUOUS
 62
     7
 10
-62.00150569959429
 20
237.8644817982641
 30
0.0
  0
VERTEX
  5
3FD
  8
0
  6
CONTINUOUS
 62
     7
 10
-61.985210501034
 20
237.8870926930901
 30
0.0
  0
VERTEX
  5
3FE
  8
0
  6
CONTINUOUS
 62
     7
 10
-61.97010914869481
 20
237.9093041740455
 30
0.0
  0
VERTEX
  5
3FF
  8
0
  6
CONTINUOUS
 62
     7
 10
-61.95557967875941
 20
237.931961210702
 30
0.0
  0
VERTEX
  5
400
  8
0
  6
CONTINUOUS
 62
     7
 10
-61.94159412181047
 20
237.9551228750973
 30
0.0
  0
VERTEX
  5
401
  8
0
  6
CONTINUOUS
 62
     7
 10
-61.92821652828606
 20
237.9786973038792
 30
0.0
  0
VERTEX
  5
402
  8
0
  6
CONTINUOUS
 62
     7
 10
-61.91530696563649
 20
238.0029676883964
 30
0.0
  0
VERTEX
  5
403
  8
0
  6
CONTINUOUS
 62
     7
 10
-61.90305080949528
 20
238.0276220745643
 30
0.0
  0
VERTEX
  5
404
  8
0
  6
CONTINUOUS
 62
     7
 10
-61.8914241179455
 20
238.0527257411941
 30
0.0
  0
VERTEX
  5
405
  8
0
  6
CONTINUOUS
 62
     7
 10
-61.88048246066698
 20
238.0781744204153
 30
0.0
  0
VERTEX
  5
406
  8
0
  6
CONTINUOUS
 62
     7
 10
-61.86969150831113
 20
238.1053835922796
 30
0.0
  0
VERTEX
  5
407
  8
0
  6
CONTINUOUS
 62
     7
 10
-61.85968178359386
 20
238.1329539077075
 30
0.0
  0
VERTEX
  5
408
  8
0
  6
CONTINUOUS
 62
     7
 10
-61.84705591481472
 20
238.1719528676491
 30
0.0
  0
VERTEX
  5
409
  8
0
  6
CONTINUOUS
 62
     7
 10
-61.83600811695353
 20
238.2115565177385
 30
0.0
  0
VERTEX
  5
40A
  8
0
  6
CONTINUOUS
 62
     7
 10
-61.82651677120389
 20
238.2519620929158
 30
0.0
  0
VERTEX
  5
40B
  8
0
  6
CONTINUOUS
 62
     7
 10
-61.81870390983543
 20
238.292758919414
 30
0.0
  0
VERTEX
  5
40C
  8
0
  6
CONTINUOUS
 62
     7
 10
-61.8125496831408
 20
238.3341846618436
 30
0.0
  0
VERTEX
  5
40D
  8
0
  6
CONTINUOUS
 62
     7
 10
-61.8081328800605
 20
238.3758507245925
 30
0.0
  0
VERTEX
  5
40E
  8
0
  6
CONTINUOUS
 62
     7
 10
-61.8054497597679
 20
238.4180422120058
 30
0.0
  0
VERTEX
  5
40F
  8
0
  6
CONTINUOUS
 62
     7
 10
-61.80455235234373
 20
238.4603979614178
 30
0.0
  0
SEQEND
  5
41A
  8
0
  6
CONTINUOUS
 62
     7
  0
LINE
  5
223
  8
0
  6
CONTINUOUS
 62
     7
 10
-70.30455235234375
 20
230.7603979614178
 30
0.0
 11
-69.60455235234375
 21
230.0603979614177
 31
0.0
  0
ARC
  5
224
  8
0
  6
CONTINUOUS
 62
     7
 10
-39.05455235234373
 20
216.6971281543331
 30
0.0
 40
10.0
 50
160.0
 51
180.0
  0
ARC
  5
225
  8
0
  6
CONTINUOUS
 62
     7
 10
-43.53994265485423
 20
250.3898711961191
 30
0.0
 40
0.500000000000015
 50
279.9999999999999
 51
352.5175899986578
  0
LINE
  5
226
  8
0
  6
CONTINUOUS
 62
     7
 10
-69.55455235234375
 20
216.6971281543331
 30
0.0
 11
-69.55455235234375
 21
210.5103979614177
 31
0.0
  0
LINE
  5
227
  8
0
  6
CONTINUOUS
 62
     7
 10
-49.05455235234374
 20
210.5103979614177
 30
0.0
 11
-49.05455235234374
 21
216.6971281543331
 31
0.0
  0
LINE
  5
228
  8
0
  6
CONTINUOUS
 62
     7
 10
-70.30455235234375
 20
220.5210060260087
 30
0.0
 11
-70.15762614448465
 21
220.1173295875898
 31
0.0
  0
LINE
  5
229
  8
0
  6
CONTINUOUS
 62
     7
 10
-45.61772371163251
 20
255.4050068929752
 30
0.0
 11
-43.45311856602076
 21
255.0233286032228
 31
0.0
  0
LINE
  5
22A
  8
0
  6
CONTINUOUS
 62
     7
 10
-47.90455235234374
 20
234.4603979614178
 30
0.0
 11
-70.70455235234374
 21
234.4603979614178
 31
0.0
  0
LINE
  5
22B
  8
0
  6
CONTINUOUS
 62
     7
 10
-69.80455235234373
 20
237.4603979614178
 30
0.0
 11
-62.80455235234373
 21
237.4603979614178
 31
0.0
  0
ARC
  5
22C
  8
0
  6
CONTINUOUS
 62
     7
 10
-43.53994265485424
 20
254.5309247267166
 30
0.0
 40
0.5000000000000173
 50
7.482410001342089
 51
79.99999999999937
  0
ARC
  5
22D
  8
0
  6
CONTINUOUS
 62
     7
 10
-59.30455235234373
 20
252.4603979614178
 30
0.0
 40
16.40000000000002
 50
82.51758999865785
 51
97.48241000134202
  0
LINE
  5
22E
  8
0
  6
CONTINUOUS
 62
     7
 10
-69.55455235234375
 20
210.5103979614177
 30
0.0
 11
-69.00455235234374
 21
209.9603979614177
 31
0.0
  0
LINE
  5
22F
  8
0
  6
CONTINUOUS
 62
     7
 10
-69.00455235234375
 20
209.9603979614177
 30
0.0
 11
-69.00455235234375
 21
204.9603979614177
 31
0.0
  0
LINE
  5
230
  8
0
  6
CONTINUOUS
 62
     7
 10
-50.00455235234374
 20
203.1103979614177
 30
0.0
 11
-50.00455235234374
 21
203.9603979614177
 31
0.0
  0
LINE
  5
231
  8
0
  6
CENTER
 62
     2
 10
75.69544764765628
 20
196.9603979614178
 30
0.0
 11
75.69544764765628
 21
271.8603979614178
 31
0.0
  0
LINE
  5
233
  8
0
  6
CONTINUOUS
 62
     7
 10
-53.85455235234374
 20
199.9603979614178
 30
0.0
 11
-64.75455235234374
 21
199.9603979614178
 31
0.0
  0
LINE
  5
234
  8
0
  6
CONTINUOUS
 62
     7
 10
-70.80455235234373
 20
234.5603979614178
 30
0.0
 11
-70.70455235234374
 21
234.4603979614178
 31
0.0
  0
LINE
  5
235
  8
0
  6
CONTINUOUS
 62
     7
 10
-49.90455235234374
 20
200.9603979614177
 30
0.0
 11
-49.60455235234374
 21
201.9603979614177
 31
0.0
  0
LINE
  5
236
  8
0
  6
CONTINUOUS
 62
     7
 10
-68.60455235234373
 20
203.9603979614177
 30
0.0
 11
-68.60455235234373
 21
203.1103979614177
 31
0.0
  0
LINE
  5
237
  8
0
  6
CONTINUOUS
 62
     7
 10
-65.55455235234373
 20
200.9603979614177
 30
0.0
 11
-65.55455235234373
 21
200.7603979614178
 31
0.0
  0
LINE
  5
238
  8
0
  6
CONTINUOUS
 62
     7
 10
-47.90455235234374
 20
234.4603979614178
 30
0.0
 11
-47.80455235234373
 21
234.5603979614178
 31
0.0
  0
ARC
  5
239
  8
0
  6
CONTINUOUS
 62
     7
 10
-69.80455235234373
 20
236.4603979614178
 30
0.0
 40
1.000000000000001
 50
90.0
 51
180.0
  0
ARC
  5
23A
  8
0
  6
CONTINUOUS
 62
     7
 10
-69.30455235234373
 20
238.4603979614178
 30
0.0
 40
1.000000000000001
 50
270.0
 51
0.0
  0
ARC
  5
23B
  8
0
  6
CONTINUOUS
 62
     7
 10
-48.80455235234374
 20
236.4603979614178
 30
0.0
 40
1.000000000000001
 50
0.0
 51
90.00000000000011
  0
LINE
  5
23C
  8
0
  6
CONTINUOUS
 62
     7
 10
-56.79290042869081
 20
268.4603979617387
 30
0.0
 11
-38.80455235234373
 21
268.4603979617387
 31
0.0
  0
LINE
  5
23D
  8
0
  6
CONTINUOUS
 62
     7
 10
-79.80455235234373
 20
268.4603979617387
 30
0.0
 11
-61.81620427599663
 21
268.4603979617387
 31
0.0
  0
LINE
  5
23E
  8
0
  6
CONTINUOUS
 62
     7
 10
-42.30455235234373
 20
236.4603979617388
 30
0.0
 11
-47.80455235234373
 21
236.4603979617388
 31
0.0
  0
LINE
  5
23F
  8
0
  6
CONTINUOUS
 62
     7
 10
-68.30455235234372
 20
241.7365926666542
 30
0.0
 11
-68.30455235234372
 21
238.4603979614178
 31
0.0
  0
LINE
  5
240
  8
0
  6
CONTINUOUS
 62
     7
 10
-49.00455235234374
 20
230.0603979614177
 30
0.0
 11
-69.60455235234372
 21
230.0603979614177
 31
0.0
  0
LINE
  5
241
  8
0
  6
CONTINUOUS
 62
     7
 10
-69.00455235234374
 20
204.9603979614177
 30
0.0
 11
-68.60455235234373
 21
203.9603979614177
 31
0.0
  0
LINE
  5
242
  8
0
  6
CONTINUOUS
 62
     7
 10
-50.30455235234373
 20
238.4603979614178
 30
0.0
 11
-50.30455235234373
 21
241.7365926666542
 31
0.0
  0
LINE
  5
243
  8
0
  6
CONTINUOUS
 62
     7
 10
-48.30455235234373
 20
224.3603979614177
 30
0.0
 11
-70.30455235234375
 21
224.3603979614177
 31
0.0
  0
LINE
  5
244
  8
0
  6
CONTINUOUS
 62
     7
 10
-70.80455235234373
 20
236.4603979617388
 30
0.0
 11
-76.30455235234373
 21
236.4603979617388
 31
0.0
  0
LINE
  5
245
  8
0
  6
CONTINUOUS
 62
     7
 10
-47.80455235234373
 20
234.5603979614178
 30
0.0
 11
-47.80455235234373
 21
236.4603979614178
 31
0.0
  0
LINE
  5
246
  8
0
  6
CONTINUOUS
 62
     7
 10
-69.55455235234373
 20
210.5103979614177
 30
0.0
 11
-49.05455235234375
 21
210.5103979614177
 31
0.0
  0
ARC
  5
247
  8
0
  6
CONTINUOUS
 62
     7
 10
-53.85455235234374
 20
200.7603979614178
 30
0.0
 40
0.7999999999999952
 50
270.0
 51
0.0
  0
LINE
  5
248
  8
0
  6
CONTINUOUS
 62
     7
 10
-53.05455235234374
 20
200.7603979614178
 30
0.0
 11
-53.05455235234374
 21
200.9603979614177
 31
0.0
  0
ARC
  5
249
  8
0
  6
CONTINUOUS
 62
     7
 10
-49.30455235234373
 20
238.4603979614178
 30
0.0
 40
1.000000000000001
 50
180.0
 51
270.0
  0
LINE
  5
24A
  8
0
  6
CONTINUOUS
 62
     7
 10
-70.80455235234373
 20
236.4603979614178
 30
0.0
 11
-70.80455235234373
 21
234.5603979614178
 31
0.0
  0
LINE
  5
24B
  8
0
  6
CONTINUOUS
 62
     7
 10
-69.60455235234375
 20
225.0603979614177
 30
0.0
 11
-49.00455235234376
 21
225.0603979614177
 31
0.0
  0
LINE
  5
24C
  8
0
  6
CONTINUOUS
 62
     7
 10
-82.80455235234373
 20
265.4603979617387
 30
0.0
 11
-82.80455235234373
 21
223.4603979617388
 31
0.0
  0
LINE
  5
24D
  8
0
  6
CONTINUOUS
 62
     7
 10
-50.00455235234374
 20
203.9603979614177
 30
0.0
 11
-49.60455235234374
 21
204.9603979614177
 31
0.0
  0
ARC
  5
24E
  8
0
  6
CONTINUOUS
 62
     7
 10
-49.85455235234374
 20
203.1103979614177
 30
0.0
 40
0.1500000000000112
 50
180.0
 51
270.0
  0
LINE
  5
24F
  8
0
  6
CONTINUOUS
 62
     7
 10
-35.80455235234373
 20
223.4603979617388
 30
0.0
 11
-35.80455235234373
 21
265.4603979617387
 31
0.0
  0
ARC
  5
250
  8
0
  6
CONTINUOUS
 62
     7
 10
-68.75455235234374
 20
203.1103979614177
 30
0.0
 40
0.1499999999999974
 50
270.0
 51
0.0
  0
LINE
  5
251
  8
0
  6
CONTINUOUS
 62
     7
 10
-69.00455235234374
 20
201.9603979614177
 30
0.0
 11
-68.70455235234374
 21
200.9603979614177
 31
0.0
  0
ARC
  5
252
  8
0
  6
CONTINUOUS
 62
     7
 10
-64.75455235234374
 20
200.7603979614178
 30
0.0
 40
0.7999999999999952
 50
180.0
 51
270.0
  0
LINE
  5
253
  8
0
  6
CONTINUOUS
 62
     7
 10
52.19544764765629
 20
265.4603979617387
 30
0.0
 11
52.19544764765629
 21
223.4603979617388
 31
0.0
  0
LINE
  5
254
  8
0
  6
CONTINUOUS
 62
     7
 10
33.69544764765602
 20
266.4603979614179
 30
0.0
 11
33.69544764765602
 21
258.4603979614178
 31
0.0
  0
LINE
  5
255
  8
0
  6
CONTINUOUS
 62
     7
 10
58.69544764765629
 20
233.9603979617388
 30
0.0
 11
58.69544764765629
 21
268.4603979617387
 31
0.0
  0
LINE
  5
256
  8
0
  6
CONTINUOUS
 62
     7
 10
92.6954476476563
 20
233.9603979617388
 30
0.0
 11
92.6954476476563
 21
268.4603979617387
 31
0.0
  0
LINE
  5
257
  8
0
  6
CONTINUOUS
 62
     7
 10
1.595447647656147
 20
250.0416003631054
 30
0.0
 11
1.595447647656123
 21
254.8791955597302
 31
0.0
  0
LINE
  5
258
  8
0
  6
CONTINUOUS
 62
     7
 10
64.6954476476563
 20
220.5210060260087
 30
0.0
 11
86.6954476476563
 21
220.5210060260087
 31
0.0
  0
LINE
  5
259
  8
0
  6
CONTINUOUS
 62
     7
 10
92.69544764765628
 20
236.4603979617388
 30
0.0
 11
58.6954476476563
 21
236.4603979617388
 31
0.0
  0
ARC
  5
25A
  8
0
  6
CONTINUOUS
 62
     7
 10
-59.30455235234374
 20
252.4603979614178
 30
0.0
 40
16.4
 50
352.517589998658
 51
7.482410001342032
  0
LINE
  5
25B
  8
0
  6
CONTINUOUS
 62
     7
 10
2.095447647656162
 20
238.4607964577439
 30
0.0
 11
2.09544764765616
 21
234.5603979614178
 31
0.0
  0
LINE
  5
25C
  8
0
  6
CONTINUOUS
 62
     7
 10
15.59544764823405
 20
225.0603979614177
 30
0.0
 11
23.89544764765614
 21
225.0603979614177
 31
0.0
  0
LINE
  5
25D
  8
0
  6
CONTINUOUS
 62
     7
 10
13.59544764823405
 20
230.0603979614177
 30
0.0
 11
3.295447647656168
 21
230.0603979614177
 31
0.0
  0
LINE
  5
25E
  8
0
  6
CONTINUOUS
 62
     7
 10
13.59544764823406
 20
253.6675047429253
 30
0.0
 11
13.59544764823405
 21
268.4603979617387
 31
0.0
  0
LINE
  5
25F
  8
0
  6
CONTINUOUS
 62
     7
 10
64.6954476476563
 20
230.7603979614178
 30
0.0
 11
86.6954476476563
 21
230.7603979614178
 31
0.0
  0
LINE
  5
260
  8
0
  6
CONTINUOUS
 62
     7
 10
3.295447647656168
 20
225.0603979614177
 30
0.0
 11
13.59544764823405
 21
225.0603979614177
 31
0.0
  0
LINE
  5
261
  8
0
  6
CONTINUOUS
 62
     7
 10
15.59544764823405
 20
268.4603979617387
 30
0.0
 11
15.59544764823405
 21
255.8743537985893
 31
0.0
  0
LINE
  5
262
  8
0
  6
CONTINUOUS
 62
     7
 10
1.595447647656147
 20
266.2498656153339
 30
0.0
 11
1.595447647656147
 21
268.3603979614178
 31
0.0
  0
LINE
  5
263
  8
0
  6
CONTINUOUS
 62
     7
 10
-3.30455235234379
 20
238.4603979614178
 30
0.0
 11
2.095932814426514
 21
238.4603979614178
 31
0.0
  0
LINE
  5
264
  8
0
  6
CONTINUOUS
 62
     7
 10
15.59544764823405
 20
249.0464421248884
 30
0.0
 11
15.59544764823405
 21
220.4603979617389
 31
0.0
  0
LINE
  5
265
  8
0
  6
CONTINUOUS
 62
     7
 10
65.9954476476563
 20
201.9603979614177
 30
0.0
 11
85.39544764765628
 21
201.9603979614177
 31
0.0
  0
LINE
  5
266
  8
0
  6
CONTINUOUS
 62
     7
 10
85.3954476476563
 20
202.8103979614177
 30
0.0
 11
65.99544764765629
 21
202.8103979614177
 31
0.0
  0
LINE
  5
267
  8
0
  6
CONTINUOUS
 62
     7
 10
65.9954476476563
 20
204.9603979614177
 30
0.0
 11
85.3954476476563
 21
204.9603979614177
 31
0.0
  0
LINE
  5
268
  8
0
  6
CONTINUOUS
 62
     7
 10
3.595447647656119
 20
254.8791955597302
 30
0.0
 11
3.595447647656144
 21
250.0416003631054
 31
0.0
  0
LINE
  5
269
  8
0
  6
CONTINUOUS
 62
     7
 10
86.6954476476563
 20
234.2603979614178
 30
0.0
 11
64.6954476476563
 21
234.2603979614178
 31
0.0
  0
LINE
  5
26A
  8
0
  6
CONTINUOUS
 62
     7
 10
55.19544764765628
 20
268.4603979617387
 30
0.0
 11
96.19544764765628
 21
268.4603979617387
 31
0.0
  0
LINE
  5
26B
  8
0
  6
CONTINUOUS
 62
     7
 10
66.2954476476563
 20
200.9603979614177
 30
0.0
 11
85.09544764765629
 21
200.9603979614177
 31
0.0
  0
LINE
  5
26C
  8
0
  6
CONTINUOUS
 62
     7
 10
66.3954476476563
 20
203.9603979614177
 30
0.0
 11
84.99544764765629
 21
203.9603979614177
 31
0.0
  0
LINE
  5
26D
  8
0
  6
CONTINUOUS
 62
     7
 10
33.09544764823401
 20
268.4603979617387
 30
0.0
 11
13.59544764823405
 21
268.4603979617387
 31
0.0
  0
LINE
  5
26E
  8
0
  6
CONTINUOUS
 62
     7
 10
85.99544764765629
 20
230.0603979614177
 30
0.0
 11
65.3954476476563
 21
230.0603979614177
 31
0.0
  0
LINE
  5
26F
  8
0
  6
CONTINUOUS
 62
     7
 10
66.14544764765628
 20
202.9603979614177
 30
0.0
 11
85.24544764765629
 21
202.9603979614177
 31
0.0
  0
LINE
  5
270
  8
0
  6
CONTINUOUS
 62
     7
 10
3.595447647656144
 20
268.3603979614178
 30
0.0
 11
3.595447647656144
 21
266.2498656153339
 31
0.0
  0
LINE
  5
271
  8
0
  6
CONTINUOUS
 62
     7
 10
23.89544764765615
 20
230.0603979614177
 30
0.0
 11
15.59544764823405
 21
230.0603979614177
 31
0.0
  0
LINE
  5
272
  8
0
  6
CONTINUOUS
 62
     7
 10
13.59544764823405
 20
220.4603979617389
 30
0.0
 11
13.59544764823405
 21
251.2532911805522
 31
0.0
  0
LINE
  5
273
  8
0
  6
CONTINUOUS
 62
     7
 10
33.09544764823401
 20
236.4603979617388
 30
0.0
 11
15.59544764823406
 21
236.4603979617388
 31
0.0
  0
LINE
  5
274
  8
0
  6
CONTINUOUS
 62
     7
 10
65.39544764765628
 20
225.0603979614177
 30
0.0
 11
85.99544764765629
 21
225.0603979614177
 31
0.0
  0
LINE
  5
275
  8
0
  6
CONTINUOUS
 62
     7
 10
99.19544764765628
 20
265.4603979617387
 30
0.0
 11
99.19544764765628
 21
223.4603979617388
 31
0.0
  0
LINE
  5
276
  8
0
  6
CONTINUOUS
 62
     7
 10
65.99544764765629
 20
209.9603979614177
 30
0.0
 11
85.39544764765631
 21
209.9603979614177
 31
0.0
  0
CIRCLE
  5
277
  8
0
  6
CONTINUOUS
 62
     7
 10
75.69543804720439
 20
227.5603979614177
 30
0.0
 40
2.500000000018436
  0
CIRCLE
  5
278
  8
0
  6
CONTINUOUS
 62
     7
 10
-59.30455235234376
 20
227.5603979614177
 30
0.0
 40
2.500000000000002
  0
INSERT
  5
27C
  8
0
  6
CONTINUOUS
 62
     7
  2
D_FRAME_VIEW_15385
 10
0.0
 20
0.0
 30
0.0
  0
INSERT
  5
280
  8
0
  6
CONTINUOUS
 62
     7
  2
D_FRAME_VIEW_14934
 10
0.0
 20
0.0
 30
0.0
  0
LINE
  5
281
  8
0
  6
CONTINUOUS
 62
     7
 10
87.09544764765629
 20
234.4603979614178
 30
0.0
 11
64.29544764765629
 21
234.4603979614178
 31
0.0
  0
ARC
  5
282
  8
0
  6
CONTINUOUS
 62
     7
 10
77.76597441295509
 20
268.2250076589073
 30
0.0
 40
0.5000000000000104
 50
28.08497927387407
 51
82.5175899986582
  0
ARC
  5
283
  8
0
  6
CONTINUOUS
 62
     7
 10
73.62492088235747
 20
268.2250076589073
 30
0.0
 40
0.5000000000000122
 50
97.48241000134202
 51
151.9150207261241
  0
LINE
  5
284
  8
0
  6
CONTINUOUS
 62
     7
 10
85.3954476476563
 20
202.8103979614177
 30
0.0
 11
75.6954476476563
 21
202.8103979614177
 31
0.0
  0
LINE
  5
285
  8
0
  6
CONTINUOUS
 62
     7
 10
86.6954476476563
 20
234.2603979614178
 30
0.0
 11
86.49544764765629
 21
234.4603979614177
 31
0.0
  0
ARC
  5
286
  8
0
  6
CONTINUOUS
 62
     7
 10
75.69544764765628
 20
252.4603979614178
 30
0.0
 40
16.39999999999997
 50
82.51758999865797
 51
97.48241000134202
  0
LINE
  5
287
  8
0
  6
CONTINUOUS
 62
     7
 10
64.8954476476563
 20
234.4603979614177
 30
0.0
 11
64.6954476476563
 21
234.2603979614178
 31
0.0
  0
LINE
  5
288
  8
0
  6
CONTINUOUS
 62
     7
 10
64.6954476476563
 20
234.2603979614178
 30
0.0
 11
64.6954476476563
 21
230.7603979614178
 31
0.0
  0
LINE
  5
289
  8
0
  6
CONTINUOUS
 62
     7
 10
86.6954476476563
 20
230.7603979614178
 30
0.0
 11
86.6954476476563
 21
234.2603979614178
 31
0.0
  0
LINE
  5
28A
  8
0
  6
CONTINUOUS
 62
     7
 10
75.6954476476563
 20
202.9603979614177
 30
0.0
 11
85.24544764765629
 21
202.9603979614177
 31
0.0
  0
LINE
  5
28B
  8
0
  6
CONTINUOUS
 62
     7
 10
75.6954476476563
 20
201.9603979614177
 30
0.0
 11
85.39544764765628
 21
201.9603979614177
 31
0.0
  0
LINE
  5
28C
  8
0
  6
CONTINUOUS
 62
     7
 10
66.3954476476563
 20
203.9603979614177
 30
0.0
 11
75.6954476476563
 21
203.9603979614177
 31
0.0
  0
LINE
  5
28D
  8
0
  6
CONTINUOUS
 62
     7
 10
75.6954476476563
 20
200.9603979614177
 30
0.0
 11
85.09544764765629
 21
200.9603979614177
 31
0.0
  0
LINE
  5
28E
  8
0
  6
CONTINUOUS
 62
     7
 10
81.1454476476563
 20
199.9603979614178
 30
0.0
 11
70.24544764765629
 21
199.9603979614178
 31
0.0
  0
LINE
  5
28F
  8
0
  6
CONTINUOUS
 62
     7
 10
64.1954476476563
 20
234.5603979614178
 30
0.0
 11
87.19544764765628
 21
234.5603979614178
 31
0.0
  0
LINE
  5
290
  8
0
  6
CONTINUOUS
 62
     7
 10
64.6954476476563
 20
230.7603979614178
 30
0.0
 11
65.39544764765628
 21
230.0603979614177
 31
0.0
  0
LINE
  5
291
  8
0
  6
CONTINUOUS
 62
     7
 10
85.99544764765629
 20
230.0603979614177
 30
0.0
 11
86.6954476476563
 21
230.7603979614178
 31
0.0
  0
CIRCLE
  5
292
  8
0
  6
CONTINUOUS
 62
     7
 10
75.69544764765631
 20
252.460397961418
 30
0.0
 40
2.299999999999983
  0
LINE
  5
293
  8
0
  6
CONTINUOUS
 62
     7
 10
75.6954476476563
 20
202.8103979614177
 30
0.0
 11
65.99544764765629
 21
202.8103979614177
 31
0.0
  0
LINE
  5
294
  8
0
  6
CONTINUOUS
 62
     7
 10
75.6954476476563
 20
203.9603979614177
 30
0.0
 11
84.99544764765629
 21
203.9603979614177
 31
0.0
  0
LINE
  5
295
  8
0
  6
CONTINUOUS
 62
     7
 10
66.2954476476563
 20
200.9603979614177
 30
0.0
 11
75.6954476476563
 21
200.9603979614177
 31
0.0
  0
LINE
  5
296
  8
0
  6
CONTINUOUS
 62
     7
 10
66.14544764765628
 20
202.9603979614177
 30
0.0
 11
75.6954476476563
 21
202.9603979614177
 31
0.0
  0
CIRCLE
  5
297
  8
0
  6
CONTINUOUS
 62
     7
 10
75.69544764765631
 20
252.460397961418
 30
0.0
 40
1.799999999999982
  0
TEXT
  5
298
  8
0
  6
CONTINUOUS
 62
     7
 10
65.74693570567806
 20
194.0956361757481
 30
0.0
 40
3.0
  1
%%USKE3-13A-15T
  0
ENDSEC
  0
EOF
