  0
SECTION
  2
HEADER
  9
$ACADVER
  1
AC1006
  9
$DWGCODEPAGE
  3
ansi_932
  9
$INSBASE
 10
0.0
 20
0.0
 30
0.0
  9
$EXTMIN
 10
-355.8333333333333
 20
69.62108718844303
  9
$EXTMAX
 10
-138.7877538551097
 20
266.7500000000001
  9
$LIMMIN
 10
0.0
 20
0.0
  9
$LIMMAX
 10
12.0
 20
9.0
  9
$ORTHOMODE
 70
     0
  9
$REGENMODE
 70
     1
  9
$FILLMODE
 70
     1
  9
$QTEXTMODE
 70
     0
  9
$MIRRTEXT
 70
     1
  9
$DRAGMODE
 70
     2
  9
$LTSCALE
 40
1.0
  9
$OSMODE
 70
    37
  9
$ATTMODE
 70
     1
  9
$TEXTSIZE
 40
0.2
  9
$TRACEWID
 40
0.05
  9
$TEXTSTYLE
  7
STANDARD
  9
$CLAYER
  8
0
  9
$CELTYPE
  6
BYLAYER
  9
$CECOLOR
 62
   256
  9
$DIMSCALE
 40
1.0
  9
$DIMASZ
 40
3.0
  9
$DIMEXO
 40
0.0625
  9
$DIMDLI
 40
0.38
  9
$DIMRND
 40
0.0
  9
$DIMDLE
 40
0.0
  9
$DIMEXE
 40
1.5
  9
$DIMTP
 40
0.0
  9
$DIMTM
 40
0.0
  9
$DIMTXT
 40
3.0
  9
$DIMCEN
 40
0.09
  9
$DIMTSZ
 40
0.0
  9
$DIMTOL
 70
     0
  9
$DIMLIM
 70
     0
  9
$DIMTIH
 70
     1
  9
$DIMTOH
 70
     1
  9
$DIMSE1
 70
     0
  9
$DIMSE2
 70
     0
  9
$DIMTAD
 70
     1
  9
$DIMZIN
 70
     0
  9
$DIMBLK
  1

  9
$DIMASO
 70
     1
  9
$DIMSHO
 70
     1
  9
$DIMPOST
  1

  9
$DIMAPOST
  1

  9
$DIMALT
 70
     0
  9
$DIMALTD
 70
     2
  9
$DIMALTF
 40
25.4
  9
$DIMLFAC
 40
1.0
  9
$DIMTOFL
 70
     0
  9
$DIMTVP
 40
0.0
  9
$DIMTIX
 70
     0
  9
$DIMSOXD
 70
     0
  9
$DIMSAH
 70
     0
  9
$DIMBLK1
  1

  9
$DIMBLK2
  1

  9
$LUNITS
 70
     2
  9
$LUPREC
 70
     4
  9
$SKETCHINC
 40
0.1
  9
$FILLETRAD
 40
0.5
  9
$AUNITS
 70
     0
  9
$AUPREC
 70
     0
  9
$MENU
  1
.
  9
$ELEVATION
 40
0.0
  9
$THICKNESS
 40
0.0
  9
$LIMCHECK
 70
     0
  9
$CHAMFERA
 40
0.0
  9
$CHAMFERB
 40
0.0
  9
$SKPOLY
 70
     0
  9
$TDCREATE
 40
2460710.540464329
  9
$TDUPDATE
 40
2460710.540464676
  9
$TDINDWG
 40
0.0000000116
  9
$TDUSRTIMER
 40
0.0000000116
  9
$USRTIMER
 70
     1
  9
$ANGBASE
 50
0.0
  9
$ANGDIR
 70
     0
  9
$PDMODE
 70
     0
  9
$PDSIZE
 40
0.0
  9
$PLINEWID
 40
0.0
  9
$COORDS
 70
     1
  9
$SPLFRAME
 70
     0
  9
$SPLINETYPE
 70
     6
  9
$SPLINESEGS
 70
     8
  9
$ATTDIA
 70
     0
  9
$ATTREQ
 70
     1
  9
$HANDLING
 70
     1
  9
$HANDSEED
  5
A45
  9
$SURFTAB1
 70
     6
  9
$SURFTAB2
 70
     6
  9
$SURFTYPE
 70
     6
  9
$SURFU
 70
     6
  9
$SURFV
 70
     6
  9
$UCSNAME
  2

  9
$UCSORG
 10
0.0
 20
0.0
 30
0.0
  9
$UCSXDIR
 10
1.0
 20
0.0
 30
0.0
  9
$UCSYDIR
 10
0.0
 20
1.0
 30
0.0
  9
$USERI1
 70
     0
  9
$USERI2
 70
     0
  9
$USERI3
 70
     0
  9
$USERI4
 70
     0
  9
$USERI5
 70
     0
  9
$USERR1
 40
0.0
  9
$USERR2
 40
0.0
  9
$USERR3
 40
0.0
  9
$USERR4
 40
0.0
  9
$USERR5
 40
0.0
  9
$WORLDVIEW
 70
     1
  0
ENDSEC
  0
SECTION
  2
TABLES
  0
TABLE
  2
VPORT
 70
     1
  0
VPORT
  2
*ACTIVE
 70
     0
 10
0.0
 20
0.0
 11
1.0
 21
1.0
 12
-247.3105435942215
 22
168.1855435942215
 13
0.0
 23
0.0
 14
0.5
 24
0.5
 15
0.5
 25
0.5
 16
0.0
 26
0.0
 36
1.0
 17
0.0
 27
0.0
 37
0.0
 40
197.128912811557
 41
1.6
 42
50.0
 43
0.0
 44
0.0
 50
0.0
 51
0.0
 71
     0
 72
   100
 73
     1
 74
     3
 75
     0
 76
     0
 77
     0
 78
     0
  0
ENDTAB
  0
TABLE
  2
LTYPE
 70
     2
  0
LTYPE
  2
CONTINUOUS
 70
     0
  3
Solid line
 72
    65
 73
     0
 40
0.0
  0
LTYPE
  2
CENTER
 70
     0
  3

 72
    65
 73
     0
 40
0.0
  0
ENDTAB
  0
TABLE
  2
LAYER
 70
     2
  0
LAYER
  2
0
 70
     0
 62
     7
  6
CONTINUOUS
  0
LAYER
  2
1
 70
     0
 62
     7
  6
CONTINUOUS
  0
ENDTAB
  0
TABLE
  2
STYLE
 70
     2
  0
STYLE
  2
STANDARD
 70
     0
 40
0.0
 41
1.0
 50
0.0
 71
     0
 42
0.2
  3
txt
  4

  0
STYLE
  2
ＭＳ_ゴシック
 70
     0
 40
0.0
 41
1.0
 50
0.0
 71
     0
 42
0.2
  3
ＭＳ ゴシック.shx
  4

  0
ENDTAB
  0
TABLE
  2
VIEW
 70
     0
  0
ENDTAB
  0
TABLE
  2
UCS
 70
     0
  0
ENDTAB
  0
ENDSEC
  0
SECTION
  2
BLOCKS
  0
BLOCK
  8
0
  2
D_FRAME_VIEW_2449
 70
     0
 10
0.0
 20
0.0
 30
0.0
  0
ARC
  5
71
  8
1
  6
CONTINUOUS
 62
     7
 10
-156.0963159453781
 20
214.5625417042571
 30
0.0
 40
8.40887183008997
 50
342.2067832646097
 51
359.5082225408112
  0
LINE
  5
72
  8
1
  6
CONTINUOUS
 62
     7
 10
-147.6877538551097
 20
210.1240373329345
 30
0.0
 11
-147.6877538551097
 21
214.4903681011765
 31
0.0
  0
ARC
  5
73
  8
1
  6
CONTINUOUS
 62
     7
 10
-152.5700930987175
 20
210.0517145511488
 30
0.0
 40
4.882874878023999
 50
0.8486684154175826
 51
23.4255601645404
  0
LINE
  5
74
  8
1
  6
CONTINUOUS
 62
     7
 10
-148.0896776437563
 20
216.987799246279
 30
0.0
 11
-151.098535847287
 21
216.987799246279
 31
0.0
  0
ARC
  5
75
  8
1
  6
CONTINUOUS
 62
     7
 10
-156.1803526374863
 20
214.4046700629003
 30
0.0
 40
8.493031156906808
 50
0.57814685248054
 51
17.706847342099
  0
LINE
  5
76
  8
1
  6
CONTINUOUS
 62
     7
 10
-148.0896776437563
 20
211.992936956074
 30
0.0
 11
-151.8877538551097
 21
211.992936956074
 31
0.0
  0
ARC
  5
77
  8
1
  6
CONTINUOUS
 62
     7
 10
-152.6673383600934
 20
210.2172735888289
 30
0.0
 40
4.980457292426774
 50
336.7984351774991
 51
358.927336242543
  0
LINE
  5
78
  8
1
  6
CONTINUOUS
 62
     7
 10
-148.0896776437563
 20
208.255137709795
 30
0.0
 11
-151.8877538551097
 21
208.255137709795
 31
0.0
  0
POLYLINE
  5
79
  8
1
  6
CONTINUOUS
 62
     7
 66
     1
 10
0.0
 20
0.0
 30
0.0
  0
VERTEX
  5
548
  8
1
  6
CONTINUOUS
 62
     7
 10
-148.0896776437563
 20
216.987799246279
 30
0.0
  0
VERTEX
  5
549
  8
1
  6
CONTINUOUS
 62
     7
 10
-148.0031587648982
 20
217.0638617978617
 30
0.0
  0
VERTEX
  5
54A
  8
1
  6
CONTINUOUS
 62
     7
 10
-147.9251256957711
 20
217.1404576108074
 30
0.0
  0
VERTEX
  5
54B
  8
1
  6
CONTINUOUS
 62
     7
 10
-147.8563366261301
 20
217.2178454225924
 30
0.0
  0
VERTEX
  5
54C
  8
1
  6
CONTINUOUS
 62
     7
 10
-147.798070092092
 20
217.2957346013752
 30
0.0
  0
VERTEX
  5
54D
  8
1
  6
CONTINUOUS
 62
     7
 10
-147.7507496096036
 20
217.3751652818028
 30
0.0
  0
VERTEX
  5
54E
  8
1
  6
CONTINUOUS
 62
     7
 10
-147.7161358846718
 20
217.4549761772261
 30
0.0
  0
VERTEX
  5
54F
  8
1
  6
CONTINUOUS
 62
     7
 10
-147.6949064842396
 20
217.5355815349982
 30
0.0
  0
VERTEX
  5
550
  8
1
  6
CONTINUOUS
 62
     7
 10
-147.6877538551097
 20
217.616330768242
 30
0.0
  0
SEQEND
  5
A0F
  8
1
  6
CONTINUOUS
 62
     7
  0
LINE
  5
7A
  8
1
  6
CONTINUOUS
 62
     7
 10
-147.6877538551097
 20
214.4903681011765
 30
0.0
 11
-147.6877538551097
 21
217.616330768242
 31
0.0
  0
LINE
  5
7B
  8
1
  6
CONTINUOUS
 62
     7
 10
-148.0896776437563
 20
218.244862290205
 30
0.0
 11
-151.8877538551097
 21
218.244862290205
 31
0.0
  0
LINE
  5
7C
  8
1
  6
CONTINUOUS
 62
     7
 10
-147.6877538551097
 20
217.616330768242
 30
0.0
 11
-147.7672987410658
 21
217.8877757835962
 31
0.0
  0
LINE
  5
7D
  8
1
  6
CONTINUOUS
 62
     7
 10
-147.7672986920359
 20
208.612224301322
 30
0.0
 11
-148.0896776437563
 21
208.255137709795
 31
0.0
  0
LINE
  5
7E
  8
1
  6
CONTINUOUS
 62
     7
 10
-147.6877538551097
 20
208.75
 30
0.0
 11
-147.6877538551097
 21
210.1240373329345
 31
0.0
  0
LINE
  5
7F
  8
1
  6
CONTINUOUS
 62
     7
 10
-147.7672987410658
 20
217.8877757835962
 30
0.0
 11
-148.0896776437563
 21
218.244862290205
 31
0.0
  0
LINE
  5
80
  8
1
  6
CONTINUOUS
 62
     7
 10
-147.6877538551097
 20
217.616330768242
 30
0.0
 11
-147.6877538551097
 21
217.75
 31
0.0
  0
LINE
  5
81
  8
1
  6
CONTINUOUS
 62
     7
 10
-164.6877538551097
 20
208.25
 30
0.0
 11
-164.6877538551097
 21
213.25
 31
0.0
  0
LINE
  5
82
  8
1
  6
CONTINUOUS
 62
     7
 10
-164.6877538551097
 20
213.25
 30
0.0
 11
-164.6877538551097
 21
218.25
 31
0.0
  0
LINE
  5
83
  8
1
  6
CONTINUOUS
 62
     7
 10
-165.8877538551097
 20
208.5
 30
0.0
 11
-165.8877538551097
 21
218.0
 31
0.0
  0
LINE
  5
84
  8
1
  6
CONTINUOUS
 62
     9
 10
-167.499041256153
 20
217.6090306187266
 30
0.0
 11
-167.499041256153
 21
213.85
 31
0.0
  0
LINE
  5
85
  8
1
  6
CONTINUOUS
 62
     9
 10
-167.499041256153
 20
212.6500000000001
 30
0.0
 11
-167.499041256153
 21
208.8909693812735
 31
0.0
  0
LINE
  5
86
  8
1
  6
CONTINUOUS
 62
     7
 10
-167.3877538551097
 20
212.65
 30
0.0
 11
-167.4990412561529
 21
212.65
 31
0.0
  0
LINE
  5
87
  8
1
  6
CONTINUOUS
 62
     7
 10
-167.3877538551097
 20
213.85
 30
0.0
 11
-167.3877538551097
 21
212.65
 31
0.0
  0
LINE
  5
88
  8
1
  6
CONTINUOUS
 62
     7
 10
-167.499041256153
 20
213.85
 30
0.0
 11
-167.3877538551097
 21
213.85
 31
0.0
  0
LINE
  5
89
  8
1
  6
CONTINUOUS
 62
     7
 10
-168.8025516209185
 20
213.85
 30
0.0
 11
-167.499041256153
 21
213.85
 31
0.0
  0
LINE
  5
8A
  8
1
  6
CONTINUOUS
 62
     9
 10
-168.8025516209185
 20
213.85
 30
0.0
 11
-168.8025516209185
 21
216.7063988772247
 31
0.0
  0
LINE
  5
8B
  8
1
  6
CONTINUOUS
 62
     9
 10
-168.8025516209185
 20
209.7936011227753
 30
0.0
 11
-168.8025516209185
 21
212.65
 31
0.0
  0
LINE
  5
8C
  8
1
  6
CONTINUOUS
 62
     7
 10
-167.4990412561529
 20
212.65
 30
0.0
 11
-168.8025516209185
 21
212.65
 31
0.0
  0
LINE
  5
8D
  8
1
  6
CONTINUOUS
 62
     7
 10
-169.2033628261638
 20
210.8746052959561
 30
0.0
 11
-169.2033628261638
 21
210.8
 31
0.0
  0
ARC
  5
8E
  8
1
  6
CONTINUOUS
 62
     7
 10
-161.5877538551097
 20
213.25
 30
0.0
 40
7.97746827007164
 50
187.9256729887716
 51
197.3232917916808
  0
LINE
  5
8F
  8
1
  6
CONTINUOUS
 62
     7
 10
-169.4890195764989
 20
212.65
 30
0.0
 11
-169.4890195764989
 21
212.15
 31
0.0
  0
LINE
  5
90
  8
1
  6
CONTINUOUS
 62
     7
 10
-168.8025516209185
 20
212.65
 30
0.0
 11
-169.4890195764989
 21
212.65
 31
0.0
  0
LINE
  5
91
  8
1
  6
CONTINUOUS
 62
     7
 10
-169.2033628261638
 20
215.7
 30
0.0
 11
-169.2033628261638
 21
215.6253947040439
 31
0.0
  0
LINE
  5
92
  8
1
  6
CONTINUOUS
 62
     7
 10
-169.4890195764989
 20
214.35
 30
0.0
 11
-169.4890195764989
 21
213.85
 31
0.0
  0
ARC
  5
93
  8
1
  6
CONTINUOUS
 62
     7
 10
-161.5877538551097
 20
213.25
 30
0.0
 40
7.977468270071652
 50
162.6767082083192
 51
172.0743270112283
  0
LINE
  5
94
  8
1
  6
CONTINUOUS
 62
     7
 10
-169.4890195764989
 20
213.85
 30
0.0
 11
-168.8025516209185
 21
213.85
 31
0.0
  0
LINE
  5
95
  8
1
  6
CONTINUOUS
 62
     7
 10
-146.2877538551097
 20
210.75
 30
0.0
 11
-146.2877538551097
 21
215.75
 31
0.0
  0
LINE
  5
96
  8
1
  6
CONTINUOUS
 62
     7
 10
-145.8877538551097
 20
215.35
 30
0.0
 11
-145.8877538551097
 21
211.15
 31
0.0
  0
LINE
  5
97
  8
1
  6
CONTINUOUS
 62
     7
 10
-162.8877538551097
 20
241.25
 30
0.0
 11
-162.8877538551097
 21
244.1367513459481
 31
0.0
  0
LINE
  5
98
  8
1
  6
CONTINUOUS
 62
     7
 10
-162.8877538551097
 20
244.1367513459481
 30
0.0
 11
-160.3877538551097
 21
245.5801270189222
 31
0.0
  0
ARC
  5
99
  8
1
  6
CONTINUOUS
 62
     7
 10
-157.8877538551097
 20
241.25
 30
0.0
 40
5.000000000000004
 50
120.0
 51
180.0000000000001
  0
ARC
  5
9A
  8
1
  6
CONTINUOUS
 62
     7
 10
-157.8877538551097
 20
241.25
 30
0.0
 40
4.999999999999995
 50
59.99999999999994
 51
120.0
  0
ARC
  5
9B
  8
1
  6
CONTINUOUS
 62
     7
 10
-157.8877538551097
 20
241.25
 30
0.0
 40
4.999999999999995
 50
0.0
 51
59.99999999999994
  0
ARC
  5
9C
  8
1
  6
CONTINUOUS
 62
     7
 10
-157.8877538551097
 20
241.25
 30
0.0
 40
5.000000000000004
 50
300.0
 51
0.0
  0
ARC
  5
9D
  8
1
  6
CONTINUOUS
 62
     7
 10
-157.8877538551097
 20
241.25
 30
0.0
 40
4.999999999999995
 50
240.0
 51
300.0
  0
ARC
  5
9E
  8
1
  6
CONTINUOUS
 62
     7
 10
-157.8877538551097
 20
241.25
 30
0.0
 40
4.999999999999995
 50
180.0
 51
240.0
  0
CIRCLE
  5
9F
  8
1
  6
CONTINUOUS
 62
     7
 10
-157.8877538551097
 20
241.25
 30
0.0
 40
4.250000000000004
  0
LINE
  5
A0
  8
1
  6
CONTINUOUS
 62
     7
 10
-155.3877538551097
 20
245.5801270189222
 30
0.0
 11
-152.8877538551097
 21
244.1367513459481
 31
0.0
  0
LINE
  5
A1
  8
1
  6
CONTINUOUS
 62
     7
 10
-152.8877538551097
 20
244.1367513459481
 30
0.0
 11
-152.8877538551097
 21
241.25
 31
0.0
  0
LINE
  5
A2
  8
1
  6
CONTINUOUS
 62
     7
 10
-160.3877538551097
 20
245.5801270189222
 30
0.0
 11
-157.8877538551097
 21
247.0235026918963
 31
0.0
  0
LINE
  5
A3
  8
1
  6
CONTINUOUS
 62
     7
 10
-157.8877538551097
 20
247.0235026918963
 30
0.0
 11
-155.3877538551097
 21
245.5801270189222
 31
0.0
  0
LINE
  5
A4
  8
1
  6
CONTINUOUS
 62
     7
 10
-155.3877538551097
 20
236.9198729810778
 30
0.0
 11
-157.8877538551097
 21
235.4764973081038
 31
0.0
  0
LINE
  5
A5
  8
1
  6
CONTINUOUS
 62
     7
 10
-157.8877538551097
 20
235.4764973081038
 30
0.0
 11
-160.3877538551097
 21
236.9198729810778
 31
0.0
  0
LINE
  5
A6
  8
1
  6
CONTINUOUS
 62
     7
 10
-162.8877538551097
 20
238.3632486540519
 30
0.0
 11
-162.8877538551097
 21
241.25
 31
0.0
  0
LINE
  5
A7
  8
1
  6
CONTINUOUS
 62
     7
 10
-160.3877538551097
 20
236.9198729810778
 30
0.0
 11
-162.8877538551097
 21
238.3632486540519
 31
0.0
  0
LINE
  5
A8
  8
1
  6
CONTINUOUS
 62
     7
 10
-152.8877538551097
 20
241.25
 30
0.0
 11
-152.8877538551097
 21
238.3632486540519
 31
0.0
  0
LINE
  5
A9
  8
1
  6
CONTINUOUS
 62
     7
 10
-152.8877538551097
 20
238.3632486540519
 30
0.0
 11
-155.3877538551097
 21
236.9198729810778
 31
0.0
  0
ARC
  5
AA
  8
1
  6
CONTINUOUS
 62
     7
 10
-157.8877538551097
 20
241.25
 30
0.0
 40
4.117004439422124
 50
9.78936186898136
 51
170.2106381310187
  0
LINE
  5
AB
  8
1
  6
CONTINUOUS
 62
     7
 10
-162.0797104388543
 20
241.95
 30
0.0
 11
-161.9448125870263
 21
241.95
 31
0.0
  0
LINE
  5
AC
  8
1
  6
CONTINUOUS
 62
     7
 10
-153.830695123193
 20
241.95
 30
0.0
 11
-153.695797271365
 21
241.95
 31
0.0
  0
LINE
  5
AD
  8
1
  6
CONTINUOUS
 62
     7
 10
-157.1877538551097
 20
242.45
 30
0.0
 11
-157.1877538551097
 21
244.4856420835427
 31
0.0
  0
ARC
  5
AE
  8
1
  6
CONTINUOUS
 62
     7
 10
-157.8877538551097
 20
241.25
 30
0.0
 40
3.31049538480159
 50
77.79273575222544
 51
102.2072642477746
  0
LINE
  5
AF
  8
1
  6
CONTINUOUS
 62
     7
 10
-158.5877538551097
 20
244.4856420835427
 30
0.0
 11
-158.5877538551097
 21
242.45
 31
0.0
  0
ARC
  5
B0
  8
1
  6
CONTINUOUS
 62
     7
 10
-159.0877538551097
 20
242.45
 30
0.0
 40
0.5000000000000004
 50
270.0
 51
0.0
  0
LINE
  5
B1
  8
1
  6
CONTINUOUS
 62
     7
 10
-159.0877538551097
 20
241.95
 30
0.0
 11
-161.9448125870263
 21
241.95
 31
0.0
  0
ARC
  5
B2
  8
1
  6
CONTINUOUS
 62
     7
 10
-156.6877538551097
 20
242.45
 30
0.0
 40
0.5000000000000004
 50
180.0
 51
270.0
  0
LINE
  5
B3
  8
1
  6
CONTINUOUS
 62
     7
 10
-153.830695123193
 20
241.95
 30
0.0
 11
-156.6877538551097
 21
241.95
 31
0.0
  0
ARC
  5
B4
  8
1
  6
CONTINUOUS
 62
     7
 10
-157.8877538551097
 20
241.25
 30
0.0
 40
2.091163913386922
 50
70.44316149391739
 51
109.5568385060826
  0
ARC
  5
B5
  8
1
  6
CONTINUOUS
 62
     7
 10
-159.0877538551097
 20
240.05
 30
0.0
 40
0.5000000000000004
 50
0.0
 51
90.0
  0
LINE
  5
B6
  8
1
  6
CONTINUOUS
 62
     7
 10
-158.5877538551097
 20
240.05
 30
0.0
 11
-158.5877538551097
 21
238.0143579164573
 31
0.0
  0
ARC
  5
B7
  8
1
  6
CONTINUOUS
 62
     7
 10
-157.8877538551097
 20
241.25
 30
0.0
 40
3.31049538480159
 50
257.7927357522254
 51
282.2072642477746
  0
LINE
  5
B8
  8
1
  6
CONTINUOUS
 62
     7
 10
-157.1877538551097
 20
238.0143579164573
 30
0.0
 11
-157.1877538551097
 21
240.05
 31
0.0
  0
ARC
  5
B9
  8
1
  6
CONTINUOUS
 62
     7
 10
-156.6877538551097
 20
240.05
 30
0.0
 40
0.5000000000000004
 50
90.0
 51
180.0
  0
LINE
  5
BA
  8
1
  6
CONTINUOUS
 62
     7
 10
-156.6877538551097
 20
240.55
 30
0.0
 11
-153.830695123193
 21
240.55
 31
0.0
  0
ARC
  5
BB
  8
1
  6
CONTINUOUS
 62
     7
 10
-157.8877538551097
 20
241.25
 30
0.0
 40
4.117004439422129
 50
189.7893618689814
 51
350.2106381310186
  0
LINE
  5
BC
  8
1
  6
CONTINUOUS
 62
     7
 10
-161.9448125870263
 20
240.55
 30
0.0
 11
-159.0877538551097
 21
240.55
 31
0.0
  0
LINE
  5
BD
  8
1
  6
CONTINUOUS
 62
     7
 10
-153.695797271365
 20
240.55
 30
0.0
 11
-153.830695123193
 21
240.55
 31
0.0
  0
LINE
  5
BE
  8
1
  6
CONTINUOUS
 62
     7
 10
-161.9448125870263
 20
240.55
 30
0.0
 11
-162.0797104388543
 21
240.55
 31
0.0
  0
ARC
  5
BF
  8
1
  6
CONTINUOUS
 62
     7
 10
-157.8877538551097
 20
241.25
 30
0.0
 40
2.091163913386922
 50
250.4431614939174
 51
289.5568385060826
  0
ARC
  5
C0
  8
1
  6
CONTINUOUS
 62
     7
 10
-157.8877538551097
 20
241.25
 30
0.0
 40
2.335030207669875
 50
342.5554906480567
 51
17.4445093519434
  0
ARC
  5
C1
  8
1
  6
CONTINUOUS
 62
     7
 10
-157.8877538551097
 20
241.25
 30
0.0
 40
2.091163913386922
 50
340.4431614939173
 51
19.55683850608261
  0
ARC
  5
C2
  8
1
  6
CONTINUOUS
 62
     7
 10
-157.8877538551097
 20
241.25
 30
0.0
 40
2.335030207669841
 50
162.5554906480566
 51
197.4445093519434
  0
ARC
  5
C3
  8
1
  6
CONTINUOUS
 62
     7
 10
-157.8877538551097
 20
241.25
 30
0.0
 40
2.091163913386922
 50
160.4431614939174
 51
199.5568385060826
  0
LINE
  5
C4
  8
1
  6
CONTINUOUS
 62
     9
 10
-151.3877538551097
 20
264.7500000000001
 30
0.0
 11
-151.3877538551097
 21
232.75
 31
0.0
  0
LINE
  5
C5
  8
1
  6
CONTINUOUS
 62
     7
 10
-164.3877538551097
 20
232.75
 30
0.0
 11
-151.3877538551097
 21
232.75
 31
0.0
  0
LINE
  5
C6
  8
1
  6
CONTINUOUS
 62
     9
 10
-164.3877538551097
 20
264.7500000000001
 30
0.0
 11
-164.3877538551097
 21
232.75
 31
0.0
  0
CIRCLE
  5
C7
  8
1
  6
CONTINUOUS
 62
     7
 10
-157.8877538551097
 20
257.2500000000001
 30
0.0
 40
3.099999999999992
  0
LINE
  5
C8
  8
1
  6
CONTINUOUS
 62
     7
 10
-164.3877538551097
 20
264.7500000000001
 30
0.0
 11
-151.3877538551097
 21
264.7500000000001
 31
0.0
  0
LINE
  5
C9
  8
1
  6
CONTINUOUS
 62
     7
 10
-149.3877538551097
 20
232.75
 30
0.0
 11
-149.3877538551097
 21
264.7500000000001
 31
0.0
  0
LINE
  5
CA
  8
1
  6
CONTINUOUS
 62
     7
 10
-151.3877538551097
 20
232.75
 30
0.0
 11
-149.3877538551097
 21
232.75
 31
0.0
  0
LINE
  5
CB
  8
1
  6
CONTINUOUS
 62
     7
 10
-149.3877538551097
 20
264.7500000000001
 30
0.0
 11
-151.3877538551097
 21
264.7500000000001
 31
0.0
  0
LINE
  5
CC
  8
1
  6
CONTINUOUS
 62
     7
 10
-166.3877538551097
 20
232.75
 30
0.0
 11
-166.3877538551097
 21
264.7500000000001
 31
0.0
  0
LINE
  5
CD
  8
1
  6
CONTINUOUS
 62
     7
 10
-164.3877538551097
 20
232.75
 30
0.0
 11
-166.3877538551097
 21
232.75
 31
0.0
  0
LINE
  5
CE
  8
1
  6
CONTINUOUS
 62
     7
 10
-166.3877538551097
 20
264.7500000000001
 30
0.0
 11
-164.3877538551097
 21
264.7500000000001
 31
0.0
  0
LINE
  5
CF
  8
1
  6
CONTINUOUS
 62
     7
 10
-149.3877538551097
 20
232.4047005383793
 30
0.0
 11
-149.392468857763
 21
232.2674497483513
 31
0.0
  0
LINE
  5
D0
  8
1
  6
CONTINUOUS
 62
     9
 10
-149.392468857763
 20
232.2674497483513
 30
0.0
 11
-151.3877538551097
 21
232.2674497483513
 31
0.0
  0
LINE
  5
D1
  8
1
  6
CONTINUOUS
 62
     7
 10
-149.3877538551097
 20
232.4047005383793
 30
0.0
 11
-149.3877538551097
 21
232.75
 31
0.0
  0
LINE
  5
D2
  8
1
  6
CONTINUOUS
 62
     7
 10
-151.3877538551097
 20
232.75
 30
0.0
 11
-151.3877538551097
 21
232.2674497483513
 31
0.0
  0
LINE
  5
D3
  8
1
  6
CONTINUOUS
 62
     9
 10
-164.3877538551097
 20
232.2674497483513
 30
0.0
 11
-166.3830388524563
 21
232.2674497483513
 31
0.0
  0
LINE
  5
D4
  8
1
  6
CONTINUOUS
 62
     7
 10
-166.3830388524563
 20
232.2674497483513
 30
0.0
 11
-166.3877538551097
 21
232.4047005383793
 31
0.0
  0
LINE
  5
D5
  8
1
  6
CONTINUOUS
 62
     7
 10
-166.3877538551097
 20
232.75
 30
0.0
 11
-166.3877538551097
 21
232.4047005383793
 31
0.0
  0
LINE
  5
D6
  8
1
  6
CONTINUOUS
 62
     7
 10
-164.3877538551097
 20
232.2674497483513
 30
0.0
 11
-164.3877538551097
 21
232.75
 31
0.0
  0
LINE
  5
D7
  8
1
  6
CONTINUOUS
 62
     7
 10
-150.3877538551097
 20
230.6726497308104
 30
0.0
 11
-151.8877538551097
 21
229.806624327026
 31
0.0
  0
LINE
  5
D8
  8
1
  6
CONTINUOUS
 62
     7
 10
-151.8877538551097
 20
219.561292197762
 30
0.0
 11
-151.8877538551097
 21
229.806624327026
 31
0.0
  0
LINE
  5
D9
  8
1
  6
CONTINUOUS
 62
     9
 10
-151.8877538551097
 20
219.561292197762
 30
0.0
 11
-153.8877538551097
 21
219.561292197762
 31
0.0
  0
LINE
  5
DA
  8
1
  6
CONTINUOUS
 62
     7
 10
-153.8877538551097
 20
219.561292197762
 30
0.0
 11
-153.8877538551097
 21
229.6519237886467
 31
0.0
  0
ARC
  5
DB
  8
1
  6
CONTINUOUS
 62
     7
 10
-151.8877538551097
 20
229.6519237886467
 30
0.0
 40
2.0
 50
119.9999999999999
 51
180.0
  0
LINE
  5
DC
  8
1
  6
CONTINUOUS
 62
     7
 10
-151.3877538551097
 20
232.25
 30
0.0
 11
-152.8877538551097
 21
231.3839745962156
 31
0.0
  0
ARC
  5
DD
  8
1
  6
CONTINUOUS
 62
     7
 10
-151.3877538551097
 20
232.4047005383793
 30
0.0
 40
2.0
 50
300.0000000000004
 51
356.0649617260185
  0
LINE
  5
DE
  8
1
  6
CONTINUOUS
 62
     7
 10
-151.3877538551097
 20
232.25
 30
0.0
 11
-151.3877538551097
 21
232.2674497483513
 31
0.0
  0
LINE
  5
DF
  8
1
  6
CONTINUOUS
 62
     7
 10
-164.3877538551097
 20
232.25
 30
0.0
 11
-162.8877538551097
 21
231.3839745962156
 31
0.0
  0
ARC
  5
E0
  8
1
  6
CONTINUOUS
 62
     7
 10
-163.8877538551097
 20
229.6519237886467
 30
0.0
 40
2.0
 50
0.0
 51
60.00000000000011
  0
LINE
  5
E1
  8
1
  6
CONTINUOUS
 62
     7
 10
-161.8877538551097
 20
219.561292197762
 30
0.0
 11
-161.8877538551097
 21
229.6519237886467
 31
0.0
  0
LINE
  5
E2
  8
1
  6
CONTINUOUS
 62
     9
 10
-163.8877538551097
 20
219.561292197762
 30
0.0
 11
-161.8877538551097
 21
219.561292197762
 31
0.0
  0
LINE
  5
E3
  8
1
  6
CONTINUOUS
 62
     7
 10
-163.8877538551097
 20
219.561292197762
 30
0.0
 11
-163.8877538551097
 21
229.806624327026
 31
0.0
  0
LINE
  5
E4
  8
1
  6
CONTINUOUS
 62
     7
 10
-165.3877538551097
 20
230.6726497308104
 30
0.0
 11
-163.8877538551097
 21
229.806624327026
 31
0.0
  0
ARC
  5
E5
  8
1
  6
CONTINUOUS
 62
     7
 10
-164.3877538551097
 20
232.4047005383793
 30
0.0
 40
2.0
 50
183.9350382739814
 51
239.9999999999997
  0
LINE
  5
E6
  8
1
  6
CONTINUOUS
 62
     7
 10
-164.3877538551097
 20
232.25
 30
0.0
 11
-164.3877538551097
 21
232.2674497483513
 31
0.0
  0
LINE
  5
E7
  8
1
  6
CONTINUOUS
 62
     9
 10
-163.8877538551097
 20
211.6872135042575
 30
0.0
 11
-161.8877538551097
 21
211.6872135042575
 31
0.0
  0
LINE
  5
E8
  8
1
  6
CONTINUOUS
 62
     7
 10
-161.8877538551097
 20
211.6872135042575
 30
0.0
 11
-161.8877538551097
 21
219.561292197762
 31
0.0
  0
LINE
  5
E9
  8
1
  6
CONTINUOUS
 62
     7
 10
-163.8877538551097
 20
211.6872135042575
 30
0.0
 11
-163.8877538551097
 21
219.561292197762
 31
0.0
  0
LINE
  5
EA
  8
1
  6
CONTINUOUS
 62
     9
 10
-151.8877538551097
 20
211.6872135042575
 30
0.0
 11
-153.8877538551097
 21
211.6872135042575
 31
0.0
  0
LINE
  5
EB
  8
1
  6
CONTINUOUS
 62
     7
 10
-153.8877538551097
 20
211.6872135042575
 30
0.0
 11
-153.8877538551097
 21
219.561292197762
 31
0.0
  0
LINE
  5
EC
  8
1
  6
CONTINUOUS
 62
     7
 10
-151.8877538551097
 20
211.6872135042575
 30
0.0
 11
-151.8877538551097
 21
219.561292197762
 31
0.0
  0
LINE
  5
ED
  8
1
  6
CONTINUOUS
 62
     7
 10
-150.6877538551097
 20
226.988516565332
 30
0.0
 11
-150.6877538551097
 21
224.488516565332
 31
0.0
  0
LINE
  5
EE
  8
1
  6
CONTINUOUS
 62
     7
 10
-150.6877538551097
 20
224.488516565332
 30
0.0
 11
-151.8877538551097
 21
224.488516565332
 31
0.0
  0
LINE
  5
EF
  8
1
  6
CONTINUOUS
 62
     7
 10
-151.8877538551097
 20
226.988516565332
 30
0.0
 11
-150.6877538551097
 21
226.988516565332
 31
0.0
  0
LINE
  5
F0
  8
1
  6
CONTINUOUS
 62
     9
 10
-151.8877538551097
 20
205.0792755845243
 30
0.0
 11
-153.8877538551097
 21
205.0792755845243
 31
0.0
  0
LINE
  5
F1
  8
1
  6
CONTINUOUS
 62
     7
 10
-153.8877538551097
 20
205.0792755845243
 30
0.0
 11
-153.8877538551097
 21
211.6872135042575
 31
0.0
  0
LINE
  5
F2
  8
1
  6
CONTINUOUS
 62
     7
 10
-151.8877538551097
 20
205.0792755845243
 30
0.0
 11
-151.8877538551097
 21
211.6872135042575
 31
0.0
  0
LINE
  5
F3
  8
1
  6
CONTINUOUS
 62
     9
 10
-163.8877538551097
 20
205.0792755845243
 30
0.0
 11
-161.8877538551097
 21
205.0792755845243
 31
0.0
  0
LINE
  5
F4
  8
1
  6
CONTINUOUS
 62
     7
 10
-161.8877538551097
 20
205.0792755845243
 30
0.0
 11
-161.8877538551097
 21
211.6872135042575
 31
0.0
  0
LINE
  5
F5
  8
1
  6
CONTINUOUS
 62
     7
 10
-163.8877538551097
 20
205.0792755845243
 30
0.0
 11
-163.8877538551097
 21
211.6872135042575
 31
0.0
  0
POLYLINE
  5
F6
  8
1
  6
CONTINUOUS
 62
     7
 66
     1
 10
0.0
 20
0.0
 30
0.0
  0
VERTEX
  5
551
  8
1
  6
CONTINUOUS
 62
     7
 10
-151.8877538551096
 20
212.7763072508732
 30
0.0
  0
VERTEX
  5
552
  8
1
  6
CONTINUOUS
 62
     7
 10
-151.5506737424059
 20
212.9567544473951
 30
0.0
  0
VERTEX
  5
553
  8
1
  6
CONTINUOUS
 62
     7
 10
-151.2559104837379
 20
213.1960605234529
 30
0.0
  0
VERTEX
  5
554
  8
1
  6
CONTINUOUS
 62
     7
 10
-151.0144338020415
 20
213.4853196155306
 30
0.0
  0
VERTEX
  5
555
  8
1
  6
CONTINUOUS
 62
     7
 10
-150.8352303407186
 20
213.8137668402738
 30
0.0
  0
VERTEX
  5
556
  8
1
  6
CONTINUOUS
 62
     7
 10
-150.7249692224026
 20
214.1691789135773
 30
0.0
  0
VERTEX
  5
557
  8
1
  6
CONTINUOUS
 62
     7
 10
-150.6877538551097
 20
214.5383290445928
 30
0.0
  0
SEQEND
  5
A10
  8
1
  6
CONTINUOUS
 62
     7
  0
LINE
  5
F7
  8
1
  6
CONTINUOUS
 62
     7
 10
-150.6877538551097
 20
214.5383290445928
 30
0.0
 11
-150.6877538551097
 21
213.8492356550503
 31
0.0
  0
POLYLINE
  5
F8
  8
1
  6
CONTINUOUS
 62
     7
 66
     1
 10
0.0
 20
0.0
 30
0.0
  0
VERTEX
  5
558
  8
1
  6
CONTINUOUS
 62
     7
 10
-151.8877538551097
 20
212.0872138613307
 30
0.0
  0
VERTEX
  5
559
  8
1
  6
CONTINUOUS
 62
     7
 10
-151.5506737424059
 20
212.2676610578526
 30
0.0
  0
VERTEX
  5
55A
  8
1
  6
CONTINUOUS
 62
     7
 10
-151.2559104837379
 20
212.5069671339104
 30
0.0
  0
VERTEX
  5
55B
  8
1
  6
CONTINUOUS
 62
     7
 10
-151.0144338020415
 20
212.7962262259881
 30
0.0
  0
VERTEX
  5
55C
  8
1
  6
CONTINUOUS
 62
     7
 10
-150.8352303407186
 20
213.1246734507313
 30
0.0
  0
VERTEX
  5
55D
  8
1
  6
CONTINUOUS
 62
     7
 10
-150.7249692224026
 20
213.4800855240348
 30
0.0
  0
VERTEX
  5
55E
  8
1
  6
CONTINUOUS
 62
     7
 10
-150.6877538551097
 20
213.8492356550503
 30
0.0
  0
SEQEND
  5
A11
  8
1
  6
CONTINUOUS
 62
     7
  0
POLYLINE
  5
F9
  8
1
  6
CONTINUOUS
 62
     7
 66
     1
 10
0.0
 20
0.0
 30
0.0
  0
VERTEX
  5
55F
  8
1
  6
CONTINUOUS
 62
     7
 10
-150.6877538551097
 20
215.8205939368452
 30
0.0
  0
VERTEX
  5
560
  8
1
  6
CONTINUOUS
 62
     7
 10
-150.7249692224026
 20
216.1897440678607
 30
0.0
  0
VERTEX
  5
561
  8
1
  6
CONTINUOUS
 62
     7
 10
-150.8352303407186
 20
216.5451561411642
 30
0.0
  0
VERTEX
  5
562
  8
1
  6
CONTINUOUS
 62
     7
 10
-151.0144338020415
 20
216.8736033659074
 30
0.0
  0
VERTEX
  5
563
  8
1
  6
CONTINUOUS
 62
     7
 10
-151.2559104837379
 20
217.1628624579851
 30
0.0
  0
VERTEX
  5
564
  8
1
  6
CONTINUOUS
 62
     7
 10
-151.5506737424059
 20
217.4021685340429
 30
0.0
  0
VERTEX
  5
565
  8
1
  6
CONTINUOUS
 62
     7
 10
-151.8877538551097
 20
217.5826157305648
 30
0.0
  0
SEQEND
  5
A12
  8
1
  6
CONTINUOUS
 62
     7
  0
LINE
  5
FA
  8
1
  6
CONTINUOUS
 62
     7
 10
-150.6877538551097
 20
214.5383290445928
 30
0.0
 11
-150.6877538551097
 21
215.8205939368452
 31
0.0
  0
LINE
  5
FB
  8
1
  6
CONTINUOUS
 62
     7
 10
-151.8877538551097
 20
204.75
 30
0.0
 11
-151.8877538551097
 21
205.0792755845243
 31
0.0
  0
LINE
  5
FC
  8
1
  6
CONTINUOUS
 62
     7
 10
-153.8877538551097
 20
204.75
 30
0.0
 11
-153.8877538551097
 21
205.0792755845243
 31
0.0
  0
LINE
  5
FD
  8
1
  6
CONTINUOUS
 62
     7
 10
-163.8877538551097
 20
204.75
 30
0.0
 11
-163.8877538551097
 21
205.0792755845243
 31
0.0
  0
LINE
  5
FE
  8
1
  6
CONTINUOUS
 62
     7
 10
-161.8877538551097
 20
204.75
 30
0.0
 11
-161.8877538551097
 21
205.0792755845243
 31
0.0
  0
LINE
  5
FF
  8
1
  6
CONTINUOUS
 62
     7
 10
-160.7310010037793
 20
220.2251873580371
 30
0.0
 11
-160.783209212018
 21
212.2250363593929
 31
0.0
  0
LINE
  5
100
  8
1
  6
CONTINUOUS
 62
     7
 10
-160.783209212018
 20
212.2250363593929
 30
0.0
 11
-161.8006242060789
 21
212.2340688686748
 31
0.0
  0
LINE
  5
101
  8
1
  6
CONTINUOUS
 62
     7
 10
-161.8006242060789
 20
212.2340688686748
 30
0.0
 11
-161.7484159978403
 21
218.2165369764104
 31
0.0
  0
LINE
  5
102
  8
1
  6
CONTINUOUS
 62
     7
 10
-157.8877538551097
 20
220.25
 30
0.0
 11
-157.8877538551097
 21
212.2503046154867
 31
0.0
  0
LINE
  5
103
  8
1
  6
CONTINUOUS
 62
     7
 10
-157.8877538551097
 20
220.25
 30
0.0
 11
-155.04450670644
 21
220.2251873580371
 31
0.0
  0
LINE
  5
104
  8
1
  6
CONTINUOUS
 62
     7
 10
-154.9922984982013
 20
212.2250363593929
 30
0.0
 11
-155.04450670644
 21
220.2251873580371
 31
0.0
  0
LINE
  5
105
  8
1
  6
CONTINUOUS
 62
     9
 10
-154.9922984982013
 20
212.2250363593929
 30
0.0
 11
-157.8877538551097
 21
212.2503046154867
 31
0.0
  0
LINE
  5
106
  8
1
  6
CONTINUOUS
 62
     7
 10
-154.027091712379
 20
218.2165369764104
 30
0.0
 11
-153.9748835041404
 21
212.2340688686748
 31
0.0
  0
LINE
  5
107
  8
1
  6
CONTINUOUS
 62
     7
 10
-153.9748835041404
 20
212.2340688686748
 30
0.0
 11
-154.9922984982013
 21
212.2250363593929
 31
0.0
  0
LINE
  5
108
  8
1
  6
CONTINUOUS
 62
     9
 10
-157.8877538551097
 20
212.2503046154867
 30
0.0
 11
-160.7832092120179
 21
212.2250363593929
 31
0.0
  0
LINE
  5
109
  8
1
  6
CONTINUOUS
 62
     7
 10
-160.7310010037793
 20
220.2251873580371
 30
0.0
 11
-157.8877538551097
 21
220.25
 31
0.0
  0
LINE
  5
10A
  8
1
  6
CONTINUOUS
 62
     7
 10
-153.9748835041404
 20
212.2340688686748
 30
0.0
 11
-153.8877538551097
 21
202.25
 31
0.0
  0
LINE
  5
10B
  8
1
  6
CONTINUOUS
 62
     7
 10
-154.9053251711065
 20
202.2588802103424
 30
0.0
 11
-154.9922984982013
 21
212.2250363593929
 31
0.0
  0
LINE
  5
10C
  8
1
  6
CONTINUOUS
 62
     7
 10
-160.783209212018
 20
212.2250363593929
 30
0.0
 11
-160.8701825391128
 21
202.2588802103424
 31
0.0
  0
LINE
  5
10D
  8
1
  6
CONTINUOUS
 62
     7
 10
-161.8877538551097
 20
202.25
 30
0.0
 11
-161.8006242060789
 21
212.2340688686748
 31
0.0
  0
LINE
  5
10E
  8
1
  6
CONTINUOUS
 62
     7
 10
-157.8877538551098
 20
200.25
 30
0.0
 11
-157.8877538551097
 21
212.2503046154867
 31
0.0
  0
LINE
  5
10F
  8
1
  6
CONTINUOUS
 62
     7
 10
-162.9139334616048
 20
200.2938628049185
 30
0.0
 11
-157.8877538551098
 21
200.25
 31
0.0
  0
LINE
  5
110
  8
1
  6
CONTINUOUS
 62
     9
 10
-162.9139334616048
 20
202.2410446662446
 30
0.0
 11
-162.9139334616048
 21
200.2938628049185
 31
0.0
  0
LINE
  5
111
  8
1
  6
CONTINUOUS
 62
     7
 10
-162.9139334616048
 20
202.2410446662446
 30
0.0
 11
-160.8701825391128
 21
202.2588802103424
 31
0.0
  0
LINE
  5
112
  8
1
  6
CONTINUOUS
 62
     9
 10
-152.8615742486145
 20
200.2938628049185
 30
0.0
 11
-152.8615742486145
 21
202.2410446662446
 31
0.0
  0
LINE
  5
113
  8
1
  6
CONTINUOUS
 62
     7
 10
-157.8877538551098
 20
200.25
 30
0.0
 11
-152.8615742486145
 21
200.2938628049185
 31
0.0
  0
LINE
  5
114
  8
1
  6
CONTINUOUS
 62
     7
 10
-154.9053251711065
 20
202.2588802103424
 30
0.0
 11
-152.8615742486145
 21
202.2410446662446
 31
0.0
  0
LINE
  5
115
  8
1
  6
CONTINUOUS
 62
     7
 10
-165.8877538551097
 20
200.3198149423261
 30
0.0
 11
-165.8877538551097
 21
202.215092528837
 31
0.0
  0
LINE
  5
116
  8
1
  6
CONTINUOUS
 62
     7
 10
-165.8877538551097
 20
202.215092528837
 30
0.0
 11
-162.9139334616048
 21
202.2410446662446
 31
0.0
  0
LINE
  5
117
  8
1
  6
CONTINUOUS
 62
     7
 10
-162.9139334616048
 20
200.2938628049185
 30
0.0
 11
-165.8877538551097
 21
200.3198149423261
 31
0.0
  0
LINE
  5
118
  8
1
  6
CONTINUOUS
 62
     7
 10
-149.8877538551097
 20
202.215092528837
 30
0.0
 11
-149.8877538551097
 21
200.3198149423261
 31
0.0
  0
LINE
  5
119
  8
1
  6
CONTINUOUS
 62
     7
 10
-152.8615742486145
 20
202.2410446662446
 30
0.0
 11
-149.8877538551097
 21
202.215092528837
 31
0.0
  0
LINE
  5
11A
  8
1
  6
CONTINUOUS
 62
     7
 10
-149.8877538551097
 20
200.3198149423261
 30
0.0
 11
-152.8615742486145
 21
200.2938628049185
 31
0.0
  0
LINE
  5
11B
  8
1
  6
CONTINUOUS
 62
     9
 10
-160.6377538551097
 20
193.3816524975874
 30
0.0
 11
-155.1377538551097
 21
193.3816524975874
 31
0.0
  0
LINE
  5
11C
  8
1
  6
CONTINUOUS
 62
     7
 10
-155.1377538551097
 20
193.95
 30
0.0
 11
-160.6377538551097
 21
193.95
 31
0.0
  0
LINE
  5
11D
  8
1
  6
CONTINUOUS
 62
     9
 10
-155.1718280288206
 20
193.1228334524849
 30
0.0
 11
-160.6036796813987
 21
193.1228334524849
 31
0.0
  0
LINE
  5
11E
  8
1
  6
CONTINUOUS
 62
     7
 10
-155.4670368028824
 20
192.021099310253
 30
0.0
 11
-156.667747767206
 21
187.6205904774488
 31
0.0
  0
LINE
  5
11F
  8
1
  6
CONTINUOUS
 62
     9
 10
-159.1077599430134
 20
187.6205904774489
 30
0.0
 11
-156.667747767206
 21
187.6205904774486
 31
0.0
  0
LINE
  5
120
  8
1
  6
CONTINUOUS
 62
     7
 10
-159.1077599430134
 20
187.6205904774489
 30
0.0
 11
-160.3084862420012
 21
192.0211565402036
 31
0.0
  0
POLYLINE
  5
121
  8
1
  6
CONTINUOUS
 62
     7
 66
     1
 10
0.0
 20
0.0
 30
0.0
  0
VERTEX
  5
566
  8
1
  6
CONTINUOUS
 62
     7
 10
-154.643440343542
 20
200.2783126950872
 30
0.0
  0
VERTEX
  5
567
  8
1
  6
CONTINUOUS
 62
     7
 10
-154.6466479443821
 20
200.2782749930813
 30
0.0
  0
VERTEX
  5
568
  8
1
  6
CONTINUOUS
 62
     7
 10
-154.6772863113789
 20
200.2769447569347
 30
0.0
  0
VERTEX
  5
569
  8
1
  6
CONTINUOUS
 62
     7
 10
-154.7080984998676
 20
200.2738584972305
 30
0.0
  0
VERTEX
  5
56A
  8
1
  6
CONTINUOUS
 62
     7
 10
-154.7389812538506
 20
200.2690243012989
 30
0.0
  0
VERTEX
  5
56B
  8
1
  6
CONTINUOUS
 62
     7
 10
-154.7699355071777
 20
200.2624301353823
 30
0.0
  0
VERTEX
  5
56C
  8
1
  6
CONTINUOUS
 62
     7
 10
-154.7974241081084
 20
200.2550912578051
 30
0.0
  0
VERTEX
  5
56D
  8
1
  6
CONTINUOUS
 62
     7
 10
-154.8248791026012
 20
200.2463402503427
 30
0.0
  0
VERTEX
  5
56E
  8
1
  6
CONTINUOUS
 62
     7
 10
-154.8522178260631
 20
200.2361721724576
 30
0.0
  0
VERTEX
  5
56F
  8
1
  6
CONTINUOUS
 62
     7
 10
-154.8796518328883
 20
200.2244488262088
 30
0.0
  0
VERTEX
  5
570
  8
1
  6
CONTINUOUS
 62
     7
 10
-154.9068659297834
 20
200.2112327927412
 30
0.0
  0
VERTEX
  5
571
  8
1
  6
CONTINUOUS
 62
     7
 10
-154.9340659497853
 20
200.1963346874849
 30
0.0
  0
VERTEX
  5
572
  8
1
  6
CONTINUOUS
 62
     7
 10
-154.9609093092318
 20
200.1798337712781
 30
0.0
  0
VERTEX
  5
573
  8
1
  6
CONTINUOUS
 62
     7
 10
-154.9873624462432
 20
200.1616407593778
 30
0.0
  0
VERTEX
  5
574
  8
1
  6
CONTINUOUS
 62
     7
 10
-155.0131619321983
 20
200.1418144790306
 30
0.0
  0
VERTEX
  5
575
  8
1
  6
CONTINUOUS
 62
     7
 10
-155.0258353261869
 20
200.1312294456
 30
0.0
  0
VERTEX
  5
576
  8
1
  6
CONTINUOUS
 62
     7
 10
-155.0383129479515
 20
200.1202031464076
 30
0.0
  0
VERTEX
  5
577
  8
1
  6
CONTINUOUS
 62
     7
 10
-155.0547780630652
 20
200.1046396179948
 30
0.0
  0
VERTEX
  5
578
  8
1
  6
CONTINUOUS
 62
     7
 10
-155.0708282326935
 20
200.0882162388849
 30
0.0
  0
VERTEX
  5
579
  8
1
  6
CONTINUOUS
 62
     7
 10
-155.0826739977535
 20
200.0751888914507
 30
0.0
  0
VERTEX
  5
57A
  8
1
  6
CONTINUOUS
 62
     7
 10
-155.0942059623104
 20
200.0616604162692
 30
0.0
  0
VERTEX
  5
57B
  8
1
  6
CONTINUOUS
 62
     7
 10
-155.105444985801
 20
200.0475563960434
 30
0.0
  0
VERTEX
  5
57C
  8
1
  6
CONTINUOUS
 62
     7
 10
-155.1163025513878
 20
200.0329317407069
 30
0.0
  0
VERTEX
  5
57D
  8
1
  6
CONTINUOUS
 62
     7
 10
-155.1246257079019
 20
200.0209474722341
 30
0.0
  0
VERTEX
  5
57E
  8
1
  6
CONTINUOUS
 62
     7
 10
-155.1326727606575
 20
200.0086173231944
 30
0.0
  0
VERTEX
  5
57F
  8
1
  6
CONTINUOUS
 62
     7
 10
-155.1404794701182
 20
199.9958407789333
 30
0.0
  0
VERTEX
  5
580
  8
1
  6
CONTINUOUS
 62
     7
 10
-155.1479513505114
 20
199.982723630258
 30
0.0
  0
VERTEX
  5
581
  8
1
  6
CONTINUOUS
 62
     7
 10
-155.155098410303
 20
199.9691987184652
 30
0.0
  0
VERTEX
  5
582
  8
1
  6
CONTINUOUS
 62
     7
 10
-155.1618553396962
 20
199.9553359138514
 30
0.0
  0
VERTEX
  5
583
  8
1
  6
CONTINUOUS
 62
     7
 10
-155.1682562068574
 20
199.9409958280676
 30
0.0
  0
VERTEX
  5
584
  8
1
  6
CONTINUOUS
 62
     7
 10
-155.1742102834982
 20
199.9263021427528
 30
0.0
  0
VERTEX
  5
585
  8
1
  6
CONTINUOUS
 62
     7
 10
-155.1782590694488
 20
199.9153493462391
 30
0.0
  0
VERTEX
  5
586
  8
1
  6
CONTINUOUS
 62
     7
 10
-155.1820343909283
 20
199.9042332715336
 30
0.0
  0
VERTEX
  5
587
  8
1
  6
CONTINUOUS
 62
     7
 10
-155.1855385964489
 20
199.8929120680266
 30
0.0
  0
VERTEX
  5
588
  8
1
  6
CONTINUOUS
 62
     7
 10
-155.1887429492538
 20
199.8814426263047
 30
0.0
  0
VERTEX
  5
589
  8
1
  6
CONTINUOUS
 62
     7
 10
-155.1925854808204
 20
199.8656836860177
 30
0.0
  0
VERTEX
  5
58A
  8
1
  6
CONTINUOUS
 62
     7
 10
-155.1958358826933
 20
199.8496623387649
 30
0.0
  0
VERTEX
  5
58B
  8
1
  6
CONTINUOUS
 62
     7
 10
-155.1978954405115
 20
199.8373079804172
 30
0.0
  0
VERTEX
  5
58C
  8
1
  6
CONTINUOUS
 62
     7
 10
-155.1995807951868
 20
199.8248584147744
 30
0.0
  0
VERTEX
  5
58D
  8
1
  6
CONTINUOUS
 62
     7
 10
-155.2008901414572
 20
199.8122532684862
 30
0.0
  0
VERTEX
  5
58E
  8
1
  6
CONTINUOUS
 62
     7
 10
-155.2018055929682
 20
199.7995888543051
 30
0.0
  0
SEQEND
  5
A13
  8
1
  6
CONTINUOUS
 62
     7
  0
LINE
  5
122
  8
1
  6
CONTINUOUS
 62
     7
 10
-155.2018055929682
 20
199.7995888543051
 30
0.0
 11
-155.2025510174036
 21
199.7776749909916
 31
0.0
  0
LINE
  5
123
  8
1
  6
CONTINUOUS
 62
     9
 10
-155.2025510174036
 20
199.7776749909916
 30
0.0
 11
-157.8877538551097
 21
199.7499809608071
 31
0.0
  0
LINE
  5
124
  8
1
  6
CONTINUOUS
 62
     7
 10
-157.8877538551097
 20
200.25
 30
0.0
 11
-157.8877538551097
 21
199.7499809608071
 31
0.0
  0
POLYLINE
  5
125
  8
1
  6
CONTINUOUS
 62
     7
 66
     1
 10
0.0
 20
0.0
 30
0.0
  0
VERTEX
  5
58F
  8
1
  6
CONTINUOUS
 62
     7
 10
-160.5737021172511
 20
199.7995888543051
 30
0.0
  0
VERTEX
  5
590
  8
1
  6
CONTINUOUS
 62
     7
 10
-160.57494098898
 20
199.8157485084321
 30
0.0
  0
VERTEX
  5
591
  8
1
  6
CONTINUOUS
 62
     7
 10
-160.5768187904964
 20
199.8318029263746
 30
0.0
  0
VERTEX
  5
592
  8
1
  6
CONTINUOUS
 62
     7
 10
-160.5793502555581
 20
199.847875422895
 30
0.0
  0
VERTEX
  5
593
  8
1
  6
CONTINUOUS
 62
     7
 10
-160.5824980330132
 20
199.8637639246867
 30
0.0
  0
VERTEX
  5
594
  8
1
  6
CONTINUOUS
 62
     7
 10
-160.5853027827861
 20
199.8757514912801
 30
0.0
  0
VERTEX
  5
595
  8
1
  6
CONTINUOUS
 62
     7
 10
-160.5884417502433
 20
199.8875992051256
 30
0.0
  0
VERTEX
  5
596
  8
1
  6
CONTINUOUS
 62
     7
 10
-160.591921282277
 20
199.8993541864483
 30
0.0
  0
VERTEX
  5
597
  8
1
  6
CONTINUOUS
 62
     7
 10
-160.5957130771916
 20
199.9109457376502
 30
0.0
  0
VERTEX
  5
598
  8
1
  6
CONTINUOUS
 62
     7
 10
-160.6012974267211
 20
199.9263021427528
 30
0.0
  0
VERTEX
  5
599
  8
1
  6
CONTINUOUS
 62
     7
 10
-160.6070993989285
 20
199.9406379864459
 30
0.0
  0
VERTEX
  5
59A
  8
1
  6
CONTINUOUS
 62
     7
 10
-160.6133375838414
 20
199.9546604936021
 30
0.0
  0
VERTEX
  5
59B
  8
1
  6
CONTINUOUS
 62
     7
 10
-160.6200261829667
 20
199.9684428285672
 30
0.0
  0
VERTEX
  5
59C
  8
1
  6
CONTINUOUS
 62
     7
 10
-160.6271009208658
 20
199.981892296328
 30
0.0
  0
VERTEX
  5
59D
  8
1
  6
CONTINUOUS
 62
     7
 10
-160.6346182176245
 20
199.99514492935
 30
0.0
  0
VERTEX
  5
59E
  8
1
  6
CONTINUOUS
 62
     7
 10
-160.6424776008651
 20
200.0080510025593
 30
0.0
  0
VERTEX
  5
59F
  8
1
  6
CONTINUOUS
 62
     7
 10
-160.6506925624089
 20
200.0206660113296
 30
0.0
  0
VERTEX
  5
5A0
  8
1
  6
CONTINUOUS
 62
     7
 10
-160.6592051588316
 20
200.0329317407069
 30
0.0
  0
VERTEX
  5
5A1
  8
1
  6
CONTINUOUS
 62
     7
 10
-160.6732671714093
 20
200.0516780175326
 30
0.0
  0
VERTEX
  5
5A2
  8
1
  6
CONTINUOUS
 62
     7
 10
-160.6880074943085
 20
200.0696350481298
 30
0.0
  0
VERTEX
  5
5A3
  8
1
  6
CONTINUOUS
 62
     7
 10
-160.7033284895663
 20
200.0867715847887
 30
0.0
  0
VERTEX
  5
5A4
  8
1
  6
CONTINUOUS
 62
     7
 10
-160.7193374267508
 20
200.1032664761594
 30
0.0
  0
VERTEX
  5
5A5
  8
1
  6
CONTINUOUS
 62
     7
 10
-160.735817215305
 20
200.1189467631302
 30
0.0
  0
VERTEX
  5
5A6
  8
1
  6
CONTINUOUS
 62
     7
 10
-160.7528854338572
 20
200.1339695618751
 30
0.0
  0
VERTEX
  5
5A7
  8
1
  6
CONTINUOUS
 62
     7
 10
-160.7703340552428
 20
200.1481902563486
 30
0.0
  0
VERTEX
  5
5A8
  8
1
  6
CONTINUOUS
 62
     7
 10
-160.7881452639761
 20
200.1616407593778
 30
0.0
  0
VERTEX
  5
5A9
  8
1
  6
CONTINUOUS
 62
     7
 10
-160.8136450726815
 20
200.1792127094257
 30
0.0
  0
VERTEX
  5
5AA
  8
1
  6
CONTINUOUS
 62
     7
 10
-160.8397124928985
 20
200.1953272756737
 30
0.0
  0
VERTEX
  5
5AB
  8
1
  6
CONTINUOUS
 62
     7
 10
-160.8662194512994
 20
200.2099763784745
 30
0.0
  0
VERTEX
  5
5AC
  8
1
  6
CONTINUOUS
 62
     7
 10
-160.8933864077209
 20
200.223316200257
 30
0.0
  0
VERTEX
  5
5AD
  8
1
  6
CONTINUOUS
 62
     7
 10
-160.9208675141989
 20
200.2351993530377
 30
0.0
  0
VERTEX
  5
5AE
  8
1
  6
CONTINUOUS
 62
     7
 10
-160.94889373706
 20
200.2457386622382
 30
0.0
  0
VERTEX
  5
5AF
  8
1
  6
CONTINUOUS
 62
     7
 10
-160.9771300506144
 20
200.254811333296
 30
0.0
  0
VERTEX
  5
5B0
  8
1
  6
CONTINUOUS
 62
     7
 10
-161.0055722030416
 20
200.2624301353823
 30
0.0
  0
VERTEX
  5
5B1
  8
1
  6
CONTINUOUS
 62
     7
 10
-161.0362908839638
 20
200.2689807407484
 30
0.0
  0
VERTEX
  5
5B2
  8
1
  6
CONTINUOUS
 62
     7
 10
-161.0670949268351
 20
200.2738180632086
 30
0.0
  0
VERTEX
  5
5B3
  8
1
  6
CONTINUOUS
 62
     7
 10
-161.0979855216996
 20
200.2769277556908
 30
0.0
  0
VERTEX
  5
5B4
  8
1
  6
CONTINUOUS
 62
     7
 10
-161.1288597658372
 20
200.2782749930813
 30
0.0
  0
VERTEX
  5
5B5
  8
1
  6
CONTINUOUS
 62
     7
 10
-161.1320673666774
 20
200.2783126950872
 30
0.0
  0
SEQEND
  5
A14
  8
1
  6
CONTINUOUS
 62
     7
  0
LINE
  5
126
  8
1
  6
CONTINUOUS
 62
     9
 10
-157.8877538551097
 20
199.7499809608071
 30
0.0
 11
-160.5729566928157
 21
199.7776749909916
 31
0.0
  0
LINE
  5
127
  8
1
  6
CONTINUOUS
 62
     7
 10
-160.5729566928157
 20
199.7776749909916
 30
0.0
 11
-160.5737021172511
 21
199.7995888543051
 31
0.0
  0
LINE
  5
128
  8
1
  6
CONTINUOUS
 62
     7
 10
-160.5729566928158
 20
199.7776749909916
 30
0.0
 11
-160.4867029766692
 21
193.95
 31
0.0
  0
LINE
  5
129
  8
1
  6
CONTINUOUS
 62
     7
 10
-155.2888047335501
 20
193.95
 30
0.0
 11
-155.2025510174036
 21
199.7776749909916
 31
0.0
  0
LINE
  5
12A
  8
1
  6
CONTINUOUS
 62
     7
 10
-157.1714880524288
 20
187.25
 30
0.0
 11
-158.6040196577906
 21
187.25
 31
0.0
  0
POLYLINE
  5
12B
  8
1
  6
CONTINUOUS
 62
     7
 66
     1
 10
0.0
 20
0.0
 30
0.0
  0
VERTEX
  5
5B6
  8
1
  6
CONTINUOUS
 62
     7
 10
-158.6040196577906
 20
187.25
 30
0.0
  0
VERTEX
  5
5B7
  8
1
  6
CONTINUOUS
 62
     7
 10
-158.6277272000225
 20
187.2505026377112
 30
0.0
  0
VERTEX
  5
5B8
  8
1
  6
CONTINUOUS
 62
     7
 10
-158.651478961991
 20
187.2520225795652
 30
0.0
  0
VERTEX
  5
5B9
  8
1
  6
CONTINUOUS
 62
     7
 10
-158.6751869245504
 20
187.2545707374204
 30
0.0
  0
VERTEX
  5
5BA
  8
1
  6
CONTINUOUS
 62
     7
 10
-158.6990867747445
 20
187.2582049175633
 30
0.0
  0
VERTEX
  5
5BB
  8
1
  6
CONTINUOUS
 62
     7
 10
-158.7228478462935
 20
187.2629078238206
 30
0.0
  0
VERTEX
  5
5BC
  8
1
  6
CONTINUOUS
 62
     7
 10
-158.7467043868157
 20
187.2687602055526
 30
0.0
  0
VERTEX
  5
5BD
  8
1
  6
CONTINUOUS
 62
     7
 10
-158.7703165803348
 20
187.2757137945466
 30
0.0
  0
VERTEX
  5
5BE
  8
1
  6
CONTINUOUS
 62
     7
 10
-158.7936799956465
 20
187.2837858589929
 30
0.0
  0
VERTEX
  5
5BF
  8
1
  6
CONTINUOUS
 62
     7
 10
-158.8094131923241
 20
187.2899224678966
 30
0.0
  0
VERTEX
  5
5C0
  8
1
  6
CONTINUOUS
 62
     7
 10
-158.8249416360829
 20
187.2965587785923
 30
0.0
  0
VERTEX
  5
5C1
  8
1
  6
CONTINUOUS
 62
     7
 10
-158.8403115709003
 20
187.303720713948
 30
0.0
  0
VERTEX
  5
5C2
  8
1
  6
CONTINUOUS
 62
     7
 10
-158.8554412755305
 20
187.3113757440176
 30
0.0
  0
VERTEX
  5
5C3
  8
1
  6
CONTINUOUS
 62
     7
 10
-158.875486772836
 20
187.3224993720892
 30
0.0
  0
VERTEX
  5
5C4
  8
1
  6
CONTINUOUS
 62
     7
 10
-158.895058917774
 20
187.3345195841948
 30
0.0
  0
VERTEX
  5
5C5
  8
1
  6
CONTINUOUS
 62
     7
 10
-158.9095798419449
 20
187.3442383833982
 30
0.0
  0
VERTEX
  5
5C6
  8
1
  6
CONTINUOUS
 62
     7
 10
-158.9237628216289
 20
187.3544427021853
 30
0.0
  0
VERTEX
  5
5C7
  8
1
  6
CONTINUOUS
 62
     7
 10
-158.9376537757195
 20
187.3651732450006
 30
0.0
  0
VERTEX
  5
5C8
  8
1
  6
CONTINUOUS
 62
     7
 10
-158.9511688873855
 20
187.3763721752581
 30
0.0
  0
VERTEX
  5
5C9
  8
1
  6
CONTINUOUS
 62
     7
 10
-158.9632539956351
 20
187.3870769475792
 30
0.0
  0
VERTEX
  5
5CA
  8
1
  6
CONTINUOUS
 62
     7
 10
-158.9749939039654
 20
187.398158175541
 30
0.0
  0
VERTEX
  5
5CB
  8
1
  6
CONTINUOUS
 62
     7
 10
-158.9864212008023
 20
187.4096528702359
 30
0.0
  0
VERTEX
  5
5CC
  8
1
  6
CONTINUOUS
 62
     7
 10
-158.9974753902783
 20
187.4215058299886
 30
0.0
  0
VERTEX
  5
5CD
  8
1
  6
CONTINUOUS
 62
     7
 10
-159.0118009494936
 20
187.4380747639566
 30
0.0
  0
VERTEX
  5
5CE
  8
1
  6
CONTINUOUS
 62
     7
 10
-159.0254188826055
 20
187.4552810396873
 30
0.0
  0
VERTEX
  5
5CF
  8
1
  6
CONTINUOUS
 62
     7
 10
-159.0352643434708
 20
187.4687513087864
 30
0.0
  0
VERTEX
  5
5D0
  8
1
  6
CONTINUOUS
 62
     7
 10
-159.0446571243329
 20
187.4825401699278
 30
0.0
  0
VERTEX
  5
5D1
  8
1
  6
CONTINUOUS
 62
     7
 10
-159.0536244666783
 20
187.4966965089234
 30
0.0
  0
VERTEX
  5
5D2
  8
1
  6
CONTINUOUS
 62
     7
 10
-159.0621130154547
 20
187.5111442236382
 30
0.0
  0
VERTEX
  5
5D3
  8
1
  6
CONTINUOUS
 62
     7
 10
-159.0691670410325
 20
187.5240650903037
 30
0.0
  0
VERTEX
  5
5D4
  8
1
  6
CONTINUOUS
 62
     7
 10
-159.0758424614223
 20
187.5371993647714
 30
0.0
  0
VERTEX
  5
5D5
  8
1
  6
CONTINUOUS
 62
     7
 10
-159.08216725189
 20
187.5506143592701
 30
0.0
  0
VERTEX
  5
5D6
  8
1
  6
CONTINUOUS
 62
     7
 10
-159.0880895639177
 20
187.5642113298907
 30
0.0
  0
VERTEX
  5
5D7
  8
1
  6
CONTINUOUS
 62
     7
 10
-159.0936224315202
 20
187.5780279856457
 30
0.0
  0
VERTEX
  5
5D8
  8
1
  6
CONTINUOUS
 62
     7
 10
-159.0987387271675
 20
187.5920038154428
 30
0.0
  0
VERTEX
  5
5D9
  8
1
  6
CONTINUOUS
 62
     7
 10
-159.1034635767152
 20
187.6062225462697
 30
0.0
  0
VERTEX
  5
5DA
  8
1
  6
CONTINUOUS
 62
     7
 10
-159.1077599430134
 20
187.6205904774489
 30
0.0
  0
SEQEND
  5
A15
  8
1
  6
CONTINUOUS
 62
     7
  0
POLYLINE
  5
12C
  8
1
  6
CONTINUOUS
 62
     7
 66
     1
 10
0.0
 20
0.0
 30
0.0
  0
VERTEX
  5
5DB
  8
1
  6
CONTINUOUS
 62
     7
 10
-156.667747767206
 20
187.6205904774488
 30
0.0
  0
VERTEX
  5
5DC
  8
1
  6
CONTINUOUS
 62
     7
 10
-156.6722160337958
 20
187.6056791533896
 30
0.0
  0
VERTEX
  5
5DD
  8
1
  6
CONTINUOUS
 62
     7
 10
-156.6771505265436
 20
187.5909151447617
 30
0.0
  0
VERTEX
  5
5DE
  8
1
  6
CONTINUOUS
 62
     7
 10
-156.6825683889274
 20
187.5762554004803
 30
0.0
  0
VERTEX
  5
5DF
  8
1
  6
CONTINUOUS
 62
     7
 10
-156.6884448750323
 20
187.5617729066891
 30
0.0
  0
VERTEX
  5
5E0
  8
1
  6
CONTINUOUS
 62
     7
 10
-156.6971001167712
 20
187.542515975739
 30
0.0
  0
VERTEX
  5
5E1
  8
1
  6
CONTINUOUS
 62
     7
 10
-156.7065815489741
 20
187.5236085531139
 30
0.0
  0
VERTEX
  5
5E2
  8
1
  6
CONTINUOUS
 62
     7
 10
-156.7169924086972
 20
187.504884934435
 30
0.0
  0
VERTEX
  5
5E3
  8
1
  6
CONTINUOUS
 62
     7
 10
-156.7282171198524
 20
187.4865900833149
 30
0.0
  0
VERTEX
  5
5E4
  8
1
  6
CONTINUOUS
 62
     7
 10
-156.7402606808079
 20
187.4687266429785
 30
0.0
  0
VERTEX
  5
5E5
  8
1
  6
CONTINUOUS
 62
     7
 10
-156.7494361503532
 20
187.4561456547334
 30
0.0
  0
VERTEX
  5
5E6
  8
1
  6
CONTINUOUS
 62
     7
 10
-156.7589964500989
 20
187.4438537387961
 30
0.0
  0
VERTEX
  5
5E7
  8
1
  6
CONTINUOUS
 62
     7
 10
-156.7689707763672
 20
187.4318168312447
 30
0.0
  0
VERTEX
  5
5E8
  8
1
  6
CONTINUOUS
 62
     7
 10
-156.779312767909
 20
187.4200934231148
 30
0.0
  0
VERTEX
  5
5E9
  8
1
  6
CONTINUOUS
 62
     7
 10
-156.7938412447104
 20
187.4047807376416
 30
0.0
  0
VERTEX
  5
5EA
  8
1
  6
CONTINUOUS
 62
     7
 10
-156.8090206903545
 20
187.3900588144676
 30
0.0
  0
VERTEX
  5
5EB
  8
1
  6
CONTINUOUS
 62
     7
 10
-156.8209510874987
 20
187.3793046990278
 30
0.0
  0
VERTEX
  5
5EC
  8
1
  6
CONTINUOUS
 62
     7
 10
-156.8332139948933
 20
187.3689302633627
 30
0.0
  0
VERTEX
  5
5ED
  8
1
  6
CONTINUOUS
 62
     7
 10
-156.8458472029904
 20
187.3589061969267
 30
0.0
  0
VERTEX
  5
5EE
  8
1
  6
CONTINUOUS
 62
     7
 10
-156.8587892999858
 20
187.3492830966332
 30
0.0
  0
VERTEX
  5
5EF
  8
1
  6
CONTINUOUS
 62
     7
 10
-156.8717541200171
 20
187.3402532972463
 30
0.0
  0
VERTEX
  5
5F0
  8
1
  6
CONTINUOUS
 62
     7
 10
-156.8849894782674
 20
187.3316237568853
 30
0.0
  0
VERTEX
  5
5F1
  8
1
  6
CONTINUOUS
 62
     7
 10
-156.8985335198106
 20
187.3233715228868
 30
0.0
  0
VERTEX
  5
5F2
  8
1
  6
CONTINUOUS
 62
     7
 10
-156.9123235483361
 20
187.3155360638415
 30
0.0
  0
VERTEX
  5
5F3
  8
1
  6
CONTINUOUS
 62
     7
 10
-156.9313027199427
 20
187.3056319547881
 30
0.0
  0
VERTEX
  5
5F4
  8
1
  6
CONTINUOUS
 62
     7
 10
-156.9507046713258
 20
187.2964969237384
 30
0.0
  0
VERTEX
  5
5F5
  8
1
  6
CONTINUOUS
 62
     7
 10
-156.9707018140388
 20
187.288065278377
 30
0.0
  0
VERTEX
  5
5F6
  8
1
  6
CONTINUOUS
 62
     7
 10
-156.9910637774972
 20
187.2804491581747
 30
0.0
  0
VERTEX
  5
5F7
  8
1
  6
CONTINUOUS
 62
     7
 10
-157.0117916377339
 20
187.2736506582428
 30
0.0
  0
VERTEX
  5
5F8
  8
1
  6
CONTINUOUS
 62
     7
 10
-157.0309827144046
 20
187.268177393302
 30
0.0
  0
VERTEX
  5
5F9
  8
1
  6
CONTINUOUS
 62
     7
 10
-157.0503915094765
 20
187.2634148938677
 30
0.0
  0
VERTEX
  5
5FA
  8
1
  6
CONTINUOUS
 62
     7
 10
-157.0701709334185
 20
187.2593353939955
 30
0.0
  0
VERTEX
  5
5FB
  8
1
  6
CONTINUOUS
 62
     7
 10
-157.0900887856884
 20
187.2559940908679
 30
0.0
  0
VERTEX
  5
5FC
  8
1
  6
CONTINUOUS
 62
     7
 10
-157.1102283781819
 20
187.2533794106673
 30
0.0
  0
VERTEX
  5
5FD
  8
1
  6
CONTINUOUS
 62
     7
 10
-157.1304510915194
 20
187.2515104079932
 30
0.0
  0
VERTEX
  5
5FE
  8
1
  6
CONTINUOUS
 62
     7
 10
-157.1509415775821
 20
187.2503773531285
 30
0.0
  0
VERTEX
  5
5FF
  8
1
  6
CONTINUOUS
 62
     7
 10
-157.1714880524288
 20
187.25
 30
0.0
  0
SEQEND
  5
A16
  8
1
  6
CONTINUOUS
 62
     7
  0
ARC
  5
12D
  8
1
  6
CONTINUOUS
 62
     7
 10
-164.8877538551097
 20
203.723781318242
 30
0.0
 40
1.0
 50
90.4999999999989
 51
180.0
  0
LINE
  5
12E
  8
1
  6
CONTINUOUS
 62
     7
 10
-161.8659350239494
 20
204.7501904100549
 30
0.0
 11
-161.8877538551097
 21
204.75
 31
0.0
  0
LINE
  5
12F
  8
1
  6
CONTINUOUS
 62
     7
 10
-161.8877538551097
 20
204.75
 30
0.0
 11
-164.896480390608
 21
204.7237432413062
 31
0.0
  0
LINE
  5
130
  8
1
  6
CONTINUOUS
 62
     7
 10
-165.8877538551097
 20
203.723781318242
 30
0.0
 11
-165.8877538551097
 21
202.215092528837
 31
0.0
  0
ARC
  5
131
  8
1
  6
CONTINUOUS
 62
     7
 10
-150.8877538551097
 20
203.723781318242
 30
0.0
 40
1.0
 50
0.0
 51
89.50000000000111
  0
LINE
  5
132
  8
1
  6
CONTINUOUS
 62
     7
 10
-150.8790273196113
 20
204.7237432413062
 30
0.0
 11
-153.8877538551097
 21
204.75
 31
0.0
  0
LINE
  5
133
  8
1
  6
CONTINUOUS
 62
     7
 10
-153.8877538551097
 20
204.75
 30
0.0
 11
-153.9095726862699
 21
204.7501904100549
 31
0.0
  0
LINE
  5
134
  8
1
  6
CONTINUOUS
 62
     7
 10
-149.8877538551097
 20
203.723781318242
 30
0.0
 11
-149.8877538551097
 21
202.215092528837
 31
0.0
  0
LINE
  5
135
  8
1
  6
CONTINUOUS
 62
     7
 10
-150.6519456228891
 20
204.6955809259889
 30
0.0
 11
-149.8877538551097
 21
204.6889119254647
 31
0.0
  0
LINE
  5
136
  8
1
  6
CONTINUOUS
 62
     7
 10
-149.8877538551097
 20
204.6889119254647
 30
0.0
 11
-149.8877538551097
 21
203.723781318242
 31
0.0
  0
LINE
  5
137
  8
1
  6
CONTINUOUS
 62
     7
 10
-165.8877538551097
 20
204.6889119254647
 30
0.0
 11
-165.1235620873302
 21
204.6955809259889
 31
0.0
  0
LINE
  5
138
  8
1
  6
CONTINUOUS
 62
     7
 10
-165.8877538551097
 20
204.6889119254647
 30
0.0
 11
-165.8877538551097
 21
203.723781318242
 31
0.0
  0
LINE
  5
139
  8
1
  6
CONTINUOUS
 62
     9
 10
-149.8877538551097
 20
197.3199291731336
 30
0.0
 11
-155.2349618102988
 21
197.273264796259
 31
0.0
  0
LINE
  5
13A
  8
1
  6
CONTINUOUS
 62
     7
 10
-149.8877538551097
 20
197.3199291731336
 30
0.0
 11
-149.8877538551097
 21
200.3198149423261
 31
0.0
  0
LINE
  5
13B
  8
1
  6
CONTINUOUS
 62
     9
 10
-160.5405458999205
 20
197.273264796259
 30
0.0
 11
-165.8877538551097
 21
197.3199291731336
 31
0.0
  0
LINE
  5
13C
  8
1
  6
CONTINUOUS
 62
     7
 10
-165.8877538551097
 20
200.3198149423261
 30
0.0
 11
-165.8877538551097
 21
197.3199291731336
 31
0.0
  0
LINE
  5
13D
  8
1
  6
CONTINUOUS
 62
     7
 10
-149.8877538551097
 20
220.180185057674
 30
0.0
 11
-149.8877538551097
 21
219.1802231346098
 31
0.0
  0
LINE
  5
13E
  8
1
  6
CONTINUOUS
 62
     9
 10
-149.8877538551097
 20
219.1802231346098
 30
0.0
 11
-151.8877538551097
 21
219.1976768701913
 31
0.0
  0
LINE
  5
13F
  8
1
  6
CONTINUOUS
 62
     9
 10
-153.8877538551097
 20
219.2151306057728
 30
0.0
 11
-154.5357604642006
 21
219.2207856737779
 31
0.0
  0
LINE
  5
140
  8
1
  6
CONTINUOUS
 62
     7
 10
-155.04450670644
 20
220.2251873580371
 30
0.0
 11
-153.8877538551097
 21
220.215092528837
 31
0.0
  0
LINE
  5
141
  8
1
  6
CONTINUOUS
 62
     7
 10
-151.8877538551097
 20
220.1976387932555
 30
0.0
 11
-149.8877538551097
 21
220.180185057674
 31
0.0
  0
LINE
  5
142
  8
1
  6
CONTINUOUS
 62
     9
 10
-161.2397472460188
 20
219.2207856737779
 30
0.0
 11
-161.8877538551097
 21
219.2151306057728
 31
0.0
  0
LINE
  5
143
  8
1
  6
CONTINUOUS
 62
     9
 10
-163.8877538551097
 20
219.1976768701913
 30
0.0
 11
-165.8877538551097
 21
219.1802231346098
 31
0.0
  0
LINE
  5
144
  8
1
  6
CONTINUOUS
 62
     7
 10
-165.8877538551097
 20
220.180185057674
 30
0.0
 11
-163.8877538551097
 21
220.1976387932555
 31
0.0
  0
LINE
  5
145
  8
1
  6
CONTINUOUS
 62
     7
 10
-161.8877538551097
 20
220.215092528837
 30
0.0
 11
-160.7310010037793
 21
220.2251873580371
 31
0.0
  0
LINE
  5
146
  8
1
  6
CONTINUOUS
 62
     7
 10
-165.8877538551097
 20
219.1802231346098
 30
0.0
 11
-165.8877538551097
 21
220.180185057674
 31
0.0
  0
LINE
  5
147
  8
1
  6
CONTINUOUS
 62
     7
 10
-149.8877538551097
 20
219.1802231346098
 30
0.0
 11
-149.8877538551097
 21
218.244862290205
 31
0.0
  0
LINE
  5
148
  8
1
  6
CONTINUOUS
 62
     7
 10
-143.8877538551097
 20
215.35
 30
0.0
 11
-145.8877538551097
 21
215.35
 31
0.0
  0
ARC
  5
149
  8
1
  6
CONTINUOUS
 62
     7
 10
-143.8877538551097
 20
210.25
 30
0.0
 40
5.1
 50
42.36979856937582
 51
90.0
  0
POLYLINE
  5
14A
  8
1
  6
CONTINUOUS
 62
     7
 66
     1
 10
0.0
 20
0.0
 30
0.0
  0
VERTEX
  5
600
  8
1
  6
CONTINUOUS
 62
     7
 10
-140.4892247615164
 20
212.85
 30
0.0
  0
VERTEX
  5
601
  8
1
  6
CONTINUOUS
 62
     7
 10
-140.4651685436201
 20
212.8505790369032
 30
0.0
  0
VERTEX
  5
602
  8
1
  6
CONTINUOUS
 62
     7
 10
-140.4411680434755
 20
212.8523148064779
 30
0.0
  0
VERTEX
  5
603
  8
1
  6
CONTINUOUS
 62
     7
 10
-140.4172788497836
 20
212.8552032884255
 30
0.0
  0
VERTEX
  5
604
  8
1
  6
CONTINUOUS
 62
     7
 10
-140.3935562934434
 20
212.8592377925955
 30
0.0
  0
VERTEX
  5
605
  8
1
  6
CONTINUOUS
 62
     7
 10
-140.3700553193972
 20
212.8644089744806
 30
0.0
  0
VERTEX
  5
606
  8
1
  6
CONTINUOUS
 62
     7
 10
-140.3468303593699
 20
212.8707048568603
 30
0.0
  0
VERTEX
  5
607
  8
1
  6
CONTINUOUS
 62
     7
 10
-140.3239352057972
 20
212.8781108575416
 30
0.0
  0
VERTEX
  5
608
  8
1
  6
CONTINUOUS
 62
     7
 10
-140.3014228872344
 20
212.8866098231337
 30
0.0
  0
VERTEX
  5
609
  8
1
  6
CONTINUOUS
 62
     7
 10
-140.2793455455345
 20
212.8961820687778
 30
0.0
  0
VERTEX
  5
60A
  8
1
  6
CONTINUOUS
 62
     7
 10
-140.2577543150795
 20
212.90680542374
 30
0.0
  0
VERTEX
  5
60B
  8
1
  6
CONTINUOUS
 62
     7
 10
-140.2366992043466
 20
212.918455282762
 30
0.0
  0
VERTEX
  5
60C
  8
1
  6
CONTINUOUS
 62
     7
 10
-140.21622898008
 20
212.9311046630506
 30
0.0
  0
VERTEX
  5
60D
  8
1
  6
CONTINUOUS
 62
     7
 10
-140.196391054341
 20
212.944724266774
 30
0.0
  0
VERTEX
  5
60E
  8
1
  6
CONTINUOUS
 62
     7
 10
-140.1772313746938
 20
212.9592825489194
 30
0.0
  0
VERTEX
  5
60F
  8
1
  6
CONTINUOUS
 62
     7
 10
-140.1587943177847
 20
212.9747457903564
 30
0.0
  0
VERTEX
  5
610
  8
1
  6
CONTINUOUS
 62
     7
 10
-140.141122586559
 20
212.9910781759353
 30
0.0
  0
VERTEX
  5
611
  8
1
  6
CONTINUOUS
 62
     7
 10
-140.1242571113549
 20
213.0082418774402
 30
0.0
  0
VERTEX
  5
612
  8
1
  6
CONTINUOUS
 62
     7
 10
-140.1082369551025
 20
213.0261971412048
 30
0.0
  0
VERTEX
  5
613
  8
1
  6
CONTINUOUS
 62
     7
 10
-140.0930992228485
 20
213.0449023801879
 30
0.0
  0
VERTEX
  5
614
  8
1
  6
CONTINUOUS
 62
     7
 10
-140.0788789758151
 20
213.0643142702948
 30
0.0
  0
VERTEX
  5
615
  8
1
  6
CONTINUOUS
 62
     7
 10
-140.0656091501938
 20
213.0843878507225
 30
0.0
  0
VERTEX
  5
616
  8
1
  6
CONTINUOUS
 62
     7
 10
-140.0533204808595
 20
213.1050766280957
 30
0.0
  0
VERTEX
  5
617
  8
1
  6
CONTINUOUS
 62
     7
 10
-140.0420414301841
 20
213.1263326841521
 30
0.0
  0
VERTEX
  5
618
  8
1
  6
CONTINUOUS
 62
     7
 10
-140.0317981221142
 20
213.1481067867282
 30
0.0
  0
VERTEX
  5
619
  8
1
  6
CONTINUOUS
 62
     7
 10
-140.0226142816632
 20
213.1703485037882
 30
0.0
  0
VERTEX
  5
61A
  8
1
  6
CONTINUOUS
 62
     7
 10
-140.0145111799611
 20
213.1930063202324
 30
0.0
  0
VERTEX
  5
61B
  8
1
  6
CONTINUOUS
 62
     7
 10
-140.0075075849878
 20
213.2160277572131
 30
0.0
  0
VERTEX
  5
61C
  8
1
  6
CONTINUOUS
 62
     7
 10
-140.001619718103
 20
213.2393594936842
 30
0.0
  0
VERTEX
  5
61D
  8
1
  6
CONTINUOUS
 62
     7
 10
-139.9968612164755
 20
213.2629474898999
 30
0.0
  0
VERTEX
  5
61E
  8
1
  6
CONTINUOUS
 62
     7
 10
-139.9932431014974
 20
213.286737112579
 30
0.0
  0
VERTEX
  5
61F
  8
1
  6
CONTINUOUS
 62
     7
 10
-139.9907737532573
 20
213.3106732614438
 30
0.0
  0
VERTEX
  5
620
  8
1
  6
CONTINUOUS
 62
     7
 10
-139.98945889113
 20
213.3347004968402
 30
0.0
  0
VERTEX
  5
621
  8
1
  6
CONTINUOUS
 62
     7
 10
-139.9893015605304
 20
213.3587631681444
 30
0.0
  0
VERTEX
  5
622
  8
1
  6
CONTINUOUS
 62
     7
 10
-139.9903021258594
 20
213.3828055426576
 30
0.0
  0
VERTEX
  5
623
  8
1
  6
CONTINUOUS
 62
     7
 10
-139.9924582696599
 20
213.4067719346914
 30
0.0
  0
VERTEX
  5
624
  8
1
  6
CONTINUOUS
 62
     7
 10
-139.9957649979847
 20
213.4306068345442
 30
0.0
  0
VERTEX
  5
625
  8
1
  6
CONTINUOUS
 62
     7
 10
-140.0002146519628
 20
213.4542550370697
 30
0.0
  0
VERTEX
  5
626
  8
1
  6
CONTINUOUS
 62
     7
 10
-140.0057969255388
 20
213.4776617695399
 30
0.0
  0
VERTEX
  5
627
  8
1
  6
CONTINUOUS
 62
     7
 10
-140.0124988893431
 20
213.5007728185073
 30
0.0
  0
VERTEX
  5
628
  8
1
  6
CONTINUOUS
 62
     7
 10
-140.0203050206382
 20
213.5235346553711
 30
0.0
  0
VERTEX
  5
629
  8
1
  6
CONTINUOUS
 62
     7
 10
-140.0291972392718
 20
213.5458945603571
 30
0.0
  0
VERTEX
  5
62A
  8
1
  6
CONTINUOUS
 62
     7
 10
-140.0391549495528
 20
213.5678007446247
 30
0.0
  0
VERTEX
  5
62B
  8
1
  6
CONTINUOUS
 62
     7
 10
-140.0501550879545
 20
213.5892024702177
 30
0.0
  0
VERTEX
  5
62C
  8
1
  6
CONTINUOUS
 62
     7
 10
-140.0621721765324
 20
213.6100501675802
 30
0.0
  0
VERTEX
  5
62D
  8
1
  6
CONTINUOUS
 62
     7
 10
-140.0751783819356
 20
213.6302955503678
 30
0.0
  0
VERTEX
  5
62E
  8
1
  6
CONTINUOUS
 62
     7
 10
-140.0891435798724
 20
213.6498917272856
 30
0.0
  0
VERTEX
  5
62F
  8
1
  6
CONTINUOUS
 62
     7
 10
-140.1040354248831
 20
213.6687933106952
 30
0.0
  0
VERTEX
  5
630
  8
1
  6
CONTINUOUS
 62
     7
 10
-140.1198194252563
 20
213.6869565217391
 30
0.0
  0
SEQEND
  5
A17
  8
1
  6
CONTINUOUS
 62
     7
  0
LINE
  5
14B
  8
1
  6
CONTINUOUS
 62
     7
 10
-140.4892247615164
 20
212.85
 30
0.0
 11
-143.4877538551097
 21
212.85
 31
0.0
  0
ARC
  5
14C
  8
1
  6
CONTINUOUS
 62
     7
 10
-143.4877538551097
 20
210.25
 30
0.0
 40
2.6
 50
90.0
 51
157.38013505196
  0
ARC
  5
14D
  8
1
  6
CONTINUOUS
 62
     7
 10
-143.4877538551097
 20
210.25
 30
0.0
 40
2.6
 50
161.1710048212386
 51
270.0
  0
LINE
  5
14E
  8
1
  6
CONTINUOUS
 62
     7
 10
-143.4877538551097
 20
207.65
 30
0.0
 11
-140.4892247615164
 21
207.65
 31
0.0
  0
POLYLINE
  5
14F
  8
1
  6
CONTINUOUS
 62
     7
 66
     1
 10
0.0
 20
0.0
 30
0.0
  0
VERTEX
  5
631
  8
1
  6
CONTINUOUS
 62
     7
 10
-140.1198194252562
 20
206.8130434782609
 30
0.0
  0
VERTEX
  5
632
  8
1
  6
CONTINUOUS
 62
     7
 10
-140.1040354248831
 20
206.8312066893049
 30
0.0
  0
VERTEX
  5
633
  8
1
  6
CONTINUOUS
 62
     7
 10
-140.0891435798724
 20
206.8501082727144
 30
0.0
  0
VERTEX
  5
634
  8
1
  6
CONTINUOUS
 62
     7
 10
-140.0751783819355
 20
206.8697044496322
 30
0.0
  0
VERTEX
  5
635
  8
1
  6
CONTINUOUS
 62
     7
 10
-140.0621721765324
 20
206.8899498324199
 30
0.0
  0
VERTEX
  5
636
  8
1
  6
CONTINUOUS
 62
     7
 10
-140.0501550879544
 20
206.9107975297824
 30
0.0
  0
VERTEX
  5
637
  8
1
  6
CONTINUOUS
 62
     7
 10
-140.0391549495528
 20
206.9321992553753
 30
0.0
  0
VERTEX
  5
638
  8
1
  6
CONTINUOUS
 62
     7
 10
-140.0291972392718
 20
206.9541054396429
 30
0.0
  0
VERTEX
  5
639
  8
1
  6
CONTINUOUS
 62
     7
 10
-140.0203050206382
 20
206.976465344629
 30
0.0
  0
VERTEX
  5
63A
  8
1
  6
CONTINUOUS
 62
     7
 10
-140.0124988893431
 20
206.9992271814927
 30
0.0
  0
VERTEX
  5
63B
  8
1
  6
CONTINUOUS
 62
     7
 10
-140.0057969255388
 20
207.0223382304602
 30
0.0
  0
VERTEX
  5
63C
  8
1
  6
CONTINUOUS
 62
     7
 10
-140.0002146519628
 20
207.0457449629303
 30
0.0
  0
VERTEX
  5
63D
  8
1
  6
CONTINUOUS
 62
     7
 10
-139.9957649979847
 20
207.0693931654558
 30
0.0
  0
VERTEX
  5
63E
  8
1
  6
CONTINUOUS
 62
     7
 10
-139.9924582696599
 20
207.0932280653086
 30
0.0
  0
VERTEX
  5
63F
  8
1
  6
CONTINUOUS
 62
     7
 10
-139.9903021258594
 20
207.1171944573425
 30
0.0
  0
VERTEX
  5
640
  8
1
  6
CONTINUOUS
 62
     7
 10
-139.9893015605304
 20
207.1412368318557
 30
0.0
  0
VERTEX
  5
641
  8
1
  6
CONTINUOUS
 62
     7
 10
-139.98945889113
 20
207.1652995031598
 30
0.0
  0
VERTEX
  5
642
  8
1
  6
CONTINUOUS
 62
     7
 10
-139.9907737532573
 20
207.1893267385562
 30
0.0
  0
VERTEX
  5
643
  8
1
  6
CONTINUOUS
 62
     7
 10
-139.9932431014974
 20
207.2132628874211
 30
0.0
  0
VERTEX
  5
644
  8
1
  6
CONTINUOUS
 62
     7
 10
-139.9968612164755
 20
207.2370525101002
 30
0.0
  0
VERTEX
  5
645
  8
1
  6
CONTINUOUS
 62
     7
 10
-140.001619718103
 20
207.2606405063158
 30
0.0
  0
VERTEX
  5
646
  8
1
  6
CONTINUOUS
 62
     7
 10
-140.0075075849878
 20
207.2839722427869
 30
0.0
  0
VERTEX
  5
647
  8
1
  6
CONTINUOUS
 62
     7
 10
-140.0145111799611
 20
207.3069936797677
 30
0.0
  0
VERTEX
  5
648
  8
1
  6
CONTINUOUS
 62
     7
 10
-140.0226142816632
 20
207.3296514962118
 30
0.0
  0
VERTEX
  5
649
  8
1
  6
CONTINUOUS
 62
     7
 10
-140.0317981221142
 20
207.3518932132718
 30
0.0
  0
VERTEX
  5
64A
  8
1
  6
CONTINUOUS
 62
     7
 10
-140.0420414301841
 20
207.3736673158479
 30
0.0
  0
VERTEX
  5
64B
  8
1
  6
CONTINUOUS
 62
     7
 10
-140.0533204808594
 20
207.3949233719043
 30
0.0
  0
VERTEX
  5
64C
  8
1
  6
CONTINUOUS
 62
     7
 10
-140.0656091501938
 20
207.4156121492776
 30
0.0
  0
VERTEX
  5
64D
  8
1
  6
CONTINUOUS
 62
     7
 10
-140.0788789758151
 20
207.4356857297053
 30
0.0
  0
VERTEX
  5
64E
  8
1
  6
CONTINUOUS
 62
     7
 10
-140.0930992228484
 20
207.4550976198122
 30
0.0
  0
VERTEX
  5
64F
  8
1
  6
CONTINUOUS
 62
     7
 10
-140.1082369551025
 20
207.4738028587952
 30
0.0
  0
VERTEX
  5
650
  8
1
  6
CONTINUOUS
 62
     7
 10
-140.1242571113549
 20
207.4917581225598
 30
0.0
  0
VERTEX
  5
651
  8
1
  6
CONTINUOUS
 62
     7
 10
-140.141122586559
 20
207.5089218240647
 30
0.0
  0
VERTEX
  5
652
  8
1
  6
CONTINUOUS
 62
     7
 10
-140.1587943177847
 20
207.5252542096437
 30
0.0
  0
VERTEX
  5
653
  8
1
  6
CONTINUOUS
 62
     7
 10
-140.1772313746937
 20
207.5407174510807
 30
0.0
  0
VERTEX
  5
654
  8
1
  6
CONTINUOUS
 62
     7
 10
-140.196391054341
 20
207.5552757332261
 30
0.0
  0
VERTEX
  5
655
  8
1
  6
CONTINUOUS
 62
     7
 10
-140.21622898008
 20
207.5688953369495
 30
0.0
  0
VERTEX
  5
656
  8
1
  6
CONTINUOUS
 62
     7
 10
-140.2366992043466
 20
207.5815447172381
 30
0.0
  0
VERTEX
  5
657
  8
1
  6
CONTINUOUS
 62
     7
 10
-140.2577543150795
 20
207.5931945762601
 30
0.0
  0
VERTEX
  5
658
  8
1
  6
CONTINUOUS
 62
     7
 10
-140.2793455455344
 20
207.6038179312222
 30
0.0
  0
VERTEX
  5
659
  8
1
  6
CONTINUOUS
 62
     7
 10
-140.3014228872344
 20
207.6133901768663
 30
0.0
  0
VERTEX
  5
65A
  8
1
  6
CONTINUOUS
 62
     7
 10
-140.3239352057972
 20
207.6218891424585
 30
0.0
  0
VERTEX
  5
65B
  8
1
  6
CONTINUOUS
 62
     7
 10
-140.3468303593699
 20
207.6292951431398
 30
0.0
  0
VERTEX
  5
65C
  8
1
  6
CONTINUOUS
 62
     7
 10
-140.3700553193972
 20
207.6355910255195
 30
0.0
  0
VERTEX
  5
65D
  8
1
  6
CONTINUOUS
 62
     7
 10
-140.3935562934434
 20
207.6407622074046
 30
0.0
  0
VERTEX
  5
65E
  8
1
  6
CONTINUOUS
 62
     7
 10
-140.4172788497836
 20
207.6447967115745
 30
0.0
  0
VERTEX
  5
65F
  8
1
  6
CONTINUOUS
 62
     7
 10
-140.4411680434754
 20
207.6476851935221
 30
0.0
  0
VERTEX
  5
660
  8
1
  6
CONTINUOUS
 62
     7
 10
-140.4651685436201
 20
207.6494209630968
 30
0.0
  0
VERTEX
  5
661
  8
1
  6
CONTINUOUS
 62
     7
 10
-140.4892247615164
 20
207.65
 30
0.0
  0
SEQEND
  5
A18
  8
1
  6
CONTINUOUS
 62
     7
  0
ARC
  5
150
  8
1
  6
CONTINUOUS
 62
     7
 10
-143.8877538551097
 20
210.25
 30
0.0
 40
5.1
 50
270.0
 51
317.6302014306247
  0
LINE
  5
151
  8
1
  6
CONTINUOUS
 62
     7
 10
-149.8877538551097
 20
205.15
 30
0.0
 11
-143.8877538551097
 21
205.15
 31
0.0
  0
LINE
  5
152
  8
1
  6
CONTINUOUS
 62
     7
 10
-149.8877538551097
 20
205.15
 30
0.0
 11
-149.8877538551097
 21
204.6889119254647
 31
0.0
  0
LINE
  5
153
  8
1
  6
CONTINUOUS
 62
     7
 10
-165.8877538551097
 20
219.1802231346098
 30
0.0
 11
-165.8877538551097
 21
218.0
 31
0.0
  0
LINE
  5
154
  8
1
  6
CONTINUOUS
 62
     7
 10
-165.8877538551097
 20
208.5
 30
0.0
 11
-165.8877538551097
 21
204.6889119254647
 31
0.0
  0
LINE
  5
155
  8
1
  6
CONTINUOUS
 62
     7
 10
-157.8877538551097
 20
169.9805440372677
 30
0.0
 11
-164.896480390608
 21
170.0417082671246
 31
0.0
  0
ARC
  5
156
  8
1
  6
CONTINUOUS
 62
     7
 10
-164.8877538551097
 20
171.0416701901887
 30
0.0
 40
1.0
 50
180.0
 51
269.4999999999995
  0
LINE
  5
157
  8
1
  6
CONTINUOUS
 62
     7
 10
-157.8877538551097
 20
169.9805440372677
 30
0.0
 11
-157.8877538551097
 21
187.25
 31
0.0
  0
LINE
  5
158
  8
1
  6
CONTINUOUS
 62
     7
 10
-165.8877538551097
 20
197.3199291731336
 30
0.0
 11
-165.8877538551097
 21
171.0416701901887
 31
0.0
  0
LINE
  5
159
  8
1
  6
CONTINUOUS
 62
     7
 10
-157.8877538551096
 20
160.25
 30
0.0
 11
-157.8877538551097
 21
162.9194559627323
 31
0.0
  0
LINE
  5
15A
  8
1
  6
CONTINUOUS
 62
     7
 10
-164.896480390608
 20
160.3111642298569
 30
0.0
 11
-157.8877538551096
 21
160.25
 31
0.0
  0
ARC
  5
15B
  8
1
  6
CONTINUOUS
 62
     7
 10
-164.8877538551097
 20
161.3111261529211
 30
0.0
 40
1.0
 50
180.0
 51
269.4999999999995
  0
ARC
  5
15C
  8
1
  6
CONTINUOUS
 62
     7
 10
-164.8877538551097
 20
161.8583298098113
 30
0.0
 40
1.0
 50
90.5000000000005
 51
180.0
  0
LINE
  5
15D
  8
1
  6
CONTINUOUS
 62
     7
 10
-164.896480390608
 20
162.8582917328755
 30
0.0
 11
-157.8877538551097
 21
162.9194559627323
 31
0.0
  0
LINE
  5
15E
  8
1
  6
CONTINUOUS
 62
     7
 10
-165.8877538551097
 20
161.8583298098113
 30
0.0
 11
-165.8877538551097
 21
161.3111261529211
 31
0.0
  0
ARC
  5
15F
  8
1
  6
CONTINUOUS
 62
     7
 10
-150.8877538551097
 20
161.311126152921
 30
0.0
 40
1.0
 50
270.4999999999989
 51
0.0
  0
LINE
  5
160
  8
1
  6
CONTINUOUS
 62
     7
 10
-157.8877538551096
 20
160.25
 30
0.0
 11
-150.8790273196113
 21
160.3111642298569
 31
0.0
  0
ARC
  5
161
  8
1
  6
CONTINUOUS
 62
     7
 10
-155.3877538551097
 20
163.941311210595
 30
0.0
 40
1.0
 50
270.4999999999989
 51
0.0
  0
LINE
  5
162
  8
1
  6
CONTINUOUS
 62
     7
 10
-154.3877538551097
 20
163.941311210595
 30
0.0
 11
-154.3877538551097
 21
168.9586887894051
 31
0.0
  0
ARC
  5
163
  8
1
  6
CONTINUOUS
 62
     7
 10
-155.3877538551097
 20
168.9586887894051
 30
0.0
 40
1.0
 50
0.0
 51
89.50000000000114
  0
LINE
  5
164
  8
1
  6
CONTINUOUS
 62
     7
 10
-155.3790273196113
 20
169.9586507124692
 30
0.0
 11
-157.8877538551097
 21
169.9805440372677
 31
0.0
  0
LINE
  5
165
  8
1
  6
CONTINUOUS
 62
     7
 10
-157.8877538551097
 20
162.9194559627323
 30
0.0
 11
-155.3790273196113
 21
162.9413492875308
 31
0.0
  0
LINE
  5
166
  8
1
  6
CONTINUOUS
 62
     7
 10
-149.8877538551097
 20
197.3199291731336
 30
0.0
 11
-149.8877538551097
 21
161.3111261529211
 31
0.0
  0
LINE
  5
167
  8
1
  6
CONTINUOUS
 62
     7
 10
-157.8877538551097
 20
168.65
 30
0.0
 11
-154.3877538551097
 21
168.6805440372677
 31
0.0
  0
ARC
  5
168
  8
1
  6
CONTINUOUS
 62
     7
 10
-157.8877538551097
 20
166.45
 30
0.0
 40
2.200000000000001
 50
90.0
 51
270.0
  0
LINE
  5
169
  8
1
  6
CONTINUOUS
 62
     7
 10
-157.8877538551097
 20
164.25
 30
0.0
 11
-154.3877538551097
 21
164.2194559627324
 31
0.0
  0
LINE
  5
16A
  8
1
  6
CONTINUOUS
 62
     7
 10
-165.8877538551097
 20
161.8583298098113
 30
0.0
 11
-165.8877538551097
 21
171.0416701901887
 31
0.0
  0
ARC
  5
16B
  8
1
  6
CONTINUOUS
 62
     7
 10
-143.8877538551097
 20
210.25
 30
0.0
 40
2.200000000000007
 50
270.0000000000001
 51
90.00000000000006
  0
LINE
  5
16C
  8
1
  6
CONTINUOUS
 62
     7
 10
-144.8598332688678
 20
212.458483208526
 30
0.0
 11
-143.8877538551097
 21
212.45
 31
0.0
  0
LINE
  5
16D
  8
1
  6
CONTINUOUS
 62
     7
 10
-143.8877538551097
 20
208.05
 30
0.0
 11
-144.8598332688678
 21
208.041516791474
 31
0.0
  0
ARC
  5
16E
  8
1
  6
CONTINUOUS
 62
     7
 10
-143.8877538551097
 20
210.25
 30
0.0
 40
5.100000000000012
 50
317.6302014306243
 51
42.36979856937592
  0
LINE
  5
16F
  8
1
  6
CONTINUOUS
 62
     7
 10
-147.7674075748228
 20
208.6120357104449
 30
0.0
 11
-147.6877538551097
 21
208.75
 31
0.0
  0
LINE
  5
170
  8
1
  6
CONTINUOUS
 62
     7
 10
-147.6877538551097
 20
217.75
 30
0.0
 11
-147.7674082603567
 21
217.8879654769347
 31
0.0
  0
LINE
  5
171
  8
1
  6
CONTINUOUS
 62
     7
 10
-163.8877538551097
 20
218.25
 30
0.0
 11
-164.6877538551097
 21
218.25
 31
0.0
  0
LINE
  5
172
  8
1
  6
CONTINUOUS
 62
     7
 10
-164.6877538551097
 20
208.25
 30
0.0
 11
-163.8877538551097
 21
208.25
 31
0.0
  0
LINE
  5
173
  8
1
  6
CONTINUOUS
 62
     7
 10
-164.6877538551097
 20
218.0
 30
0.0
 11
-165.8877538551097
 21
218.0
 31
0.0
  0
LINE
  5
174
  8
1
  6
CONTINUOUS
 62
     7
 10
-165.8877538551097
 20
208.5
 30
0.0
 11
-164.6877538551097
 21
208.5
 31
0.0
  0
LINE
  5
175
  8
1
  6
CONTINUOUS
 62
     7
 10
-165.8877538551097
 20
217.75
 30
0.0
 11
-167.499041256153
 21
217.6090306187266
 31
0.0
  0
LINE
  5
176
  8
1
  6
CONTINUOUS
 62
     7
 10
-167.499041256153
 20
208.8909693812735
 30
0.0
 11
-165.8877538551097
 21
208.75
 31
0.0
  0
ARC
  5
177
  8
1
  6
CONTINUOUS
 62
     7
 10
-167.3595920677567
 20
216.0151191017798
 30
0.0
 40
1.600000000000002
 50
95.00000000000014
 51
154.4022801097753
  0
ARC
  5
178
  8
1
  6
CONTINUOUS
 62
     7
 10
-167.3595920677567
 20
210.4848808982203
 30
0.0
 40
1.600000000000001
 50
205.5977198902246
 51
264.9999999999999
  0
ARC
  5
179
  8
1
  6
CONTINUOUS
 62
     7
 10
-161.5877538551097
 20
213.25
 30
0.0
 40
8.000000000000004
 50
197.833382709813
 51
205.5977198902246
  0
ARC
  5
17A
  8
1
  6
CONTINUOUS
 62
     7
 10
-161.5877538551097
 20
213.25
 30
0.0
 40
7.999999999999991
 50
154.4022801097754
 51
162.1666172901869
  0
LINE
  5
17B
  8
1
  6
CONTINUOUS
 62
     7
 10
-146.2877538551097
 20
215.75
 30
0.0
 11
-147.6877538551097
 21
215.75
 31
0.0
  0
LINE
  5
17C
  8
1
  6
CONTINUOUS
 62
     7
 10
-153.8877538551097
 20
215.75
 30
0.0
 11
-154.0055665702849
 21
215.75
 31
0.0
  0
LINE
  5
17D
  8
1
  6
CONTINUOUS
 62
     7
 10
-161.7699411399344
 20
215.75
 30
0.0
 11
-161.8877538551097
 21
215.75
 31
0.0
  0
LINE
  5
17E
  8
1
  6
CONTINUOUS
 62
     7
 10
-161.8877538551097
 20
210.75
 30
0.0
 11
-161.8135754788882
 21
210.75
 31
0.0
  0
LINE
  5
17F
  8
1
  6
CONTINUOUS
 62
     7
 10
-153.9619322313311
 20
210.75
 30
0.0
 11
-153.8877538551097
 21
210.75
 31
0.0
  0
LINE
  5
180
  8
1
  6
CONTINUOUS
 62
     7
 10
-147.6877538551097
 20
210.75
 30
0.0
 11
-146.2877538551097
 21
210.75
 31
0.0
  0
LINE
  5
181
  8
1
  6
CONTINUOUS
 62
     7
 10
-146.2877538551097
 20
210.75
 30
0.0
 11
-145.8877538551097
 21
211.15
 31
0.0
  0
LINE
  5
182
  8
1
  6
CONTINUOUS
 62
     7
 10
-145.8877538551097
 20
215.35
 30
0.0
 11
-146.2877538551097
 21
215.75
 31
0.0
  0
LINE
  5
183
  8
1
  6
CONTINUOUS
 62
     7
 10
-153.8877538551097
 20
204.75
 30
0.0
 11
-151.8877538551097
 21
204.75
 31
0.0
  0
LINE
  5
184
  8
1
  6
CONTINUOUS
 62
     7
 10
-163.8877538551097
 20
204.75
 30
0.0
 11
-161.8877538551097
 21
204.75
 31
0.0
  0
LINE
  5
185
  8
1
  6
CONTINUOUS
 62
     7
 10
-160.7311405410676
 20
220.2251761487269
 30
0.0
 11
-161.748415594718
 21
218.2165831696498
 31
0.0
  0
LINE
  5
186
  8
1
  6
CONTINUOUS
 62
     7
 10
-154.0270921155013
 20
218.2165831696498
 30
0.0
 11
-155.0443671691517
 21
220.2251761487269
 31
0.0
  0
ARC
  5
187
  8
1
  6
CONTINUOUS
 62
     7
 10
-156.1377538551097
 20
193.3816524975874
 30
0.0
 40
1.000000000000004
 50
344.9999999999998
 51
0.0
  0
ARC
  5
188
  8
1
  6
CONTINUOUS
 62
     7
 10
-159.6377538551097
 20
193.3816524975874
 30
0.0
 40
1.000000000000001
 50
180.0
 51
195.0000000000001
  0
LINE
  5
189
  8
1
  6
CONTINUOUS
 62
     7
 10
-160.6377538551097
 20
193.95
 30
0.0
 11
-160.6377538551097
 21
193.3816524975874
 31
0.0
  0
LINE
  5
18A
  8
1
  6
CONTINUOUS
 62
     7
 10
-155.1377538551097
 20
193.3816524975874
 30
0.0
 11
-155.1377538551097
 21
193.95
 31
0.0
  0
LINE
  5
18B
  8
1
  6
CONTINUOUS
 62
     7
 10
-160.6036796813987
 20
193.1228334524849
 30
0.0
 11
-160.308485807371
 21
192.0211549165302
 31
0.0
  0
LINE
  5
18C
  8
1
  6
CONTINUOUS
 62
     7
 10
-155.4670372287067
 20
192.0210977196484
 30
0.0
 11
-155.1718280288206
 21
193.1228334524849
 31
0.0
  0
ENDBLK
  8
0
  0
BLOCK
  8
0
  2
D_FRAME_VIEW_2766
 70
     0
 10
0.0
 20
0.0
 30
0.0
  0
LINE
  5
191
  8
1
  6
CONTINUOUS
 62
     7
 10
-272.5010796191164
 20
78.92301097708972
 30
0.0
 11
-272.5010796191164
 21
80.72108718844302
 31
0.0
  0
ARC
  5
192
  8
1
  6
CONTINUOUS
 62
     7
 10
-275.1022274922133
 20
87.13101999682235
 30
0.0
 40
8.610306749804511
 50
270.5339882238487
 51
287.5835976716238
  0
ARC
  5
193
  8
1
  6
CONTINUOUS
 62
     7
 10
-274.9184103231733
 20
87.27732221818984
 30
0.0
 40
8.75684754692792
 50
252.560095253232
 51
269.3223188512948
  0
LINE
  5
194
  8
1
  6
CONTINUOUS
 62
     7
 10
-277.5428841079473
 20
78.92301097708972
 30
0.0
 11
-277.5428841079473
 21
80.72108718844302
 31
0.0
  0
ARC
  5
195
  8
1
  6
CONTINUOUS
 62
     7
 10
-270.6037157437291
 20
83.1898327135787
 30
0.0
 40
4.669663521775353
 50
246.0263137855085
 51
268.8638844686784
  0
LINE
  5
196
  8
1
  6
CONTINUOUS
 62
     7
 10
-275.0219818635318
 20
78.52108718844303
 30
0.0
 11
-270.6963042318094
 21
78.52108718844303
 31
0.0
  0
LINE
  5
197
  8
1
  6
CONTINUOUS
 62
     7
 10
-268.8915288445024
 20
78.92301097708972
 30
0.0
 11
-268.8915288445024
 21
80.72108718844302
 31
0.0
  0
ARC
  5
198
  8
1
  6
CONTINUOUS
 62
     7
 10
-270.7681229124637
 20
83.09656916884646
 30
0.0
 40
4.57604559372909
 50
270.899264693641
 51
294.210537052171
  0
POLYLINE
  5
199
  8
1
  6
CONTINUOUS
 62
     7
 66
     1
 10
0.0
 20
0.0
 30
0.0
  0
VERTEX
  5
662
  8
1
  6
CONTINUOUS
 62
     7
 10
-278.2590109650557
 20
78.52108718844303
 30
0.0
  0
VERTEX
  5
663
  8
1
  6
CONTINUOUS
 62
     7
 10
-278.1903391373455
 20
78.52507084746594
 30
0.0
  0
VERTEX
  5
664
  8
1
  6
CONTINUOUS
 62
     7
 10
-278.1217363463417
 20
78.53694989970876
 30
0.0
  0
VERTEX
  5
665
  8
1
  6
CONTINUOUS
 62
     7
 10
-278.0530010717589
 20
78.55668148032242
 30
0.0
  0
VERTEX
  5
666
  8
1
  6
CONTINUOUS
 62
     7
 10
-277.9844617276278
 20
78.58397072213118
 30
0.0
  0
VERTEX
  5
667
  8
1
  6
CONTINUOUS
 62
     7
 10
-277.9154482308821
 20
78.61891079915382
 30
0.0
  0
VERTEX
  5
668
  8
1
  6
CONTINUOUS
 62
     7
 10
-277.8467303557295
 20
78.66084619391928
 30
0.0
  0
VERTEX
  5
669
  8
1
  6
CONTINUOUS
 62
     7
 10
-277.7099124901998
 20
78.76428306172446
 30
0.0
  0
VERTEX
  5
66A
  8
1
  6
CONTINUOUS
 62
     7
 10
-277.5428841079473
 20
78.92301097708972
 30
0.0
  0
SEQEND
  5
A19
  8
1
  6
CONTINUOUS
 62
     7
  0
LINE
  5
19A
  8
1
  6
CONTINUOUS
 62
     7
 10
-278.2590109650557
 20
78.52108718844303
 30
0.0
 11
-275.0219818635318
 21
78.52108718844303
 31
0.0
  0
LINE
  5
19B
  8
1
  6
CONTINUOUS
 62
     7
 10
-278.9751378221642
 20
78.92301097708972
 30
0.0
 11
-278.6147171703026
 21
78.62580919653622
 31
0.0
  0
LINE
  5
19C
  8
1
  6
CONTINUOUS
 62
     7
 10
-278.9751378221642
 20
78.92301097708972
 30
0.0
 11
-278.9751378221642
 21
80.72108718844302
 31
0.0
  0
LINE
  5
19D
  8
1
  6
CONTINUOUS
 62
     7
 10
-268.8915288445024
 20
78.9230109770897
 30
0.0
 11
-269.2519697043501
 21
78.62579752865373
 31
0.0
  0
LINE
  5
19E
  8
1
  6
CONTINUOUS
 62
     7
 10
-270.6963042318094
 20
78.52108718844303
 30
0.0
 11
-269.4333333333333
 21
78.52108718844303
 31
0.0
  0
LINE
  5
19F
  8
1
  6
CONTINUOUS
 62
     7
 10
-278.6147171703026
 20
78.62580919653622
 30
0.0
 11
-278.2590109650557
 21
78.52108718844303
 31
0.0
  0
LINE
  5
1A0
  8
1
  6
CONTINUOUS
 62
     7
 10
-278.4333333333333
 20
78.52108718844303
 30
0.0
 11
-278.2590109650557
 21
78.52108718844303
 31
0.0
  0
LINE
  5
1A1
  8
1
  6
CONTINUOUS
 62
     7
 10
-269.5645663286222
 20
98.22108718844304
 30
0.0
 11
-269.6059640237582
 21
98.22108718844304
 31
0.0
  0
LINE
  5
1A2
  8
1
  6
CONTINUOUS
 62
     7
 10
-278.2508729029257
 20
98.33237458948634
 30
0.0
 11
-278.2607026429084
 21
98.22108718844304
 31
0.0
  0
LINE
  5
1A3
  8
1
  6
CONTINUOUS
 62
     9
 10
-269.615793763741
 20
98.33237458948626
 30
0.0
 11
-278.2508729029257
 21
98.3323745894864
 31
0.0
  0
LINE
  5
1A4
  8
1
  6
CONTINUOUS
 62
     7
 10
-269.6059640237582
 20
98.22108718844304
 30
0.0
 11
-269.61579376374
 21
98.33237458948626
 31
0.0
  0
LINE
  5
1A5
  8
1
  6
CONTINUOUS
 62
     7
 10
-278.2607026429084
 20
98.22108718844304
 30
0.0
 11
-278.3021003380444
 21
98.22108718844304
 31
0.0
  0
ARC
  5
1A6
  8
1
  6
CONTINUOUS
 62
     7
 10
-271.207317793927
 20
98.18881966576681
 30
0.0
 40
1.59798521732415
 50
5.15411201806931
 51
64.89828712562532
  0
ARC
  5
1A7
  8
1
  6
CONTINUOUS
 62
     7
 10
-276.6594072407377
 20
98.18886057526854
 30
0.0
 40
1.597923410617758
 50
115.1004399505803
 51
174.8471609057757
  0
LINE
  5
1A8
  8
1
  6
CONTINUOUS
 62
     9
 10
-277.3372565402344
 20
99.63588495425184
 30
0.0
 11
-270.5294101264321
 21
99.63588495425184
 31
0.0
  0
LINE
  5
1A9
  8
1
  6
CONTINUOUS
 62
     7
 10
-273.3333333333333
 20
100.0366961594972
 30
0.0
 11
-274.5333333333333
 21
100.0366961594972
 31
0.0
  0
LINE
  5
1AA
  8
1
  6
CONTINUOUS
 62
     7
 10
-273.3333333333333
 20
100.3223529098322
 30
0.0
 11
-273.3333333333333
 21
100.0366961594972
 31
0.0
  0
LINE
  5
1AB
  8
1
  6
CONTINUOUS
 62
     7
 10
-272.8333333333333
 20
100.3223529098322
 30
0.0
 11
-273.3333333333333
 21
100.3223529098322
 31
0.0
  0
ARC
  5
1AC
  8
1
  6
CONTINUOUS
 62
     7
 10
-273.9333333333333
 20
92.42108718844302
 30
0.0
 40
7.97746827007165
 50
64.74218097053684
 51
82.07432701122828
  0
ARC
  5
1AD
  8
1
  6
CONTINUOUS
 62
     7
 10
-273.9333333333333
 20
92.42108718844302
 30
0.0
 40
7.977468270071654
 50
97.92567298877171
 51
115.2578190294632
  0
LINE
  5
1AE
  8
1
  6
CONTINUOUS
 62
     7
 10
-274.5333333333333
 20
100.3223529098322
 30
0.0
 11
-275.0333333333333
 21
100.3223529098322
 31
0.0
  0
LINE
  5
1AF
  8
1
  6
CONTINUOUS
 62
     7
 10
-274.5333333333333
 20
100.0366961594971
 30
0.0
 11
-274.5333333333333
 21
100.3223529098322
 31
0.0
  0
LINE
  5
1B0
  8
1
  6
CONTINUOUS
 62
     7
 10
-276.4333333333333
 20
77.12108718844303
 30
0.0
 11
-271.4333333333333
 21
77.12108718844303
 31
0.0
  0
LINE
  5
1B1
  8
1
  6
CONTINUOUS
 62
     7
 10
-271.8333333333333
 20
76.72108718844304
 30
0.0
 11
-276.0333333333333
 21
76.72108718844304
 31
0.0
  0
LINE
  5
1B2
  8
1
  6
CONTINUOUS
 62
     7
 10
-234.1799153207185
 20
88.72108718844302
 30
0.0
 11
-237.4867513459481
 21
88.72108718844302
 31
0.0
  0
ARC
  5
1B3
  8
1
  6
CONTINUOUS
 62
     7
 10
-241.429461434552
 20
86.13619340968899
 30
0.0
 40
7.696596306422653
 50
0.6319876565655183
 51
19.62417034385206
  0
ARC
  5
1B4
  8
1
  6
CONTINUOUS
 62
     7
 10
-241.5675970922036
 20
86.33065652580618
 30
0.0
 40
7.835029935056947
 50
340.5451235887128
 51
359.1987184108698
  0
LINE
  5
1B5
  8
1
  6
CONTINUOUS
 62
     7
 10
-234.1799153207185
 20
83.72108718844302
 30
0.0
 11
-237.4867513459481
 21
83.72108718844302
 31
0.0
  0
ARC
  5
1B6
  8
1
  6
CONTINUOUS
 62
     7
 10
-230.099069574462
 20
86.33065652580628
 30
0.0
 40
7.835029935057948
 50
180.8012815891308
 51
199.4548764112853
  0
ARC
  5
1B7
  8
1
  6
CONTINUOUS
 62
     7
 10
-230.2372052321159
 20
86.1361934096893
 30
0.0
 40
7.696596306421428
 50
160.3758296561471
 51
179.3680123434367
  0
ARC
  5
1B8
  8
1
  6
CONTINUOUS
 62
     7
 10
-241.5675970922036
 20
91.33065652580619
 30
0.0
 40
7.835029935056947
 50
340.5451235887128
 51
359.1987184108698
  0
LINE
  5
1B9
  8
1
  6
CONTINUOUS
 62
     7
 10
-233.7333333333333
 20
86.22108718844302
 30
0.0
 11
-233.7333333333333
 21
91.22108718844304
 31
0.0
  0
LINE
  5
1BA
  8
1
  6
CONTINUOUS
 62
     7
 10
-234.1799153207185
 20
93.72108718844304
 30
0.0
 11
-237.4867513459481
 21
93.72108718844304
 31
0.0
  0
ARC
  5
1BB
  8
1
  6
CONTINUOUS
 62
     7
 10
-241.4300733480983
 20
91.13608410186194
 30
0.0
 40
7.697209389097681
 50
0.632751021819936
 51
19.62340697859758
  0
ARC
  5
1BC
  8
1
  6
CONTINUOUS
 62
     7
 10
-230.099069574462
 20
91.33065652580628
 30
0.0
 40
7.835029935057948
 50
180.8012815891308
 51
199.4548764112853
  0
ARC
  5
1BD
  8
1
  6
CONTINUOUS
 62
     7
 10
-230.2365933185695
 20
91.13608410186224
 30
0.0
 40
7.697209389096457
 50
160.3765930214015
 51
179.3672489781823
  0
LINE
  5
1BE
  8
1
  6
CONTINUOUS
 62
     7
 10
-237.9333333333333
 20
86.22108718844302
 30
0.0
 11
-237.9333333333333
 21
91.22108718844304
 31
0.0
  0
LINE
  5
1BF
  8
1
  6
CONTINUOUS
 62
     7
 10
-233.7333333333333
 20
83.72108718844302
 30
0.0
 11
-234.1799153207185
 21
83.72108718844302
 31
0.0
  0
LINE
  5
1C0
  8
1
  6
CONTINUOUS
 62
     7
 10
-233.7333333333333
 20
83.72108718844302
 30
0.0
 11
-233.7333333333333
 21
86.22108718844302
 31
0.0
  0
LINE
  5
1C1
  8
1
  6
CONTINUOUS
 62
     7
 10
-237.4867513459481
 20
93.72108718844304
 30
0.0
 11
-237.9333333333333
 21
93.72108718844304
 31
0.0
  0
LINE
  5
1C2
  8
1
  6
CONTINUOUS
 62
     7
 10
-237.9333333333333
 20
91.22108718844304
 30
0.0
 11
-237.9333333333333
 21
93.72108718844304
 31
0.0
  0
LINE
  5
1C3
  8
1
  6
CONTINUOUS
 62
     7
 10
-234.1799153207185
 20
93.72108718844304
 30
0.0
 11
-233.7333333333333
 21
93.72108718844304
 31
0.0
  0
LINE
  5
1C4
  8
1
  6
CONTINUOUS
 62
     7
 10
-233.7333333333333
 20
91.22108718844304
 30
0.0
 11
-233.7333333333333
 21
93.72108718844302
 31
0.0
  0
LINE
  5
1C5
  8
1
  6
CONTINUOUS
 62
     7
 10
-237.9333333333333
 20
83.72108718844302
 30
0.0
 11
-237.4867513459481
 21
83.72108718844302
 31
0.0
  0
LINE
  5
1C6
  8
1
  6
CONTINUOUS
 62
     7
 10
-237.9333333333333
 20
83.72108718844302
 30
0.0
 11
-237.9333333333333
 21
86.22108718844302
 31
0.0
  0
LINE
  5
1C7
  8
1
  6
CONTINUOUS
 62
     9
 10
-248.5457976636071
 20
82.72108718844302
 30
0.0
 11
-248.5457976636071
 21
84.72108718844302
 31
0.0
  0
LINE
  5
1C8
  8
1
  6
CONTINUOUS
 62
     7
 10
-248.9682408044964
 20
84.72108718844302
 30
0.0
 11
-248.5457976636071
 21
84.72108718844302
 31
0.0
  0
LINE
  5
1C9
  8
1
  6
CONTINUOUS
 62
     7
 10
-249.1486547826981
 20
82.72108718844302
 30
0.0
 11
-248.5457976636071
 21
82.72108718844302
 31
0.0
  0
LINE
  5
1CA
  8
1
  6
CONTINUOUS
 62
     9
 10
-248.5457976636071
 20
94.72108718844304
 30
0.0
 11
-248.5457976636071
 21
92.72108718844304
 31
0.0
  0
LINE
  5
1CB
  8
1
  6
CONTINUOUS
 62
     7
 10
-248.9682408044964
 20
92.72108718844304
 30
0.0
 11
-248.5457976636071
 21
92.72108718844304
 31
0.0
  0
LINE
  5
1CC
  8
1
  6
CONTINUOUS
 62
     7
 10
-249.1486547826981
 20
94.72108718844304
 30
0.0
 11
-248.5457976636071
 21
94.72108718844304
 31
0.0
  0
LINE
  5
1CD
  8
1
  6
CONTINUOUS
 62
     9
 10
-242.3938931583893
 20
94.72108718844304
 30
0.0
 11
-242.3938931583893
 21
92.72108718844304
 31
0.0
  0
LINE
  5
1CE
  8
1
  6
CONTINUOUS
 62
     7
 10
-248.5457976636071
 20
92.72108718844304
 30
0.0
 11
-242.3938931583893
 21
92.72108718844304
 31
0.0
  0
LINE
  5
1CF
  8
1
  6
CONTINUOUS
 62
     7
 10
-248.5457976636071
 20
94.72108718844304
 30
0.0
 11
-242.3938931583893
 21
94.72108718844304
 31
0.0
  0
LINE
  5
1D0
  8
1
  6
CONTINUOUS
 62
     9
 10
-242.3938931583893
 20
82.72108718844302
 30
0.0
 11
-242.3938931583893
 21
84.72108718844302
 31
0.0
  0
LINE
  5
1D1
  8
1
  6
CONTINUOUS
 62
     7
 10
-248.5457976636071
 20
84.72108718844302
 30
0.0
 11
-242.3938931583893
 21
84.72108718844302
 31
0.0
  0
LINE
  5
1D2
  8
1
  6
CONTINUOUS
 62
     7
 10
-248.5457976636071
 20
82.72108718844302
 30
0.0
 11
-242.3938931583893
 21
82.72108718844302
 31
0.0
  0
LINE
  5
1D3
  8
1
  6
CONTINUOUS
 62
     7
 10
-241.9507937180792
 20
95.22108718844304
 30
0.0
 11
-241.9810359915788
 21
93.72108718844304
 31
0.0
  0
LINE
  5
1D4
  8
1
  6
CONTINUOUS
 62
     7
 10
-242.0415205385779
 20
92.72108718844304
 30
0.0
 11
-241.9810359915788
 21
93.72108718844304
 31
0.0
  0
LINE
  5
1D5
  8
1
  6
CONTINUOUS
 62
     7
 10
-242.0058760032373
 20
96.22108718844304
 30
0.0
 11
-242.0361182767369
 21
94.72108718844304
 31
0.0
  0
LINE
  5
1D6
  8
1
  6
CONTINUOUS
 62
     7
 10
-241.9501843594393
 20
97.2163721857897
 30
0.0
 11
-242.0058760032373
 21
96.22108718844304
 31
0.0
  0
LINE
  5
1D7
  8
1
  6
CONTINUOUS
 62
     9
 10
-241.9501843594393
 20
95.22108718844304
 30
0.0
 11
-241.9501843594393
 21
97.2163721857897
 31
0.0
  0
LINE
  5
1D8
  8
1
  6
CONTINUOUS
 62
     7
 10
-241.9507937180792
 20
95.22108718844304
 30
0.0
 11
-241.9501843594393
 21
95.22108718844304
 31
0.0
  0
LINE
  5
1D9
  8
1
  6
CONTINUOUS
 62
     7
 10
-242.3938931583893
 20
92.72108718844304
 30
0.0
 11
-242.0415205385779
 21
92.72108718844304
 31
0.0
  0
LINE
  5
1DA
  8
1
  6
CONTINUOUS
 62
     7
 10
-242.3938931583893
 20
94.72108718844304
 30
0.0
 11
-242.0361182767369
 21
94.72108718844304
 31
0.0
  0
LINE
  5
1DB
  8
1
  6
CONTINUOUS
 62
     7
 10
-242.0058760032373
 20
81.22108718844302
 30
0.0
 11
-242.0361182767369
 21
82.72108718844302
 31
0.0
  0
LINE
  5
1DC
  8
1
  6
CONTINUOUS
 62
     7
 10
-242.0415205385779
 20
84.72108718844302
 30
0.0
 11
-241.9810359915788
 21
83.72108718844302
 31
0.0
  0
LINE
  5
1DD
  8
1
  6
CONTINUOUS
 62
     7
 10
-241.9507937180792
 20
82.22108718844302
 30
0.0
 11
-241.9810359915788
 21
83.72108718844302
 31
0.0
  0
LINE
  5
1DE
  8
1
  6
CONTINUOUS
 62
     7
 10
-241.9507937180792
 20
82.22108718844302
 30
0.0
 11
-241.9501843594393
 21
82.22108718844302
 31
0.0
  0
LINE
  5
1DF
  8
1
  6
CONTINUOUS
 62
     9
 10
-241.9501843594393
 20
80.22580219109636
 30
0.0
 11
-241.9501843594393
 21
82.22108718844302
 31
0.0
  0
LINE
  5
1E0
  8
1
  6
CONTINUOUS
 62
     7
 10
-241.9501843594393
 20
80.22580219109636
 30
0.0
 11
-242.0058760032373
 21
81.22108718844302
 31
0.0
  0
LINE
  5
1E1
  8
1
  6
CONTINUOUS
 62
     7
 10
-242.3938931583893
 20
84.72108718844302
 30
0.0
 11
-242.0415205385779
 21
84.72108718844302
 31
0.0
  0
LINE
  5
1E2
  8
1
  6
CONTINUOUS
 62
     7
 10
-242.3938931583893
 20
82.72108718844302
 30
0.0
 11
-242.0361182767369
 21
82.72108718844302
 31
0.0
  0
LINE
  5
1E3
  8
1
  6
CONTINUOUS
 62
     7
 10
-249.7663636113157
 20
81.52108718844303
 30
0.0
 11
-249.9374741020072
 21
81.52108718844303
 31
0.0
  0
ARC
  5
1E4
  8
1
  6
CONTINUOUS
 62
     7
 10
-249.7663636113157
 20
83.52108718844303
 30
0.0
 40
2.000000000000002
 50
270.0
 51
336.4218215217983
  0
LINE
  5
1E5
  8
1
  6
CONTINUOUS
 62
     9
 10
-242.0058760032373
 20
81.22108718844302
 30
0.0
 11
-250.3187695122666
 21
81.22108718844302
 31
0.0
  0
LINE
  5
1E6
  8
1
  6
CONTINUOUS
 62
     9
 10
-242.0058760032373
 20
96.22108718844304
 30
0.0
 11
-250.3187695122666
 21
96.22108718844304
 31
0.0
  0
POLYLINE
  5
1E7
  8
1
  6
CONTINUOUS
 62
     7
 66
     1
 10
0.0
 20
0.0
 30
0.0
  0
VERTEX
  5
66B
  8
1
  6
CONTINUOUS
 62
     7
 10
-256.8998842726749
 20
97.22108718844304
 30
0.0
  0
VERTEX
  5
66C
  8
1
  6
CONTINUOUS
 62
     7
 10
-257.1060514654025
 20
97.19368494798798
 30
0.0
  0
VERTEX
  5
66D
  8
1
  6
CONTINUOUS
 62
     7
 10
-257.3065692151411
 20
97.11222910940477
 30
0.0
  0
VERTEX
  5
66E
  8
1
  6
CONTINUOUS
 62
     7
 10
-257.4959428862967
 20
96.97895174516873
 30
0.0
  0
SEQEND
  5
A1A
  8
1
  6
CONTINUOUS
 62
     7
  0
LINE
  5
1E8
  8
1
  6
CONTINUOUS
 62
     7
 10
-256.8998842726749
 20
97.22108718844304
 30
0.0
 11
-241.9259547632344
 21
97.22108718844304
 31
0.0
  0
LINE
  5
1E9
  8
1
  6
CONTINUOUS
 62
     7
 10
-241.9501843594393
 20
97.2163721857897
 30
0.0
 11
-241.9259547632344
 21
97.22108718844304
 31
0.0
  0
LINE
  5
1EA
  8
1
  6
CONTINUOUS
 62
     7
 10
-257.7377488517232
 20
96.72139635068638
 30
0.0
 11
-257.4959428862967
 21
96.97895174516873
 31
0.0
  0
LINE
  5
1EB
  8
1
  6
CONTINUOUS
 62
     7
 10
-241.9259547632344
 20
80.22108718844304
 30
0.0
 11
-241.9501843594393
 21
80.22580219109636
 31
0.0
  0
LINE
  5
1EC
  8
1
  6
CONTINUOUS
 62
     7
 10
-256.8998842726749
 20
80.22108718844304
 30
0.0
 11
-241.9259547632344
 21
80.22108718844304
 31
0.0
  0
POLYLINE
  5
1ED
  8
1
  6
CONTINUOUS
 62
     7
 66
     1
 10
0.0
 20
0.0
 30
0.0
  0
VERTEX
  5
66F
  8
1
  6
CONTINUOUS
 62
     7
 10
-257.4959428862967
 20
80.46322263171733
 30
0.0
  0
VERTEX
  5
670
  8
1
  6
CONTINUOUS
 62
     7
 10
-257.3065692151411
 20
80.32994526748129
 30
0.0
  0
VERTEX
  5
671
  8
1
  6
CONTINUOUS
 62
     7
 10
-257.1060514654025
 20
80.24848942889808
 30
0.0
  0
VERTEX
  5
672
  8
1
  6
CONTINUOUS
 62
     7
 10
-256.8998842726749
 20
80.22108718844302
 30
0.0
  0
SEQEND
  5
A1B
  8
1
  6
CONTINUOUS
 62
     7
  0
LINE
  5
1EE
  8
1
  6
CONTINUOUS
 62
     7
 10
-257.7377488517232
 20
80.72077802619967
 30
0.0
 11
-257.4959428862967
 21
80.46322263171733
 31
0.0
  0
LINE
  5
1EF
  8
1
  6
CONTINUOUS
 62
     9
 10
-241.4504889459298
 20
82.22108718844302
 30
0.0
 11
-241.4504889459298
 21
80.22108718844304
 31
0.0
  0
LINE
  5
1F0
  8
1
  6
CONTINUOUS
 62
     7
 10
-241.9259547632344
 20
80.22108718844304
 30
0.0
 11
-241.4504889459298
 21
80.22108718844304
 31
0.0
  0
LINE
  5
1F1
  8
1
  6
CONTINUOUS
 62
     7
 10
-241.4504889459298
 20
82.22108718844302
 30
0.0
 11
-241.9501843594393
 21
82.22108718844302
 31
0.0
  0
LINE
  5
1F2
  8
1
  6
CONTINUOUS
 62
     7
 10
-241.4504889459298
 20
97.22108718844304
 30
0.0
 11
-241.9259547632344
 21
97.22108718844304
 31
0.0
  0
LINE
  5
1F3
  8
1
  6
CONTINUOUS
 62
     9
 10
-241.4504889459298
 20
97.22108718844304
 30
0.0
 11
-241.4504889459298
 21
95.22108718844304
 31
0.0
  0
LINE
  5
1F4
  8
1
  6
CONTINUOUS
 62
     7
 10
-241.9501843594393
 20
95.22108718844304
 30
0.0
 11
-241.4504889459298
 21
95.22108718844304
 31
0.0
  0
ARC
  5
1F5
  8
1
  6
CONTINUOUS
 62
     7
 10
-241.4333333333333
 20
95.22108718844304
 30
0.0
 40
2.000000000000002
 50
0.0
 51
90.0
  0
ARC
  5
1F6
  8
1
  6
CONTINUOUS
 62
     7
 10
-241.4333333333333
 20
82.22108718844302
 30
0.0
 40
2.000000000000002
 50
270.0
 51
0.0
  0
LINE
  5
1F7
  8
1
  6
CONTINUOUS
 62
     7
 10
-241.4333333333333
 20
95.22108718844304
 30
0.0
 11
-241.4333333333333
 21
82.22108718844302
 31
0.0
  0
LINE
  5
1F8
  8
1
  6
CONTINUOUS
 62
     7
 10
-239.4333333333333
 20
95.22108718844304
 30
0.0
 11
-239.4333333333333
 21
82.22108718844302
 31
0.0
  0
LINE
  5
1F9
  8
1
  6
CONTINUOUS
 62
     7
 10
-241.4504889459298
 20
80.22108718844304
 30
0.0
 11
-241.4333333333333
 21
80.22108718844304
 31
0.0
  0
LINE
  5
1FA
  8
1
  6
CONTINUOUS
 62
     7
 10
-241.4504889459298
 20
97.22108718844304
 30
0.0
 11
-241.4333333333333
 21
97.22108718844304
 31
0.0
  0
LINE
  5
1FB
  8
1
  6
CONTINUOUS
 62
     7
 10
-241.4504889459298
 20
82.22108718844302
 30
0.0
 11
-241.4333333333333
 21
82.22108718844302
 31
0.0
  0
LINE
  5
1FC
  8
1
  6
CONTINUOUS
 62
     7
 10
-241.4504889459298
 20
95.22108718844304
 30
0.0
 11
-241.4333333333333
 21
95.22108718844304
 31
0.0
  0
LINE
  5
1FD
  8
1
  6
CONTINUOUS
 62
     7
 10
-264.4333333333333
 20
80.22108718844304
 30
0.0
 11
-264.4333333333333
 21
80.72108718844302
 31
0.0
  0
LINE
  5
1FE
  8
1
  6
CONTINUOUS
 62
     9
 10
-268.4333333333333
 20
80.22108718844304
 30
0.0
 11
-268.4333333333333
 21
80.72108718844302
 31
0.0
  0
LINE
  5
1FF
  8
1
  6
CONTINUOUS
 62
     7
 10
-268.4333333333333
 20
80.22108718844304
 30
0.0
 11
-264.4333333333333
 21
80.22108718844304
 31
0.0
  0
LINE
  5
200
  8
1
  6
CONTINUOUS
 62
     9
 10
-268.4333333333333
 20
97.22108718844304
 30
0.0
 11
-268.4333333333333
 21
96.72108718844304
 31
0.0
  0
LINE
  5
201
  8
1
  6
CONTINUOUS
 62
     7
 10
-264.4333333333333
 20
97.22108718844304
 30
0.0
 11
-264.4333333333333
 21
96.72108718844302
 31
0.0
  0
LINE
  5
202
  8
1
  6
CONTINUOUS
 62
     7
 10
-268.4333333333333
 20
97.22108718844304
 30
0.0
 11
-264.4333333333333
 21
97.22108718844304
 31
0.0
  0
LINE
  5
203
  8
1
  6
CONTINUOUS
 62
     7
 10
-268.8915288445024
 20
80.22108718844304
 30
0.0
 11
-268.4333333333333
 21
80.22108718844304
 31
0.0
  0
LINE
  5
204
  8
1
  6
CONTINUOUS
 62
     7
 10
-278.4333333333333
 20
97.22108718844304
 30
0.0
 11
-278.4333333333333
 21
96.72108718844302
 31
0.0
  0
LINE
  5
205
  8
1
  6
CONTINUOUS
 62
     7
 10
-278.4333333333333
 20
97.22108718844304
 30
0.0
 11
-278.3895890015704
 21
97.22108718844304
 31
0.0
  0
LINE
  5
206
  8
1
  6
CONTINUOUS
 62
     7
 10
-269.4770776650963
 20
97.22108718844304
 30
0.0
 11
-268.4333333333333
 21
97.22108718844304
 31
0.0
  0
LINE
  5
207
  8
1
  6
CONTINUOUS
 62
     7
 10
-243.4333333333333
 20
92.72108718844304
 30
0.0
 11
-243.4333333333333
 21
84.72108718844302
 31
0.0
  0
LINE
  5
208
  8
1
  6
CONTINUOUS
 62
     9
 10
-258.4587861242088
 20
80.22108718844304
 30
0.0
 11
-258.4587861242088
 21
80.72108718844302
 31
0.0
  0
LINE
  5
209
  8
1
  6
CONTINUOUS
 62
     7
 10
-256.899884272675
 20
80.22108718844304
 30
0.0
 11
-258.4587861242088
 21
80.22108718844304
 31
0.0
  0
LINE
  5
20A
  8
1
  6
CONTINUOUS
 62
     9
 10
-258.4587861242088
 20
97.22108718844304
 30
0.0
 11
-258.4587861242088
 21
96.72108718844302
 31
0.0
  0
LINE
  5
20B
  8
1
  6
CONTINUOUS
 62
     7
 10
-256.899884272675
 20
97.22108718844304
 30
0.0
 11
-258.4587861242088
 21
97.22108718844304
 31
0.0
  0
LINE
  5
20C
  8
1
  6
CONTINUOUS
 62
     9
 10
-263.4333333333333
 20
97.22108718844304
 30
0.0
 11
-263.4333333333333
 21
96.72108718844302
 31
0.0
  0
LINE
  5
20D
  8
1
  6
CONTINUOUS
 62
     7
 10
-263.4333333333333
 20
97.22108718844304
 30
0.0
 11
-264.4333333333333
 21
97.22108718844304
 31
0.0
  0
LINE
  5
20E
  8
1
  6
CONTINUOUS
 62
     9
 10
-263.4333333333333
 20
80.22108718844304
 30
0.0
 11
-263.4333333333333
 21
80.72108718844302
 31
0.0
  0
LINE
  5
20F
  8
1
  6
CONTINUOUS
 62
     7
 10
-263.4333333333333
 20
80.22108718844304
 30
0.0
 11
-264.4333333333333
 21
80.22108718844304
 31
0.0
  0
LINE
  5
210
  8
1
  6
CONTINUOUS
 62
     9
 10
-260.6536955660337
 20
97.22108718844304
 30
0.0
 11
-260.6536955660337
 21
96.72108718844302
 31
0.0
  0
LINE
  5
211
  8
1
  6
CONTINUOUS
 62
     7
 10
-258.4587861242088
 20
97.22108718844304
 30
0.0
 11
-260.6536955660337
 21
97.22108718844304
 31
0.0
  0
LINE
  5
212
  8
1
  6
CONTINUOUS
 62
     9
 10
-260.6536955660337
 20
80.22108718844304
 30
0.0
 11
-260.6536955660337
 21
80.72108718844302
 31
0.0
  0
LINE
  5
213
  8
1
  6
CONTINUOUS
 62
     7
 10
-258.4587861242088
 20
80.22108718844304
 30
0.0
 11
-260.6536955660337
 21
80.22108718844304
 31
0.0
  0
LINE
  5
214
  8
1
  6
CONTINUOUS
 62
     7
 10
-263.4333333333333
 20
80.22108718844304
 30
0.0
 11
-260.6536955660337
 21
80.22108718844304
 31
0.0
  0
LINE
  5
215
  8
1
  6
CONTINUOUS
 62
     7
 10
-263.4333333333333
 20
97.22108718844304
 30
0.0
 11
-260.6536955660337
 21
97.22108718844304
 31
0.0
  0
LINE
  5
216
  8
1
  6
CONTINUOUS
 62
     7
 10
-344.4333333333333
 20
88.72108718844325
 30
0.0
 11
-338.4333333333333
 21
88.72108718844295
 31
0.0
  0
LINE
  5
217
  8
1
  6
CONTINUOUS
 62
     7
 10
-344.3721691034764
 20
95.7298137239414
 30
0.0
 11
-344.4333333333333
 21
88.72108718844325
 31
0.0
  0
LINE
  5
218
  8
1
  6
CONTINUOUS
 62
     9
 10
-338.4944975631902
 20
95.7298137239414
 30
0.0
 11
-344.3721691034764
 21
95.7298137239414
 31
0.0
  0
LINE
  5
219
  8
1
  6
CONTINUOUS
 62
     7
 10
-338.4944975631902
 20
95.7298137239414
 30
0.0
 11
-338.4333333333333
 21
88.72108718844295
 31
0.0
  0
LINE
  5
21A
  8
1
  6
CONTINUOUS
 62
     7
 10
-338.4333333333333
 20
88.72108718844295
 30
0.0
 11
-338.4944975631902
 21
81.71236065294465
 31
0.0
  0
LINE
  5
21B
  8
1
  6
CONTINUOUS
 62
     9
 10
-344.3721691034764
 20
81.71236065294465
 30
0.0
 11
-338.4944975631902
 21
81.71236065294465
 31
0.0
  0
LINE
  5
21C
  8
1
  6
CONTINUOUS
 62
     7
 10
-344.4333333333333
 20
88.72108718844325
 30
0.0
 11
-344.3721691034764
 21
81.71236065294465
 31
0.0
  0
LINE
  5
21D
  8
1
  6
CONTINUOUS
 62
     7
 10
-344.3635183910072
 20
96.72108718844302
 30
0.0
 11
-338.5031482756594
 21
96.72108718844302
 31
0.0
  0
LINE
  5
21E
  8
1
  6
CONTINUOUS
 62
     7
 10
-338.5031482756593
 20
96.72108718844302
 30
0.0
 11
-338.4944975631902
 21
95.7298137239414
 31
0.0
  0
LINE
  5
21F
  8
1
  6
CONTINUOUS
 62
     7
 10
-344.3721691034764
 20
95.7298137239414
 30
0.0
 11
-344.3635183910072
 21
96.72108718844302
 31
0.0
  0
LINE
  5
220
  8
1
  6
CONTINUOUS
 62
     7
 10
-338.5031482756594
 20
80.72108718844302
 30
0.0
 11
-344.3635183910072
 21
80.72108718844302
 31
0.0
  0
LINE
  5
221
  8
1
  6
CONTINUOUS
 62
     7
 10
-338.4944975631902
 20
81.71236065294465
 30
0.0
 11
-338.5031482756594
 21
80.72108718844302
 31
0.0
  0
LINE
  5
222
  8
1
  6
CONTINUOUS
 62
     7
 10
-344.3635183910072
 20
80.72108718844302
 30
0.0
 11
-344.3721691034764
 21
81.71236065294465
 31
0.0
  0
LINE
  5
223
  8
1
  6
CONTINUOUS
 62
     7
 10
-347.9333333333333
 20
88.72108718844342
 30
0.0
 11
-345.9333333333333
 21
88.7210871884429
 31
0.0
  0
LINE
  5
224
  8
1
  6
CONTINUOUS
 62
     7
 10
-345.9333333333333
 20
88.7210871884429
 30
0.0
 11
-345.9944975631902
 21
81.71236065294465
 31
0.0
  0
LINE
  5
225
  8
1
  6
CONTINUOUS
 62
     9
 10
-347.8721691034764
 20
81.71236065294465
 30
0.0
 11
-345.9944975631902
 21
81.71236065294465
 31
0.0
  0
LINE
  5
226
  8
1
  6
CONTINUOUS
 62
     7
 10
-347.9333333333333
 20
88.72108718844342
 30
0.0
 11
-347.8721691034764
 21
81.71236065294465
 31
0.0
  0
LINE
  5
227
  8
1
  6
CONTINUOUS
 62
     7
 10
-347.8721691034764
 20
95.7298137239414
 30
0.0
 11
-347.9333333333333
 21
88.72108718844342
 31
0.0
  0
LINE
  5
228
  8
1
  6
CONTINUOUS
 62
     9
 10
-345.9944975631902
 20
95.7298137239414
 30
0.0
 11
-347.8721691034764
 21
95.7298137239414
 31
0.0
  0
LINE
  5
229
  8
1
  6
CONTINUOUS
 62
     7
 10
-345.9944975631902
 20
95.7298137239414
 30
0.0
 11
-345.9333333333333
 21
88.7210871884429
 31
0.0
  0
LINE
  5
22A
  8
1
  6
CONTINUOUS
 62
     7
 10
-345.9944975631902
 20
81.71236065294465
 30
0.0
 11
-346.0031482756594
 21
80.72108718844302
 31
0.0
  0
LINE
  5
22B
  8
1
  6
CONTINUOUS
 62
     7
 10
-347.8635183910072
 20
80.72108718844302
 30
0.0
 11
-347.8721691034764
 21
81.71236065294465
 31
0.0
  0
LINE
  5
22C
  8
1
  6
CONTINUOUS
 62
     7
 10
-346.0031482756594
 20
80.72108718844302
 30
0.0
 11
-347.8635183910072
 21
80.72108718844302
 31
0.0
  0
LINE
  5
22D
  8
1
  6
CONTINUOUS
 62
     7
 10
-347.8721691034764
 20
95.7298137239414
 30
0.0
 11
-347.8635183910072
 21
96.72108718844302
 31
0.0
  0
LINE
  5
22E
  8
1
  6
CONTINUOUS
 62
     7
 10
-346.0031482756594
 20
96.72108718844302
 30
0.0
 11
-345.9944975631902
 21
95.7298137239414
 31
0.0
  0
LINE
  5
22F
  8
1
  6
CONTINUOUS
 62
     7
 10
-347.8635183910072
 20
96.72108718844302
 30
0.0
 11
-346.0031482756594
 21
96.72108718844302
 31
0.0
  0
ARC
  5
230
  8
1
  6
CONTINUOUS
 62
     9
 10
-293.9333333333333
 20
88.72108718844302
 30
0.0
 40
0.758641351423769
 50
109.2406440950062
 51
250.7593559049938
  0
LINE
  5
231
  8
1
  6
CONTINUOUS
 62
     7
 10
-294.1833333333333
 20
88.00482138576213
 30
0.0
 11
-294.1639115093868
 21
87.5010811005393
 31
0.0
  0
ARC
  5
232
  8
1
  6
CONTINUOUS
 62
     9
 10
-293.9333333333333
 20
88.72108718844302
 30
0.0
 40
1.241604264568319
 50
100.7025226162913
 51
259.2974773837093
  0
LINE
  5
233
  8
1
  6
CONTINUOUS
 62
     7
 10
-294.1639115093868
 20
89.94109327634672
 30
0.0
 11
-294.1833333333333
 21
89.43735299112392
 31
0.0
  0
LINE
  5
234
  8
1
  6
CONTINUOUS
 62
     7
 10
-293.8322012121369
 20
91.32003631000255
 30
0.0
 11
-293.8322012121369
 21
91.46922697638364
 31
0.0
  0
ARC
  5
235
  8
1
  6
CONTINUOUS
 62
     7
 10
-292.9333333333333
 20
88.72108718844302
 30
0.0
 40
2.750000000000001
 50
102.4625164264977
 51
109.0783641367908
  0
LINE
  5
236
  8
1
  6
CONTINUOUS
 62
     7
 10
-293.5256372505639
 20
91.40703545058444
 30
0.0
 11
-293.5267857074758
 21
91.4062900261491
 31
0.0
  0
LINE
  5
237
  8
1
  6
CONTINUOUS
 62
     9
 10
-293.5268656844755
 20
88.721087188443
 30
0.0
 11
-293.5256372505639
 21
91.40703545058444
 31
0.0
  0
LINE
  5
238
  8
1
  6
CONTINUOUS
 62
     9
 10
-293.5256372505639
 20
86.03513892630161
 30
0.0
 11
-293.5268656844755
 21
88.721087188443
 31
0.0
  0
LINE
  5
239
  8
1
  6
CONTINUOUS
 62
     7
 10
-293.5267857074758
 20
86.03588435073696
 30
0.0
 11
-293.5256372505639
 21
86.03513892630161
 31
0.0
  0
ARC
  5
23A
  8
1
  6
CONTINUOUS
 62
     7
 10
-292.9333333333333
 20
88.72108718844302
 30
0.0
 40
2.750000000000001
 50
250.9216358632092
 51
257.5374835735023
  0
LINE
  5
23B
  8
1
  6
CONTINUOUS
 62
     7
 10
-293.8322012121369
 20
85.9729474005024
 30
0.0
 11
-293.8322012121369
 21
86.12213806688348
 31
0.0
  0
ARC
  5
23C
  8
1
  6
CONTINUOUS
 62
     7
 10
-293.9333333333333
 20
88.72108718844302
 30
0.0
 40
2.75
 50
271.4866545699228
 51
272.1075456741796
  0
LINE
  5
23D
  8
1
  6
CONTINUOUS
 62
     7
 10
-293.8755511739894
 20
86.00577609835305
 30
0.0
 11
-293.8619870425995
 21
85.97201285208932
 31
0.0
  0
LINE
  5
23E
  8
1
  6
CONTINUOUS
 62
     7
 10
-294.1639115093868
 20
87.5010811005393
 30
0.0
 11
-293.8755511739894
 21
86.00577609835305
 31
0.0
  0
LINE
  5
23F
  8
1
  6
CONTINUOUS
 62
     7
 10
-294.1833333333333
 20
88.00482138576213
 30
0.0
 11
-294.1833333333333
 21
89.43735299112392
 31
0.0
  0
LINE
  5
240
  8
1
  6
CONTINUOUS
 62
     7
 10
-293.8755511739894
 20
91.43639827853299
 30
0.0
 11
-294.1639115093868
 21
89.94109327634672
 31
0.0
  0
LINE
  5
241
  8
1
  6
CONTINUOUS
 62
     7
 10
-293.8619870425995
 20
91.47016152479672
 30
0.0
 11
-293.8755511739894
 21
91.43639827853299
 31
0.0
  0
ARC
  5
242
  8
1
  6
CONTINUOUS
 62
     7
 10
-293.9333333333333
 20
88.72108718844302
 30
0.0
 40
2.75
 50
87.89245432582041
 51
88.51334543007721
  0
LINE
  5
243
  8
1
  6
CONTINUOUS
 62
     7
 10
-255.8322012121369
 20
91.32003631000255
 30
0.0
 11
-255.8322012121369
 21
91.46922697638365
 31
0.0
  0
ARC
  5
244
  8
1
  6
CONTINUOUS
 62
     7
 10
-254.9333333333333
 20
88.72108718844302
 30
0.0
 40
2.749999999999998
 50
102.4625164264978
 51
109.0783641367908
  0
LINE
  5
245
  8
1
  6
CONTINUOUS
 62
     7
 10
-255.525637250564
 20
91.40703545058443
 30
0.0
 11
-255.5267857074758
 21
91.40629002614908
 31
0.0
  0
LINE
  5
246
  8
1
  6
CONTINUOUS
 62
     9
 10
-255.5268656844755
 20
88.72108718844298
 30
0.0
 11
-255.525637250564
 21
91.40703545058443
 31
0.0
  0
LINE
  5
247
  8
1
  6
CONTINUOUS
 62
     9
 10
-255.525637250564
 20
86.03513892630163
 30
0.0
 11
-255.5268656844755
 21
88.72108718844298
 31
0.0
  0
LINE
  5
248
  8
1
  6
CONTINUOUS
 62
     7
 10
-255.5267857074758
 20
86.03588435073698
 30
0.0
 11
-255.525637250564
 21
86.03513892630163
 31
0.0
  0
ARC
  5
249
  8
1
  6
CONTINUOUS
 62
     7
 10
-254.9333333333333
 20
88.72108718844302
 30
0.0
 40
2.749999999999998
 50
250.9216358632092
 51
257.5374835735022
  0
LINE
  5
24A
  8
1
  6
CONTINUOUS
 62
     7
 10
-255.8322012121369
 20
85.9729474005024
 30
0.0
 11
-255.8322012121369
 21
86.1221380668835
 31
0.0
  0
ARC
  5
24B
  8
1
  6
CONTINUOUS
 62
     7
 10
-255.9333333333333
 20
88.72108718844302
 30
0.0
 40
2.750000000000004
 50
271.4866545699239
 51
272.1075456741796
  0
LINE
  5
24C
  8
1
  6
CONTINUOUS
 62
     7
 10
-255.8755511739894
 20
86.00577609835307
 30
0.0
 11
-255.8619870425994
 21
85.97201285208932
 31
0.0
  0
LINE
  5
24D
  8
1
  6
CONTINUOUS
 62
     7
 10
-256.1639115093868
 20
87.5010811005393
 30
0.0
 11
-255.8755511739894
 21
86.00577609835307
 31
0.0
  0
LINE
  5
24E
  8
1
  6
CONTINUOUS
 62
     7
 10
-256.1833333333333
 20
88.00482138576213
 30
0.0
 11
-256.1639115093868
 21
87.5010811005393
 31
0.0
  0
LINE
  5
24F
  8
1
  6
CONTINUOUS
 62
     7
 10
-256.1833333333333
 20
88.00482138576213
 30
0.0
 11
-256.1833333333333
 21
89.43735299112393
 31
0.0
  0
LINE
  5
250
  8
1
  6
CONTINUOUS
 62
     7
 10
-256.1639115093868
 20
89.94109327634673
 30
0.0
 11
-256.1833333333333
 21
89.43735299112393
 31
0.0
  0
LINE
  5
251
  8
1
  6
CONTINUOUS
 62
     7
 10
-255.8755511739894
 20
91.43639827853299
 30
0.0
 11
-256.1639115093868
 21
89.94109327634673
 31
0.0
  0
LINE
  5
252
  8
1
  6
CONTINUOUS
 62
     7
 10
-255.8619870425994
 20
91.47016152479672
 30
0.0
 11
-255.8755511739894
 21
91.43639827853299
 31
0.0
  0
ARC
  5
253
  8
1
  6
CONTINUOUS
 62
     7
 10
-255.9333333333333
 20
88.72108718844302
 30
0.0
 40
2.750000000000004
 50
87.89245432582042
 51
88.51334543007607
  0
LINE
  5
254
  8
1
  6
CONTINUOUS
 62
     7
 10
-292.0344654545297
 20
86.1221380668835
 30
0.0
 11
-292.0344654545297
 21
85.9729474005024
 31
0.0
  0
ARC
  5
255
  8
1
  6
CONTINUOUS
 62
     7
 10
-292.9333333333333
 20
88.72108718844302
 30
0.0
 40
2.750000000000001
 50
282.4625164264977
 51
289.0783641367908
  0
LINE
  5
256
  8
1
  6
CONTINUOUS
 62
     7
 10
-292.3410294161026
 20
86.03513892630163
 30
0.0
 11
-292.3398809591909
 21
86.03588435073696
 31
0.0
  0
LINE
  5
257
  8
1
  6
CONTINUOUS
 62
     9
 10
-292.3398009821912
 20
88.72108718844305
 30
0.0
 11
-292.3410294161026
 21
86.03513892630163
 31
0.0
  0
LINE
  5
258
  8
1
  6
CONTINUOUS
 62
     9
 10
-292.3410294161026
 20
91.40703545058443
 30
0.0
 11
-292.3398009821912
 21
88.72108718844305
 31
0.0
  0
LINE
  5
259
  8
1
  6
CONTINUOUS
 62
     7
 10
-292.3398809591909
 20
91.40629002614908
 30
0.0
 11
-292.3410294161026
 21
91.40703545058443
 31
0.0
  0
ARC
  5
25A
  8
1
  6
CONTINUOUS
 62
     7
 10
-292.9333333333333
 20
88.72108718844302
 30
0.0
 40
2.750000000000001
 50
70.92163586320919
 51
77.5374835735023
  0
LINE
  5
25B
  8
1
  6
CONTINUOUS
 62
     7
 10
-292.0344654545297
 20
91.46922697638365
 30
0.0
 11
-292.0344654545297
 21
91.32003631000255
 31
0.0
  0
ARC
  5
25C
  8
1
  6
CONTINUOUS
 62
     7
 10
-291.9333333333333
 20
88.72108718844302
 30
0.0
 40
2.750000000000001
 50
91.48665456992279
 51
92.10754567417959
  0
LINE
  5
25D
  8
1
  6
CONTINUOUS
 62
     7
 10
-291.9911154926772
 20
91.43639827853299
 30
0.0
 11
-292.0046796240672
 21
91.47016152479672
 31
0.0
  0
LINE
  5
25E
  8
1
  6
CONTINUOUS
 62
     7
 10
-291.7027551572799
 20
89.94109327634676
 30
0.0
 11
-291.9911154926772
 21
91.43639827853299
 31
0.0
  0
LINE
  5
25F
  8
1
  6
CONTINUOUS
 62
     7
 10
-291.6833333333333
 20
89.43735299112392
 30
0.0
 11
-291.7027551572799
 21
89.94109327634676
 31
0.0
  0
LINE
  5
260
  8
1
  6
CONTINUOUS
 62
     7
 10
-291.6833333333333
 20
88.00482138576214
 30
0.0
 11
-291.6833333333333
 21
89.43735299112392
 31
0.0
  0
LINE
  5
261
  8
1
  6
CONTINUOUS
 62
     7
 10
-291.7027551572799
 20
87.50108110053934
 30
0.0
 11
-291.6833333333333
 21
88.00482138576214
 31
0.0
  0
LINE
  5
262
  8
1
  6
CONTINUOUS
 62
     7
 10
-291.9911154926772
 20
86.00577609835307
 30
0.0
 11
-291.7027551572799
 21
87.50108110053934
 31
0.0
  0
LINE
  5
263
  8
1
  6
CONTINUOUS
 62
     7
 10
-292.0046796240672
 20
85.97201285208932
 30
0.0
 11
-291.9911154926772
 21
86.00577609835307
 31
0.0
  0
ARC
  5
264
  8
1
  6
CONTINUOUS
 62
     7
 10
-291.9333333333333
 20
88.72108718844302
 30
0.0
 40
2.750000000000001
 50
267.8924543258204
 51
268.5133454300772
  0
LINE
  5
265
  8
1
  6
CONTINUOUS
 62
     7
 10
-254.0344654545297
 20
86.1221380668835
 30
0.0
 11
-254.0344654545297
 21
85.9729474005024
 31
0.0
  0
ARC
  5
266
  8
1
  6
CONTINUOUS
 62
     7
 10
-254.9333333333333
 20
88.72108718844302
 30
0.0
 40
2.749999999999998
 50
282.4625164264989
 51
289.0783641367918
  0
LINE
  5
267
  8
1
  6
CONTINUOUS
 62
     7
 10
-254.3410294161027
 20
86.03513892630163
 30
0.0
 11
-254.3398809591909
 21
86.03588435073698
 31
0.0
  0
LINE
  5
268
  8
1
  6
CONTINUOUS
 62
     9
 10
-254.3398009821912
 20
88.72108718844304
 30
0.0
 11
-254.3410294161027
 21
86.03513892630163
 31
0.0
  0
LINE
  5
269
  8
1
  6
CONTINUOUS
 62
     9
 10
-254.3410294161027
 20
91.40703545058443
 30
0.0
 11
-254.3398009821912
 21
88.72108718844302
 31
0.0
  0
LINE
  5
26A
  8
1
  6
CONTINUOUS
 62
     7
 10
-254.3398809591909
 20
91.40629002614908
 30
0.0
 11
-254.3410294161027
 21
91.40703545058443
 31
0.0
  0
ARC
  5
26B
  8
1
  6
CONTINUOUS
 62
     7
 10
-254.9333333333333
 20
88.72108718844302
 30
0.0
 40
2.749999999999998
 50
70.92163586320805
 51
77.53748357350116
  0
LINE
  5
26C
  8
1
  6
CONTINUOUS
 62
     7
 10
-254.0344654545297
 20
91.46922697638365
 30
0.0
 11
-254.0344654545297
 21
91.32003631000255
 31
0.0
  0
ARC
  5
26D
  8
1
  6
CONTINUOUS
 62
     7
 10
-253.9333333333333
 20
88.72108718844302
 30
0.0
 40
2.750000000000004
 50
91.48665456992279
 51
92.10754567417841
  0
LINE
  5
26E
  8
1
  6
CONTINUOUS
 62
     7
 10
-253.9911154926772
 20
91.43639827853299
 30
0.0
 11
-254.0046796240672
 21
91.47016152479672
 31
0.0
  0
LINE
  5
26F
  8
1
  6
CONTINUOUS
 62
     7
 10
-253.7027551572799
 20
89.94109327634676
 30
0.0
 11
-253.9911154926772
 21
91.43639827853299
 31
0.0
  0
LINE
  5
270
  8
1
  6
CONTINUOUS
 62
     7
 10
-253.6833333333333
 20
89.43735299112393
 30
0.0
 11
-253.7027551572799
 21
89.94109327634676
 31
0.0
  0
LINE
  5
271
  8
1
  6
CONTINUOUS
 62
     7
 10
-253.6833333333333
 20
88.00482138576213
 30
0.0
 11
-253.6833333333333
 21
89.43735299112393
 31
0.0
  0
LINE
  5
272
  8
1
  6
CONTINUOUS
 62
     7
 10
-253.7027551572799
 20
87.50108110053932
 30
0.0
 11
-253.6833333333333
 21
88.00482138576213
 31
0.0
  0
LINE
  5
273
  8
1
  6
CONTINUOUS
 62
     7
 10
-253.9911154926772
 20
86.00577609835307
 30
0.0
 11
-253.7027551572799
 21
87.50108110053932
 31
0.0
  0
LINE
  5
274
  8
1
  6
CONTINUOUS
 62
     7
 10
-254.0046796240672
 20
85.97201285208932
 30
0.0
 11
-253.9911154926772
 21
86.00577609835307
 31
0.0
  0
ARC
  5
275
  8
1
  6
CONTINUOUS
 62
     7
 10
-253.9333333333333
 20
88.72108718844302
 30
0.0
 40
2.750000000000004
 50
267.8924543258216
 51
268.5133454300772
  0
ARC
  5
276
  8
1
  6
CONTINUOUS
 62
     9
 10
-255.9333333333333
 20
88.72108718844302
 30
0.0
 40
0.7586413514237821
 50
109.2406440950068
 51
250.7593559049932
  0
ARC
  5
277
  8
1
  6
CONTINUOUS
 62
     9
 10
-255.9333333333333
 20
88.72108718844302
 30
0.0
 40
1.241604264568319
 50
100.7025226162917
 51
259.297477383709
  0
ARC
  5
278
  8
1
  6
CONTINUOUS
 62
     9
 10
-291.9333333333333
 20
88.72108718844302
 30
0.0
 40
0.7586413514237873
 50
289.2406440950074
 51
70.7593559049926
  0
ARC
  5
279
  8
1
  6
CONTINUOUS
 62
     9
 10
-291.9333333333333
 20
88.72108718844302
 30
0.0
 40
1.241604264568316
 50
280.702522616292
 51
79.2974773837085
  0
ARC
  5
27A
  8
1
  6
CONTINUOUS
 62
     9
 10
-253.9333333333333
 20
88.72108718844302
 30
0.0
 40
0.7586413514238004
 50
289.2406440950068
 51
70.75935590499319
  0
ARC
  5
27B
  8
1
  6
CONTINUOUS
 62
     9
 10
-253.9333333333333
 20
88.72108718844302
 30
0.0
 40
1.241604264568329
 50
280.7025226162917
 51
79.29747738370895
  0
ARC
  5
27C
  8
1
  6
CONTINUOUS
 62
     9
 10
-293.9333333333333
 20
88.72108718844302
 30
0.0
 40
2.715925826289058
 50
88.78092264636297
 51
271.2190773536371
  0
ARC
  5
27D
  8
1
  6
CONTINUOUS
 62
     9
 10
-291.9333333333333
 20
88.72108718844302
 30
0.0
 40
2.715925826289071
 50
268.7809226463633
 51
91.21907735363675
  0
ARC
  5
27E
  8
1
  6
CONTINUOUS
 62
     9
 10
-255.9333333333333
 20
88.72108718844302
 30
0.0
 40
2.715925826289072
 50
88.78092264636315
 51
271.2190773536369
  0
ARC
  5
27F
  8
1
  6
CONTINUOUS
 62
     9
 10
-253.9333333333333
 20
88.72108718844302
 30
0.0
 40
2.715925826289071
 50
268.7809226463631
 51
91.21907735363685
  0
LINE
  5
280
  8
1
  6
CONTINUOUS
 62
     7
 10
-345.9333333333333
 20
88.7210871884429
 30
0.0
 11
-344.4333333333333
 21
88.7210871884429
 31
0.0
  0
LINE
  5
281
  8
1
  6
CONTINUOUS
 62
     7
 10
-344.3635183910072
 20
80.72108718844302
 30
0.0
 11
-346.0031482756594
 21
80.72108718844302
 31
0.0
  0
LINE
  5
282
  8
1
  6
CONTINUOUS
 62
     7
 10
-344.3635183910072
 20
96.72108718844302
 30
0.0
 11
-346.0031482756594
 21
96.72108718844302
 31
0.0
  0
ARC
  5
283
  8
1
  6
CONTINUOUS
 62
     7
 10
-293.9333333333333
 20
88.72108718844302
 30
0.0
 40
2.750000000000002
 50
88.51334543007694
 51
271.4866545699232
  0
ARC
  5
284
  8
1
  6
CONTINUOUS
 62
     7
 10
-253.9333333333333
 20
88.72108718844302
 30
0.0
 40
2.750000000000002
 50
268.5133454300773
 51
91.48665456992309
  0
ARC
  5
285
  8
1
  6
CONTINUOUS
 62
     7
 10
-255.9333333333333
 20
88.72108718844302
 30
0.0
 40
2.750000000000003
 50
88.51334543007727
 51
271.4866545699231
  0
ARC
  5
286
  8
1
  6
CONTINUOUS
 62
     7
 10
-291.9333333333333
 20
88.72108718844302
 30
0.0
 40
2.750000000000002
 50
268.5133454300773
 51
91.48665456992296
  0
LINE
  5
287
  8
1
  6
CONTINUOUS
 62
     9
 10
-335.5032625064669
 20
96.72108718844302
 30
0.0
 11
-335.4334475641408
 21
88.72108718844302
 31
0.0
  0
LINE
  5
288
  8
1
  6
CONTINUOUS
 62
     7
 10
-335.4334475641408
 20
88.72108718844305
 30
0.0
 11
-338.4333333333333
 21
88.72108718844305
 31
0.0
  0
LINE
  5
289
  8
1
  6
CONTINUOUS
 62
     7
 10
-335.5032625064669
 20
96.72108718844302
 30
0.0
 11
-338.5031482756594
 21
96.72108718844302
 31
0.0
  0
LINE
  5
28A
  8
1
  6
CONTINUOUS
 62
     9
 10
-335.4334475641408
 20
88.72108718844302
 30
0.0
 11
-335.5032625064669
 21
80.72108718844302
 31
0.0
  0
LINE
  5
28B
  8
1
  6
CONTINUOUS
 62
     7
 10
-338.5031482756594
 20
80.72108718844302
 30
0.0
 11
-335.5032625064669
 21
80.72108718844302
 31
0.0
  0
LINE
  5
28C
  8
1
  6
CONTINUOUS
 62
     7
 10
-254.3410294161027
 20
91.40703545058443
 30
0.0
 11
-254.8406015506092
 21
91.96540070001073
 31
0.0
  0
ARC
  5
28D
  8
1
  6
CONTINUOUS
 62
     9
 10
-254.9333333333333
 20
88.71672392069384
 30
0.0
 40
3.249999999999996
 50
52.2703356941941
 51
88.36496585639134
  0
ARC
  5
28E
  8
1
  6
CONTINUOUS
 62
     9
 10
-254.9333333333333
 20
88.72545045619222
 30
0.0
 40
3.249999999999996
 50
271.6350341436087
 51
307.7296643058057
  0
LINE
  5
28F
  8
1
  6
CONTINUOUS
 62
     7
 10
-254.8406015506092
 20
85.47677367687533
 30
0.0
 11
-254.3410294161027
 21
86.03513892630163
 31
0.0
  0
LINE
  5
290
  8
1
  6
CONTINUOUS
 62
     7
 10
-292.3410294161026
 20
91.40703545058443
 30
0.0
 11
-292.8406015506092
 21
91.96540070001073
 31
0.0
  0
ARC
  5
291
  8
1
  6
CONTINUOUS
 62
     9
 10
-292.9333333333333
 20
88.71672392069384
 30
0.0
 40
3.25
 50
52.27033569419365
 51
88.36496585639134
  0
ARC
  5
292
  8
1
  6
CONTINUOUS
 62
     9
 10
-292.9333333333333
 20
88.72545045619222
 30
0.0
 40
3.25
 50
271.6350341436087
 51
307.7296643058064
  0
LINE
  5
293
  8
1
  6
CONTINUOUS
 62
     7
 10
-292.8406015506092
 20
85.47677367687533
 30
0.0
 11
-292.3410294161026
 21
86.03513892630163
 31
0.0
  0
ARC
  5
294
  8
1
  6
CONTINUOUS
 62
     9
 10
-292.9333333333333
 20
88.71672392069384
 30
0.0
 40
3.25
 50
91.63503414360866
 51
127.7296643058073
  0
LINE
  5
295
  8
1
  6
CONTINUOUS
 62
     7
 10
-293.0260651160575
 20
91.96540070001073
 30
0.0
 11
-293.5256372505639
 21
91.40703545058444
 31
0.0
  0
LINE
  5
296
  8
1
  6
CONTINUOUS
 62
     7
 10
-293.5256372505639
 20
86.03513892630161
 30
0.0
 11
-293.0260651160575
 21
85.47677367687533
 31
0.0
  0
ARC
  5
297
  8
1
  6
CONTINUOUS
 62
     9
 10
-292.9333333333333
 20
88.72545045619222
 30
0.0
 40
3.25
 50
232.2703356941927
 51
268.3649658563913
  0
ARC
  5
298
  8
1
  6
CONTINUOUS
 62
     9
 10
-254.9333333333333
 20
88.71672392069384
 30
0.0
 40
3.249999999999996
 50
91.63503414360768
 51
127.7296643058063
  0
LINE
  5
299
  8
1
  6
CONTINUOUS
 62
     7
 10
-255.0260651160575
 20
91.96540070001073
 30
0.0
 11
-255.525637250564
 21
91.40703545058443
 31
0.0
  0
LINE
  5
29A
  8
1
  6
CONTINUOUS
 62
     7
 10
-255.525637250564
 20
86.03513892630163
 30
0.0
 11
-255.0260651160575
 21
85.47677367687533
 31
0.0
  0
ARC
  5
29B
  8
1
  6
CONTINUOUS
 62
     9
 10
-254.9333333333333
 20
88.72545045619222
 30
0.0
 40
3.249999999999996
 50
232.2703356941938
 51
268.3649658563922
  0
LINE
  5
29C
  8
1
  6
CONTINUOUS
 62
     7
 10
-254.3398009821912
 20
88.72108718844301
 30
0.0
 11
-254.8391177451341
 21
88.72108718844301
 31
0.0
  0
LINE
  5
29D
  8
1
  6
CONTINUOUS
 62
     9
 10
-254.8406015506092
 20
85.47677367687533
 30
0.0
 11
-254.8391177451341
 21
88.72108718844302
 31
0.0
  0
LINE
  5
29E
  8
1
  6
CONTINUOUS
 62
     9
 10
-255.0260651160575
 20
91.96540070001073
 30
0.0
 11
-255.0275489215325
 21
88.72108718844302
 31
0.0
  0
LINE
  5
29F
  8
1
  6
CONTINUOUS
 62
     7
 10
-255.0275489215325
 20
88.72108718844315
 30
0.0
 11
-255.5268656844755
 21
88.72108718844315
 31
0.0
  0
LINE
  5
2A0
  8
1
  6
CONTINUOUS
 62
     7
 10
-293.0275489215325
 20
88.72108718844315
 30
0.0
 11
-293.5268656844755
 21
88.72108718844315
 31
0.0
  0
LINE
  5
2A1
  8
1
  6
CONTINUOUS
 62
     9
 10
-293.0275489215325
 20
88.72108718844302
 30
0.0
 11
-293.0260651160575
 21
85.47677367687533
 31
0.0
  0
LINE
  5
2A2
  8
1
  6
CONTINUOUS
 62
     9
 10
-293.0260651160575
 20
91.96540070001073
 30
0.0
 11
-293.0275489215325
 21
88.72108718844302
 31
0.0
  0
LINE
  5
2A3
  8
1
  6
CONTINUOUS
 62
     9
 10
-254.8391177451341
 20
88.72108718844302
 30
0.0
 11
-254.8406015506092
 21
91.96540070001073
 31
0.0
  0
LINE
  5
2A4
  8
1
  6
CONTINUOUS
 62
     9
 10
-255.0275489215325
 20
88.72108718844302
 30
0.0
 11
-255.0260651160575
 21
85.47677367687533
 31
0.0
  0
LINE
  5
2A5
  8
1
  6
CONTINUOUS
 62
     9
 10
-292.8391177451341
 20
88.72108718844302
 30
0.0
 11
-292.8406015506092
 21
91.96540070001073
 31
0.0
  0
LINE
  5
2A6
  8
1
  6
CONTINUOUS
 62
     7
 10
-292.3398009821912
 20
88.72108718844302
 30
0.0
 11
-292.8391177451341
 21
88.72108718844302
 31
0.0
  0
LINE
  5
2A7
  8
1
  6
CONTINUOUS
 62
     9
 10
-292.8406015506092
 20
85.47677367687533
 30
0.0
 11
-292.8391177451341
 21
88.72108718844302
 31
0.0
  0
LINE
  5
2A8
  8
1
  6
CONTINUOUS
 62
     7
 10
-296.6833333333333
 20
88.72108718844302
 30
0.0
 11
-335.4334475641408
 21
88.72108718844302
 31
0.0
  0
LINE
  5
2A9
  8
1
  6
CONTINUOUS
 62
     7
 10
-292.8391177451341
 20
88.72108718844302
 30
0.0
 11
-293.0275489215325
 21
88.72108718844302
 31
0.0
  0
LINE
  5
2AA
  8
1
  6
CONTINUOUS
 62
     7
 10
-258.6833333333333
 20
88.72108718844302
 30
0.0
 11
-289.1833333333333
 21
88.72108718844302
 31
0.0
  0
LINE
  5
2AB
  8
1
  6
CONTINUOUS
 62
     7
 10
-254.8391177451341
 20
88.72108718844302
 30
0.0
 11
-255.0275489215325
 21
88.72108718844302
 31
0.0
  0
LINE
  5
2AC
  8
1
  6
CONTINUOUS
 62
     7
 10
-248.9333333333333
 20
88.72108718844315
 30
0.0
 11
-251.1833333333333
 21
88.72108718844302
 31
0.0
  0
LINE
  5
2AD
  8
1
  6
CONTINUOUS
 62
     7
 10
-248.9333333333333
 20
88.72108718844315
 30
0.0
 11
-248.9771961382518
 21
83.6949075819479
 31
0.0
  0
ARC
  5
2AE
  8
1
  6
CONTINUOUS
 62
     7
 10
-251.9770819074443
 20
83.72108718844302
 30
0.0
 40
3.0
 50
270.0
 51
359.5000000000001
  0
LINE
  5
2AF
  8
1
  6
CONTINUOUS
 62
     7
 10
-335.5032625064669
 20
80.72108718844302
 30
0.0
 11
-251.9770819074443
 21
80.72108718844302
 31
0.0
  0
ARC
  5
2B0
  8
1
  6
CONTINUOUS
 62
     7
 10
-251.9770819074443
 20
93.72108718844304
 30
0.0
 40
3.0
 50
0.4999999999999485
 51
90.0
  0
LINE
  5
2B1
  8
1
  6
CONTINUOUS
 62
     7
 10
-248.9771961382518
 20
93.74726679493816
 30
0.0
 11
-248.9333333333333
 21
88.72108718844315
 31
0.0
  0
LINE
  5
2B2
  8
1
  6
CONTINUOUS
 62
     7
 10
-335.5032625064669
 20
96.72108718844302
 30
0.0
 11
-251.9770819074443
 21
96.72108718844302
 31
0.0
  0
LINE
  5
2B3
  8
1
  6
CONTINUOUS
 62
     7
 10
-342.4333333333333
 20
69.62108718844303
 30
0.0
 11
-342.4333333333333
 21
70.9531527585896
 31
0.0
  0
LINE
  5
2B4
  8
1
  6
CONTINUOUS
 62
     9
 10
-347.8111571842627
 20
74.72108718844302
 30
0.0
 11
-338.5206020112409
 21
74.72108718844302
 31
0.0
  0
LINE
  5
2B5
  8
1
  6
CONTINUOUS
 62
     9
 10
-342.4333333333333
 20
70.9531527585896
 30
0.0
 11
-338.5534842768545
 21
70.9531527585896
 31
0.0
  0
LINE
  5
2B6
  8
1
  6
CONTINUOUS
 62
     7
 10
-338.5206020112409
 20
74.72108718844302
 30
0.0
 11
-338.5534842768545
 21
70.9531527585896
 31
0.0
  0
LINE
  5
2B7
  8
1
  6
CONTINUOUS
 62
     7
 10
-347.8111571842627
 20
74.72108718844302
 30
0.0
 11
-347.7666501585298
 21
69.62108718844303
 31
0.0
  0
LINE
  5
2B8
  8
1
  6
CONTINUOUS
 62
     7
 10
-338.4682408044963
 20
80.72108718844302
 30
0.0
 11
-338.5206020112409
 21
74.72108718844302
 31
0.0
  0
LINE
  5
2B9
  8
1
  6
CONTINUOUS
 62
     7
 10
-347.8635183910072
 20
80.72108718844302
 30
0.0
 11
-347.8111571842627
 21
74.72108718844302
 31
0.0
  0
LINE
  5
2BA
  8
1
  6
CONTINUOUS
 62
     7
 10
-338.5534842768545
 20
70.9531527585896
 30
0.0
 11
-338.5546239592191
 21
70.82255809484973
 31
0.0
  0
LINE
  5
2BB
  8
1
  6
CONTINUOUS
 62
     7
 10
-269.4333333333333
 20
78.52108718844303
 30
0.0
 11
-269.2518139889755
 21
78.62588743077113
 31
0.0
  0
LINE
  5
2BC
  8
1
  6
CONTINUOUS
 62
     7
 10
-278.6150469328832
 20
78.62599958405859
 30
0.0
 11
-278.4333333333333
 21
78.52108718844303
 31
0.0
  0
LINE
  5
2BD
  8
1
  6
CONTINUOUS
 62
     7
 10
-269.4333333333333
 20
96.72108718844304
 30
0.0
 11
-269.5645663286222
 21
98.22108718844304
 31
0.0
  0
LINE
  5
2BE
  8
1
  6
CONTINUOUS
 62
     7
 10
-278.3021003380444
 20
98.22108718844304
 30
0.0
 11
-278.4333333333333
 21
96.72108718844304
 31
0.0
  0
LINE
  5
2BF
  8
1
  6
CONTINUOUS
 62
     7
 10
-271.4333333333333
 20
77.12108718844303
 30
0.0
 11
-271.4333333333333
 21
78.52108718844303
 31
0.0
  0
LINE
  5
2C0
  8
1
  6
CONTINUOUS
 62
     7
 10
-276.4333333333333
 20
78.52108718844303
 30
0.0
 11
-276.4333333333333
 21
77.12108718844303
 31
0.0
  0
LINE
  5
2C1
  8
1
  6
CONTINUOUS
 62
     7
 10
-276.4333333333333
 20
77.12108718844303
 30
0.0
 11
-276.0333333333333
 21
76.72108718844304
 31
0.0
  0
LINE
  5
2C2
  8
1
  6
CONTINUOUS
 62
     7
 10
-271.8333333333333
 20
76.72108718844304
 30
0.0
 11
-271.4333333333333
 21
77.12108718844303
 31
0.0
  0
LINE
  5
2C3
  8
1
  6
CONTINUOUS
 62
     7
 10
-248.9595139367056
 20
85.72108718844302
 30
0.0
 11
-243.4333333333333
 21
85.72108718844302
 31
0.0
  0
LINE
  5
2C4
  8
1
  6
CONTINUOUS
 62
     7
 10
-239.4333333333333
 20
85.72108718844302
 30
0.0
 11
-237.9333333333333
 21
85.72108718844302
 31
0.0
  0
LINE
  5
2C5
  8
1
  6
CONTINUOUS
 62
     7
 10
-237.9333333333333
 20
91.72108718844304
 30
0.0
 11
-239.4333333333333
 21
91.72108718844304
 31
0.0
  0
LINE
  5
2C6
  8
1
  6
CONTINUOUS
 62
     7
 10
-243.4333333333333
 20
91.72108718844304
 30
0.0
 11
-248.9595139367056
 21
91.72108718844304
 31
0.0
  0
LINE
  5
2C7
  8
1
  6
CONTINUOUS
 62
     7
 10
-242.0415205385779
 20
84.72108718844302
 30
0.0
 11
-241.4333333333333
 21
84.72108718844302
 31
0.0
  0
LINE
  5
2C8
  8
1
  6
CONTINUOUS
 62
     7
 10
-241.4333333333333
 20
92.72108718844304
 30
0.0
 11
-242.0415205385779
 21
92.72108718844304
 31
0.0
  0
LINE
  5
2C9
  8
1
  6
CONTINUOUS
 62
     7
 10
-347.7666501585298
 20
69.62108718844303
 30
0.0
 11
-342.4333333333333
 21
69.62108718844303
 31
0.0
  0
LINE
  5
2CA
  8
1
  6
CONTINUOUS
 62
     7
 10
-342.4333333333333
 20
70.82255809484973
 30
0.0
 11
-338.5546239592191
 21
70.82255809484973
 31
0.0
  0
ENDBLK
  8
0
  0
BLOCK
  8
0
  2
D_FRAME_VIEW_1492
 70
     0
 10
0.0
 20
0.0
 30
0.0
  0
ARC
  5
2DF
  8
1
  6
CONTINUOUS
 62
     7
 10
-273.9333333333333
 20
213.25
 30
0.0
 40
2.449999999999998
 50
75.82419648413298
 51
104.175803515867
  0
LINE
  5
2E0
  8
1
  6
CONTINUOUS
 62
     7
 10
-274.5333333333334
 20
214.35
 30
0.0
 11
-274.5333333333334
 21
215.6253947040439
 31
0.0
  0
POLYLINE
  5
2E1
  8
1
  6
CONTINUOUS
 62
     7
 66
     1
 10
0.0
 20
0.0
 30
0.0
  0
VERTEX
  5
675
  8
1
  6
CONTINUOUS
 62
     7
 10
-275.0333333333334
 20
213.85
 30
0.0
  0
VERTEX
  5
676
  8
1
  6
CONTINUOUS
 62
     7
 10
-275.00962573919
 20
213.8505742239695
 30
0.0
  0
VERTEX
  5
677
  8
1
  6
CONTINUOUS
 62
     7
 10
-274.9858830178179
 20
213.8522897234601
 30
0.0
  0
VERTEX
  5
678
  8
1
  6
CONTINUOUS
 62
     7
 10
-274.9621862766874
 20
213.8551357398447
 30
0.0
  0
VERTEX
  5
679
  8
1
  6
CONTINUOUS
 62
     7
 10
-274.938616623269
 20
213.8591015144962
 30
0.0
  0
VERTEX
  5
67A
  8
1
  6
CONTINUOUS
 62
     7
 10
-274.915255165033
 20
213.8641762887877
 30
0.0
  0
VERTEX
  5
67B
  8
1
  6
CONTINUOUS
 62
     7
 10
-274.8921830094501
 20
213.8703493040921
 30
0.0
  0
VERTEX
  5
67C
  8
1
  6
CONTINUOUS
 62
     7
 10
-274.8694812639905
 20
213.8776098017824
 30
0.0
  0
VERTEX
  5
67D
  8
1
  6
CONTINUOUS
 62
     7
 10
-274.8471311290537
 20
213.8859782618131
 30
0.0
  0
VERTEX
  5
67E
  8
1
  6
CONTINUOUS
 62
     7
 10
-274.8251308924353
 20
213.8954488206078
 30
0.0
  0
VERTEX
  5
67F
  8
1
  6
CONTINUOUS
 62
     7
 10
-274.8035556436153
 20
213.905982181965
 30
0.0
  0
VERTEX
  5
680
  8
1
  6
CONTINUOUS
 62
     7
 10
-274.7824804720738
 20
213.9175390496829
 30
0.0
  0
VERTEX
  5
681
  8
1
  6
CONTINUOUS
 62
     7
 10
-274.7619804672907
 20
213.9300801275598
 30
0.0
  0
VERTEX
  5
682
  8
1
  6
CONTINUOUS
 62
     7
 10
-274.7421307187462
 20
213.943566119394
 30
0.0
  0
VERTEX
  5
683
  8
1
  6
CONTINUOUS
 62
     7
 10
-274.7230063159203
 20
213.9579577289838
 30
0.0
  0
VERTEX
  5
684
  8
1
  6
CONTINUOUS
 62
     7
 10
-274.7047911148128
 20
213.9731077518248
 30
0.0
  0
VERTEX
  5
685
  8
1
  6
CONTINUOUS
 62
     7
 10
-274.687268637879
 20
213.9891605114861
 30
0.0
  0
VERTEX
  5
686
  8
1
  6
CONTINUOUS
 62
     7
 10
-274.6704942833468
 20
214.0060542556346
 30
0.0
  0
VERTEX
  5
687
  8
1
  6
CONTINUOUS
 62
     7
 10
-274.6545234494444
 20
214.0237272319376
 30
0.0
  0
VERTEX
  5
688
  8
1
  6
CONTINUOUS
 62
     7
 10
-274.6394115343996
 20
214.0421176880618
 30
0.0
  0
VERTEX
  5
689
  8
1
  6
CONTINUOUS
 62
     7
 10
-274.6252139364407
 20
214.0611638716744
 30
0.0
  0
VERTEX
  5
68A
  8
1
  6
CONTINUOUS
 62
     7
 10
-274.6119860537954
 20
214.0808040304425
 30
0.0
  0
VERTEX
  5
68B
  8
1
  6
CONTINUOUS
 62
     7
 10
-274.5997828732176
 20
214.1009571160495
 30
0.0
  0
VERTEX
  5
68C
  8
1
  6
CONTINUOUS
 62
     7
 10
-274.5885252017134
 20
214.1217166206961
 30
0.0
  0
VERTEX
  5
68D
  8
1
  6
CONTINUOUS
 62
     7
 10
-274.5782427030515
 20
214.1430078540511
 30
0.0
  0
VERTEX
  5
68E
  8
1
  6
CONTINUOUS
 62
     7
 10
-274.5689650410002
 20
214.164756125783
 30
0.0
  0
VERTEX
  5
68F
  8
1
  6
CONTINUOUS
 62
     7
 10
-274.560721879328
 20
214.1868867455606
 30
0.0
  0
VERTEX
  5
690
  8
1
  6
CONTINUOUS
 62
     7
 10
-274.5535428818033
 20
214.2093250230524
 30
0.0
  0
VERTEX
  5
691
  8
1
  6
CONTINUOUS
 62
     7
 10
-274.5474577121947
 20
214.2319962679272
 30
0.0
  0
VERTEX
  5
692
  8
1
  6
CONTINUOUS
 62
     7
 10
-274.5423908834725
 20
214.2552883569859
 30
0.0
  0
VERTEX
  5
693
  8
1
  6
CONTINUOUS
 62
     7
 10
-274.5384383008499
 20
214.2788160949106
 30
0.0
  0
VERTEX
  5
694
  8
1
  6
CONTINUOUS
 62
     7
 10
-274.5356066947021
 20
214.3024981615134
 30
0.0
  0
VERTEX
  5
695
  8
1
  6
CONTINUOUS
 62
     7
 10
-274.5339027954048
 20
214.3262532366059
 30
0.0
  0
VERTEX
  5
696
  8
1
  6
CONTINUOUS
 62
     7
 10
-274.5333333333334
 20
214.35
 30
0.0
  0
SEQEND
  5
A1C
  8
1
  6
CONTINUOUS
 62
     7
  0
LINE
  5
2E2
  8
1
  6
CONTINUOUS
 62
     7
 10
-277.3372565402345
 20
213.85
 30
0.0
 11
-275.0333333333334
 21
213.85
 31
0.0
  0
ARC
  5
2E3
  8
1
  6
CONTINUOUS
 62
     9
 10
-273.9333333333333
 20
213.25
 30
0.0
 40
3.456398877224712
 50
9.996677858381043
 51
170.003322141619
  0
LINE
  5
2E4
  8
1
  6
CONTINUOUS
 62
     7
 10
-272.8333333333333
 20
213.85
 30
0.0
 11
-270.5294101264321
 21
213.85
 31
0.0
  0
POLYLINE
  5
2E5
  8
1
  6
CONTINUOUS
 62
     7
 66
     1
 10
0.0
 20
0.0
 30
0.0
  0
VERTEX
  5
697
  8
1
  6
CONTINUOUS
 62
     7
 10
-273.3333333333333
 20
214.35
 30
0.0
  0
VERTEX
  5
698
  8
1
  6
CONTINUOUS
 62
     7
 10
-273.3327591093638
 20
214.3262924058567
 30
0.0
  0
VERTEX
  5
699
  8
1
  6
CONTINUOUS
 62
     7
 10
-273.3310436098732
 20
214.3025496844845
 30
0.0
  0
VERTEX
  5
69A
  8
1
  6
CONTINUOUS
 62
     7
 10
-273.3281975934887
 20
214.2788529433541
 30
0.0
  0
VERTEX
  5
69B
  8
1
  6
CONTINUOUS
 62
     7
 10
-273.3242318188372
 20
214.2552832899356
 30
0.0
  0
VERTEX
  5
69C
  8
1
  6
CONTINUOUS
 62
     7
 10
-273.3191570445456
 20
214.2319218316998
 30
0.0
  0
VERTEX
  5
69D
  8
1
  6
CONTINUOUS
 62
     7
 10
-273.3129840292412
 20
214.2088496761168
 30
0.0
  0
VERTEX
  5
69E
  8
1
  6
CONTINUOUS
 62
     7
 10
-273.3057235315509
 20
214.1861479306572
 30
0.0
  0
VERTEX
  5
69F
  8
1
  6
CONTINUOUS
 62
     7
 10
-273.2973550715203
 20
214.1637977957204
 30
0.0
  0
VERTEX
  5
6A0
  8
1
  6
CONTINUOUS
 62
     7
 10
-273.2878845127255
 20
214.1417975591019
 30
0.0
  0
VERTEX
  5
6A1
  8
1
  6
CONTINUOUS
 62
     7
 10
-273.2773511513684
 20
214.120222310282
 30
0.0
  0
VERTEX
  5
6A2
  8
1
  6
CONTINUOUS
 62
     7
 10
-273.2657942836505
 20
214.0991471387404
 30
0.0
  0
VERTEX
  5
6A3
  8
1
  6
CONTINUOUS
 62
     7
 10
-273.2532532057736
 20
214.0786471339574
 30
0.0
  0
VERTEX
  5
6A4
  8
1
  6
CONTINUOUS
 62
     7
 10
-273.2397672139394
 20
214.0587973854129
 30
0.0
  0
VERTEX
  5
6A5
  8
1
  6
CONTINUOUS
 62
     7
 10
-273.2253756043496
 20
214.039672982587
 30
0.0
  0
VERTEX
  5
6A6
  8
1
  6
CONTINUOUS
 62
     7
 10
-273.2102255815086
 20
214.0214577814795
 30
0.0
  0
VERTEX
  5
6A7
  8
1
  6
CONTINUOUS
 62
     7
 10
-273.1941728218472
 20
214.0039353045456
 30
0.0
  0
VERTEX
  5
6A8
  8
1
  6
CONTINUOUS
 62
     7
 10
-273.1772790776987
 20
213.9871609500135
 30
0.0
  0
VERTEX
  5
6A9
  8
1
  6
CONTINUOUS
 62
     7
 10
-273.1596061013958
 20
213.9711901161111
 30
0.0
  0
VERTEX
  5
6AA
  8
1
  6
CONTINUOUS
 62
     7
 10
-273.1412156452715
 20
213.9560782010664
 30
0.0
  0
VERTEX
  5
6AB
  8
1
  6
CONTINUOUS
 62
     7
 10
-273.1221694616589
 20
213.9418806031074
 30
0.0
  0
VERTEX
  5
6AC
  8
1
  6
CONTINUOUS
 62
     7
 10
-273.1025293028908
 20
213.9286527204621
 30
0.0
  0
VERTEX
  5
6AD
  8
1
  6
CONTINUOUS
 62
     7
 10
-273.0823762172839
 20
213.9164495398842
 30
0.0
  0
VERTEX
  5
6AE
  8
1
  6
CONTINUOUS
 62
     7
 10
-273.0616167126372
 20
213.9051918683801
 30
0.0
  0
VERTEX
  5
6AF
  8
1
  6
CONTINUOUS
 62
     7
 10
-273.0403254792823
 20
213.8949093697182
 30
0.0
  0
VERTEX
  5
6B0
  8
1
  6
CONTINUOUS
 62
     7
 10
-273.0185772075503
 20
213.8856317076669
 30
0.0
  0
VERTEX
  5
6B1
  8
1
  6
CONTINUOUS
 62
     7
 10
-272.9964465877728
 20
213.8773885459947
 30
0.0
  0
VERTEX
  5
6B2
  8
1
  6
CONTINUOUS
 62
     7
 10
-272.9740083102809
 20
213.87020954847
 30
0.0
  0
VERTEX
  5
6B3
  8
1
  6
CONTINUOUS
 62
     7
 10
-272.9513370654061
 20
213.8641243788613
 30
0.0
  0
VERTEX
  5
6B4
  8
1
  6
CONTINUOUS
 62
     7
 10
-272.9280449763475
 20
213.8590575501392
 30
0.0
  0
VERTEX
  5
6B5
  8
1
  6
CONTINUOUS
 62
     7
 10
-272.9045172384227
 20
213.8551049675165
 30
0.0
  0
VERTEX
  5
6B6
  8
1
  6
CONTINUOUS
 62
     7
 10
-272.88083517182
 20
213.8522733613688
 30
0.0
  0
VERTEX
  5
6B7
  8
1
  6
CONTINUOUS
 62
     7
 10
-272.8570800967275
 20
213.8505694620715
 30
0.0
  0
VERTEX
  5
6B8
  8
1
  6
CONTINUOUS
 62
     7
 10
-272.8333333333333
 20
213.85
 30
0.0
  0
SEQEND
  5
A1D
  8
1
  6
CONTINUOUS
 62
     7
  0
LINE
  5
2E6
  8
1
  6
CONTINUOUS
 62
     7
 10
-273.3333333333333
 20
215.6253947040439
 30
0.0
 11
-273.3333333333333
 21
214.35
 31
0.0
  0
ARC
  5
2E7
  8
1
  6
CONTINUOUS
 62
     7
 10
-273.9333333333333
 20
213.25
 30
0.0
 40
2.45
 50
255.8241964841329
 51
284.1758035158671
  0
LINE
  5
2E8
  8
1
  6
CONTINUOUS
 62
     7
 10
-273.3333333333333
 20
212.15
 30
0.0
 11
-273.3333333333333
 21
210.8746052959561
 31
0.0
  0
POLYLINE
  5
2E9
  8
1
  6
CONTINUOUS
 62
     7
 66
     1
 10
0.0
 20
0.0
 30
0.0
  0
VERTEX
  5
6B9
  8
1
  6
CONTINUOUS
 62
     7
 10
-272.8333333333333
 20
212.65
 30
0.0
  0
VERTEX
  5
6BA
  8
1
  6
CONTINUOUS
 62
     7
 10
-272.8570409274767
 20
212.6494257760305
 30
0.0
  0
VERTEX
  5
6BB
  8
1
  6
CONTINUOUS
 62
     7
 10
-272.8807836488488
 20
212.64771027654
 30
0.0
  0
VERTEX
  5
6BC
  8
1
  6
CONTINUOUS
 62
     7
 10
-272.9044803899793
 20
212.6448642601554
 30
0.0
  0
VERTEX
  5
6BD
  8
1
  6
CONTINUOUS
 62
     7
 10
-272.9280500433977
 20
212.6408984855038
 30
0.0
  0
VERTEX
  5
6BE
  8
1
  6
CONTINUOUS
 62
     7
 10
-272.9514115016336
 20
212.6358237112124
 30
0.0
  0
VERTEX
  5
6BF
  8
1
  6
CONTINUOUS
 62
     7
 10
-272.9744836572165
 20
212.6296506959079
 30
0.0
  0
VERTEX
  5
6C0
  8
1
  6
CONTINUOUS
 62
     7
 10
-272.9971854026762
 20
212.6223901982176
 30
0.0
  0
VERTEX
  5
6C1
  8
1
  6
CONTINUOUS
 62
     7
 10
-273.019535537613
 20
212.6140217381869
 30
0.0
  0
VERTEX
  5
6C2
  8
1
  6
CONTINUOUS
 62
     7
 10
-273.0415357742314
 20
212.6045511793922
 30
0.0
  0
VERTEX
  5
6C3
  8
1
  6
CONTINUOUS
 62
     7
 10
-273.0631110230514
 20
212.594017818035
 30
0.0
  0
VERTEX
  5
6C4
  8
1
  6
CONTINUOUS
 62
     7
 10
-273.084186194593
 20
212.5824609503171
 30
0.0
  0
VERTEX
  5
6C5
  8
1
  6
CONTINUOUS
 62
     7
 10
-273.1046861993759
 20
212.5699198724403
 30
0.0
  0
VERTEX
  5
6C6
  8
1
  6
CONTINUOUS
 62
     7
 10
-273.1245359479204
 20
212.5564338806061
 30
0.0
  0
VERTEX
  5
6C7
  8
1
  6
CONTINUOUS
 62
     7
 10
-273.1436603507464
 20
212.5420422710162
 30
0.0
  0
VERTEX
  5
6C8
  8
1
  6
CONTINUOUS
 62
     7
 10
-273.1618755518539
 20
212.5268922481752
 30
0.0
  0
VERTEX
  5
6C9
  8
1
  6
CONTINUOUS
 62
     7
 10
-273.1793980287877
 20
212.510839488514
 30
0.0
  0
VERTEX
  5
6CA
  8
1
  6
CONTINUOUS
 62
     7
 10
-273.1961723833198
 20
212.4939457443654
 30
0.0
  0
VERTEX
  5
6CB
  8
1
  6
CONTINUOUS
 62
     7
 10
-273.2121432172223
 20
212.4762727680625
 30
0.0
  0
VERTEX
  5
6CC
  8
1
  6
CONTINUOUS
 62
     7
 10
-273.227255132267
 20
212.4578823119382
 30
0.0
  0
VERTEX
  5
6CD
  8
1
  6
CONTINUOUS
 62
     7
 10
-273.241452730226
 20
212.4388361283256
 30
0.0
  0
VERTEX
  5
6CE
  8
1
  6
CONTINUOUS
 62
     7
 10
-273.2546806128712
 20
212.4191959695575
 30
0.0
  0
VERTEX
  5
6CF
  8
1
  6
CONTINUOUS
 62
     7
 10
-273.2668837934491
 20
212.3990428839506
 30
0.0
  0
VERTEX
  5
6D0
  8
1
  6
CONTINUOUS
 62
     7
 10
-273.2781414649532
 20
212.3782833793039
 30
0.0
  0
VERTEX
  5
6D1
  8
1
  6
CONTINUOUS
 62
     7
 10
-273.2884239636152
 20
212.356992145949
 30
0.0
  0
VERTEX
  5
6D2
  8
1
  6
CONTINUOUS
 62
     7
 10
-273.2977016256664
 20
212.335243874217
 30
0.0
  0
VERTEX
  5
6D3
  8
1
  6
CONTINUOUS
 62
     7
 10
-273.3059447873387
 20
212.3131132544395
 30
0.0
  0
VERTEX
  5
6D4
  8
1
  6
CONTINUOUS
 62
     7
 10
-273.3131237848633
 20
212.2906749769476
 30
0.0
  0
VERTEX
  5
6D5
  8
1
  6
CONTINUOUS
 62
     7
 10
-273.319208954472
 20
212.2680037320728
 30
0.0
  0
VERTEX
  5
6D6
  8
1
  6
CONTINUOUS
 62
     7
 10
-273.3242757831942
 20
212.2447116430142
 30
0.0
  0
VERTEX
  5
6D7
  8
1
  6
CONTINUOUS
 62
     7
 10
-273.3282283658168
 20
212.2211839050894
 30
0.0
  0
VERTEX
  5
6D8
  8
1
  6
CONTINUOUS
 62
     7
 10
-273.3310599719645
 20
212.1975018384867
 30
0.0
  0
VERTEX
  5
6D9
  8
1
  6
CONTINUOUS
 62
     7
 10
-273.3327638712619
 20
212.1737467633941
 30
0.0
  0
VERTEX
  5
6DA
  8
1
  6
CONTINUOUS
 62
     7
 10
-273.3333333333333
 20
212.15
 30
0.0
  0
SEQEND
  5
A1E
  8
1
  6
CONTINUOUS
 62
     7
  0
LINE
  5
2EA
  8
1
  6
CONTINUOUS
 62
     7
 10
-270.5294101264321
 20
212.65
 30
0.0
 11
-272.8333333333333
 21
212.65
 31
0.0
  0
ARC
  5
2EB
  8
1
  6
CONTINUOUS
 62
     9
 10
-273.9333333333333
 20
213.25
 30
0.0
 40
3.456398877224708
 50
189.996677858381
 51
350.0033221416189
  0
LINE
  5
2EC
  8
1
  6
CONTINUOUS
 62
     7
 10
-275.0333333333334
 20
212.65
 30
0.0
 11
-277.3372565402345
 21
212.65
 31
0.0
  0
POLYLINE
  5
2ED
  8
1
  6
CONTINUOUS
 62
     7
 66
     1
 10
0.0
 20
0.0
 30
0.0
  0
VERTEX
  5
6DB
  8
1
  6
CONTINUOUS
 62
     7
 10
-274.5333333333334
 20
212.15
 30
0.0
  0
VERTEX
  5
6DC
  8
1
  6
CONTINUOUS
 62
     7
 10
-274.5339075573028
 20
212.1737075941434
 30
0.0
  0
VERTEX
  5
6DD
  8
1
  6
CONTINUOUS
 62
     7
 10
-274.5356230567934
 20
212.1974503155155
 30
0.0
  0
VERTEX
  5
6DE
  8
1
  6
CONTINUOUS
 62
     7
 10
-274.538469073178
 20
212.221147056646
 30
0.0
  0
VERTEX
  5
6DF
  8
1
  6
CONTINUOUS
 62
     7
 10
-274.5424348478295
 20
212.2447167100644
 30
0.0
  0
VERTEX
  5
6E0
  8
1
  6
CONTINUOUS
 62
     7
 10
-274.547509622121
 20
212.2680781683003
 30
0.0
  0
VERTEX
  5
6E1
  8
1
  6
CONTINUOUS
 62
     7
 10
-274.5536826374254
 20
212.2911503238832
 30
0.0
  0
VERTEX
  5
6E2
  8
1
  6
CONTINUOUS
 62
     7
 10
-274.5609431351157
 20
212.3138520693428
 30
0.0
  0
VERTEX
  5
6E3
  8
1
  6
CONTINUOUS
 62
     7
 10
-274.5693115951464
 20
212.3362022042797
 30
0.0
  0
VERTEX
  5
6E4
  8
1
  6
CONTINUOUS
 62
     7
 10
-274.5787821539412
 20
212.3582024408981
 30
0.0
  0
VERTEX
  5
6E5
  8
1
  6
CONTINUOUS
 62
     7
 10
-274.5893155152984
 20
212.3797776897181
 30
0.0
  0
VERTEX
  5
6E6
  8
1
  6
CONTINUOUS
 62
     7
 10
-274.6008723830162
 20
212.4008528612596
 30
0.0
  0
VERTEX
  5
6E7
  8
1
  6
CONTINUOUS
 62
     7
 10
-274.6134134608931
 20
212.4213528660426
 30
0.0
  0
VERTEX
  5
6E8
  8
1
  6
CONTINUOUS
 62
     7
 10
-274.6268994527273
 20
212.4412026145871
 30
0.0
  0
VERTEX
  5
6E9
  8
1
  6
CONTINUOUS
 62
     7
 10
-274.6412910623172
 20
212.4603270174131
 30
0.0
  0
VERTEX
  5
6EA
  8
1
  6
CONTINUOUS
 62
     7
 10
-274.6564410851581
 20
212.4785422185205
 30
0.0
  0
VERTEX
  5
6EB
  8
1
  6
CONTINUOUS
 62
     7
 10
-274.6724938448194
 20
212.4960646954544
 30
0.0
  0
VERTEX
  5
6EC
  8
1
  6
CONTINUOUS
 62
     7
 10
-274.689387588968
 20
212.5128390499866
 30
0.0
  0
VERTEX
  5
6ED
  8
1
  6
CONTINUOUS
 62
     7
 10
-274.7070605652709
 20
212.528809883889
 30
0.0
  0
VERTEX
  5
6EE
  8
1
  6
CONTINUOUS
 62
     7
 10
-274.7254510213951
 20
212.5439217989337
 30
0.0
  0
VERTEX
  5
6EF
  8
1
  6
CONTINUOUS
 62
     7
 10
-274.7444972050077
 20
212.5581193968927
 30
0.0
  0
VERTEX
  5
6F0
  8
1
  6
CONTINUOUS
 62
     7
 10
-274.7641373637758
 20
212.5713472795379
 30
0.0
  0
VERTEX
  5
6F1
  8
1
  6
CONTINUOUS
 62
     7
 10
-274.7842904493828
 20
212.5835504601158
 30
0.0
  0
VERTEX
  5
6F2
  8
1
  6
CONTINUOUS
 62
     7
 10
-274.8050499540294
 20
212.5948081316199
 30
0.0
  0
VERTEX
  5
6F3
  8
1
  6
CONTINUOUS
 62
     7
 10
-274.8263411873844
 20
212.6050906302818
 30
0.0
  0
VERTEX
  5
6F4
  8
1
  6
CONTINUOUS
 62
     7
 10
-274.8480894591163
 20
212.6143682923332
 30
0.0
  0
VERTEX
  5
6F5
  8
1
  6
CONTINUOUS
 62
     7
 10
-274.8702200788939
 20
212.6226114540054
 30
0.0
  0
VERTEX
  5
6F6
  8
1
  6
CONTINUOUS
 62
     7
 10
-274.8926583563858
 20
212.62979045153
 30
0.0
  0
VERTEX
  5
6F7
  8
1
  6
CONTINUOUS
 62
     7
 10
-274.9153296012606
 20
212.6358756211387
 30
0.0
  0
VERTEX
  5
6F8
  8
1
  6
CONTINUOUS
 62
     7
 10
-274.9386216903192
 20
212.6409424498608
 30
0.0
  0
VERTEX
  5
6F9
  8
1
  6
CONTINUOUS
 62
     7
 10
-274.962149428244
 20
212.6448950324835
 30
0.0
  0
VERTEX
  5
6FA
  8
1
  6
CONTINUOUS
 62
     7
 10
-274.9858314948467
 20
212.6477266386313
 30
0.0
  0
VERTEX
  5
6FB
  8
1
  6
CONTINUOUS
 62
     7
 10
-275.0095865699392
 20
212.6494305379286
 30
0.0
  0
VERTEX
  5
6FC
  8
1
  6
CONTINUOUS
 62
     7
 10
-275.0333333333334
 20
212.65
 30
0.0
  0
SEQEND
  5
A1F
  8
1
  6
CONTINUOUS
 62
     7
  0
LINE
  5
2EE
  8
1
  6
CONTINUOUS
 62
     7
 10
-274.5333333333334
 20
210.8746052959561
 30
0.0
 11
-274.5333333333334
 21
212.15
 31
0.0
  0
ARC
  5
2EF
  8
1
  6
CONTINUOUS
 62
     7
 10
-273.9333333333333
 20
213.25
 30
0.0
 40
1.223055524728271
 50
60.55599189447431
 51
119.4440081055257
  0
ARC
  5
2F0
  8
1
  6
CONTINUOUS
 62
     7
 10
-273.9333333333333
 20
213.25
 30
0.0
 40
1.223055524728269
 50
240.5559918944743
 51
299.4440081055257
  0
ARC
  5
2F1
  8
1
  6
CONTINUOUS
 62
     9
 10
-273.9333333333333
 20
213.25
 30
0.0
 40
4.359030618726562
 50
7.911611702842833
 51
172.0883882971572
  0
LINE
  5
2F2
  8
1
  6
CONTINUOUS
 62
     7
 10
-270.5294101264321
 20
213.85
 30
0.0
 11
-269.615793763741
 21
213.85
 31
0.0
  0
LINE
  5
2F3
  8
1
  6
CONTINUOUS
 62
     7
 10
-278.2508729029257
 20
213.85
 30
0.0
 11
-277.3372565402344
 21
213.85
 31
0.0
  0
ARC
  5
2F4
  8
1
  6
CONTINUOUS
 62
     9
 10
-273.9333333333333
 20
213.25
 30
0.0
 40
4.359030618726566
 50
187.9116117028428
 51
352.0883882971589
  0
LINE
  5
2F5
  8
1
  6
CONTINUOUS
 62
     7
 10
-277.3372565402345
 20
212.65
 30
0.0
 11
-278.2508729029257
 21
212.65
 31
0.0
  0
LINE
  5
2F6
  8
1
  6
CONTINUOUS
 62
     7
 10
-269.6157937637401
 20
212.65
 30
0.0
 11
-270.5294101264322
 21
212.65
 31
0.0
  0
ARC
  5
2F7
  8
1
  6
CONTINUOUS
 62
     7
 10
-273.9333333333333
 20
213.25
 30
0.0
 40
4.368767004711115
 50
352.1061329340404
 51
7.89386706595957
  0
ARC
  5
2F8
  8
1
  6
CONTINUOUS
 62
     7
 10
-273.9333333333333
 20
213.25
 30
0.0
 40
4.368767004711112
 50
172.1061329340403
 51
187.8938670659596
  0
ARC
  5
2F9
  8
1
  6
CONTINUOUS
 62
     7
 10
-273.9333333333333
 20
213.25
 30
0.0
 40
4.499999999999998
 50
176.8152614632796
 51
183.1847385367205
  0
ARC
  5
2FA
  8
1
  6
CONTINUOUS
 62
     7
 10
-273.9333333333333
 20
213.25
 30
0.0
 40
4.499999999999998
 50
171.4333392836855
 51
176.8152614632795
  0
ARC
  5
2FB
  8
1
  6
CONTINUOUS
 62
     7
 10
-273.9333333333333
 20
213.25
 30
0.0
 40
4.499999999999998
 50
8.181359927669746
 51
171.4333392836856
  0
ARC
  5
2FC
  8
1
  6
CONTINUOUS
 62
     7
 10
-273.9333333333333
 20
213.25
 30
0.0
 40
4.500000000000002
 50
351.4333392836916
 51
8.181359927669746
  0
ARC
  5
2FD
  8
1
  6
CONTINUOUS
 62
     7
 10
-273.9333333333333
 20
213.25
 30
0.0
 40
4.500000000000001
 50
188.1813599276692
 51
351.4333392836916
  0
ARC
  5
2FE
  8
1
  6
CONTINUOUS
 62
     7
 10
-273.9333333333333
 20
213.25
 30
0.0
 40
4.5
 50
183.1847385367204
 51
188.1813599276692
  0
ARC
  5
2FF
  8
1
  6
CONTINUOUS
 62
     7
 10
-273.9333333333333
 20
213.25
 30
0.0
 40
1.22305552472827
 50
330.5559918944744
 51
29.44400810552565
  0
ARC
  5
300
  8
1
  6
CONTINUOUS
 62
     7
 10
-273.9333333333333
 20
213.25
 30
0.0
 40
1.564468336724376
 50
337.4483034321429
 51
22.55169656785711
  0
ARC
  5
301
  8
1
  6
CONTINUOUS
 62
     7
 10
-273.9333333333333
 20
213.25
 30
0.0
 40
1.564468336724371
 50
157.4483034321429
 51
202.5516965678571
  0
ARC
  5
302
  8
1
  6
CONTINUOUS
 62
     7
 10
-273.9333333333333
 20
213.25
 30
0.0
 40
1.22305552472827
 50
150.5559918944744
 51
209.4440081055256
  0
LINE
  5
303
  8
1
  6
CONTINUOUS
 62
     7
 10
-278.4263835222362
 20
213.5
 30
0.0
 11
-278.6767498235859
 21
213.5
 31
0.0
  0
LINE
  5
304
  8
1
  6
CONTINUOUS
 62
     7
 10
-278.6767498235859
 20
213.0
 30
0.0
 11
-278.4263835222362
 21
213.0
 31
0.0
  0
ARC
  5
305
  8
1
  6
CONTINUOUS
 62
     7
 10
-273.9333333333333
 20
213.25
 30
0.0
 40
4.749999999999999
 50
183.016961309816
 51
176.983038690184
  0
CIRCLE
  5
306
  8
1
  6
CONTINUOUS
 62
     7
 10
-273.9333333333333
 20
213.25
 30
0.0
 40
5.000000000000001
  0
ARC
  5
307
  8
1
  6
CONTINUOUS
 62
     7
 10
-235.1213732315744
 20
236.8406238081577
 30
0.0
 40
2.813076615610179
 50
147.230086083173
 51
178.3856664487851
  0
LINE
  5
308
  8
1
  6
CONTINUOUS
 62
     7
 10
-237.9333333333333
 20
236.9198729810778
 30
0.0
 11
-237.9333333333333
 21
241.25
 31
0.0
  0
ARC
  5
309
  8
1
  6
CONTINUOUS
 62
     7
 10
-227.7378945965347
 20
241.3493209516819
 30
0.0
 40
10.19592250300368
 50
180.5581408990149
 51
197.0298128749787
  0
ARC
  5
30A
  8
1
  6
CONTINUOUS
 62
     7
 10
-227.8683247603258
 20
241.1708566648775
 30
0.0
 40
10.0653197287622
 50
162.8625660235566
 51
179.5494802024498
  0
ARC
  5
30B
  8
1
  6
CONTINUOUS
 62
     7
 10
-235.0472303920712
 20
245.6823160662186
 30
0.0
 40
2.887911492575497
 50
182.0278404214031
 51
212.3564070466389
  0
LINE
  5
30C
  8
1
  6
CONTINUOUS
 62
     7
 10
-237.9333333333333
 20
241.25
 30
0.0
 11
-237.9333333333333
 21
245.5801270189222
 31
0.0
  0
ARC
  5
30D
  8
1
  6
CONTINUOUS
 62
     7
 10
-243.7983419063413
 20
241.1708566648775
 30
0.0
 40
10.06531972876262
 50
0.4505197975503495
 51
17.13743397644288
  0
ARC
  5
30E
  8
1
  6
CONTINUOUS
 62
     7
 10
-236.6194362745956
 20
245.6823160662186
 30
0.0
 40
2.887911492575604
 50
327.6435929533616
 51
357.9721595785966
  0
LINE
  5
30F
  8
1
  6
CONTINUOUS
 62
     7
 10
-233.7333333333333
 20
241.25
 30
0.0
 11
-233.7333333333333
 21
245.5801270189222
 31
0.0
  0
LINE
  5
310
  8
1
  6
CONTINUOUS
 62
     7
 10
-234.1799153207185
 20
244.1367513459481
 30
0.0
 11
-237.4867513459481
 21
244.1367513459481
 31
0.0
  0
ARC
  5
311
  8
1
  6
CONTINUOUS
 62
     7
 10
-243.9287720701319
 20
241.3493209516819
 30
0.0
 40
10.19592250300359
 50
342.9701871250212
 51
359.441859100985
  0
LINE
  5
312
  8
1
  6
CONTINUOUS
 62
     7
 10
-234.1799153207185
 20
238.3632486540519
 30
0.0
 11
-237.4867513459481
 21
238.3632486540519
 31
0.0
  0
ARC
  5
313
  8
1
  6
CONTINUOUS
 62
     7
 10
-236.5452934350923
 20
236.8406238081577
 30
0.0
 40
2.813076615610179
 50
1.614333551214893
 51
32.76991391682702
  0
ARC
  5
314
  8
1
  6
CONTINUOUS
 62
     7
 10
-236.6194362745956
 20
237.0220620283743
 30
0.0
 40
2.887911492575575
 50
327.6435929533615
 51
357.9721595785967
  0
LINE
  5
315
  8
1
  6
CONTINUOUS
 62
     7
 10
-234.1799153207185
 20
235.4764973081038
 30
0.0
 11
-237.4867513459481
 21
235.4764973081038
 31
0.0
  0
ARC
  5
316
  8
1
  6
CONTINUOUS
 62
     7
 10
-235.0472303920711
 20
237.0220620283742
 30
0.0
 40
2.887911492575525
 50
182.0278404214031
 51
212.3564070466387
  0
LINE
  5
317
  8
1
  6
CONTINUOUS
 62
     7
 10
-233.7333333333333
 20
236.9198729810778
 30
0.0
 11
-233.7333333333333
 21
241.25
 31
0.0
  0
LINE
  5
318
  8
1
  6
CONTINUOUS
 62
     7
 10
-234.1799153207185
 20
247.0235026918963
 30
0.0
 11
-237.4867513459481
 21
247.0235026918963
 31
0.0
  0
ARC
  5
319
  8
1
  6
CONTINUOUS
 62
     7
 10
-236.5452934350926
 20
245.5008778460019
 30
0.0
 40
2.81307661561055
 50
1.614333551216942
 51
32.7699139168249
  0
ARC
  5
31A
  8
1
  6
CONTINUOUS
 62
     7
 10
-235.1213732315744
 20
245.5008778460021
 30
0.0
 40
2.813076615610179
 50
147.230086083173
 51
178.3856664487853
  0
LINE
  5
31B
  8
1
  6
CONTINUOUS
 62
     7
 10
-260.7888264128238
 20
244.25
 30
0.0
 11
-260.7888264128238
 21
238.25
 31
0.0
  0
LINE
  5
31C
  8
1
  6
CONTINUOUS
 62
     7
 10
-262.9333333333333
 20
239.25
 30
0.0
 11
-262.9333333333333
 21
241.25
 31
0.0
  0
LINE
  5
31D
  8
1
  6
CONTINUOUS
 62
     7
 10
-262.9333333333333
 20
241.25
 30
0.0
 11
-262.9333333333333
 21
243.25
 31
0.0
  0
LINE
  5
31E
  8
1
  6
CONTINUOUS
 62
     7
 10
-237.9333333333333
 20
245.5801270189222
 30
0.0
 11
-237.9333333333333
 21
246.25
 31
0.0
  0
LINE
  5
31F
  8
1
  6
CONTINUOUS
 62
     7
 10
-237.9333333333333
 20
236.25
 30
0.0
 11
-237.9333333333333
 21
236.9198729810778
 31
0.0
  0
LINE
  5
320
  8
1
  6
CONTINUOUS
 62
     7
 10
-233.7333333333333
 20
236.25
 30
0.0
 11
-233.7333333333333
 21
236.9198729810778
 31
0.0
  0
LINE
  5
321
  8
1
  6
CONTINUOUS
 62
     7
 10
-233.7333333333333
 20
245.5801270189222
 30
0.0
 11
-233.7333333333333
 21
246.25
 31
0.0
  0
ARC
  5
322
  8
1
  6
CONTINUOUS
 62
     7
 10
-264.4354762549614
 20
239.2160316403599
 30
0.0
 40
9.999999999999996
 50
328.0000000000001
 51
1.677533819187374
  0
ARC
  5
323
  8
1
  6
CONTINUOUS
 62
     7
 10
-260.6536955660337
 20
247.25
 30
0.0
 40
2.999999999999996
 50
42.97623799753593
 51
90.00000000000034
  0
ARC
  5
324
  8
1
  6
CONTINUOUS
 62
     7
 10
-267.4333333333333
 20
238.25
 30
0.0
 40
3.000000000000001
 50
250.5287793655093
 51
0.0
  0
ARC
  5
325
  8
1
  6
CONTINUOUS
 62
     7
 10
-263.4333333333333
 20
249.5637084989848
 30
0.0
 40
15.0
 50
180.0
 51
250.5287793655093
  0
LINE
  5
326
  8
1
  6
CONTINUOUS
 62
     7
 10
-241.4333333333333
 20
264.7500000000001
 30
0.0
 11
-268.4333333333333
 21
264.7500000000001
 31
0.0
  0
LINE
  5
327
  8
1
  6
CONTINUOUS
 62
     9
 10
-241.4333333333333
 20
232.75
 30
0.0
 11
-241.4333333333333
 21
264.7500000000001
 31
0.0
  0
ARC
  5
328
  8
1
  6
CONTINUOUS
 62
     7
 10
-241.4504889459298
 20
232.25
 30
0.0
 40
0.5000000000000102
 50
90.0
 51
161.9768596883696
  0
LINE
  5
329
  8
1
  6
CONTINUOUS
 62
     9
 10
-256.899884272675
 20
232.4047005383793
 30
0.0
 11
-241.9259547632345
 21
232.4047005383793
 31
0.0
  0
LINE
  5
32A
  8
1
  6
CONTINUOUS
 62
     7
 10
-241.4504889459298
 20
232.75
 30
0.0
 11
-241.4333333333333
 21
232.75
 31
0.0
  0
LINE
  5
32B
  8
1
  6
CONTINUOUS
 62
     7
 10
-278.4333333333333
 20
254.75
 30
0.0
 11
-278.4333333333333
 21
249.5637084989848
 31
0.0
  0
ARC
  5
32C
  8
1
  6
CONTINUOUS
 62
     7
 10
-268.4333333333333
 20
254.75
 30
0.0
 40
10.0
 50
89.99999999999996
 51
179.9999999999999
  0
LINE
  5
32D
  8
1
  6
CONTINUOUS
 62
     7
 10
-255.9549952933972
 20
233.9168389980279
 30
0.0
 11
-256.899884272675
 21
232.4047005383793
 31
0.0
  0
ARC
  5
32E
  8
1
  6
CONTINUOUS
 62
     7
 10
-269.4333333333333
 20
239.0696601125011
 30
0.0
 40
15.0
 50
1.677533819187374
 51
42.97623799753558
  0
LINE
  5
32F
  8
1
  6
CONTINUOUS
 62
     7
 10
-264.4333333333333
 20
238.25
 30
0.0
 11
-264.4333333333333
 21
249.25
 31
0.0
  0
LINE
  5
330
  8
1
  6
CONTINUOUS
 62
     7
 10
-263.4333333333333
 20
250.25
 30
0.0
 11
-260.6536955660337
 21
250.25
 31
0.0
  0
ARC
  5
331
  8
1
  6
CONTINUOUS
 62
     7
 10
-263.4333333333333
 20
249.25
 30
0.0
 40
1.000000000000001
 50
90.0
 51
180.0000000000008
  0
LINE
  5
332
  8
1
  6
CONTINUOUS
 62
     7
 10
-241.9501843594393
 20
232.2674497483513
 30
0.0
 11
-241.9259547632344
 21
232.4047005383793
 31
0.0
  0
LINE
  5
333
  8
1
  6
CONTINUOUS
 62
     7
 10
-241.9501843594393
 20
232.2674497483513
 30
0.0
 11
-242.0058760032373
 21
230.6726497308104
 31
0.0
  0
LINE
  5
334
  8
1
  6
CONTINUOUS
 62
     9
 10
-242.0058760032373
 20
230.6726497308104
 30
0.0
 11
-258.0350251231034
 21
230.6726497308104
 31
0.0
  0
LINE
  5
335
  8
1
  6
CONTINUOUS
 62
     7
 10
-258.0350251231034
 20
230.6726497308104
 30
0.0
 11
-257.4959428862967
 21
231.450807357668
 31
0.0
  0
LINE
  5
336
  8
1
  6
CONTINUOUS
 62
     7
 10
-257.4959428862967
 20
231.4508073576679
 30
0.0
 11
-256.8998842726749
 21
232.4047005383793
 31
0.0
  0
LINE
  5
337
  8
1
  6
CONTINUOUS
 62
     7
 10
-239.4333333333333
 20
264.7500000000001
 30
0.0
 11
-239.4333333333333
 21
232.75
 31
0.0
  0
LINE
  5
338
  8
1
  6
CONTINUOUS
 62
     7
 10
-241.4333333333333
 20
264.7500000000001
 30
0.0
 11
-239.4333333333333
 21
264.7500000000001
 31
0.0
  0
LINE
  5
339
  8
1
  6
CONTINUOUS
 62
     7
 10
-239.4333333333333
 20
232.75
 30
0.0
 11
-241.4333333333333
 21
232.75
 31
0.0
  0
LINE
  5
33A
  8
1
  6
CONTINUOUS
 62
     7
 10
-258.7799292661948
 20
229.806624327026
 30
0.0
 11
-242.0361182767369
 21
229.806624327026
 31
0.0
  0
ARC
  5
33B
  8
1
  6
CONTINUOUS
 62
     7
 10
-265.976423847861
 20
236.75
 30
0.0
 40
10.00000000000001
 50
316.0255466353213
 51
322.5740897651203
  0
LINE
  5
33C
  8
1
  6
CONTINUOUS
 62
     7
 10
-242.0058760032373
 20
230.6726497308104
 30
0.0
 11
-242.0361182767369
 21
229.806624327026
 31
0.0
  0
ARC
  5
33D
  8
1
  6
CONTINUOUS
 62
     7
 10
-250.8887151880517
 20
219.8579379197332
 30
0.0
 40
8.500000000000007
 50
285.9999999999998
 51
358.0
  0
LINE
  5
33E
  8
1
  6
CONTINUOUS
 62
     7
 10
-271.5904158088888
 20
205.0792755845243
 30
0.0
 11
-248.5457976636072
 21
211.6872135042575
 31
0.0
  0
ARC
  5
33F
  8
1
  6
CONTINUOUS
 62
     7
 10
-273.9333333333333
 20
213.25
 30
0.0
 40
8.500000000000002
 50
175.0
 51
286.0000000000002
  0
LINE
  5
340
  8
1
  6
CONTINUOUS
 62
     7
 10
-281.4444320430005
 20
224.9243114854953
 30
0.0
 11
-282.4009882671132
 21
213.9908238133551
 31
0.0
  0
ARC
  5
341
  8
1
  6
CONTINUOUS
 62
     7
 10
-279.4520426468169
 20
224.75
 30
0.0
 40
2.0
 50
90.0000000000008
 51
175.0000000000001
  0
LINE
  5
342
  8
1
  6
CONTINUOUS
 62
     7
 10
-265.976423847861
 20
226.75
 30
0.0
 11
-279.452042646817
 21
226.75
 31
0.0
  0
CIRCLE
  5
343
  8
1
  6
CONTINUOUS
 62
     7
 10
-250.4333333333333
 20
219.988516565332
 30
0.0
 40
2.799999999999997
  0
ARC
  5
344
  8
1
  6
CONTINUOUS
 62
     7
 10
-265.976423847861
 20
236.75
 30
0.0
 40
10.0
 50
270.0
 51
316.0255466353213
  0
LINE
  5
345
  8
1
  6
CONTINUOUS
 62
     7
 10
-242.3938931583893
 20
219.561292197762
 30
0.0
 11
-242.0361182767369
 21
229.806624327026
 31
0.0
  0
ARC
  5
346
  8
1
  6
CONTINUOUS
 62
     7
 10
-250.4333333333333
 20
219.988516565332
 30
0.0
 40
2.649999999999999
 50
0.0
 51
197.4322729443948
  0
ARC
  5
347
  8
1
  6
CONTINUOUS
 62
     7
 10
-250.4333333333333
 20
219.988516565332
 30
0.0
 40
2.65
 50
262.5110316319705
 51
0.0
  0
LINE
  5
348
  8
1
  6
CONTINUOUS
 62
     7
 10
-341.9333333333333
 20
212.458483208526
 30
0.0
 11
-342.4333333333333
 21
212.458483208526
 31
0.0
  0
LINE
  5
349
  8
1
  6
CONTINUOUS
 62
     7
 10
-342.4333333333333
 20
212.458483208526
 30
0.0
 11
-342.4333333333333
 21
212.45
 31
0.0
  0
LINE
  5
34A
  8
1
  6
CONTINUOUS
 62
     7
 10
-347.8111571842627
 20
212.45
 30
0.0
 11
-342.4333333333333
 21
212.45
 31
0.0
  0
LINE
  5
34B
  8
1
  6
CONTINUOUS
 62
     7
 10
-347.9333333333333
 20
212.5721761490706
 30
0.0
 11
-347.8111571842627
 21
212.45
 31
0.0
  0
LINE
  5
34C
  8
1
  6
CONTINUOUS
 62
     7
 10
-347.8721691034764
 20
212.6333403789275
 30
0.0
 11
-347.9333333333333
 21
212.5721761490706
 31
0.0
  0
LINE
  5
34D
  8
1
  6
CONTINUOUS
 62
     7
 10
-346.8722071804123
 20
212.6419910913967
 30
0.0
 11
-347.8721691034764
 21
212.6333403789275
 31
0.0
  0
LINE
  5
34E
  8
1
  6
CONTINUOUS
 62
     7
 10
-346.8722071804123
 20
212.6419910913967
 30
0.0
 11
-341.9333333333333
 21
212.6419910913967
 31
0.0
  0
LINE
  5
34F
  8
1
  6
CONTINUOUS
 62
     7
 10
-341.9333333333333
 20
218.25
 30
0.0
 11
-341.872245258798
 21
218.3110880745353
 31
0.0
  0
LINE
  5
350
  8
1
  6
CONTINUOUS
 62
     7
 10
-347.9246064655426
 20
218.25
 30
0.0
 11
-341.9333333333333
 21
218.25
 31
0.0
  0
LINE
  5
351
  8
1
  6
CONTINUOUS
 62
     7
 10
-347.9246064655426
 20
218.25
 30
0.0
 11
-347.8721691034764
 21
218.3024373620661
 31
0.0
  0
LINE
  5
352
  8
1
  6
CONTINUOUS
 62
     7
 10
-346.8722071804123
 20
218.3110880745353
 30
0.0
 11
-347.8721691034764
 21
218.3024373620661
 31
0.0
  0
LINE
  5
353
  8
1
  6
CONTINUOUS
 62
     7
 10
-341.872245258798
 20
218.3110880745353
 30
0.0
 11
-346.8722071804123
 21
218.3110880745353
 31
0.0
  0
LINE
  5
354
  8
1
  6
CONTINUOUS
 62
     7
 10
-248.9333333333333
 20
200.25
 30
0.0
 11
-251.683336262274
 21
200.25
 31
0.0
  0
LINE
  5
355
  8
1
  6
CONTINUOUS
 62
     9
 10
-254.8406015506092
 20
200.2783126950872
 30
0.0
 11
-251.683336262274
 21
200.25
 31
0.0
  0
LINE
  5
356
  8
1
  6
CONTINUOUS
 62
     9
 10
-254.8391177451341
 20
200.25
 30
0.0
 11
-254.8406015506092
 21
200.2783126950872
 31
0.0
  0
LINE
  5
357
  8
1
  6
CONTINUOUS
 62
     7
 10
-254.8391177451341
 20
200.25
 30
0.0
 11
-255.0275489215325
 21
200.25
 31
0.0
  0
LINE
  5
358
  8
1
  6
CONTINUOUS
 62
     9
 10
-255.0260651160575
 20
200.2783126950872
 30
0.0
 11
-255.0275489215326
 21
200.25
 31
0.0
  0
LINE
  5
359
  8
1
  6
CONTINUOUS
 62
     9
 10
-258.1833304043927
 20
200.25
 30
0.0
 11
-255.0260651160575
 21
200.2783126950872
 31
0.0
  0
LINE
  5
35A
  8
1
  6
CONTINUOUS
 62
     7
 10
-258.1833304043927
 20
200.25
 30
0.0
 11
-289.683336262274
 21
200.25
 31
0.0
  0
LINE
  5
35B
  8
1
  6
CONTINUOUS
 62
     9
 10
-292.8406015506092
 20
200.2783126950872
 30
0.0
 11
-289.683336262274
 21
200.25
 31
0.0
  0
LINE
  5
35C
  8
1
  6
CONTINUOUS
 62
     9
 10
-292.8391177451342
 20
200.25
 30
0.0
 11
-292.8406015506092
 21
200.2783126950872
 31
0.0
  0
LINE
  5
35D
  8
1
  6
CONTINUOUS
 62
     7
 10
-292.8391177451342
 20
200.25
 30
0.0
 11
-293.0275489215325
 21
200.25
 31
0.0
  0
LINE
  5
35E
  8
1
  6
CONTINUOUS
 62
     9
 10
-293.0260651160575
 20
200.2783126950872
 30
0.0
 11
-293.0275489215325
 21
200.25
 31
0.0
  0
LINE
  5
35F
  8
1
  6
CONTINUOUS
 62
     9
 10
-296.1833304043927
 20
200.25
 30
0.0
 11
-293.0260651160575
 21
200.2783126950872
 31
0.0
  0
LINE
  5
360
  8
1
  6
CONTINUOUS
 62
     7
 10
-296.1833304043927
 20
200.25
 30
0.0
 11
-335.4334475641408
 21
200.25
 31
0.0
  0
LINE
  5
361
  8
1
  6
CONTINUOUS
 62
     9
 10
-335.5032625064669
 20
200.3198149423261
 30
0.0
 11
-335.4334475641408
 21
200.25
 31
0.0
  0
LINE
  5
362
  8
1
  6
CONTINUOUS
 62
     7
 10
-335.5032625064669
 20
200.3198149423261
 30
0.0
 11
-251.9770819074443
 21
200.3198149423261
 31
0.0
  0
LINE
  5
363
  8
1
  6
CONTINUOUS
 62
     7
 10
-248.9771961382518
 20
200.2938628049185
 30
0.0
 11
-251.9770819074443
 21
200.3198149423261
 31
0.0
  0
LINE
  5
364
  8
1
  6
CONTINUOUS
 62
     7
 10
-248.9771961382518
 20
200.2938628049185
 30
0.0
 11
-248.9333333333333
 21
200.25
 31
0.0
  0
LINE
  5
365
  8
1
  6
CONTINUOUS
 62
     7
 10
-347.9333333333333
 20
207.9278238509294
 30
0.0
 11
-347.9333333333333
 21
180.25
 31
0.0
  0
LINE
  5
366
  8
1
  6
CONTINUOUS
 62
     7
 10
-347.9333333333333
 20
207.9278238509294
 30
0.0
 11
-347.8721691034764
 21
207.8666596210725
 31
0.0
  0
LINE
  5
367
  8
1
  6
CONTINUOUS
 62
     9
 10
-347.8721691034764
 20
205.2024373620661
 30
0.0
 11
-347.8721691034764
 21
207.8666596210725
 31
0.0
  0
LINE
  5
368
  8
1
  6
CONTINUOUS
 62
     7
 10
-347.9246064655426
 20
205.15
 30
0.0
 11
-347.8721691034764
 21
205.2024373620661
 31
0.0
  0
LINE
  5
369
  8
1
  6
CONTINUOUS
 62
     7
 10
-347.9246064655426
 20
202.25
 30
0.0
 11
-347.9246064655426
 21
205.1500000000001
 31
0.0
  0
LINE
  5
36A
  8
1
  6
CONTINUOUS
 62
     7
 10
-347.8721691034764
 20
202.1975626379339
 30
0.0
 11
-347.9246064655426
 21
202.25
 31
0.0
  0
LINE
  5
36B
  8
1
  6
CONTINUOUS
 62
     9
 10
-347.8721691034764
 20
200.3024373620661
 30
0.0
 11
-347.8721691034764
 21
202.1975626379339
 31
0.0
  0
LINE
  5
36C
  8
1
  6
CONTINUOUS
 62
     7
 10
-347.9246064655426
 20
200.25
 30
0.0
 11
-347.8721691034764
 21
200.3024373620661
 31
0.0
  0
LINE
  5
36D
  8
1
  6
CONTINUOUS
 62
     7
 10
-347.9246064655426
 20
191.2500380769359
 30
0.0
 11
-347.9246064655426
 21
200.25
 31
0.0
  0
LINE
  5
36E
  8
1
  6
CONTINUOUS
 62
     9
 10
-347.8635183910072
 20
191.1889500024005
 30
0.0
 11
-347.9246064655426
 21
191.2500380769359
 31
0.0
  0
LINE
  5
36F
  8
1
  6
CONTINUOUS
 62
     7
 10
-347.8635183910072
 20
181.3111261529211
 30
0.0
 11
-347.8635183910072
 21
191.1889500024005
 31
0.0
  0
LINE
  5
370
  8
1
  6
CONTINUOUS
 62
     7
 10
-347.8721691034764
 20
180.3111642298569
 30
0.0
 11
-347.8635183910072
 21
181.3111261529211
 31
0.0
  0
LINE
  5
371
  8
1
  6
CONTINUOUS
 62
     7
 10
-347.8721691034764
 20
180.3111642298569
 30
0.0
 11
-347.9333333333333
 21
180.25
 31
0.0
  0
POLYLINE
  5
372
  8
1
  6
CONTINUOUS
 62
     7
 66
     1
 10
0.0
 20
0.0
 30
0.0
  0
VERTEX
  5
6FD
  8
1
  6
CONTINUOUS
 62
     7
 10
-335.5032625064669
 20
200.3198149423261
 30
0.0
  0
VERTEX
  5
6FE
  8
1
  6
CONTINUOUS
 62
     7
 10
-336.0885233579733
 20
200.2621741598433
 30
0.0
  0
VERTEX
  5
6FF
  8
1
  6
CONTINUOUS
 62
     7
 10
-336.6512863578985
 20
200.091466701259
 30
0.0
  0
VERTEX
  5
700
  8
1
  6
CONTINUOUS
 62
     7
 10
-337.1699269298931
 20
199.8142521244548
 30
0.0
  0
VERTEX
  5
701
  8
1
  6
CONTINUOUS
 62
     7
 10
-337.6245159338949
 20
199.4411826005615
 30
0.0
  0
VERTEX
  5
702
  8
1
  6
CONTINUOUS
 62
     7
 10
-337.997585457788
 20
198.9865935965597
 30
0.0
  0
VERTEX
  5
703
  8
1
  6
CONTINUOUS
 62
     7
 10
-338.2748000345923
 20
198.4679530245652
 30
0.0
  0
VERTEX
  5
704
  8
1
  6
CONTINUOUS
 62
     7
 10
-338.4455074931766
 20
197.9051900246399
 30
0.0
  0
VERTEX
  5
705
  8
1
  6
CONTINUOUS
 62
     7
 10
-338.5031482756594
 20
197.3199291731336
 30
0.0
  0
SEQEND
  5
A20
  8
1
  6
CONTINUOUS
 62
     7
  0
LINE
  5
373
  8
1
  6
CONTINUOUS
 62
     7
 10
-338.5031482756594
 20
197.3199291731336
 30
0.0
 11
-338.5031482756594
 21
171.0416701901887
 31
0.0
  0
LINE
  5
374
  8
1
  6
CONTINUOUS
 62
     9
 10
-341.0360227950883
 20
171.0416701901887
 30
0.0
 11
-338.5031482756594
 21
171.0416701901887
 31
0.0
  0
LINE
  5
375
  8
1
  6
CONTINUOUS
 62
     7
 10
-341.0360227950883
 20
161.8583298098113
 30
0.0
 11
-341.0360227950883
 21
171.0416701901887
 31
0.0
  0
LINE
  5
376
  8
1
  6
CONTINUOUS
 62
     9
 10
-338.5031482756594
 20
161.8583298098113
 30
0.0
 11
-341.0360227950883
 21
161.8583298098114
 31
0.0
  0
LINE
  5
377
  8
1
  6
CONTINUOUS
 62
     7
 10
-338.5031482756594
 20
161.8583298098113
 30
0.0
 11
-338.5031482756594
 21
161.3111261529211
 31
0.0
  0
LINE
  5
378
  8
1
  6
CONTINUOUS
 62
     9
 10
-344.3635183910072
 20
161.3111261529211
 30
0.0
 11
-338.5031482756594
 21
161.3111261529211
 31
0.0
  0
LINE
  5
379
  8
1
  6
CONTINUOUS
 62
     7
 10
-344.3635183910072
 20
161.3111261529211
 30
0.0
 11
-344.3635183910072
 21
171.5976007148698
 31
0.0
  0
LINE
  5
37A
  8
1
  6
CONTINUOUS
 62
     9
 10
-340.372245258798
 20
171.5976007148697
 30
0.0
 11
-344.3635183910073
 21
171.5976007148697
 31
0.0
  0
LINE
  5
37B
  8
1
  6
CONTINUOUS
 62
     7
 10
-340.372245258798
 20
189.7023992851303
 30
0.0
 11
-340.372245258798
 21
171.5976007148697
 31
0.0
  0
LINE
  5
37C
  8
1
  6
CONTINUOUS
 62
     9
 10
-344.3635183910072
 20
189.7023992851303
 30
0.0
 11
-340.372245258798
 21
189.7023992851303
 31
0.0
  0
LINE
  5
37D
  8
1
  6
CONTINUOUS
 62
     7
 10
-344.3635183910072
 20
189.7023992851303
 30
0.0
 11
-344.3635183910072
 21
190.3198149423261
 31
0.0
  0
LINE
  5
37E
  8
1
  6
CONTINUOUS
 62
     7
 10
-344.3635183910072
 20
190.3198149423261
 30
0.0
 11
-346.0031482756594
 21
190.3198149423261
 31
0.0
  0
LINE
  5
37F
  8
1
  6
CONTINUOUS
 62
     7
 10
-346.0031482756594
 20
190.3198149423261
 30
0.0
 11
-346.0031482756594
 21
181.311126152921
 31
0.0
  0
LINE
  5
380
  8
1
  6
CONTINUOUS
 62
     9
 10
-347.8635183910072
 20
181.3111261529211
 30
0.0
 11
-346.0031482756594
 21
181.3111261529211
 31
0.0
  0
POLYLINE
  5
381
  8
1
  6
CONTINUOUS
 62
     7
 66
     1
 10
0.0
 20
0.0
 30
0.0
  0
VERTEX
  5
706
  8
1
  6
CONTINUOUS
 62
     7
 10
-346.8635564679432
 20
192.1889119254647
 30
0.0
  0
VERTEX
  5
707
  8
1
  6
CONTINUOUS
 62
     7
 10
-347.0586434184453
 20
192.1696983313038
 30
0.0
  0
VERTEX
  5
708
  8
1
  6
CONTINUOUS
 62
     7
 10
-347.2462310850871
 20
192.112795845109
 30
0.0
  0
VERTEX
  5
709
  8
1
  6
CONTINUOUS
 62
     7
 10
-347.4191112757518
 20
192.0203909861743
 30
0.0
  0
VERTEX
  5
70A
  8
1
  6
CONTINUOUS
 62
     7
 10
-347.5706409437524
 20
191.8960344782099
 30
0.0
  0
VERTEX
  5
70B
  8
1
  6
CONTINUOUS
 62
     7
 10
-347.6949974517169
 20
191.7445048102093
 30
0.0
  0
VERTEX
  5
70C
  8
1
  6
CONTINUOUS
 62
     7
 10
-347.7874023106515
 20
191.5716246195444
 30
0.0
  0
VERTEX
  5
70D
  8
1
  6
CONTINUOUS
 62
     7
 10
-347.8443047968464
 20
191.3840369529026
 30
0.0
  0
VERTEX
  5
70E
  8
1
  6
CONTINUOUS
 62
     7
 10
-347.8635183910073
 20
191.1889500024005
 30
0.0
  0
SEQEND
  5
A21
  8
1
  6
CONTINUOUS
 62
     7
  0
LINE
  5
382
  8
1
  6
CONTINUOUS
 62
     7
 10
-346.8635564679431
 20
192.1889119254647
 30
0.0
 11
-341.872245258798
 21
192.1889119254647
 31
0.0
  0
LINE
  5
383
  8
1
  6
CONTINUOUS
 62
     7
 10
-341.872245258798
 20
192.1889119254647
 30
0.0
 11
-341.872245258798
 21
200.3110880745353
 31
0.0
  0
LINE
  5
384
  8
1
  6
CONTINUOUS
 62
     7
 10
-341.872245258798
 20
200.3110880745353
 30
0.0
 11
-346.8722071804123
 21
200.3110880745353
 31
0.0
  0
LINE
  5
385
  8
1
  6
CONTINUOUS
 62
     9
 10
-346.8722071804123
 20
202.1889119254647
 30
0.0
 11
-346.8722071804123
 21
200.3110880745353
 31
0.0
  0
LINE
  5
386
  8
1
  6
CONTINUOUS
 62
     7
 10
-346.8722071804123
 20
202.1889119254647
 30
0.0
 11
-341.872245258798
 21
202.1889119254647
 31
0.0
  0
LINE
  5
387
  8
1
  6
CONTINUOUS
 62
     7
 10
-341.872245258798
 20
202.1889119254647
 30
0.0
 11
-341.872245258798
 21
205.2110880745354
 31
0.0
  0
LINE
  5
388
  8
1
  6
CONTINUOUS
 62
     7
 10
-341.872245258798
 20
205.2110880745353
 30
0.0
 11
-346.8722071804123
 21
205.2110880745353
 31
0.0
  0
LINE
  5
389
  8
1
  6
CONTINUOUS
 62
     9
 10
-346.8722071804123
 20
207.8580089086033
 30
0.0
 11
-346.8722071804123
 21
205.2110880745354
 31
0.0
  0
LINE
  5
38A
  8
1
  6
CONTINUOUS
 62
     7
 10
-341.9333333333333
 20
207.8580089086033
 30
0.0
 11
-346.8722071804123
 21
207.8580089086033
 31
0.0
  0
LINE
  5
38B
  8
1
  6
CONTINUOUS
 62
     7
 10
-341.9333333333333
 20
212.6419910913967
 30
0.0
 11
-341.9333333333333
 21
207.8580089086033
 31
0.0
  0
LINE
  5
38C
  8
1
  6
CONTINUOUS
 62
     9
 10
-346.8722071804123
 20
215.2889119254647
 30
0.0
 11
-346.8722071804123
 21
212.6419910913967
 31
0.0
  0
LINE
  5
38D
  8
1
  6
CONTINUOUS
 62
     7
 10
-346.8722071804123
 20
215.2889119254647
 30
0.0
 11
-341.872245258798
 21
215.2889119254647
 31
0.0
  0
LINE
  5
38E
  8
1
  6
CONTINUOUS
 62
     7
 10
-341.872245258798
 20
215.2889119254647
 30
0.0
 11
-341.872245258798
 21
218.3110880745353
 31
0.0
  0
LINE
  5
38F
  8
1
  6
CONTINUOUS
 62
     9
 10
-346.8722071804123
 20
220.180185057674
 30
0.0
 11
-346.8722071804123
 21
218.3110880745353
 31
0.0
  0
LINE
  5
390
  8
1
  6
CONTINUOUS
 62
     7
 10
-346.8722071804123
 20
220.180185057674
 30
0.0
 11
-339.4682027275605
 21
220.180185057674
 31
0.0
  0
POLYLINE
  5
391
  8
1
  6
CONTINUOUS
 62
     7
 66
     1
 10
0.0
 20
0.0
 30
0.0
  0
VERTEX
  5
70F
  8
1
  6
CONTINUOUS
 62
     7
 10
-338.4682408044964
 20
219.1802231346098
 30
0.0
  0
VERTEX
  5
710
  8
1
  6
CONTINUOUS
 62
     7
 10
-338.4874543986573
 20
219.3753100851119
 30
0.0
  0
VERTEX
  5
711
  8
1
  6
CONTINUOUS
 62
     7
 10
-338.5443568848521
 20
219.5628977517537
 30
0.0
  0
VERTEX
  5
712
  8
1
  6
CONTINUOUS
 62
     7
 10
-338.6367617437868
 20
219.7357779424185
 30
0.0
  0
VERTEX
  5
713
  8
1
  6
CONTINUOUS
 62
     7
 10
-338.7611182517512
 20
219.8873076104191
 30
0.0
  0
VERTEX
  5
714
  8
1
  6
CONTINUOUS
 62
     7
 10
-338.9126479197518
 20
220.0116641183835
 30
0.0
  0
VERTEX
  5
715
  8
1
  6
CONTINUOUS
 62
     7
 10
-339.0855281104166
 20
220.1040689773183
 30
0.0
  0
VERTEX
  5
716
  8
1
  6
CONTINUOUS
 62
     7
 10
-339.2731157770584
 20
220.160971463513
 30
0.0
  0
VERTEX
  5
717
  8
1
  6
CONTINUOUS
 62
     7
 10
-339.4682027275605
 20
220.180185057674
 30
0.0
  0
SEQEND
  5
A22
  8
1
  6
CONTINUOUS
 62
     7
  0
LINE
  5
392
  8
1
  6
CONTINUOUS
 62
     7
 10
-338.4682408044964
 20
219.1802231346098
 30
0.0
 11
-338.4682408044964
 21
203.2150544519012
 31
0.0
  0
POLYLINE
  5
393
  8
1
  6
CONTINUOUS
 62
     7
 66
     1
 10
0.0
 20
0.0
 30
0.0
  0
VERTEX
  5
718
  8
1
  6
CONTINUOUS
 62
     7
 10
-338.4682408044964
 20
203.2150544519012
 30
0.0
  0
VERTEX
  5
719
  8
1
  6
CONTINUOUS
 62
     7
 10
-338.4490272103354
 20
203.0199675013991
 30
0.0
  0
VERTEX
  5
71A
  8
1
  6
CONTINUOUS
 62
     7
 10
-338.3921247241406
 20
202.8323798347573
 30
0.0
  0
VERTEX
  5
71B
  8
1
  6
CONTINUOUS
 62
     7
 10
-338.2997198652059
 20
202.6594996440924
 30
0.0
  0
VERTEX
  5
71C
  8
1
  6
CONTINUOUS
 62
     7
 10
-338.1753633572415
 20
202.5079699760919
 30
0.0
  0
VERTEX
  5
71D
  8
1
  6
CONTINUOUS
 62
     7
 10
-338.0238336892409
 20
202.3836134681274
 30
0.0
  0
VERTEX
  5
71E
  8
1
  6
CONTINUOUS
 62
     7
 10
-337.8509534985761
 20
202.2912086091927
 30
0.0
  0
VERTEX
  5
71F
  8
1
  6
CONTINUOUS
 62
     7
 10
-337.6633658319344
 20
202.2343061229979
 30
0.0
  0
VERTEX
  5
720
  8
1
  6
CONTINUOUS
 62
     7
 10
-337.4682788814322
 20
202.215092528837
 30
0.0
  0
SEQEND
  5
A23
  8
1
  6
CONTINUOUS
 62
     7
  0
LINE
  5
394
  8
1
  6
CONTINUOUS
 62
     7
 10
-301.6984258621703
 20
202.215092528837
 30
0.0
 11
-337.4682788814322
 21
202.215092528837
 31
0.0
  0
LINE
  5
395
  8
1
  6
CONTINUOUS
 62
     7
 10
-301.6984258621703
 20
202.215092528837
 30
0.0
 11
-301.6984258621703
 21
204.6889119254647
 31
0.0
  0
LINE
  5
396
  8
1
  6
CONTINUOUS
 62
     7
 10
-301.6984258621703
 20
204.6889119254647
 30
0.0
 11
-300.1682408044964
 21
204.6889119254647
 31
0.0
  0
LINE
  5
397
  8
1
  6
CONTINUOUS
 62
     7
 10
-300.1682408044964
 20
204.6889119254647
 30
0.0
 11
-300.1682408044964
 21
202.215092528837
 31
0.0
  0
LINE
  5
398
  8
1
  6
CONTINUOUS
 62
     7
 10
-292.1984258621703
 20
202.215092528837
 30
0.0
 11
-300.1682408044964
 21
202.215092528837
 31
0.0
  0
LINE
  5
399
  8
1
  6
CONTINUOUS
 62
     7
 10
-292.1984258621703
 20
202.215092528837
 30
0.0
 11
-292.1984258621703
 21
203.723781318242
 31
0.0
  0
LINE
  5
39A
  8
1
  6
CONTINUOUS
 62
     9
 10
-290.6682408044963
 20
203.723781318242
 30
0.0
 11
-292.1984258621703
 21
203.723781318242
 31
0.0
  0
LINE
  5
39B
  8
1
  6
CONTINUOUS
 62
     7
 10
-290.6682408044963
 20
203.723781318242
 30
0.0
 11
-290.6682408044963
 21
202.215092528837
 31
0.0
  0
LINE
  5
39C
  8
1
  6
CONTINUOUS
 62
     7
 10
-251.9770819074443
 20
202.215092528837
 30
0.0
 11
-290.6682408044963
 21
202.215092528837
 31
0.0
  0
LINE
  5
39D
  8
1
  6
CONTINUOUS
 62
     9
 10
-251.9770819074443
 20
200.3198149423261
 30
0.0
 11
-251.9770819074443
 21
202.215092528837
 31
0.0
  0
LINE
  5
39E
  8
1
  6
CONTINUOUS
 62
     7
 10
-344.3635183910072
 20
190.3198149423261
 30
0.0
 11
-344.4333333333333
 21
190.25
 31
0.0
  0
LINE
  5
39F
  8
1
  6
CONTINUOUS
 62
     7
 10
-345.9333333333333
 20
190.25
 30
0.0
 11
-344.4333333333333
 21
190.25
 31
0.0
  0
LINE
  5
3A0
  8
1
  6
CONTINUOUS
 62
     7
 10
-346.0031482756594
 20
190.3198149423261
 30
0.0
 11
-345.9333333333333
 21
190.25
 31
0.0
  0
LINE
  5
3A1
  8
1
  6
CONTINUOUS
 62
     9
 10
-338.4276782653283
 20
219.2207856737779
 30
0.0
 11
-338.4682408044964
 21
219.1802231346098
 31
0.0
  0
LINE
  5
3A2
  8
1
  6
CONTINUOUS
 62
     7
 10
-338.4321173502747
 20
218.2165369764104
 30
0.0
 11
-338.4276782653283
 21
219.2207856737779
 31
0.0
  0
LINE
  5
3A3
  8
1
  6
CONTINUOUS
 62
     7
 10
-338.4332571722115
 20
203.2500380841861
 30
0.0
 11
-338.4321173502747
 21
218.2165369764104
 31
0.0
  0
LINE
  5
3A4
  8
1
  6
CONTINUOUS
 62
     9
 10
-338.4682408044964
 20
203.2150544519012
 30
0.0
 11
-338.4332571722115
 21
203.2500380841861
 31
0.0
  0
LINE
  5
3A5
  8
1
  6
CONTINUOUS
 62
     7
 10
-344.4246064655426
 20
188.65
 30
0.0
 11
-344.4246064655426
 21
172.65
 31
0.0
  0
LINE
  5
3A6
  8
1
  6
CONTINUOUS
 62
     7
 10
-344.4246064655426
 20
172.65
 30
0.0
 11
-344.3721691034764
 21
172.5975626379339
 31
0.0
  0
LINE
  5
3A7
  8
1
  6
CONTINUOUS
 62
     7
 10
-344.3635183910072
 20
171.5976007148697
 30
0.0
 11
-344.3721691034764
 21
172.5975626379339
 31
0.0
  0
LINE
  5
3A8
  8
1
  6
CONTINUOUS
 62
     7
 10
-344.3721691034764
 20
160.3111642298569
 30
0.0
 11
-344.3635183910072
 21
161.3111261529211
 31
0.0
  0
LINE
  5
3A9
  8
1
  6
CONTINUOUS
 62
     7
 10
-344.3721691034764
 20
160.3111642298569
 30
0.0
 11
-344.4333333333333
 21
160.25
 31
0.0
  0
LINE
  5
3AA
  8
1
  6
CONTINUOUS
 62
     7
 10
-344.4333333333333
 20
164.25
 30
0.0
 11
-344.4333333333333
 21
160.25
 31
0.0
  0
LINE
  5
3AB
  8
1
  6
CONTINUOUS
 62
     7
 10
-344.4333333333333
 20
164.25
 30
0.0
 11
-344.4333333333333
 21
168.65
 31
0.0
  0
LINE
  5
3AC
  8
1
  6
CONTINUOUS
 62
     7
 10
-344.4333333333333
 20
190.25
 30
0.0
 11
-344.4333333333333
 21
168.65
 31
0.0
  0
LINE
  5
3AD
  8
1
  6
CONTINUOUS
 62
     7
 10
-344.3721691034764
 20
188.7024373620661
 30
0.0
 11
-344.3635183910072
 21
189.7023992851303
 31
0.0
  0
LINE
  5
3AE
  8
1
  6
CONTINUOUS
 62
     7
 10
-344.3721691034764
 20
188.7024373620661
 30
0.0
 11
-344.4246064655426
 21
188.65
 31
0.0
  0
LINE
  5
3AF
  8
1
  6
CONTINUOUS
 62
     7
 10
-347.8111571842627
 20
208.05
 30
0.0
 11
-347.9333333333333
 21
207.9278238509294
 31
0.0
  0
LINE
  5
3B0
  8
1
  6
CONTINUOUS
 62
     7
 10
-347.8111571842627
 20
208.05
 30
0.0
 11
-342.4333333333333
 21
208.05
 31
0.0
  0
LINE
  5
3B1
  8
1
  6
CONTINUOUS
 62
     7
 10
-342.4333333333333
 20
208.05
 30
0.0
 11
-342.4333333333333
 21
208.041516791474
 31
0.0
  0
LINE
  5
3B2
  8
1
  6
CONTINUOUS
 62
     7
 10
-342.4333333333333
 20
208.041516791474
 30
0.0
 11
-341.9333333333333
 21
208.041516791474
 31
0.0
  0
LINE
  5
3B3
  8
1
  6
CONTINUOUS
 62
     7
 10
-347.8721691034764
 20
207.8666596210725
 30
0.0
 11
-346.8722071804123
 21
207.8580089086033
 31
0.0
  0
LINE
  5
3B4
  8
1
  6
CONTINUOUS
 62
     7
 10
-338.4333333333333
 20
160.25
 30
0.0
 11
-338.4333333333333
 21
162.9194559627324
 31
0.0
  0
LINE
  5
3B5
  8
1
  6
CONTINUOUS
 62
     7
 10
-338.4944975631902
 20
160.3111642298569
 30
0.0
 11
-338.4333333333333
 21
160.25
 31
0.0
  0
LINE
  5
3B6
  8
1
  6
CONTINUOUS
 62
     7
 10
-338.5031482756594
 20
161.3111261529211
 30
0.0
 11
-338.4944975631902
 21
160.3111642298569
 31
0.0
  0
LINE
  5
3B7
  8
1
  6
CONTINUOUS
 62
     7
 10
-338.4944975631902
 20
162.8582917328755
 30
0.0
 11
-338.5031482756594
 21
161.8583298098113
 31
0.0
  0
LINE
  5
3B8
  8
1
  6
CONTINUOUS
 62
     7
 10
-338.4944975631902
 20
162.8582917328755
 30
0.0
 11
-338.4333333333333
 21
162.9194559627323
 31
0.0
  0
LINE
  5
3B9
  8
1
  6
CONTINUOUS
 62
     7
 10
-340.3808959712672
 20
172.5975626379339
 30
0.0
 11
-340.372245258798
 21
171.5976007148697
 31
0.0
  0
LINE
  5
3BA
  8
1
  6
CONTINUOUS
 62
     7
 10
-340.4333333333333
 20
172.65
 30
0.0
 11
-340.3808959712673
 21
172.5975626379339
 31
0.0
  0
LINE
  5
3BB
  8
1
  6
CONTINUOUS
 62
     7
 10
-340.4333333333333
 20
188.65
 30
0.0
 11
-340.4333333333333
 21
172.65
 31
0.0
  0
LINE
  5
3BC
  8
1
  6
CONTINUOUS
 62
     7
 10
-340.3808959712672
 20
188.7024373620661
 30
0.0
 11
-340.4333333333333
 21
188.65
 31
0.0
  0
LINE
  5
3BD
  8
1
  6
CONTINUOUS
 62
     7
 10
-340.372245258798
 20
189.7023992851303
 30
0.0
 11
-340.3808959712673
 21
188.7024373620661
 31
0.0
  0
LINE
  5
3BE
  8
1
  6
CONTINUOUS
 62
     7
 10
-347.8721691034764
 20
220.1888357701431
 30
0.0
 11
-346.8722071804123
 21
220.180185057674
 31
0.0
  0
LINE
  5
3BF
  8
1
  6
CONTINUOUS
 62
     7
 10
-347.8721691034764
 20
220.1888357701431
 30
0.0
 11
-347.9333333333333
 21
220.25
 31
0.0
  0
LINE
  5
3C0
  8
1
  6
CONTINUOUS
 62
     7
 10
-315.9333333333333
 20
220.25
 30
0.0
 11
-347.9333333333333
 21
220.25
 31
0.0
  0
LINE
  5
3C1
  8
1
  6
CONTINUOUS
 62
     7
 10
-315.9457396543148
 20
220.2251873580371
 30
0.0
 11
-315.9333333333333
 21
220.25
 31
0.0
  0
LINE
  5
3C2
  8
1
  6
CONTINUOUS
 62
     7
 10
-339.4232004271973
 20
220.2251873580371
 30
0.0
 11
-315.9457396543148
 21
220.2251873580371
 31
0.0
  0
LINE
  5
3C3
  8
1
  6
CONTINUOUS
 62
     9
 10
-339.4682027275605
 20
220.180185057674
 30
0.0
 11
-339.4232004271973
 21
220.2251873580371
 31
0.0
  0
LINE
  5
3C4
  8
1
  6
CONTINUOUS
 62
     7
 10
-341.872245258798
 20
202.1889119254647
 30
0.0
 11
-341.9333333333333
 21
202.25
 31
0.0
  0
LINE
  5
3C5
  8
1
  6
CONTINUOUS
 62
     7
 10
-341.9333333333333
 20
202.25
 30
0.0
 11
-341.9333333333333
 21
205.1500000000001
 31
0.0
  0
LINE
  5
3C6
  8
1
  6
CONTINUOUS
 62
     7
 10
-341.9333333333333
 20
205.15
 30
0.0
 11
-341.872245258798
 21
205.2110880745353
 31
0.0
  0
LINE
  5
3C7
  8
1
  6
CONTINUOUS
 62
     7
 10
-341.9333333333333
 20
200.25
 30
0.0
 11
-341.872245258798
 21
200.3110880745353
 31
0.0
  0
LINE
  5
3C8
  8
1
  6
CONTINUOUS
 62
     7
 10
-347.9246064655426
 20
200.25
 30
0.0
 11
-341.9333333333333
 21
200.25
 31
0.0
  0
LINE
  5
3C9
  8
1
  6
CONTINUOUS
 62
     7
 10
-346.8722071804123
 20
200.3110880745353
 30
0.0
 11
-347.8721691034764
 21
200.3024373620661
 31
0.0
  0
LINE
  5
3CA
  8
1
  6
CONTINUOUS
 62
     7
 10
-341.872245258798
 20
192.1889119254647
 30
0.0
 11
-341.9333333333333
 21
192.25
 31
0.0
  0
LINE
  5
3CB
  8
1
  6
CONTINUOUS
 62
     7
 10
-341.9333333333333
 20
192.25
 30
0.0
 11
-341.9333333333333
 21
200.25
 31
0.0
  0
POLYLINE
  5
3CC
  8
1
  6
CONTINUOUS
 62
     7
 66
     1
 10
0.0
 20
0.0
 30
0.0
  0
VERTEX
  5
721
  8
1
  6
CONTINUOUS
 62
     7
 10
-335.4334475641409
 20
200.25
 30
0.0
  0
VERTEX
  5
722
  8
1
  6
CONTINUOUS
 62
     7
 10
-336.0187084156472
 20
200.1923592175172
 30
0.0
  0
VERTEX
  5
723
  8
1
  6
CONTINUOUS
 62
     7
 10
-336.5814714155725
 20
200.0216517589329
 30
0.0
  0
VERTEX
  5
724
  8
1
  6
CONTINUOUS
 62
     7
 10
-337.100111987567
 20
199.7444371821287
 30
0.0
  0
VERTEX
  5
725
  8
1
  6
CONTINUOUS
 62
     7
 10
-337.5547009915688
 20
199.3713676582355
 30
0.0
  0
VERTEX
  5
726
  8
1
  6
CONTINUOUS
 62
     7
 10
-337.927770515462
 20
198.9167786542336
 30
0.0
  0
VERTEX
  5
727
  8
1
  6
CONTINUOUS
 62
     7
 10
-338.2049850922662
 20
198.3981380822391
 30
0.0
  0
VERTEX
  5
728
  8
1
  6
CONTINUOUS
 62
     7
 10
-338.3756925508505
 20
197.8353750823138
 30
0.0
  0
VERTEX
  5
729
  8
1
  6
CONTINUOUS
 62
     7
 10
-338.4333333333333
 20
197.2501142308075
 30
0.0
  0
SEQEND
  5
A24
  8
1
  6
CONTINUOUS
 62
     7
  0
LINE
  5
3CD
  8
1
  6
CONTINUOUS
 62
     9
 10
-338.4333333333333
 20
197.2501142308075
 30
0.0
 11
-338.5031482756594
 21
197.3199291731336
 31
0.0
  0
LINE
  5
3CE
  8
1
  6
CONTINUOUS
 62
     7
 10
-300.1682408044964
 20
202.215092528837
 30
0.0
 11
-300.1333333333334
 21
202.25
 31
0.0
  0
LINE
  5
3CF
  8
1
  6
CONTINUOUS
 62
     7
 10
-300.1682408044964
 20
204.6889119254647
 30
0.0
 11
-300.1331449172985
 21
204.7240078126626
 31
0.0
  0
LINE
  5
3D0
  8
1
  6
CONTINUOUS
 62
     7
 10
-300.1331449172985
 20
204.7240078126626
 30
0.0
 11
-300.1333333333334
 21
202.25
 31
0.0
  0
LINE
  5
3D1
  8
1
  6
CONTINUOUS
 62
     7
 10
-301.6984258621703
 20
204.6889119254647
 30
0.0
 11
-301.7335217493682
 21
204.7240078126626
 31
0.0
  0
LINE
  5
3D2
  8
1
  6
CONTINUOUS
 62
     7
 10
-301.6984258621703
 20
202.215092528837
 30
0.0
 11
-301.7333333333333
 21
202.25
 31
0.0
  0
LINE
  5
3D3
  8
1
  6
CONTINUOUS
 62
     7
 10
-301.7333333333333
 20
202.25
 30
0.0
 11
-301.7335217493682
 21
204.7240078126626
 31
0.0
  0
LINE
  5
3D4
  8
1
  6
CONTINUOUS
 62
     7
 10
-347.9246064655426
 20
205.15
 30
0.0
 11
-341.9333333333333
 21
205.15
 31
0.0
  0
LINE
  5
3D5
  8
1
  6
CONTINUOUS
 62
     7
 10
-346.8722071804123
 20
205.2110880745353
 30
0.0
 11
-347.8721691034764
 21
205.2024373620661
 31
0.0
  0
LINE
  5
3D6
  8
1
  6
CONTINUOUS
 62
     9
 10
-344.3721691034764
 20
172.5975626379339
 30
0.0
 11
-340.3808959712672
 21
172.5975626379339
 31
0.0
  0
LINE
  5
3D7
  8
1
  6
CONTINUOUS
 62
     7
 10
-347.9246064655426
 20
215.35
 30
0.0
 11
-341.9333333333333
 21
215.35
 31
0.0
  0
LINE
  5
3D8
  8
1
  6
CONTINUOUS
 62
     7
 10
-341.872245258798
 20
215.2889119254647
 30
0.0
 11
-341.9333333333333
 21
215.35
 31
0.0
  0
LINE
  5
3D9
  8
1
  6
CONTINUOUS
 62
     7
 10
-347.8721691034764
 20
215.2975626379339
 30
0.0
 11
-346.8722071804123
 21
215.2889119254647
 31
0.0
  0
LINE
  5
3DA
  8
1
  6
CONTINUOUS
 62
     7
 10
-347.8721691034764
 20
215.2975626379339
 30
0.0
 11
-347.9246064655426
 21
215.35
 31
0.0
  0
LINE
  5
3DB
  8
1
  6
CONTINUOUS
 62
     9
 10
-345.9944975631902
 20
180.3111642298569
 30
0.0
 11
-347.8721691034764
 21
180.3111642298569
 31
0.0
  0
LINE
  5
3DC
  8
1
  6
CONTINUOUS
 62
     7
 10
-346.0031482756594
 20
181.3111261529211
 30
0.0
 11
-345.9944975631902
 21
180.3111642298569
 31
0.0
  0
POLYLINE
  5
3DD
  8
1
  6
CONTINUOUS
 62
     7
 66
     1
 10
0.0
 20
0.0
 30
0.0
  0
VERTEX
  5
72A
  8
1
  6
CONTINUOUS
 62
     7
 10
-346.9246445424785
 20
192.25
 30
0.0
  0
VERTEX
  5
72B
  8
1
  6
CONTINUOUS
 62
     7
 10
-347.1197314929805
 20
192.2307864058391
 30
0.0
  0
VERTEX
  5
72C
  8
1
  6
CONTINUOUS
 62
     7
 10
-347.3073191596223
 20
192.1738839196443
 30
0.0
  0
VERTEX
  5
72D
  8
1
  6
CONTINUOUS
 62
     7
 10
-347.4801993502871
 20
192.0814790607096
 30
0.0
  0
VERTEX
  5
72E
  8
1
  6
CONTINUOUS
 62
     7
 10
-347.6317290182877
 20
191.9571225527452
 30
0.0
  0
VERTEX
  5
72F
  8
1
  6
CONTINUOUS
 62
     7
 10
-347.7560855262521
 20
191.8055928847446
 30
0.0
  0
VERTEX
  5
730
  8
1
  6
CONTINUOUS
 62
     7
 10
-347.8484903851868
 20
191.6327126940797
 30
0.0
  0
VERTEX
  5
731
  8
1
  6
CONTINUOUS
 62
     7
 10
-347.9053928713817
 20
191.445125027438
 30
0.0
  0
VERTEX
  5
732
  8
1
  6
CONTINUOUS
 62
     7
 10
-347.9246064655426
 20
191.2500380769359
 30
0.0
  0
SEQEND
  5
A25
  8
1
  6
CONTINUOUS
 62
     7
  0
LINE
  5
3DE
  8
1
  6
CONTINUOUS
 62
     9
 10
-346.9246445424784
 20
192.25
 30
0.0
 11
-346.8635564679431
 21
192.1889119254647
 31
0.0
  0
LINE
  5
3DF
  8
1
  6
CONTINUOUS
 62
     7
 10
-341.9333333333333
 20
215.35
 30
0.0
 11
-341.9333333333333
 21
218.2500000000001
 31
0.0
  0
LINE
  5
3E0
  8
1
  6
CONTINUOUS
 62
     7
 10
-347.9246064655426
 20
202.25
 30
0.0
 11
-341.9333333333333
 21
202.25
 31
0.0
  0
LINE
  5
3E1
  8
1
  6
CONTINUOUS
 62
     7
 10
-347.8721691034764
 20
202.1975626379339
 30
0.0
 11
-346.8722071804123
 21
202.1889119254647
 31
0.0
  0
LINE
  5
3E2
  8
1
  6
CONTINUOUS
 62
     9
 10
-292.2070765746395
 20
204.7237432413062
 30
0.0
 11
-290.6595900920272
 21
204.7237432413062
 31
0.0
  0
LINE
  5
3E3
  8
1
  6
CONTINUOUS
 62
     7
 10
-290.6595900920272
 20
204.7237432413062
 30
0.0
 11
-290.6682408044963
 21
203.723781318242
 31
0.0
  0
LINE
  5
3E4
  8
1
  6
CONTINUOUS
 62
     7
 10
-292.1984258621703
 20
203.723781318242
 30
0.0
 11
-292.2070765746395
 21
204.7237432413062
 31
0.0
  0
LINE
  5
3E5
  8
1
  6
CONTINUOUS
 62
     7
 10
-338.4333333333333
 20
169.9805440372677
 30
0.0
 11
-338.4944975631903
 21
170.0417082671246
 31
0.0
  0
LINE
  5
3E6
  8
1
  6
CONTINUOUS
 62
     7
 10
-338.5031482756594
 20
171.0416701901887
 30
0.0
 11
-338.4944975631902
 21
170.0417082671246
 31
0.0
  0
LINE
  5
3E7
  8
1
  6
CONTINUOUS
 62
     7
 10
-338.4333333333333
 20
169.9805440372677
 30
0.0
 11
-338.4333333333333
 21
197.2501142308075
 31
0.0
  0
LINE
  5
3E8
  8
1
  6
CONTINUOUS
 62
     9
 10
-340.3808959712672
 20
188.7024373620661
 30
0.0
 11
-344.3721691034764
 21
188.7024373620661
 31
0.0
  0
LINE
  5
3E9
  8
1
  6
CONTINUOUS
 62
     7
 10
-346.9246445424784
 20
192.25
 30
0.0
 11
-341.9333333333333
 21
192.25
 31
0.0
  0
LINE
  5
3EA
  8
1
  6
CONTINUOUS
 62
     9
 10
-347.8721691034764
 20
218.3024373620661
 30
0.0
 11
-347.8721691034764
 21
220.1888357701431
 31
0.0
  0
LINE
  5
3EB
  8
1
  6
CONTINUOUS
 62
     7
 10
-292.2333333333333
 20
202.25
 30
0.0
 11
-300.1333333333334
 21
202.25
 31
0.0
  0
LINE
  5
3EC
  8
1
  6
CONTINUOUS
 62
     7
 10
-292.2333333333333
 20
202.25
 30
0.0
 11
-292.1984258621703
 21
202.215092528837
 31
0.0
  0
LINE
  5
3ED
  8
1
  6
CONTINUOUS
 62
     7
 10
-290.6333333333333
 20
202.25
 30
0.0
 11
-290.6682408044963
 21
202.215092528837
 31
0.0
  0
LINE
  5
3EE
  8
1
  6
CONTINUOUS
 62
     7
 10
-250.9770448492635
 20
202.25
 30
0.0
 11
-290.6333333333333
 21
202.25
 31
0.0
  0
LINE
  5
3EF
  8
1
  6
CONTINUOUS
 62
     7
 10
-248.959360594154
 20
202.2588802103424
 30
0.0
 11
-250.9770448492635
 21
202.25
 31
0.0
  0
LINE
  5
3F0
  8
1
  6
CONTINUOUS
 62
     7
 10
-248.9771961382518
 20
202.2410446662446
 30
0.0
 11
-248.959360594154
 21
202.2588802103424
 31
0.0
  0
LINE
  5
3F1
  8
1
  6
CONTINUOUS
 62
     7
 10
-251.9770819074443
 20
202.215092528837
 30
0.0
 11
-248.9771961382518
 21
202.2410446662446
 31
0.0
  0
LINE
  5
3F2
  8
1
  6
CONTINUOUS
 62
     9
 10
-248.9771961382518
 20
202.2410446662446
 30
0.0
 11
-248.9771961382518
 21
200.2938628049185
 31
0.0
  0
LINE
  5
3F3
  8
1
  6
CONTINUOUS
 62
     7
 10
-340.616760560824
 20
168.65
 30
0.0
 11
-340.4333333333333
 21
168.6805440372677
 31
0.0
  0
LINE
  5
3F4
  8
1
  6
CONTINUOUS
 62
     7
 10
-340.616760560824
 20
164.25
 30
0.0
 11
-340.6556029887984
 21
164.3786030565974
 31
0.0
  0
ARC
  5
3F5
  8
1
  6
CONTINUOUS
 62
     7
 10
-314.8247821289041
 20
166.3691209198134
 30
0.0
 40
25.90740179291879
 50
175.0020234094645
 51
184.4064927909575
  0
LINE
  5
3F6
  8
1
  6
CONTINUOUS
 62
     7
 10
-340.6336781611266
 20
168.6261883219225
 30
0.0
 11
-340.6167605608239
 21
168.65
 31
0.0
  0
LINE
  5
3F7
  8
1
  6
CONTINUOUS
 62
     7
 10
-340.616760560824
 20
164.25
 30
0.0
 11
-340.4333333333333
 21
164.2194559627324
 31
0.0
  0
LINE
  5
3F8
  8
1
  6
CONTINUOUS
 62
     7
 10
-340.4333333333333
 20
163.941311210595
 30
0.0
 11
-340.4333333333333
 21
164.2194559627324
 31
0.0
  0
LINE
  5
3F9
  8
1
  6
CONTINUOUS
 62
     7
 10
-340.48528377427
 20
162.9413492875308
 30
0.0
 11
-340.4333333333333
 21
163.941311210595
 31
0.0
  0
LINE
  5
3FA
  8
1
  6
CONTINUOUS
 62
     7
 10
-340.9840723541516
 20
162.8582917328755
 30
0.0
 11
-340.48528377427
 21
162.9413492875308
 31
0.0
  0
LINE
  5
3FB
  8
1
  6
CONTINUOUS
 62
     7
 10
-341.0360227950883
 20
161.8583298098113
 30
0.0
 11
-340.9840723541516
 21
162.8582917328755
 31
0.0
  0
LINE
  5
3FC
  8
1
  6
CONTINUOUS
 62
     7
 10
-340.9840723541516
 20
170.0417082671246
 30
0.0
 11
-341.0360227950883
 21
171.0416701901887
 31
0.0
  0
LINE
  5
3FD
  8
1
  6
CONTINUOUS
 62
     7
 10
-340.48528377427
 20
169.9586507124692
 30
0.0
 11
-340.9840723541516
 21
170.0417082671246
 31
0.0
  0
LINE
  5
3FE
  8
1
  6
CONTINUOUS
 62
     7
 10
-340.4333333333333
 20
168.9586887894051
 30
0.0
 11
-340.4852837742701
 21
169.9586507124692
 31
0.0
  0
LINE
  5
3FF
  8
1
  6
CONTINUOUS
 62
     7
 10
-340.4333333333333
 20
168.6805440372677
 30
0.0
 11
-340.4333333333333
 21
168.958688789405
 31
0.0
  0
LINE
  5
400
  8
1
  6
CONTINUOUS
 62
     7
 10
-345.9333333333333
 20
180.25
 30
0.0
 11
-345.9333333333333
 21
190.25
 31
0.0
  0
LINE
  5
401
  8
1
  6
CONTINUOUS
 62
     7
 10
-345.9944975631902
 20
180.3111642298569
 30
0.0
 11
-345.9333333333333
 21
180.25
 31
0.0
  0
LINE
  5
402
  8
1
  6
CONTINUOUS
 62
     7
 10
-300.1331449172985
 20
204.7240078126626
 30
0.0
 11
-296.4073411459959
 21
204.7240078126626
 31
0.0
  0
LINE
  5
403
  8
1
  6
CONTINUOUS
 62
     7
 10
-305.4593255206708
 20
204.7240078126626
 30
0.0
 11
-301.7335217493682
 21
204.7240078126626
 31
0.0
  0
LINE
  5
404
  8
1
  6
CONTINUOUS
 62
     7
 10
-305.4333333333333
 20
204.75
 30
0.0
 11
-305.4593255206708
 21
204.7240078126626
 31
0.0
  0
LINE
  5
405
  8
1
  6
CONTINUOUS
 62
     7
 10
-305.4333333333333
 20
204.75
 30
0.0
 11
-296.4333333333333
 21
204.75
 31
0.0
  0
LINE
  5
406
  8
1
  6
CONTINUOUS
 62
     7
 10
-296.4333333333333
 20
204.75
 30
0.0
 11
-296.4073411459959
 21
204.7240078126626
 31
0.0
  0
LINE
  5
407
  8
1
  6
CONTINUOUS
 62
     9
 10
-340.9840723541516
 20
162.8582917328755
 30
0.0
 11
-338.4944975631902
 21
162.8582917328755
 31
0.0
  0
LINE
  5
408
  8
1
  6
CONTINUOUS
 62
     9
 10
-338.4944975631902
 20
170.0417082671246
 30
0.0
 11
-340.9840723541516
 21
170.0417082671246
 31
0.0
  0
POLYLINE
  5
409
  8
1
  6
CONTINUOUS
 62
     7
 66
     1
 10
0.0
 20
0.0
 30
0.0
  0
VERTEX
  5
733
  8
1
  6
CONTINUOUS
 62
     7
 10
-338.4276782653283
 20
219.2207856737779
 30
0.0
  0
VERTEX
  5
734
  8
1
  6
CONTINUOUS
 62
     7
 10
-338.4460256870355
 20
219.4167387967337
 30
0.0
  0
VERTEX
  5
735
  8
1
  6
CONTINUOUS
 62
     7
 10
-338.5020952970739
 20
219.6051593395319
 30
0.0
  0
VERTEX
  5
736
  8
1
  6
CONTINUOUS
 62
     7
 10
-338.5937325800197
 20
219.7788071061856
 30
0.0
  0
VERTEX
  5
737
  8
1
  6
CONTINUOUS
 62
     7
 10
-338.7174163068268
 20
219.9310095553435
 30
0.0
  0
VERTEX
  5
738
  8
1
  6
CONTINUOUS
 62
     7
 10
-338.8683938406054
 20
220.0559181975299
 30
0.0
  0
VERTEX
  5
739
  8
1
  6
CONTINUOUS
 62
     7
 10
-339.0408637601415
 20
220.1487333275934
 30
0.0
  0
VERTEX
  5
73A
  8
1
  6
CONTINUOUS
 62
     7
 10
-339.2281987837133
 20
220.2058884568582
 30
0.0
  0
VERTEX
  5
73B
  8
1
  6
CONTINUOUS
 62
     7
 10
-339.4232004271973
 20
220.2251873580371
 30
0.0
  0
SEQEND
  5
A26
  8
1
  6
CONTINUOUS
 62
     7
  0
POLYLINE
  5
40A
  8
1
  6
CONTINUOUS
 62
     7
 66
     1
 10
0.0
 20
0.0
 30
0.0
  0
VERTEX
  5
73C
  8
1
  6
CONTINUOUS
 62
     7
 10
-338.4332571722114
 20
203.2500380841861
 30
0.0
  0
VERTEX
  5
73D
  8
1
  6
CONTINUOUS
 62
     7
 10
-338.4140584366573
 20
203.0549362750772
 30
0.0
  0
VERTEX
  5
73E
  8
1
  6
CONTINUOUS
 62
     7
 10
-338.3571702378937
 20
202.8673343210042
 30
0.0
  0
VERTEX
  5
73F
  8
1
  6
CONTINUOUS
 62
     7
 10
-338.2647785462096
 20
202.6944409630888
 30
0.0
  0
VERTEX
  5
740
  8
1
  6
CONTINUOUS
 62
     7
 10
-338.1404335793541
 20
202.5428997539792
 30
0.0
  0
VERTEX
  5
741
  8
1
  6
CONTINUOUS
 62
     7
 10
-337.9889133828453
 20
202.418533774523
 30
0.0
  0
VERTEX
  5
742
  8
1
  6
CONTINUOUS
 62
     7
 10
-337.8160402301062
 20
202.3261218776625
 30
0.0
  0
VERTEX
  5
743
  8
1
  6
CONTINUOUS
 62
     7
 10
-337.6284568973866
 20
202.2692150575456
 30
0.0
  0
VERTEX
  5
744
  8
1
  6
CONTINUOUS
 62
     7
 10
-337.4333714102692
 20
202.25
 30
0.0
  0
SEQEND
  5
A27
  8
1
  6
CONTINUOUS
 62
     7
  0
LINE
  5
40B
  8
1
  6
CONTINUOUS
 62
     9
 10
-337.4333714102692
 20
202.25
 30
0.0
 11
-337.4682788814322
 21
202.215092528837
 31
0.0
  0
LINE
  5
40C
  8
1
  6
CONTINUOUS
 62
     9
 10
-347.8721691034764
 20
212.6333403789275
 30
0.0
 11
-347.8721691034764
 21
215.2975626379339
 31
0.0
  0
LINE
  5
40D
  8
1
  6
CONTINUOUS
 62
     7
 10
-290.6333333333333
 20
202.25
 30
0.0
 11
-290.6331429232785
 21
204.7501904100549
 31
0.0
  0
LINE
  5
40E
  8
1
  6
CONTINUOUS
 62
     7
 10
-290.6331429232785
 20
204.7501904100549
 30
0.0
 11
-290.6595900920272
 21
204.7237432413062
 31
0.0
  0
LINE
  5
40F
  8
1
  6
CONTINUOUS
 62
     7
 10
-292.2335237433882
 20
204.7501904100549
 30
0.0
 11
-292.2333333333333
 21
202.25
 31
0.0
  0
LINE
  5
410
  8
1
  6
CONTINUOUS
 62
     7
 10
-292.2335237433882
 20
204.7501904100549
 30
0.0
 11
-292.2070765746395
 21
204.7237432413062
 31
0.0
  0
LINE
  5
411
  8
1
  6
CONTINUOUS
 62
     9
 10
-338.4944975631902
 20
160.3111642298569
 30
0.0
 11
-344.3721691034764
 21
160.3111642298569
 31
0.0
  0
LINE
  5
412
  8
1
  6
CONTINUOUS
 62
     7
 10
-301.7333333333333
 20
202.25
 30
0.0
 11
-337.4333714102691
 21
202.25
 31
0.0
  0
LINE
  5
413
  8
1
  6
CONTINUOUS
 62
     9
 10
-338.4552266581318
 20
162.9413492875308
 30
0.0
 11
-340.4852837742701
 21
162.9413492875308
 31
0.0
  0
LINE
  5
414
  8
1
  6
CONTINUOUS
 62
     7
 10
-338.4333333333333
 20
162.9194559627323
 30
0.0
 11
-338.4552266581318
 21
162.9413492875308
 31
0.0
  0
LINE
  5
415
  8
1
  6
CONTINUOUS
 62
     7
 10
-338.4552266581318
 20
169.9586507124692
 30
0.0
 11
-338.4333333333333
 21
169.9805440372677
 31
0.0
  0
LINE
  5
416
  8
1
  6
CONTINUOUS
 62
     9
 10
-340.48528377427
 20
169.9586507124692
 30
0.0
 11
-338.4552266581318
 21
169.9586507124692
 31
0.0
  0
LINE
  5
417
  8
1
  6
CONTINUOUS
 62
     7
 10
-344.4246064655426
 20
172.65
 30
0.0
 11
-340.4333333333333
 21
172.65
 31
0.0
  0
LINE
  5
418
  8
1
  6
CONTINUOUS
 62
     7
 10
-290.6331429232785
 20
204.7501904100549
 30
0.0
 11
-292.2335237433882
 21
204.7501904100549
 31
0.0
  0
LINE
  5
419
  8
1
  6
CONTINUOUS
 62
     7
 10
-347.9333333333333
 20
220.25
 30
0.0
 11
-347.9333333333333
 21
212.5721761490706
 31
0.0
  0
LINE
  5
41A
  8
1
  6
CONTINUOUS
 62
     7
 10
-347.9246064655426
 20
215.35
 30
0.0
 11
-347.9246064655426
 21
218.2500000000001
 31
0.0
  0
LINE
  5
41B
  8
1
  6
CONTINUOUS
 62
     7
 10
-347.9333333333333
 20
180.25
 30
0.0
 11
-345.9333333333333
 21
180.25
 31
0.0
  0
LINE
  5
41C
  8
1
  6
CONTINUOUS
 62
     7
 10
-344.4246064655426
 20
188.65
 30
0.0
 11
-340.4333333333333
 21
188.65
 31
0.0
  0
LINE
  5
41D
  8
1
  6
CONTINUOUS
 62
     7
 10
-344.4333333333333
 20
160.25
 30
0.0
 11
-338.4333333333333
 21
160.25
 31
0.0
  0
LINE
  5
41E
  8
1
  6
CONTINUOUS
 62
     7
 10
-248.9333333333333
 20
200.25
 30
0.0
 11
-248.9333333333333
 21
211.5760894391466
 31
0.0
  0
LINE
  5
41F
  8
1
  6
CONTINUOUS
 62
     7
 10
-248.9586515649704
 20
211.5688295530491
 30
0.0
 11
-248.959360594154
 21
202.2588802103424
 31
0.0
  0
LINE
  5
420
  8
1
  6
CONTINUOUS
 62
     7
 10
-250.9770448492635
 20
202.25
 30
0.0
 11
-250.9763792069526
 21
210.9902554619927
 31
0.0
  0
ARC
  5
421
  8
1
  6
CONTINUOUS
 62
     7
 10
-256.9580594587132
 20
212.2259105388038
 30
0.0
 40
7.99930441641372
 50
38.4636479915992
 51
61.44038986927444
  0
LINE
  5
422
  8
1
  6
CONTINUOUS
 62
     7
 10
-296.4073411459959
 20
204.7240078126626
 30
0.0
 11
-296.4078736294762
 21
211.7158134283522
 31
0.0
  0
LINE
  5
423
  8
1
  6
CONTINUOUS
 62
     7
 10
-296.4078736294762
 20
211.7158134283522
 30
0.0
 11
-295.4363767828175
 21
211.7158134283522
 31
0.0
  0
LINE
  5
424
  8
1
  6
CONTINUOUS
 62
     7
 10
-295.4803748179939
 20
204.7240078126609
 30
0.0
 11
-295.4363767828176
 21
211.7158134283438
 31
0.0
  0
LINE
  5
425
  8
1
  6
CONTINUOUS
 62
     7
 10
-292.4073411459959
 20
204.7240078126626
 30
0.0
 11
-295.4803748179939
 21
204.7240078126626
 31
0.0
  0
LINE
  5
426
  8
1
  6
CONTINUOUS
 62
     7
 10
-292.4074941357623
 20
206.7328489272493
 30
0.0
 11
-292.4073411459959
 21
204.7240078126626
 31
0.0
  0
LINE
  5
427
  8
1
  6
CONTINUOUS
 62
     9
 10
-290.4591725309043
 20
206.7328489272493
 30
0.0
 11
-292.4074941357623
 21
206.7328489272493
 31
0.0
  0
LINE
  5
428
  8
1
  6
CONTINUOUS
 62
     7
 10
-290.4593255206707
 20
204.7240078126626
 30
0.0
 11
-290.4591725309043
 21
206.7328489272493
 31
0.0
  0
LINE
  5
429
  8
1
  6
CONTINUOUS
 62
     7
 10
-285.8986142782051
 20
204.7240078126626
 30
0.0
 11
-290.4593255206707
 21
204.7240078126626
 31
0.0
  0
LINE
  5
42A
  8
1
  6
CONTINUOUS
 62
     7
 10
-285.8986142782051
 20
204.7240078126626
 30
0.0
 11
-285.8995708067858
 21
217.2837625265475
 31
0.0
  0
LINE
  5
42B
  8
1
  6
CONTINUOUS
 62
     7
 10
-285.8995708067858
 20
217.2837625265475
 30
0.0
 11
-287.3995708067858
 21
217.2837625265475
 31
0.0
  0
LINE
  5
42C
  8
1
  6
CONTINUOUS
 62
     7
 10
-287.3995708067858
 20
217.2837625265475
 30
0.0
 11
-287.399641845229
 21
218.2165369764104
 31
0.0
  0
LINE
  5
42D
  8
1
  6
CONTINUOUS
 62
     7
 10
-282.0312862700335
 20
218.2165369764104
 30
0.0
 11
-287.3996418452289
 21
218.2165369764104
 31
0.0
  0
POLYLINE
  5
42E
  8
1
  6
CONTINUOUS
 62
     7
 66
     1
 10
0.0
 20
0.0
 30
0.0
  0
VERTEX
  5
745
  8
1
  6
CONTINUOUS
 62
     7
 10
-283.4321910455565
 20
217.248876750691
 30
0.0
  0
VERTEX
  5
746
  8
1
  6
CONTINUOUS
 62
     7
 10
-283.4315869408227
 20
217.2734084193489
 30
0.0
  0
VERTEX
  5
747
  8
1
  6
CONTINUOUS
 62
     7
 10
-283.4297798184054
 20
217.2978809030806
 30
0.0
  0
VERTEX
  5
748
  8
1
  6
CONTINUOUS
 62
     7
 10
-283.4267740313985
 20
217.3222352512445
 30
0.0
  0
VERTEX
  5
749
  8
1
  6
CONTINUOUS
 62
     7
 10
-283.4225768203041
 20
217.3464127977702
 30
0.0
  0
VERTEX
  5
74A
  8
1
  6
CONTINUOUS
 62
     7
 10
-283.4171982955914
 20
217.3703553024768
 30
0.0
  0
VERTEX
  5
74B
  8
1
  6
CONTINUOUS
 62
     7
 10
-283.4106514133415
 20
217.3940050913645
 30
0.0
  0
VERTEX
  5
74C
  8
1
  6
CONTINUOUS
 62
     7
 10
-283.4029519440381
 20
217.4173051955436
 30
0.0
  0
VERTEX
  5
74D
  8
1
  6
CONTINUOUS
 62
     7
 10
-283.3941184345792
 20
217.4401994884635
 30
0.0
  0
VERTEX
  5
74E
  8
1
  6
CONTINUOUS
 62
     7
 10
-283.3841721635997
 20
217.462632821114
 30
0.0
  0
VERTEX
  5
74F
  8
1
  6
CONTINUOUS
 62
     7
 10
-283.373137090215
 20
217.4845511548706
 30
0.0
  0
VERTEX
  5
750
  8
1
  6
CONTINUOUS
 62
     7
 10
-283.3610397963064
 20
217.5059016916661
 30
0.0
  0
VERTEX
  5
751
  8
1
  6
CONTINUOUS
 62
     7
 10
-283.3479094224892
 20
217.5266330011734
 30
0.0
  0
VERTEX
  5
752
  8
1
  6
CONTINUOUS
 62
     7
 10
-283.3337775979178
 20
217.5466951446935
 30
0.0
  0
VERTEX
  5
753
  8
1
  6
CONTINUOUS
 62
     7
 10
-283.318678364095
 20
217.5660397954506
 30
0.0
  0
VERTEX
  5
754
  8
1
  6
CONTINUOUS
 62
     7
 10
-283.3026480928716
 20
217.5846203550042
 30
0.0
  0
VERTEX
  5
755
  8
1
  6
CONTINUOUS
 62
     7
 10
-283.2857253988314
 20
217.6023920654981
 30
0.0
  0
VERTEX
  5
756
  8
1
  6
CONTINUOUS
 62
     7
 10
-283.2679510462746
 20
217.6193121174754
 30
0.0
  0
VERTEX
  5
757
  8
1
  6
CONTINUOUS
 62
     7
 10
-283.2493678510223
 20
217.6353397530002
 30
0.0
  0
VERTEX
  5
758
  8
1
  6
CONTINUOUS
 62
     7
 10
-283.23002057728
 20
217.6504363638377
 30
0.0
  0
VERTEX
  5
759
  8
1
  6
CONTINUOUS
 62
     7
 10
-283.2099558298065
 20
217.6645655844557
 30
0.0
  0
VERTEX
  5
75A
  8
1
  6
CONTINUOUS
 62
     7
 10
-283.18922194165
 20
217.6776933796236
 30
0.0
  0
VERTEX
  5
75B
  8
1
  6
CONTINUOUS
 62
     7
 10
-283.1678688577211
 20
217.689788126399
 30
0.0
  0
VERTEX
  5
75C
  8
1
  6
CONTINUOUS
 62
     7
 10
-283.1459480144828
 20
217.700820690302
 30
0.0
  0
VERTEX
  5
75D
  8
1
  6
CONTINUOUS
 62
     7
 10
-283.1235122160471
 20
217.7107644954961
 30
0.0
  0
VERTEX
  5
75E
  8
1
  6
CONTINUOUS
 62
     7
 10
-283.1006155069782
 20
217.7195955888061
 30
0.0
  0
VERTEX
  5
75F
  8
1
  6
CONTINUOUS
 62
     7
 10
-283.0773130421065
 20
217.7272926974169
 30
0.0
  0
VERTEX
  5
760
  8
1
  6
CONTINUOUS
 62
     7
 10
-283.0536609536691
 20
217.7338372801172
 30
0.0
  0
VERTEX
  5
761
  8
1
  6
CONTINUOUS
 62
     7
 10
-283.0297162160952
 20
217.7392135719625
 30
0.0
  0
VERTEX
  5
762
  8
1
  6
CONTINUOUS
 62
     7
 10
-283.005536508763
 20
217.7434086222503
 30
0.0
  0
VERTEX
  5
763
  8
1
  6
CONTINUOUS
 62
     7
 10
-282.9811800770585
 20
217.7464123257166
 30
0.0
  0
VERTEX
  5
764
  8
1
  6
CONTINUOUS
 62
     7
 10
-282.9567055920712
 20
217.7482174468784
 30
0.0
  0
VERTEX
  5
765
  8
1
  6
CONTINUOUS
 62
     7
 10
-282.9321720092633
 20
217.748819637462
 30
0.0
  0
SEQEND
  5
A28
  8
1
  6
CONTINUOUS
 62
     7
  0
LINE
  5
42F
  8
1
  6
CONTINUOUS
 62
     7
 10
-283.4321910455565
 20
217.248876750691
 30
0.0
 11
-283.4331048427175
 21
205.2502094521479
 31
0.0
  0
POLYLINE
  5
430
  8
1
  6
CONTINUOUS
 62
     7
 66
     1
 10
0.0
 20
0.0
 30
0.0
  0
VERTEX
  5
766
  8
1
  6
CONTINUOUS
 62
     7
 10
-282.9331619617464
 20
204.7501904100549
 30
0.0
  0
VERTEX
  5
767
  8
1
  6
CONTINUOUS
 62
     7
 10
-282.9576954528237
 20
204.7507926923691
 30
0.0
  0
VERTEX
  5
768
  8
1
  6
CONTINUOUS
 62
     7
 10
-282.9821696628405
 20
204.7525980885014
 30
0.0
  0
VERTEX
  5
769
  8
1
  6
CONTINUOUS
 62
     7
 10
-283.0065256369967
 20
204.7556022495161
 30
0.0
  0
VERTEX
  5
76A
  8
1
  6
CONTINUOUS
 62
     7
 10
-283.0307047053051
 20
204.7597979388277
 30
0.0
  0
VERTEX
  5
76B
  8
1
  6
CONTINUOUS
 62
     7
 10
-283.054648623919
 20
204.7651750496329
 30
0.0
  0
VERTEX
  5
76C
  8
1
  6
CONTINUOUS
 62
     7
 10
-283.078299715433
 20
204.7717206292567
 30
0.0
  0
VERTEX
  5
76D
  8
1
  6
CONTINUOUS
 62
     7
 10
-283.1016010078191
 20
204.779418910353
 30
0.0
  0
VERTEX
  5
76E
  8
1
  6
CONTINUOUS
 62
     7
 10
-283.1244963716649
 20
204.7882513488862
 30
0.0
  0
VERTEX
  5
76F
  8
1
  6
CONTINUOUS
 62
     7
 10
-283.1469306553802
 20
204.7981966688008
 30
0.0
  0
VERTEX
  5
770
  8
1
  6
CONTINUOUS
 62
     7
 10
-283.1688498180496
 20
204.8092309132726
 30
0.0
  0
VERTEX
  5
771
  8
1
  6
CONTINUOUS
 62
     7
 10
-283.1902010596094
 20
204.821327502417
 30
0.0
  0
VERTEX
  5
772
  8
1
  6
CONTINUOUS
 62
     7
 10
-283.2109329480344
 20
204.8344572973164
 30
0.0
  0
VERTEX
  5
773
  8
1
  6
CONTINUOUS
 62
     7
 10
-283.2309955432315
 20
204.8485886702109
 30
0.0
  0
VERTEX
  5
774
  8
1
  6
CONTINUOUS
 62
     7
 10
-283.2503405173366
 20
204.8636875806856
 30
0.0
  0
VERTEX
  5
775
  8
1
  6
CONTINUOUS
 62
     7
 10
-283.2689212711305
 20
204.8797176576688
 30
0.0
  0
VERTEX
  5
776
  8
1
  6
CONTINUOUS
 62
     7
 10
-283.2866930462889
 20
204.8966402870445
 30
0.0
  0
VERTEX
  5
777
  8
1
  6
CONTINUOUS
 62
     7
 10
-283.3036130331992
 20
204.9144147046683
 30
0.0
  0
VERTEX
  5
778
  8
1
  6
CONTINUOUS
 62
     7
 10
-283.3196404740823
 20
204.9329980945622
 30
0.0
  0
VERTEX
  5
779
  8
1
  6
CONTINUOUS
 62
     7
 10
-283.3347367611723
 20
204.9523456920521
 30
0.0
  0
VERTEX
  5
77A
  8
1
  6
CONTINUOUS
 62
     7
 10
-283.3488655297166
 20
204.9724108915993
 30
0.0
  0
VERTEX
  5
77B
  8
1
  6
CONTINUOUS
 62
     7
 10
-283.361992745574
 20
204.9931453590664
 30
0.0
  0
VERTEX
  5
77C
  8
1
  6
CONTINUOUS
 62
     7
 10
-283.3740867871971
 20
205.0144991481474
 30
0.0
  0
VERTEX
  5
77D
  8
1
  6
CONTINUOUS
 62
     7
 10
-283.3851185218049
 20
205.0364208206809
 30
0.0
  0
VERTEX
  5
77E
  8
1
  6
CONTINUOUS
 62
     7
 10
-283.3950613755586
 20
205.058857570557
 30
0.0
  0
VERTEX
  5
77F
  8
1
  6
CONTINUOUS
 62
     7
 10
-283.4038913975747
 20
205.0817553509198
 30
0.0
  0
VERTEX
  5
780
  8
1
  6
CONTINUOUS
 62
     7
 10
-283.4115873176189
 20
205.1050590043582
 30
0.0
  0
VERTEX
  5
781
  8
1
  6
CONTINUOUS
 62
     7
 10
-283.4181305973427
 20
205.128712395772
 30
0.0
  0
VERTEX
  5
782
  8
1
  6
CONTINUOUS
 62
     7
 10
-283.4235054749404
 20
205.1526585475935
 30
0.0
  0
VERTEX
  5
783
  8
1
  6
CONTINUOUS
 62
     7
 10
-283.4276990031163
 20
205.1768397770376
 30
0.0
  0
VERTEX
  5
784
  8
1
  6
CONTINUOUS
 62
     7
 10
-283.4307010802731
 20
205.2011978350517
 30
0.0
  0
VERTEX
  5
785
  8
1
  6
CONTINUOUS
 62
     7
 10
-283.432504474845
 20
205.225674046629
 30
0.0
  0
VERTEX
  5
786
  8
1
  6
CONTINUOUS
 62
     7
 10
-283.4331048427175
 20
205.2502094521479
 30
0.0
  0
SEQEND
  5
A29
  8
1
  6
CONTINUOUS
 62
     7
  0
LINE
  5
431
  8
1
  6
CONTINUOUS
 62
     7
 10
-282.9331619617464
 20
204.7501904100549
 30
0.0
 11
-273.9902273987279
 21
204.7501904100549
 31
0.0
  0
LINE
  5
432
  8
1
  6
CONTINUOUS
 62
     7
 10
-273.8764392679388
 20
204.7501904100549
 30
0.0
 11
-251.7835047049203
 21
204.7501904100549
 31
0.0
  0
POLYLINE
  5
433
  8
1
  6
CONTINUOUS
 62
     7
 66
     1
 10
0.0
 20
0.0
 30
0.0
  0
VERTEX
  5
787
  8
1
  6
CONTINUOUS
 62
     7
 10
-251.2835618239492
 20
205.2502094521479
 30
0.0
  0
VERTEX
  5
788
  8
1
  6
CONTINUOUS
 62
     7
 10
-251.2841621918217
 20
205.225674046629
 30
0.0
  0
VERTEX
  5
789
  8
1
  6
CONTINUOUS
 62
     7
 10
-251.2859655863935
 20
205.2011978350517
 30
0.0
  0
VERTEX
  5
78A
  8
1
  6
CONTINUOUS
 62
     7
 10
-251.2889676635503
 20
205.1768397770376
 30
0.0
  0
VERTEX
  5
78B
  8
1
  6
CONTINUOUS
 62
     7
 10
-251.2931611917262
 20
205.1526585475935
 30
0.0
  0
VERTEX
  5
78C
  8
1
  6
CONTINUOUS
 62
     7
 10
-251.298536069324
 20
205.128712395772
 30
0.0
  0
VERTEX
  5
78D
  8
1
  6
CONTINUOUS
 62
     7
 10
-251.3050793490479
 20
205.1050590043582
 30
0.0
  0
VERTEX
  5
78E
  8
1
  6
CONTINUOUS
 62
     7
 10
-251.312775269092
 20
205.0817553509198
 30
0.0
  0
VERTEX
  5
78F
  8
1
  6
CONTINUOUS
 62
     7
 10
-251.321605291108
 20
205.058857570557
 30
0.0
  0
VERTEX
  5
790
  8
1
  6
CONTINUOUS
 62
     7
 10
-251.3315481448618
 20
205.0364208206809
 30
0.0
  0
VERTEX
  5
791
  8
1
  6
CONTINUOUS
 62
     7
 10
-251.3425798794696
 20
205.0144991481474
 30
0.0
  0
VERTEX
  5
792
  8
1
  6
CONTINUOUS
 62
     7
 10
-251.3546739210927
 20
204.9931453590664
 30
0.0
  0
VERTEX
  5
793
  8
1
  6
CONTINUOUS
 62
     7
 10
-251.3678011369501
 20
204.9724108915993
 30
0.0
  0
VERTEX
  5
794
  8
1
  6
CONTINUOUS
 62
     7
 10
-251.3819299054944
 20
204.9523456920521
 30
0.0
  0
VERTEX
  5
795
  8
1
  6
CONTINUOUS
 62
     7
 10
-251.3970261925843
 20
204.9329980945622
 30
0.0
  0
VERTEX
  5
796
  8
1
  6
CONTINUOUS
 62
     7
 10
-251.4130536334675
 20
204.9144147046683
 30
0.0
  0
VERTEX
  5
797
  8
1
  6
CONTINUOUS
 62
     7
 10
-251.4299736203778
 20
204.8966402870445
 30
0.0
  0
VERTEX
  5
798
  8
1
  6
CONTINUOUS
 62
     7
 10
-251.4477453955362
 20
204.8797176576688
 30
0.0
  0
VERTEX
  5
799
  8
1
  6
CONTINUOUS
 62
     7
 10
-251.4663261493301
 20
204.8636875806856
 30
0.0
  0
VERTEX
  5
79A
  8
1
  6
CONTINUOUS
 62
     7
 10
-251.4856711234352
 20
204.8485886702109
 30
0.0
  0
VERTEX
  5
79B
  8
1
  6
CONTINUOUS
 62
     7
 10
-251.5057337186322
 20
204.8344572973164
 30
0.0
  0
VERTEX
  5
79C
  8
1
  6
CONTINUOUS
 62
     7
 10
-251.5264656070574
 20
204.821327502417
 30
0.0
  0
VERTEX
  5
79D
  8
1
  6
CONTINUOUS
 62
     7
 10
-251.547816848617
 20
204.8092309132726
 30
0.0
  0
VERTEX
  5
79E
  8
1
  6
CONTINUOUS
 62
     7
 10
-251.5697360112865
 20
204.7981966688008
 30
0.0
  0
VERTEX
  5
79F
  8
1
  6
CONTINUOUS
 62
     7
 10
-251.5921702950018
 20
204.7882513488862
 30
0.0
  0
VERTEX
  5
7A0
  8
1
  6
CONTINUOUS
 62
     7
 10
-251.6150656588476
 20
204.779418910353
 30
0.0
  0
VERTEX
  5
7A1
  8
1
  6
CONTINUOUS
 62
     7
 10
-251.6383669512338
 20
204.7717206292567
 30
0.0
  0
VERTEX
  5
7A2
  8
1
  6
CONTINUOUS
 62
     7
 10
-251.6620180427477
 20
204.7651750496329
 30
0.0
  0
VERTEX
  5
7A3
  8
1
  6
CONTINUOUS
 62
     7
 10
-251.6859619613616
 20
204.7597979388277
 30
0.0
  0
VERTEX
  5
7A4
  8
1
  6
CONTINUOUS
 62
     7
 10
-251.71014102967
 20
204.7556022495161
 30
0.0
  0
VERTEX
  5
7A5
  8
1
  6
CONTINUOUS
 62
     7
 10
-251.7344970038262
 20
204.7525980885014
 30
0.0
  0
VERTEX
  5
7A6
  8
1
  6
CONTINUOUS
 62
     7
 10
-251.758971213843
 20
204.7507926923691
 30
0.0
  0
VERTEX
  5
7A7
  8
1
  6
CONTINUOUS
 62
     7
 10
-251.7835047049203
 20
204.7501904100549
 30
0.0
  0
SEQEND
  5
A2A
  8
1
  6
CONTINUOUS
 62
     7
  0
LINE
  5
434
  8
1
  6
CONTINUOUS
 62
     7
 10
-251.2835618239492
 20
205.2502094521479
 30
0.0
 11
-251.2839149203311
 21
209.8865622353351
 31
0.0
  0
POLYLINE
  5
435
  8
1
  6
CONTINUOUS
 62
     7
 66
     1
 10
0.0
 20
0.0
 30
0.0
  0
VERTEX
  5
7A8
  8
1
  6
CONTINUOUS
 62
     7
 10
-252.2025128110559
 20
210.1599118583214
 30
0.0
  0
VERTEX
  5
7A9
  8
1
  6
CONTINUOUS
 62
     7
 10
-252.1907877923394
 20
210.1770677215608
 30
0.0
  0
VERTEX
  5
7AA
  8
1
  6
CONTINUOUS
 62
     7
 10
-252.1783495894602
 20
210.1937362312331
 30
0.0
  0
VERTEX
  5
7AB
  8
1
  6
CONTINUOUS
 62
     7
 10
-252.1652312416136
 20
210.2098749528912
 30
0.0
  0
VERTEX
  5
7AC
  8
1
  6
CONTINUOUS
 62
     7
 10
-252.1514657879954
 20
210.2254414520877
 30
0.0
  0
VERTEX
  5
7AD
  8
1
  6
CONTINUOUS
 62
     7
 10
-252.1366356370663
 20
210.240846342493
 30
0.0
  0
VERTEX
  5
7AE
  8
1
  6
CONTINUOUS
 62
     7
 10
-252.1211464183187
 20
210.2556168405297
 30
0.0
  0
VERTEX
  5
7AF
  8
1
  6
CONTINUOUS
 62
     7
 10
-252.105041386325
 20
210.2697133954864
 30
0.0
  0
VERTEX
  5
7B0
  8
1
  6
CONTINUOUS
 62
     7
 10
-252.0883637956582
 20
210.2830964566521
 30
0.0
  0
VERTEX
  5
7B1
  8
1
  6
CONTINUOUS
 62
     7
 10
-252.0716209828805
 20
210.2954045887394
 30
0.0
  0
VERTEX
  5
7B2
  8
1
  6
CONTINUOUS
 62
     7
 10
-252.0543664108772
 20
210.3070166656021
 30
0.0
  0
VERTEX
  5
7B3
  8
1
  6
CONTINUOUS
 62
     7
 10
-252.036645313728
 20
210.3179035597176
 30
0.0
  0
VERTEX
  5
7B4
  8
1
  6
CONTINUOUS
 62
     7
 10
-252.0185029255127
 20
210.3280361435634
 30
0.0
  0
VERTEX
  5
7B5
  8
1
  6
CONTINUOUS
 62
     7
 10
-251.9994090326771
 20
210.3376637499533
 30
0.0
  0
VERTEX
  5
7B6
  8
1
  6
CONTINUOUS
 62
     7
 10
-251.9799031316257
 20
210.3464743671106
 30
0.0
  0
VERTEX
  5
7B7
  8
1
  6
CONTINUOUS
 62
     7
 10
-251.9600391556307
 20
210.3544449746057
 30
0.0
  0
VERTEX
  5
7B8
  8
1
  6
CONTINUOUS
 62
     7
 10
-251.9398710379647
 20
210.3615525520091
 30
0.0
  0
VERTEX
  5
7B9
  8
1
  6
CONTINUOUS
 62
     7
 10
-251.9200005737844
 20
210.3676230310207
 30
0.0
  0
VERTEX
  5
7BA
  8
1
  6
CONTINUOUS
 62
     7
 10
-251.8998776692323
 20
210.3728673432331
 30
0.0
  0
VERTEX
  5
7BB
  8
1
  6
CONTINUOUS
 62
     7
 10
-251.8795546522374
 20
210.3772729775466
 30
0.0
  0
VERTEX
  5
7BC
  8
1
  6
CONTINUOUS
 62
     7
 10
-251.8590838507288
 20
210.3808274228616
 30
0.0
  0
VERTEX
  5
7BD
  8
1
  6
CONTINUOUS
 62
     7
 10
-251.8378823845169
 20
210.3835904184733
 30
0.0
  0
VERTEX
  5
7BE
  8
1
  6
CONTINUOUS
 62
     7
 10
-251.8165626463853
 20
210.385446152514
 30
0.0
  0
VERTEX
  5
7BF
  8
1
  6
CONTINUOUS
 62
     7
 10
-251.7951831513566
 20
210.3863907639575
 30
0.0
  0
VERTEX
  5
7C0
  8
1
  6
CONTINUOUS
 62
     7
 10
-251.7738024144536
 20
210.3864203917776
 30
0.0
  0
VERTEX
  5
7C1
  8
1
  6
CONTINUOUS
 62
     7
 10
-251.7530477244171
 20
210.3855701432331
 30
0.0
  0
VERTEX
  5
7C2
  8
1
  6
CONTINUOUS
 62
     7
 10
-251.7323283639838
 20
210.3838569824482
 30
0.0
  0
VERTEX
  5
7C3
  8
1
  6
CONTINUOUS
 62
     7
 10
-251.711697833584
 20
210.3812864368276
 30
0.0
  0
VERTEX
  5
7C4
  8
1
  6
CONTINUOUS
 62
     7
 10
-251.6912096336478
 20
210.377864033776
 30
0.0
  0
VERTEX
  5
7C5
  8
1
  6
CONTINUOUS
 62
     7
 10
-251.6702941906047
 20
210.3734532368459
 30
0.0
  0
VERTEX
  5
7C6
  8
1
  6
CONTINUOUS
 62
     7
 10
-251.649567467898
 20
210.3681474891744
 30
0.0
  0
VERTEX
  5
7C7
  8
1
  6
CONTINUOUS
 62
     7
 10
-251.6290859287091
 20
210.3619625275254
 30
0.0
  0
VERTEX
  5
7C8
  8
1
  6
CONTINUOUS
 62
     7
 10
-251.6089060362189
 20
210.3549140886627
 30
0.0
  0
VERTEX
  5
7C9
  8
1
  6
CONTINUOUS
 62
     7
 10
-251.5896064739439
 20
210.3472423009883
 30
0.0
  0
VERTEX
  5
7CA
  8
1
  6
CONTINUOUS
 62
     7
 10
-251.5706258543319
 20
210.3387681624401
 30
0.0
  0
VERTEX
  5
7CB
  8
1
  6
CONTINUOUS
 62
     7
 10
-251.5520128051826
 20
210.3295146063235
 30
0.0
  0
VERTEX
  5
7CC
  8
1
  6
CONTINUOUS
 62
     7
 10
-251.533815954296
 20
210.3195045659438
 30
0.0
  0
VERTEX
  5
7CD
  8
1
  6
CONTINUOUS
 62
     7
 10
-251.5155432592694
 20
210.3084208210012
 30
0.0
  0
VERTEX
  5
7CE
  8
1
  6
CONTINUOUS
 62
     7
 10
-251.4977447534733
 20
210.2965553348577
 30
0.0
  0
VERTEX
  5
7CF
  8
1
  6
CONTINUOUS
 62
     7
 10
-251.480468468697
 20
210.2839416439206
 30
0.0
  0
VERTEX
  5
7D0
  8
1
  6
CONTINUOUS
 62
     7
 10
-251.4637624367296
 20
210.2706132845973
 30
0.0
  0
VERTEX
  5
7D1
  8
1
  6
CONTINUOUS
 62
     7
 10
-251.4480907514715
 20
210.2569861663022
 30
0.0
  0
VERTEX
  5
7D2
  8
1
  6
CONTINUOUS
 62
     7
 10
-251.4329855545475
 20
210.2427075807239
 30
0.0
  0
VERTEX
  5
7D3
  8
1
  6
CONTINUOUS
 62
     7
 10
-251.4184851196322
 20
210.2278152651866
 30
0.0
  0
VERTEX
  5
7D4
  8
1
  6
CONTINUOUS
 62
     7
 10
-251.4046277204005
 20
210.2123469570144
 30
0.0
  0
VERTEX
  5
7D5
  8
1
  6
CONTINUOUS
 62
     7
 10
-251.3910541563771
 20
210.1958406293334
 30
0.0
  0
VERTEX
  5
7D6
  8
1
  6
CONTINUOUS
 62
     7
 10
-251.3781866587881
 20
210.1787536962038
 30
0.0
  0
VERTEX
  5
7D7
  8
1
  6
CONTINUOUS
 62
     7
 10
-251.3660594258268
 20
210.1611336883615
 30
0.0
  0
VERTEX
  5
7D8
  8
1
  6
CONTINUOUS
 62
     7
 10
-251.3547066556862
 20
210.1430281365424
 30
0.0
  0
VERTEX
  5
7D9
  8
1
  6
CONTINUOUS
 62
     7
 10
-251.3444269741921
 20
210.1249800634027
 30
0.0
  0
VERTEX
  5
7DA
  8
1
  6
CONTINUOUS
 62
     7
 10
-251.3348975175507
 20
210.1065046897211
 30
0.0
  0
VERTEX
  5
7DB
  8
1
  6
CONTINUOUS
 62
     7
 10
-251.3261419045581
 20
210.0876502943711
 30
0.0
  0
VERTEX
  5
7DC
  8
1
  6
CONTINUOUS
 62
     7
 10
-251.3181837540104
 20
210.0684651562261
 30
0.0
  0
VERTEX
  5
7DD
  8
1
  6
CONTINUOUS
 62
     7
 10
-251.3108370221018
 20
210.0483944535033
 30
0.0
  0
VERTEX
  5
7DE
  8
1
  6
CONTINUOUS
 62
     7
 10
-251.3043487382716
 20
210.0280095185592
 30
0.0
  0
VERTEX
  5
7DF
  8
1
  6
CONTINUOUS
 62
     7
 10
-251.2987354390376
 20
210.007366515848
 30
0.0
  0
VERTEX
  5
7E0
  8
1
  6
CONTINUOUS
 62
     7
 10
-251.2940136609175
 20
209.9865216098239
 30
0.0
  0
VERTEX
  5
7E1
  8
1
  6
CONTINUOUS
 62
     7
 10
-251.2896111998319
 20
209.9617693366182
 30
0.0
  0
VERTEX
  5
7E2
  8
1
  6
CONTINUOUS
 62
     7
 10
-251.2864542323638
 20
209.9367954959511
 30
0.0
  0
VERTEX
  5
7E3
  8
1
  6
CONTINUOUS
 62
     7
 10
-251.284552294026
 20
209.9116948685982
 30
0.0
  0
VERTEX
  5
7E4
  8
1
  6
CONTINUOUS
 62
     7
 10
-251.2839149203311
 20
209.8865622353351
 30
0.0
  0
SEQEND
  5
A2B
  8
1
  6
CONTINUOUS
 62
     7
  0
ARC
  5
436
  8
1
  6
CONTINUOUS
 62
     7
 10
-256.9333333333333
 20
213.2504303577545
 30
0.0
 40
5.650837773211095
 50
238.457766518406
 51
326.8444888491164
  0
LINE
  5
437
  8
1
  6
CONTINUOUS
 62
     7
 10
-282.0722062349261
 20
217.748819637462
 30
0.0
 11
-282.9321720092633
 21
217.748819637462
 31
0.0
  0
LINE
  5
438
  8
1
  6
CONTINUOUS
 62
     7
 10
-314.4670958598808
 20
217.2837625265475
 30
0.0
 11
-315.9670958598808
 21
217.2837625265475
 31
0.0
  0
LINE
  5
439
  8
1
  6
CONTINUOUS
 62
     7
 10
-315.9670958598808
 20
217.2837625265475
 30
0.0
 11
-315.9680523884615
 21
204.7240078126626
 31
0.0
  0
LINE
  5
43A
  8
1
  6
CONTINUOUS
 62
     7
 10
-311.4073411459959
 20
204.7240078126626
 30
0.0
 11
-315.9680523884615
 21
204.7240078126626
 31
0.0
  0
LINE
  5
43B
  8
1
  6
CONTINUOUS
 62
     7
 10
-311.4074941357624
 20
206.7328489272493
 30
0.0
 11
-311.4073411459959
 21
204.7240078126626
 31
0.0
  0
LINE
  5
43C
  8
1
  6
CONTINUOUS
 62
     9
 10
-309.4591725309043
 20
206.7328489272493
 30
0.0
 11
-311.4074941357623
 21
206.7328489272493
 31
0.0
  0
LINE
  5
43D
  8
1
  6
CONTINUOUS
 62
     7
 10
-309.4593255206708
 20
204.7240078126626
 30
0.0
 11
-309.4591725309043
 21
206.7328489272493
 31
0.0
  0
LINE
  5
43E
  8
1
  6
CONTINUOUS
 62
     7
 10
-306.3862918486728
 20
204.7240078126626
 30
0.0
 11
-309.4593255206708
 21
204.7240078126626
 31
0.0
  0
LINE
  5
43F
  8
1
  6
CONTINUOUS
 62
     7
 10
-306.4302898838491
 20
211.71581342835
 30
0.0
 11
-306.3862918486728
 21
204.7240078126672
 31
0.0
  0
LINE
  5
440
  8
1
  6
CONTINUOUS
 62
     7
 10
-306.4302898838491
 20
211.7158134283521
 30
0.0
 11
-305.4587930371904
 21
211.7158134283521
 31
0.0
  0
LINE
  5
441
  8
1
  6
CONTINUOUS
 62
     7
 10
-305.4587930371904
 20
211.7158134283522
 30
0.0
 11
-305.4593255206708
 21
204.7240078126626
 31
0.0
  0
LINE
  5
442
  8
1
  6
CONTINUOUS
 62
     7
 10
-314.4670248214377
 20
218.2165369764104
 30
0.0
 11
-338.4321173502747
 21
218.2165369764104
 31
0.0
  0
LINE
  5
443
  8
1
  6
CONTINUOUS
 62
     7
 10
-314.4670248214377
 20
218.2165369764104
 30
0.0
 11
-314.4670958598808
 21
217.2837625265475
 31
0.0
  0
POLYLINE
  5
444
  8
1
  6
CONTINUOUS
 62
     7
 66
     1
 10
0.0
 20
0.0
 30
0.0
  0
VERTEX
  5
7E5
  8
1
  6
CONTINUOUS
 62
     7
 10
-318.9344946574034
 20
217.748819637462
 30
0.0
  0
VERTEX
  5
7E6
  8
1
  6
CONTINUOUS
 62
     7
 10
-318.9099610745956
 20
217.7482174468784
 30
0.0
  0
VERTEX
  5
7E7
  8
1
  6
CONTINUOUS
 62
     7
 10
-318.8854865896082
 20
217.7464123257166
 30
0.0
  0
VERTEX
  5
7E8
  8
1
  6
CONTINUOUS
 62
     7
 10
-318.8611301579037
 20
217.7434086222503
 30
0.0
  0
VERTEX
  5
7E9
  8
1
  6
CONTINUOUS
 62
     7
 10
-318.8369504505715
 20
217.7392135719625
 30
0.0
  0
VERTEX
  5
7EA
  8
1
  6
CONTINUOUS
 62
     7
 10
-318.8130057129976
 20
217.7338372801172
 30
0.0
  0
VERTEX
  5
7EB
  8
1
  6
CONTINUOUS
 62
     7
 10
-318.7893536245601
 20
217.7272926974169
 30
0.0
  0
VERTEX
  5
7EC
  8
1
  6
CONTINUOUS
 62
     7
 10
-318.7660511596885
 20
217.7195955888061
 30
0.0
  0
VERTEX
  5
7ED
  8
1
  6
CONTINUOUS
 62
     7
 10
-318.7431544506195
 20
217.7107644954961
 30
0.0
  0
VERTEX
  5
7EE
  8
1
  6
CONTINUOUS
 62
     7
 10
-318.7207186521838
 20
217.700820690302
 30
0.0
  0
VERTEX
  5
7EF
  8
1
  6
CONTINUOUS
 62
     7
 10
-318.6987978089455
 20
217.689788126399
 30
0.0
  0
VERTEX
  5
7F0
  8
1
  6
CONTINUOUS
 62
     7
 10
-318.6774447250167
 20
217.6776933796236
 30
0.0
  0
VERTEX
  5
7F1
  8
1
  6
CONTINUOUS
 62
     7
 10
-318.6567108368602
 20
217.6645655844557
 30
0.0
  0
VERTEX
  5
7F2
  8
1
  6
CONTINUOUS
 62
     7
 10
-318.6366460893866
 20
217.6504363638377
 30
0.0
  0
VERTEX
  5
7F3
  8
1
  6
CONTINUOUS
 62
     7
 10
-318.6172988156443
 20
217.6353397530002
 30
0.0
  0
VERTEX
  5
7F4
  8
1
  6
CONTINUOUS
 62
     7
 10
-318.5987156203921
 20
217.6193121174754
 30
0.0
  0
VERTEX
  5
7F5
  8
1
  6
CONTINUOUS
 62
     7
 10
-318.5809412678353
 20
217.6023920654981
 30
0.0
  0
VERTEX
  5
7F6
  8
1
  6
CONTINUOUS
 62
     7
 10
-318.5640185737951
 20
217.5846203550042
 30
0.0
  0
VERTEX
  5
7F7
  8
1
  6
CONTINUOUS
 62
     7
 10
-318.5479883025716
 20
217.5660397954506
 30
0.0
  0
VERTEX
  5
7F8
  8
1
  6
CONTINUOUS
 62
     7
 10
-318.5328890687489
 20
217.5466951446935
 30
0.0
  0
VERTEX
  5
7F9
  8
1
  6
CONTINUOUS
 62
     7
 10
-318.5187572441775
 20
217.5266330011734
 30
0.0
  0
VERTEX
  5
7FA
  8
1
  6
CONTINUOUS
 62
     7
 10
-318.5056268703603
 20
217.5059016916661
 30
0.0
  0
VERTEX
  5
7FB
  8
1
  6
CONTINUOUS
 62
     7
 10
-318.4935295764516
 20
217.4845511548706
 30
0.0
  0
VERTEX
  5
7FC
  8
1
  6
CONTINUOUS
 62
     7
 10
-318.4824945030669
 20
217.462632821114
 30
0.0
  0
VERTEX
  5
7FD
  8
1
  6
CONTINUOUS
 62
     7
 10
-318.4725482320875
 20
217.4401994884635
 30
0.0
  0
VERTEX
  5
7FE
  8
1
  6
CONTINUOUS
 62
     7
 10
-318.4637147226286
 20
217.4173051955436
 30
0.0
  0
VERTEX
  5
7FF
  8
1
  6
CONTINUOUS
 62
     7
 10
-318.4560152533252
 20
217.3940050913645
 30
0.0
  0
VERTEX
  5
800
  8
1
  6
CONTINUOUS
 62
     7
 10
-318.4494683710752
 20
217.3703553024768
 30
0.0
  0
VERTEX
  5
801
  8
1
  6
CONTINUOUS
 62
     7
 10
-318.4440898463625
 20
217.3464127977702
 30
0.0
  0
VERTEX
  5
802
  8
1
  6
CONTINUOUS
 62
     7
 10
-318.4398926352683
 20
217.3222352512445
 30
0.0
  0
VERTEX
  5
803
  8
1
  6
CONTINUOUS
 62
     7
 10
-318.4368868482613
 20
217.2978809030806
 30
0.0
  0
VERTEX
  5
804
  8
1
  6
CONTINUOUS
 62
     7
 10
-318.4350797258439
 20
217.2734084193489
 30
0.0
  0
VERTEX
  5
805
  8
1
  6
CONTINUOUS
 62
     7
 10
-318.4344756211102
 20
217.248876750691
 30
0.0
  0
SEQEND
  5
A2C
  8
1
  6
CONTINUOUS
 62
     7
  0
LINE
  5
445
  8
1
  6
CONTINUOUS
 62
     7
 10
-335.4321720092633
 20
217.748819637462
 30
0.0
 11
-318.9344946574034
 21
217.748819637462
 31
0.0
  0
POLYLINE
  5
446
  8
1
  6
CONTINUOUS
 62
     7
 66
     1
 10
0.0
 20
0.0
 30
0.0
  0
VERTEX
  5
806
  8
1
  6
CONTINUOUS
 62
     7
 10
-335.9321910455564
 20
217.248876750691
 30
0.0
  0
VERTEX
  5
807
  8
1
  6
CONTINUOUS
 62
     7
 10
-335.9315869408227
 20
217.2734084193489
 30
0.0
  0
VERTEX
  5
808
  8
1
  6
CONTINUOUS
 62
     7
 10
-335.9297798184054
 20
217.2978809030806
 30
0.0
  0
VERTEX
  5
809
  8
1
  6
CONTINUOUS
 62
     7
 10
-335.9267740313984
 20
217.3222352512445
 30
0.0
  0
VERTEX
  5
80A
  8
1
  6
CONTINUOUS
 62
     7
 10
-335.9225768203041
 20
217.3464127977702
 30
0.0
  0
VERTEX
  5
80B
  8
1
  6
CONTINUOUS
 62
     7
 10
-335.9171982955914
 20
217.3703553024768
 30
0.0
  0
VERTEX
  5
80C
  8
1
  6
CONTINUOUS
 62
     7
 10
-335.9106514133415
 20
217.3940050913645
 30
0.0
  0
VERTEX
  5
80D
  8
1
  6
CONTINUOUS
 62
     7
 10
-335.9029519440381
 20
217.4173051955436
 30
0.0
  0
VERTEX
  5
80E
  8
1
  6
CONTINUOUS
 62
     7
 10
-335.8941184345792
 20
217.4401994884635
 30
0.0
  0
VERTEX
  5
80F
  8
1
  6
CONTINUOUS
 62
     7
 10
-335.8841721635997
 20
217.462632821114
 30
0.0
  0
VERTEX
  5
810
  8
1
  6
CONTINUOUS
 62
     7
 10
-335.873137090215
 20
217.4845511548706
 30
0.0
  0
VERTEX
  5
811
  8
1
  6
CONTINUOUS
 62
     7
 10
-335.8610397963064
 20
217.5059016916661
 30
0.0
  0
VERTEX
  5
812
  8
1
  6
CONTINUOUS
 62
     7
 10
-335.8479094224892
 20
217.5266330011734
 30
0.0
  0
VERTEX
  5
813
  8
1
  6
CONTINUOUS
 62
     7
 10
-335.8337775979178
 20
217.5466951446935
 30
0.0
  0
VERTEX
  5
814
  8
1
  6
CONTINUOUS
 62
     7
 10
-335.818678364095
 20
217.5660397954506
 30
0.0
  0
VERTEX
  5
815
  8
1
  6
CONTINUOUS
 62
     7
 10
-335.8026480928716
 20
217.5846203550042
 30
0.0
  0
VERTEX
  5
816
  8
1
  6
CONTINUOUS
 62
     7
 10
-335.7857253988314
 20
217.6023920654981
 30
0.0
  0
VERTEX
  5
817
  8
1
  6
CONTINUOUS
 62
     7
 10
-335.7679510462746
 20
217.6193121174754
 30
0.0
  0
VERTEX
  5
818
  8
1
  6
CONTINUOUS
 62
     7
 10
-335.7493678510224
 20
217.6353397530002
 30
0.0
  0
VERTEX
  5
819
  8
1
  6
CONTINUOUS
 62
     7
 10
-335.7300205772801
 20
217.6504363638377
 30
0.0
  0
VERTEX
  5
81A
  8
1
  6
CONTINUOUS
 62
     7
 10
-335.7099558298065
 20
217.6645655844557
 30
0.0
  0
VERTEX
  5
81B
  8
1
  6
CONTINUOUS
 62
     7
 10
-335.68922194165
 20
217.6776933796236
 30
0.0
  0
VERTEX
  5
81C
  8
1
  6
CONTINUOUS
 62
     7
 10
-335.6678688577211
 20
217.689788126399
 30
0.0
  0
VERTEX
  5
81D
  8
1
  6
CONTINUOUS
 62
     7
 10
-335.6459480144828
 20
217.700820690302
 30
0.0
  0
VERTEX
  5
81E
  8
1
  6
CONTINUOUS
 62
     7
 10
-335.6235122160471
 20
217.7107644954961
 30
0.0
  0
VERTEX
  5
81F
  8
1
  6
CONTINUOUS
 62
     7
 10
-335.6006155069782
 20
217.7195955888061
 30
0.0
  0
VERTEX
  5
820
  8
1
  6
CONTINUOUS
 62
     7
 10
-335.5773130421065
 20
217.7272926974169
 30
0.0
  0
VERTEX
  5
821
  8
1
  6
CONTINUOUS
 62
     7
 10
-335.5536609536691
 20
217.7338372801172
 30
0.0
  0
VERTEX
  5
822
  8
1
  6
CONTINUOUS
 62
     7
 10
-335.5297162160952
 20
217.7392135719625
 30
0.0
  0
VERTEX
  5
823
  8
1
  6
CONTINUOUS
 62
     7
 10
-335.505536508763
 20
217.7434086222503
 30
0.0
  0
VERTEX
  5
824
  8
1
  6
CONTINUOUS
 62
     7
 10
-335.4811800770585
 20
217.7464123257166
 30
0.0
  0
VERTEX
  5
825
  8
1
  6
CONTINUOUS
 62
     7
 10
-335.4567055920711
 20
217.7482174468784
 30
0.0
  0
VERTEX
  5
826
  8
1
  6
CONTINUOUS
 62
     7
 10
-335.4321720092633
 20
217.748819637462
 30
0.0
  0
SEQEND
  5
A2D
  8
1
  6
CONTINUOUS
 62
     7
  0
LINE
  5
447
  8
1
  6
CONTINUOUS
 62
     7
 10
-335.9331048427175
 20
205.2502094521479
 30
0.0
 11
-335.9321910455565
 21
217.248876750691
 31
0.0
  0
POLYLINE
  5
448
  8
1
  6
CONTINUOUS
 62
     7
 66
     1
 10
0.0
 20
0.0
 30
0.0
  0
VERTEX
  5
827
  8
1
  6
CONTINUOUS
 62
     7
 10
-335.4331619617464
 20
204.7501904100549
 30
0.0
  0
VERTEX
  5
828
  8
1
  6
CONTINUOUS
 62
     7
 10
-335.4576954528237
 20
204.7507926923691
 30
0.0
  0
VERTEX
  5
829
  8
1
  6
CONTINUOUS
 62
     7
 10
-335.4821696628405
 20
204.7525980885014
 30
0.0
  0
VERTEX
  5
82A
  8
1
  6
CONTINUOUS
 62
     7
 10
-335.5065256369967
 20
204.7556022495161
 30
0.0
  0
VERTEX
  5
82B
  8
1
  6
CONTINUOUS
 62
     7
 10
-335.5307047053051
 20
204.7597979388277
 30
0.0
  0
VERTEX
  5
82C
  8
1
  6
CONTINUOUS
 62
     7
 10
-335.554648623919
 20
204.7651750496329
 30
0.0
  0
VERTEX
  5
82D
  8
1
  6
CONTINUOUS
 62
     7
 10
-335.5782997154329
 20
204.7717206292567
 30
0.0
  0
VERTEX
  5
82E
  8
1
  6
CONTINUOUS
 62
     7
 10
-335.6016010078191
 20
204.779418910353
 30
0.0
  0
VERTEX
  5
82F
  8
1
  6
CONTINUOUS
 62
     7
 10
-335.6244963716649
 20
204.7882513488862
 30
0.0
  0
VERTEX
  5
830
  8
1
  6
CONTINUOUS
 62
     7
 10
-335.6469306553801
 20
204.7981966688008
 30
0.0
  0
VERTEX
  5
831
  8
1
  6
CONTINUOUS
 62
     7
 10
-335.6688498180496
 20
204.8092309132726
 30
0.0
  0
VERTEX
  5
832
  8
1
  6
CONTINUOUS
 62
     7
 10
-335.6902010596093
 20
204.821327502417
 30
0.0
  0
VERTEX
  5
833
  8
1
  6
CONTINUOUS
 62
     7
 10
-335.7109329480344
 20
204.8344572973164
 30
0.0
  0
VERTEX
  5
834
  8
1
  6
CONTINUOUS
 62
     7
 10
-335.7309955432315
 20
204.8485886702109
 30
0.0
  0
VERTEX
  5
835
  8
1
  6
CONTINUOUS
 62
     7
 10
-335.7503405173366
 20
204.8636875806856
 30
0.0
  0
VERTEX
  5
836
  8
1
  6
CONTINUOUS
 62
     7
 10
-335.7689212711305
 20
204.8797176576688
 30
0.0
  0
VERTEX
  5
837
  8
1
  6
CONTINUOUS
 62
     7
 10
-335.7866930462888
 20
204.8966402870445
 30
0.0
  0
VERTEX
  5
838
  8
1
  6
CONTINUOUS
 62
     7
 10
-335.8036130331992
 20
204.9144147046683
 30
0.0
  0
VERTEX
  5
839
  8
1
  6
CONTINUOUS
 62
     7
 10
-335.8196404740823
 20
204.9329980945622
 30
0.0
  0
VERTEX
  5
83A
  8
1
  6
CONTINUOUS
 62
     7
 10
-335.8347367611723
 20
204.9523456920521
 30
0.0
  0
VERTEX
  5
83B
  8
1
  6
CONTINUOUS
 62
     7
 10
-335.8488655297166
 20
204.9724108915993
 30
0.0
  0
VERTEX
  5
83C
  8
1
  6
CONTINUOUS
 62
     7
 10
-335.8619927455739
 20
204.9931453590664
 30
0.0
  0
VERTEX
  5
83D
  8
1
  6
CONTINUOUS
 62
     7
 10
-335.8740867871971
 20
205.0144991481474
 30
0.0
  0
VERTEX
  5
83E
  8
1
  6
CONTINUOUS
 62
     7
 10
-335.8851185218049
 20
205.0364208206809
 30
0.0
  0
VERTEX
  5
83F
  8
1
  6
CONTINUOUS
 62
     7
 10
-335.8950613755586
 20
205.058857570557
 30
0.0
  0
VERTEX
  5
840
  8
1
  6
CONTINUOUS
 62
     7
 10
-335.9038913975747
 20
205.0817553509198
 30
0.0
  0
VERTEX
  5
841
  8
1
  6
CONTINUOUS
 62
     7
 10
-335.9115873176189
 20
205.1050590043582
 30
0.0
  0
VERTEX
  5
842
  8
1
  6
CONTINUOUS
 62
     7
 10
-335.9181305973427
 20
205.128712395772
 30
0.0
  0
VERTEX
  5
843
  8
1
  6
CONTINUOUS
 62
     7
 10
-335.9235054749404
 20
205.1526585475935
 30
0.0
  0
VERTEX
  5
844
  8
1
  6
CONTINUOUS
 62
     7
 10
-335.9276990031163
 20
205.1768397770376
 30
0.0
  0
VERTEX
  5
845
  8
1
  6
CONTINUOUS
 62
     7
 10
-335.9307010802731
 20
205.2011978350517
 30
0.0
  0
VERTEX
  5
846
  8
1
  6
CONTINUOUS
 62
     7
 10
-335.932504474845
 20
205.225674046629
 30
0.0
  0
VERTEX
  5
847
  8
1
  6
CONTINUOUS
 62
     7
 10
-335.9331048427175
 20
205.2502094521479
 30
0.0
  0
SEQEND
  5
A2E
  8
1
  6
CONTINUOUS
 62
     7
  0
LINE
  5
449
  8
1
  6
CONTINUOUS
 62
     7
 10
-318.9335047049203
 20
204.7501904100549
 30
0.0
 11
-335.4331619617464
 21
204.7501904100549
 31
0.0
  0
POLYLINE
  5
44A
  8
1
  6
CONTINUOUS
 62
     7
 66
     1
 10
0.0
 20
0.0
 30
0.0
  0
VERTEX
  5
848
  8
1
  6
CONTINUOUS
 62
     7
 10
-318.4335618239492
 20
205.2502094521479
 30
0.0
  0
VERTEX
  5
849
  8
1
  6
CONTINUOUS
 62
     7
 10
-318.4341621918217
 20
205.225674046629
 30
0.0
  0
VERTEX
  5
84A
  8
1
  6
CONTINUOUS
 62
     7
 10
-318.4359655863936
 20
205.2011978350517
 30
0.0
  0
VERTEX
  5
84B
  8
1
  6
CONTINUOUS
 62
     7
 10
-318.4389676635503
 20
205.1768397770376
 30
0.0
  0
VERTEX
  5
84C
  8
1
  6
CONTINUOUS
 62
     7
 10
-318.4431611917262
 20
205.1526585475935
 30
0.0
  0
VERTEX
  5
84D
  8
1
  6
CONTINUOUS
 62
     7
 10
-318.448536069324
 20
205.128712395772
 30
0.0
  0
VERTEX
  5
84E
  8
1
  6
CONTINUOUS
 62
     7
 10
-318.4550793490479
 20
205.1050590043582
 30
0.0
  0
VERTEX
  5
84F
  8
1
  6
CONTINUOUS
 62
     7
 10
-318.4627752690919
 20
205.0817553509198
 30
0.0
  0
VERTEX
  5
850
  8
1
  6
CONTINUOUS
 62
     7
 10
-318.471605291108
 20
205.058857570557
 30
0.0
  0
VERTEX
  5
851
  8
1
  6
CONTINUOUS
 62
     7
 10
-318.4815481448618
 20
205.0364208206809
 30
0.0
  0
VERTEX
  5
852
  8
1
  6
CONTINUOUS
 62
     7
 10
-318.4925798794695
 20
205.0144991481474
 30
0.0
  0
VERTEX
  5
853
  8
1
  6
CONTINUOUS
 62
     7
 10
-318.5046739210928
 20
204.9931453590664
 30
0.0
  0
VERTEX
  5
854
  8
1
  6
CONTINUOUS
 62
     7
 10
-318.5178011369501
 20
204.9724108915993
 30
0.0
  0
VERTEX
  5
855
  8
1
  6
CONTINUOUS
 62
     7
 10
-318.5319299054945
 20
204.9523456920521
 30
0.0
  0
VERTEX
  5
856
  8
1
  6
CONTINUOUS
 62
     7
 10
-318.5470261925844
 20
204.9329980945622
 30
0.0
  0
VERTEX
  5
857
  8
1
  6
CONTINUOUS
 62
     7
 10
-318.5630536334675
 20
204.9144147046683
 30
0.0
  0
VERTEX
  5
858
  8
1
  6
CONTINUOUS
 62
     7
 10
-318.5799736203778
 20
204.8966402870445
 30
0.0
  0
VERTEX
  5
859
  8
1
  6
CONTINUOUS
 62
     7
 10
-318.5977453955363
 20
204.8797176576688
 30
0.0
  0
VERTEX
  5
85A
  8
1
  6
CONTINUOUS
 62
     7
 10
-318.6163261493301
 20
204.8636875806856
 30
0.0
  0
VERTEX
  5
85B
  8
1
  6
CONTINUOUS
 62
     7
 10
-318.6356711234351
 20
204.8485886702109
 30
0.0
  0
VERTEX
  5
85C
  8
1
  6
CONTINUOUS
 62
     7
 10
-318.6557337186322
 20
204.8344572973164
 30
0.0
  0
VERTEX
  5
85D
  8
1
  6
CONTINUOUS
 62
     7
 10
-318.6764656070574
 20
204.821327502417
 30
0.0
  0
VERTEX
  5
85E
  8
1
  6
CONTINUOUS
 62
     7
 10
-318.6978168486171
 20
204.8092309132726
 30
0.0
  0
VERTEX
  5
85F
  8
1
  6
CONTINUOUS
 62
     7
 10
-318.7197360112865
 20
204.7981966688008
 30
0.0
  0
VERTEX
  5
860
  8
1
  6
CONTINUOUS
 62
     7
 10
-318.7421702950018
 20
204.7882513488862
 30
0.0
  0
VERTEX
  5
861
  8
1
  6
CONTINUOUS
 62
     7
 10
-318.7650656588476
 20
204.779418910353
 30
0.0
  0
VERTEX
  5
862
  8
1
  6
CONTINUOUS
 62
     7
 10
-318.7883669512337
 20
204.7717206292567
 30
0.0
  0
VERTEX
  5
863
  8
1
  6
CONTINUOUS
 62
     7
 10
-318.8120180427476
 20
204.7651750496329
 30
0.0
  0
VERTEX
  5
864
  8
1
  6
CONTINUOUS
 62
     7
 10
-318.8359619613615
 20
204.7597979388277
 30
0.0
  0
VERTEX
  5
865
  8
1
  6
CONTINUOUS
 62
     7
 10
-318.86014102967
 20
204.7556022495161
 30
0.0
  0
VERTEX
  5
866
  8
1
  6
CONTINUOUS
 62
     7
 10
-318.8844970038262
 20
204.7525980885014
 30
0.0
  0
VERTEX
  5
867
  8
1
  6
CONTINUOUS
 62
     7
 10
-318.908971213843
 20
204.7507926923691
 30
0.0
  0
VERTEX
  5
868
  8
1
  6
CONTINUOUS
 62
     7
 10
-318.9335047049203
 20
204.7501904100549
 30
0.0
  0
SEQEND
  5
A2F
  8
1
  6
CONTINUOUS
 62
     7
  0
LINE
  5
44B
  8
1
  6
CONTINUOUS
 62
     7
 10
-318.4344756211102
 20
217.248876750691
 30
0.0
 11
-318.4335618239491
 21
205.2502094521479
 31
0.0
  0
LINE
  5
44C
  8
1
  6
CONTINUOUS
 62
     7
 10
-285.8986142782051
 20
204.7240078126626
 30
0.0
 11
-285.9246064655426
 21
204.75
 31
0.0
  0
LINE
  5
44D
  8
1
  6
CONTINUOUS
 62
     7
 10
-290.4593255206707
 20
204.7240078126626
 30
0.0
 11
-290.4333333333333
 21
204.75
 31
0.0
  0
LINE
  5
44E
  8
1
  6
CONTINUOUS
 62
     7
 10
-285.9246064655426
 20
204.75
 30
0.0
 11
-290.4333333333333
 21
204.75
 31
0.0
  0
LINE
  5
44F
  8
1
  6
CONTINUOUS
 62
     7
 10
-292.4073411459959
 20
204.7240078126626
 30
0.0
 11
-292.4333333333334
 21
204.75
 31
0.0
  0
LINE
  5
450
  8
1
  6
CONTINUOUS
 62
     7
 10
-294.257818371924
 20
204.75
 30
0.0
 11
-295.4803748179939
 21
204.7240078126626
 31
0.0
  0
LINE
  5
451
  8
1
  6
CONTINUOUS
 62
     7
 10
-292.4333333333333
 20
204.75
 30
0.0
 11
-294.2578183719239
 21
204.75
 31
0.0
  0
LINE
  5
452
  8
1
  6
CONTINUOUS
 62
     7
 10
-305.4587930371904
 20
211.7158134283522
 30
0.0
 11
-305.4333333333334
 21
211.7412731322093
 31
0.0
  0
LINE
  5
453
  8
1
  6
CONTINUOUS
 62
     7
 10
-305.4333333333333
 20
211.7412731322093
 30
0.0
 11
-305.4333333333333
 21
204.75
 31
0.0
  0
LINE
  5
454
  8
1
  6
CONTINUOUS
 62
     7
 10
-285.9246064655426
 20
207.7412731322093
 30
0.0
 11
-285.9246064655426
 21
204.75
 31
0.0
  0
LINE
  5
455
  8
1
  6
CONTINUOUS
 62
     7
 10
-285.9333333333334
 20
207.75
 30
0.0
 11
-285.9246064655426
 21
207.7412731322093
 31
0.0
  0
LINE
  5
456
  8
1
  6
CONTINUOUS
 62
     7
 10
-285.9333333333334
 20
217.25
 30
0.0
 11
-285.9333333333334
 21
207.75
 31
0.0
  0
LINE
  5
457
  8
1
  6
CONTINUOUS
 62
     7
 10
-285.9333333333334
 20
217.25
 30
0.0
 11
-285.8995708067858
 21
217.2837625265475
 31
0.0
  0
LINE
  5
458
  8
1
  6
CONTINUOUS
 62
     7
 10
-309.4593255206708
 20
204.7240078126626
 30
0.0
 11
-309.4333333333333
 21
204.75
 31
0.0
  0
LINE
  5
459
  8
1
  6
CONTINUOUS
 62
     7
 10
-307.6088482947426
 20
204.75
 30
0.0
 11
-309.4333333333333
 21
204.75
 31
0.0
  0
LINE
  5
45A
  8
1
  6
CONTINUOUS
 62
     7
 10
-306.3862918486728
 20
204.7240078126626
 30
0.0
 11
-307.6088482947426
 21
204.75
 31
0.0
  0
LINE
  5
45B
  8
1
  6
CONTINUOUS
 62
     7
 10
-315.9420602011241
 20
204.75
 30
0.0
 11
-315.9420602011241
 21
207.7412731322093
 31
0.0
  0
LINE
  5
45C
  8
1
  6
CONTINUOUS
 62
     7
 10
-315.9680523884616
 20
204.7240078126626
 30
0.0
 11
-315.9420602011241
 21
204.75
 31
0.0
  0
LINE
  5
45D
  8
1
  6
CONTINUOUS
 62
     7
 10
-315.9333333333333
 20
217.25
 30
0.0
 11
-315.9670958598809
 21
217.2837625265475
 31
0.0
  0
LINE
  5
45E
  8
1
  6
CONTINUOUS
 62
     7
 10
-315.9333333333333
 20
207.75
 30
0.0
 11
-315.9333333333333
 21
217.2500000000001
 31
0.0
  0
LINE
  5
45F
  8
1
  6
CONTINUOUS
 62
     7
 10
-315.9333333333333
 20
207.75
 30
0.0
 11
-315.9420602011241
 21
207.7412731322093
 31
0.0
  0
LINE
  5
460
  8
1
  6
CONTINUOUS
 62
     7
 10
-295.4363767828175
 20
211.7158134283521
 30
0.0
 11
-294.1833333333333
 21
211.75
 31
0.0
  0
LINE
  5
461
  8
1
  6
CONTINUOUS
 62
     7
 10
-294.257818371924
 20
207.7412731322093
 30
0.0
 11
-294.1833333333333
 21
207.75
 31
0.0
  0
LINE
  5
462
  8
1
  6
CONTINUOUS
 62
     7
 10
-294.257818371924
 20
207.7412731322093
 30
0.0
 11
-294.257818371924
 21
204.75
 31
0.0
  0
LINE
  5
463
  8
1
  6
CONTINUOUS
 62
     7
 10
-309.4333333333333
 20
204.75
 30
0.0
 11
-309.4333333333333
 21
207.7412731322093
 31
0.0
  0
LINE
  5
464
  8
1
  6
CONTINUOUS
 62
     7
 10
-309.4505221507275
 20
207.7240843148151
 30
0.0
 11
-309.4591725309044
 21
206.7328489272493
 31
0.0
  0
LINE
  5
465
  8
1
  6
CONTINUOUS
 62
     7
 10
-309.4505221507275
 20
207.7240843148151
 30
0.0
 11
-309.4333333333333
 21
207.7412731322093
 31
0.0
  0
LINE
  5
466
  8
1
  6
CONTINUOUS
 62
     7
 10
-311.4073411459959
 20
204.7240078126626
 30
0.0
 11
-311.4333333333333
 21
204.75
 31
0.0
  0
LINE
  5
467
  8
1
  6
CONTINUOUS
 62
     7
 10
-311.4333333333333
 20
207.7412731322093
 30
0.0
 11
-311.4333333333333
 21
204.75
 31
0.0
  0
LINE
  5
468
  8
1
  6
CONTINUOUS
 62
     7
 10
-311.4161445159392
 20
207.7240843148151
 30
0.0
 11
-311.4333333333333
 21
207.7412731322093
 31
0.0
  0
LINE
  5
469
  8
1
  6
CONTINUOUS
 62
     7
 10
-311.4074941357624
 20
206.7328489272493
 30
0.0
 11
-311.4161445159392
 21
207.7240843148151
 31
0.0
  0
LINE
  5
46A
  8
1
  6
CONTINUOUS
 62
     7
 10
-307.6088482947426
 20
204.75
 30
0.0
 11
-307.6088482947426
 21
207.7412731322093
 31
0.0
  0
LINE
  5
46B
  8
1
  6
CONTINUOUS
 62
     7
 10
-307.6833333333333
 20
207.75
 30
0.0
 11
-307.6088482947426
 21
207.7412731322093
 31
0.0
  0
LINE
  5
46C
  8
1
  6
CONTINUOUS
 62
     7
 10
-307.6833333333333
 20
211.75
 30
0.0
 11
-306.4302898838491
 21
211.7158134283521
 31
0.0
  0
LINE
  5
46D
  8
1
  6
CONTINUOUS
 62
     7
 10
-290.4333333333333
 20
204.75
 30
0.0
 11
-290.4333333333333
 21
207.7412731322093
 31
0.0
  0
LINE
  5
46E
  8
1
  6
CONTINUOUS
 62
     7
 10
-290.4505221507275
 20
207.7240843148151
 30
0.0
 11
-290.4591725309044
 21
206.7328489272493
 31
0.0
  0
LINE
  5
46F
  8
1
  6
CONTINUOUS
 62
     7
 10
-290.4505221507275
 20
207.7240843148151
 30
0.0
 11
-290.4333333333333
 21
207.7412731322093
 31
0.0
  0
LINE
  5
470
  8
1
  6
CONTINUOUS
 62
     7
 10
-292.4333333333333
 20
207.7412731322093
 30
0.0
 11
-292.4333333333333
 21
204.75
 31
0.0
  0
LINE
  5
471
  8
1
  6
CONTINUOUS
 62
     7
 10
-292.4161445159392
 20
207.7240843148151
 30
0.0
 11
-292.4333333333334
 21
207.7412731322092
 31
0.0
  0
LINE
  5
472
  8
1
  6
CONTINUOUS
 62
     7
 10
-292.4074941357623
 20
206.7328489272493
 30
0.0
 11
-292.4161445159392
 21
207.7240843148151
 31
0.0
  0
LINE
  5
473
  8
1
  6
CONTINUOUS
 62
     7
 10
-296.4333333333333
 20
211.7412731322093
 30
0.0
 11
-296.4078736294762
 21
211.7158134283522
 31
0.0
  0
LINE
  5
474
  8
1
  6
CONTINUOUS
 62
     7
 10
-296.4333333333333
 20
204.75
 30
0.0
 11
-296.4333333333333
 21
211.7412731322092
 31
0.0
  0
LINE
  5
475
  8
1
  6
CONTINUOUS
 62
     7
 10
-311.4333333333333
 20
204.75
 30
0.0
 11
-315.9420602011241
 21
204.75
 31
0.0
  0
LINE
  5
476
  8
1
  6
CONTINUOUS
 62
     9
 10
-251.7835047049203
 20
204.7501904100549
 30
0.0
 11
-251.8094948982377
 21
204.7761806033723
 31
0.0
  0
POLYLINE
  5
477
  8
1
  6
CONTINUOUS
 62
     7
 66
     1
 10
0.0
 20
0.0
 30
0.0
  0
VERTEX
  5
869
  8
1
  6
CONTINUOUS
 62
     7
 10
-251.8094948982377
 20
204.7761806033723
 30
0.0
  0
VERTEX
  5
86A
  8
1
  6
CONTINUOUS
 62
     7
 10
-251.7119514229866
 20
204.7857874004528
 30
0.0
  0
VERTEX
  5
86B
  8
1
  6
CONTINUOUS
 62
     7
 10
-251.6181575896657
 20
204.8142386435501
 30
0.0
  0
VERTEX
  5
86C
  8
1
  6
CONTINUOUS
 62
     7
 10
-251.5317174943333
 20
204.8604410730175
 30
0.0
  0
VERTEX
  5
86D
  8
1
  6
CONTINUOUS
 62
     7
 10
-251.455952660333
 20
204.9226193269997
 30
0.0
  0
VERTEX
  5
86E
  8
1
  6
CONTINUOUS
 62
     7
 10
-251.3937744063508
 20
204.998384161
 30
0.0
  0
VERTEX
  5
86F
  8
1
  6
CONTINUOUS
 62
     7
 10
-251.3475719768834
 20
205.0848242563324
 30
0.0
  0
VERTEX
  5
870
  8
1
  6
CONTINUOUS
 62
     7
 10
-251.3191207337861
 20
205.1786180896533
 30
0.0
  0
VERTEX
  5
871
  8
1
  6
CONTINUOUS
 62
     7
 10
-251.3095139367056
 20
205.2761615649044
 30
0.0
  0
SEQEND
  5
A30
  8
1
  6
CONTINUOUS
 62
     7
  0
LINE
  5
478
  8
1
  6
CONTINUOUS
 62
     9
 10
-251.3095139367056
 20
205.2761615649044
 30
0.0
 11
-251.2835618239492
 21
205.2502094521479
 31
0.0
  0
LINE
  5
479
  8
1
  6
CONTINUOUS
 62
     9
 10
-335.9331048427175
 20
205.2502094521479
 30
0.0
 11
-335.9071527299611
 21
205.2761615649044
 31
0.0
  0
POLYLINE
  5
47A
  8
1
  6
CONTINUOUS
 62
     7
 66
     1
 10
0.0
 20
0.0
 30
0.0
  0
VERTEX
  5
872
  8
1
  6
CONTINUOUS
 62
     7
 10
-335.9071527299611
 20
205.2761615649044
 30
0.0
  0
VERTEX
  5
873
  8
1
  6
CONTINUOUS
 62
     7
 10
-335.8975459328806
 20
205.1786180896533
 30
0.0
  0
VERTEX
  5
874
  8
1
  6
CONTINUOUS
 62
     7
 10
-335.8690946897832
 20
205.0848242563324
 30
0.0
  0
VERTEX
  5
875
  8
1
  6
CONTINUOUS
 62
     7
 10
-335.8228922603159
 20
204.998384161
 30
0.0
  0
VERTEX
  5
876
  8
1
  6
CONTINUOUS
 62
     7
 10
-335.7607140063337
 20
204.9226193269997
 30
0.0
  0
VERTEX
  5
877
  8
1
  6
CONTINUOUS
 62
     7
 10
-335.6849491723333
 20
204.8604410730175
 30
0.0
  0
VERTEX
  5
878
  8
1
  6
CONTINUOUS
 62
     7
 10
-335.5985090770009
 20
204.8142386435501
 30
0.0
  0
VERTEX
  5
879
  8
1
  6
CONTINUOUS
 62
     7
 10
-335.50471524368
 20
204.7857874004528
 30
0.0
  0
VERTEX
  5
87A
  8
1
  6
CONTINUOUS
 62
     7
 10
-335.407171768429
 20
204.7761806033723
 30
0.0
  0
SEQEND
  5
A31
  8
1
  6
CONTINUOUS
 62
     7
  0
LINE
  5
47B
  8
1
  6
CONTINUOUS
 62
     9
 10
-335.407171768429
 20
204.7761806033723
 30
0.0
 11
-335.4331619617464
 21
204.7501904100549
 31
0.0
  0
LINE
  5
47C
  8
1
  6
CONTINUOUS
 62
     9
 10
-318.9335047049203
 20
204.7501904100549
 30
0.0
 11
-318.9594948982377
 21
204.7761806033723
 31
0.0
  0
POLYLINE
  5
47D
  8
1
  6
CONTINUOUS
 62
     7
 66
     1
 10
0.0
 20
0.0
 30
0.0
  0
VERTEX
  5
87B
  8
1
  6
CONTINUOUS
 62
     7
 10
-318.9594948982377
 20
204.7761806033723
 30
0.0
  0
VERTEX
  5
87C
  8
1
  6
CONTINUOUS
 62
     7
 10
-318.8619514229867
 20
204.7857874004528
 30
0.0
  0
VERTEX
  5
87D
  8
1
  6
CONTINUOUS
 62
     7
 10
-318.7681575896658
 20
204.8142386435501
 30
0.0
  0
VERTEX
  5
87E
  8
1
  6
CONTINUOUS
 62
     7
 10
-318.6817174943334
 20
204.8604410730175
 30
0.0
  0
VERTEX
  5
87F
  8
1
  6
CONTINUOUS
 62
     7
 10
-318.6059526603331
 20
204.9226193269997
 30
0.0
  0
VERTEX
  5
880
  8
1
  6
CONTINUOUS
 62
     7
 10
-318.5437744063508
 20
204.998384161
 30
0.0
  0
VERTEX
  5
881
  8
1
  6
CONTINUOUS
 62
     7
 10
-318.4975719768835
 20
205.0848242563324
 30
0.0
  0
VERTEX
  5
882
  8
1
  6
CONTINUOUS
 62
     7
 10
-318.4691207337862
 20
205.1786180896533
 30
0.0
  0
VERTEX
  5
883
  8
1
  6
CONTINUOUS
 62
     7
 10
-318.4595139367057
 20
205.2761615649044
 30
0.0
  0
SEQEND
  5
A32
  8
1
  6
CONTINUOUS
 62
     7
  0
LINE
  5
47E
  8
1
  6
CONTINUOUS
 62
     9
 10
-318.4595139367056
 20
205.2761615649044
 30
0.0
 11
-318.4335618239492
 21
205.2502094521479
 31
0.0
  0
LINE
  5
47F
  8
1
  6
CONTINUOUS
 62
     9
 10
-283.4331048427175
 20
205.2502094521479
 30
0.0
 11
-283.407152729961
 21
205.2761615649044
 31
0.0
  0
POLYLINE
  5
480
  8
1
  6
CONTINUOUS
 62
     7
 66
     1
 10
0.0
 20
0.0
 30
0.0
  0
VERTEX
  5
884
  8
1
  6
CONTINUOUS
 62
     7
 10
-283.4071527299611
 20
205.2761615649044
 30
0.0
  0
VERTEX
  5
885
  8
1
  6
CONTINUOUS
 62
     7
 10
-283.3975459328806
 20
205.1786180896533
 30
0.0
  0
VERTEX
  5
886
  8
1
  6
CONTINUOUS
 62
     7
 10
-283.3690946897832
 20
205.0848242563324
 30
0.0
  0
VERTEX
  5
887
  8
1
  6
CONTINUOUS
 62
     7
 10
-283.3228922603159
 20
204.998384161
 30
0.0
  0
VERTEX
  5
888
  8
1
  6
CONTINUOUS
 62
     7
 10
-283.2607140063337
 20
204.9226193269997
 30
0.0
  0
VERTEX
  5
889
  8
1
  6
CONTINUOUS
 62
     7
 10
-283.1849491723333
 20
204.8604410730175
 30
0.0
  0
VERTEX
  5
88A
  8
1
  6
CONTINUOUS
 62
     7
 10
-283.0985090770009
 20
204.8142386435502
 30
0.0
  0
VERTEX
  5
88B
  8
1
  6
CONTINUOUS
 62
     7
 10
-283.00471524368
 20
204.7857874004528
 30
0.0
  0
VERTEX
  5
88C
  8
1
  6
CONTINUOUS
 62
     7
 10
-282.907171768429
 20
204.7761806033723
 30
0.0
  0
SEQEND
  5
A33
  8
1
  6
CONTINUOUS
 62
     7
  0
LINE
  5
481
  8
1
  6
CONTINUOUS
 62
     9
 10
-282.907171768429
 20
204.7761806033723
 30
0.0
 11
-282.9331619617464
 21
204.7501904100549
 31
0.0
  0
LINE
  5
482
  8
1
  6
CONTINUOUS
 62
     7
 10
-282.907171768429
 20
204.7761806033723
 30
0.0
 11
-274.5999552901694
 21
204.7761806033723
 31
0.0
  0
LINE
  5
483
  8
1
  6
CONTINUOUS
 62
     7
 10
-273.2667113764974
 20
204.7761806033723
 30
0.0
 11
-251.8094948982377
 21
204.7761806033723
 31
0.0
  0
LINE
  5
484
  8
1
  6
CONTINUOUS
 62
     7
 10
-318.9594948982377
 20
204.7761806033723
 30
0.0
 11
-335.407171768429
 21
204.7761806033723
 31
0.0
  0
LINE
  5
485
  8
1
  6
CONTINUOUS
 62
     7
 10
-251.3095139367056
 20
205.2761615649044
 30
0.0
 11
-251.3095139367056
 21
209.801630622042
 31
0.0
  0
LINE
  5
486
  8
1
  6
CONTINUOUS
 62
     9
 10
-251.2839149203311
 20
209.8865622353351
 30
0.0
 11
-251.3095139367056
 21
209.801630622042
 31
0.0
  0
LINE
  5
487
  8
1
  6
CONTINUOUS
 62
     9
 10
-335.9071527299611
 20
217.2238384350956
 30
0.0
 11
-335.9321910455565
 21
217.248876750691
 31
0.0
  0
LINE
  5
488
  8
1
  6
CONTINUOUS
 62
     7
 10
-335.9071527299611
 20
205.2761615649044
 30
0.0
 11
-335.9071527299611
 21
217.2238384350956
 31
0.0
  0
LINE
  5
489
  8
1
  6
CONTINUOUS
 62
     9
 10
-318.4344756211102
 20
217.248876750691
 30
0.0
 11
-318.4595139367055
 21
217.2238384350956
 31
0.0
  0
LINE
  5
48A
  8
1
  6
CONTINUOUS
 62
     7
 10
-318.4595139367056
 20
217.2238384350956
 30
0.0
 11
-318.4595139367056
 21
205.2761615649044
 31
0.0
  0
LINE
  5
48B
  8
1
  6
CONTINUOUS
 62
     9
 10
-283.4071527299611
 20
217.2238384350956
 30
0.0
 11
-283.4321910455565
 21
217.248876750691
 31
0.0
  0
LINE
  5
48C
  8
1
  6
CONTINUOUS
 62
     7
 10
-283.4071527299611
 20
217.2238384350956
 30
0.0
 11
-283.4071527299611
 21
205.2761615649044
 31
0.0
  0
POLYLINE
  5
48D
  8
1
  6
CONTINUOUS
 62
     7
 66
     1
 10
0.0
 20
0.0
 30
0.0
  0
VERTEX
  5
88D
  8
1
  6
CONTINUOUS
 62
     7
 10
-251.3095139367056
 20
209.801630622042
 30
0.0
  0
VERTEX
  5
88E
  8
1
  6
CONTINUOUS
 62
     7
 10
-251.3099453054375
 20
209.822385691777
 30
0.0
  0
VERTEX
  5
88F
  8
1
  6
CONTINUOUS
 62
     7
 10
-251.3112372103603
 20
209.8431139705177
 30
0.0
  0
VERTEX
  5
890
  8
1
  6
CONTINUOUS
 62
     7
 10
-251.3133863495644
 20
209.863761976142
 30
0.0
  0
VERTEX
  5
891
  8
1
  6
CONTINUOUS
 62
     7
 10
-251.3164459504056
 20
209.8846296886722
 30
0.0
  0
VERTEX
  5
892
  8
1
  6
CONTINUOUS
 62
     7
 10
-251.3203819328884
 20
209.9053499831122
 30
0.0
  0
VERTEX
  5
893
  8
1
  6
CONTINUOUS
 62
     7
 10
-251.3252641623338
 20
209.9261820705538
 30
0.0
  0
VERTEX
  5
894
  8
1
  6
CONTINUOUS
 62
     7
 10
-251.3310323168192
 20
209.9467864486548
 30
0.0
  0
VERTEX
  5
895
  8
1
  6
CONTINUOUS
 62
     7
 10
-251.3377090765695
 20
209.9672181722754
 30
0.0
  0
VERTEX
  5
896
  8
1
  6
CONTINUOUS
 62
     7
 10
-251.3449856123412
 20
209.986660728484
 30
0.0
  0
VERTEX
  5
897
  8
1
  6
CONTINUOUS
 62
     7
 10
-251.3530656200001
 20
210.0057930643166
 30
0.0
  0
VERTEX
  5
898
  8
1
  6
CONTINUOUS
 62
     7
 10
-251.3619282797964
 20
210.0245657607525
 30
0.0
  0
VERTEX
  5
899
  8
1
  6
CONTINUOUS
 62
     7
 10
-251.3717232624504
 20
210.0432444845041
 30
0.0
  0
VERTEX
  5
89A
  8
1
  6
CONTINUOUS
 62
     7
 10
-251.3822967678738
 20
210.0614937957095
 30
0.0
  0
VERTEX
  5
89B
  8
1
  6
CONTINUOUS
 62
     7
 10
-251.3938006841229
 20
210.0795353516112
 30
0.0
  0
VERTEX
  5
89C
  8
1
  6
CONTINUOUS
 62
     7
 10
-251.4060655537475
 20
210.0970684851056
 30
0.0
  0
VERTEX
  5
89D
  8
1
  6
CONTINUOUS
 62
     7
 10
-251.4191310494411
 20
210.1141376762377
 30
0.0
  0
VERTEX
  5
89E
  8
1
  6
CONTINUOUS
 62
     7
 10
-251.432430668266
 20
210.1300692732411
 30
0.0
  0
VERTEX
  5
89F
  8
1
  6
CONTINUOUS
 62
     7
 10
-251.4463856035373
 20
210.1454422082661
 30
0.0
  0
VERTEX
  5
8A0
  8
1
  6
CONTINUOUS
 62
     7
 10
-251.460959844625
 20
210.1602167490754
 30
0.0
  0
VERTEX
  5
8A1
  8
1
  6
CONTINUOUS
 62
     7
 10
-251.4763825679287
 20
210.1745940053831
 30
0.0
  0
VERTEX
  5
8A2
  8
1
  6
CONTINUOUS
 62
     7
 10
-251.4923975889427
 20
210.1883084128542
 30
0.0
  0
VERTEX
  5
8A3
  8
1
  6
CONTINUOUS
 62
     7
 10
-251.5092215974333
 20
210.2015188231709
 30
0.0
  0
VERTEX
  5
8A4
  8
1
  6
CONTINUOUS
 62
     7
 10
-251.5265951508092
 20
210.2139976782869
 30
0.0
  0
VERTEX
  5
8A5
  8
1
  6
CONTINUOUS
 62
     7
 10
-251.5445703942301
 20
210.2257738223942
 30
0.0
  0
VERTEX
  5
8A6
  8
1
  6
CONTINUOUS
 62
     7
 10
-251.5624752598425
 20
210.2364467503347
 30
0.0
  0
VERTEX
  5
8A7
  8
1
  6
CONTINUOUS
 62
     7
 10
-251.5808255541043
 20
210.2463724758605
 30
0.0
  0
VERTEX
  5
8A8
  8
1
  6
CONTINUOUS
 62
     7
 10
-251.5995729312608
 20
210.2555261157049
 30
0.0
  0
VERTEX
  5
8A9
  8
1
  6
CONTINUOUS
 62
     7
 10
-251.6186690455577
 20
210.2638827866017
 30
0.0
  0
VERTEX
  5
8AA
  8
1
  6
CONTINUOUS
 62
     7
 10
-251.6384740750772
 20
210.2715706419312
 30
0.0
  0
VERTEX
  5
8AB
  8
1
  6
CONTINUOUS
 62
     7
 10
-251.6585968408801
 20
210.2784135340426
 30
0.0
  0
VERTEX
  5
8AC
  8
1
  6
CONTINUOUS
 62
     7
 10
-251.6789828450407
 20
210.2843929271022
 30
0.0
  0
VERTEX
  5
8AD
  8
1
  6
CONTINUOUS
 62
     7
 10
-251.6998344476682
 20
210.2895514123457
 30
0.0
  0
VERTEX
  5
8AE
  8
1
  6
CONTINUOUS
 62
     7
 10
-251.7202585442438
 20
210.2936936542644
 30
0.0
  0
VERTEX
  5
8AF
  8
1
  6
CONTINUOUS
 62
     7
 10
-251.7408554990038
 20
210.2969837033469
 30
0.0
  0
VERTEX
  5
8B0
  8
1
  6
CONTINUOUS
 62
     7
 10
-251.7615714851916
 20
210.2994141215638
 30
0.0
  0
VERTEX
  5
8B1
  8
1
  6
CONTINUOUS
 62
     7
 10
-251.7823526760506
 20
210.3009774708854
 30
0.0
  0
VERTEX
  5
8B2
  8
1
  6
CONTINUOUS
 62
     7
 10
-251.8036325680636
 20
210.3016750402459
 30
0.0
  0
VERTEX
  5
8B3
  8
1
  6
CONTINUOUS
 62
     7
 10
-251.8249422203226
 20
210.3014655249996
 30
0.0
  0
VERTEX
  5
8B4
  8
1
  6
CONTINUOUS
 62
     7
 10
-251.8462237280828
 20
210.3003507568858
 30
0.0
  0
VERTEX
  5
8B5
  8
1
  6
CONTINUOUS
 62
     7
 10
-251.8674191865992
 20
210.2983325676441
 30
0.0
  0
VERTEX
  5
8B6
  8
1
  6
CONTINUOUS
 62
     7
 10
-251.8880643752659
 20
210.2954811756983
 30
0.0
  0
VERTEX
  5
8B7
  8
1
  6
CONTINUOUS
 62
     7
 10
-251.9085906329271
 20
210.2917685126992
 30
0.0
  0
VERTEX
  5
8B8
  8
1
  6
CONTINUOUS
 62
     7
 10
-251.9289447286745
 20
210.2872053958418
 30
0.0
  0
VERTEX
  5
8B9
  8
1
  6
CONTINUOUS
 62
     7
 10
-251.9490734316
 20
210.2818026423212
 30
0.0
  0
VERTEX
  5
8BA
  8
1
  6
CONTINUOUS
 62
     7
 10
-251.9693376298631
 20
210.2754355455589
 30
0.0
  0
VERTEX
  5
8BB
  8
1
  6
CONTINUOUS
 62
     7
 10
-251.989322355328
 20
210.2682108429528
 30
0.0
  0
VERTEX
  5
8BC
  8
1
  6
CONTINUOUS
 62
     7
 10
-252.0089735711006
 20
210.2601481216581
 30
0.0
  0
VERTEX
  5
8BD
  8
1
  6
CONTINUOUS
 62
     7
 10
-252.0284756744788
 20
210.2511544308822
 30
0.0
  0
VERTEX
  5
8BE
  8
1
  6
CONTINUOUS
 62
     7
 10
-252.0470202029176
 20
210.241629194132
 30
0.0
  0
VERTEX
  5
8BF
  8
1
  6
CONTINUOUS
 62
     7
 10
-252.0651674219455
 20
210.2313303934484
 30
0.0
  0
VERTEX
  5
8C0
  8
1
  6
CONTINUOUS
 62
     7
 10
-252.08287067809
 20
210.2202858595348
 30
0.0
  0
VERTEX
  5
8C1
  8
1
  6
CONTINUOUS
 62
     7
 10
-252.100083317879
 20
210.2085234230946
 30
0.0
  0
VERTEX
  5
8C2
  8
1
  6
CONTINUOUS
 62
     7
 10
-252.1171046642979
 20
210.1958059796885
 30
0.0
  0
VERTEX
  5
8C3
  8
1
  6
CONTINUOUS
 62
     7
 10
-252.1335784165759
 20
210.182371577542
 30
0.0
  0
VERTEX
  5
8C4
  8
1
  6
CONTINUOUS
 62
     7
 10
-252.1494600588455
 20
210.1682565805746
 30
0.0
  0
VERTEX
  5
8C5
  8
1
  6
CONTINUOUS
 62
     7
 10
-252.164892855712
 20
210.1533122513623
 30
0.0
  0
VERTEX
  5
8C6
  8
1
  6
CONTINUOUS
 62
     7
 10
-252.1809150786329
 20
210.1363422564793
 30
0.0
  0
VERTEX
  5
8C7
  8
1
  6
CONTINUOUS
 62
     7
 10
-252.1962098136016
 20
210.1185438391879
 30
0.0
  0
VERTEX
  5
8C8
  8
1
  6
CONTINUOUS
 62
     7
 10
-252.2106536560149
 20
210.1000482173312
 30
0.0
  0
VERTEX
  5
8C9
  8
1
  6
CONTINUOUS
 62
     7
 10
-252.224286778371
 20
210.0807876711559
 30
0.0
  0
SEQEND
  5
A34
  8
1
  6
CONTINUOUS
 62
     7
  0
LINE
  5
48E
  8
1
  6
CONTINUOUS
 62
     9
 10
-252.224286778371
 20
210.0807876711559
 30
0.0
 11
-252.2025128110558
 21
210.1599118583214
 31
0.0
  0
LINE
  5
48F
  8
1
  6
CONTINUOUS
 62
     9
 10
-292.4161445159392
 20
207.7240843148151
 30
0.0
 11
-290.4505221507276
 21
207.7240843148151
 31
0.0
  0
LINE
  5
490
  8
1
  6
CONTINUOUS
 62
     9
 10
-311.4161445159392
 20
207.7240843148151
 30
0.0
 11
-309.4505221507275
 21
207.7240843148151
 31
0.0
  0
LINE
  5
491
  8
1
  6
CONTINUOUS
 62
     7
 10
-287.3997402647834
 20
218.2388023104834
 30
0.0
 11
-285.9209270123519
 21
220.2251873580371
 31
0.0
  0
LINE
  5
492
  8
1
  6
CONTINUOUS
 62
     7
 10
-285.9209270123519
 20
220.2251873580371
 30
0.0
 11
-281.8555521326542
 21
220.2251873580371
 31
0.0
  0
LINE
  5
493
  8
1
  6
CONTINUOUS
 62
     7
 10
-287.3996418452289
 20
218.2165369764104
 30
0.0
 11
-287.3997402647833
 21
218.2388023104834
 31
0.0
  0
ARC
  5
494
  8
1
  6
CONTINUOUS
 62
     7
 10
-256.9333333333333
 20
213.25
 30
0.0
 40
5.676180603372279
 50
238.218500733032
 51
326.0592453494596
  0
LINE
  5
495
  8
1
  6
CONTINUOUS
 62
     7
 10
-296.4333333333333
 20
211.7412731322093
 30
0.0
 11
-305.4333333333333
 21
211.7412731322093
 31
0.0
  0
LINE
  5
496
  8
1
  6
CONTINUOUS
 62
     7
 10
-294.1833333333333
 20
211.75
 30
0.0
 11
-307.6833333333333
 21
211.75
 31
0.0
  0
LINE
  5
497
  8
1
  6
CONTINUOUS
 62
     9
 10
-335.4321720092633
 20
217.748819637462
 30
0.0
 11
-335.407171768429
 21
217.7238193966278
 31
0.0
  0
POLYLINE
  5
498
  8
1
  6
CONTINUOUS
 62
     7
 66
     1
 10
0.0
 20
0.0
 30
0.0
  0
VERTEX
  5
8CA
  8
1
  6
CONTINUOUS
 62
     7
 10
-335.407171768429
 20
217.7238193966277
 30
0.0
  0
VERTEX
  5
8CB
  8
1
  6
CONTINUOUS
 62
     7
 10
-335.50471524368
 20
217.7142125995473
 30
0.0
  0
VERTEX
  5
8CC
  8
1
  6
CONTINUOUS
 62
     7
 10
-335.5985090770009
 20
217.6857613564499
 30
0.0
  0
VERTEX
  5
8CD
  8
1
  6
CONTINUOUS
 62
     7
 10
-335.6849491723333
 20
217.6395589269825
 30
0.0
  0
VERTEX
  5
8CE
  8
1
  6
CONTINUOUS
 62
     7
 10
-335.7607140063337
 20
217.5773806730003
 30
0.0
  0
VERTEX
  5
8CF
  8
1
  6
CONTINUOUS
 62
     7
 10
-335.8228922603159
 20
217.501615839
 30
0.0
  0
VERTEX
  5
8D0
  8
1
  6
CONTINUOUS
 62
     7
 10
-335.8690946897832
 20
217.4151757436676
 30
0.0
  0
VERTEX
  5
8D1
  8
1
  6
CONTINUOUS
 62
     7
 10
-335.8975459328806
 20
217.3213819103467
 30
0.0
  0
VERTEX
  5
8D2
  8
1
  6
CONTINUOUS
 62
     7
 10
-335.9071527299611
 20
217.2238384350957
 30
0.0
  0
SEQEND
  5
A35
  8
1
  6
CONTINUOUS
 62
     7
  0
LINE
  5
499
  8
1
  6
CONTINUOUS
 62
     9
 10
-282.9321720092633
 20
217.748819637462
 30
0.0
 11
-282.907171768429
 21
217.7238193966278
 31
0.0
  0
POLYLINE
  5
49A
  8
1
  6
CONTINUOUS
 62
     7
 66
     1
 10
0.0
 20
0.0
 30
0.0
  0
VERTEX
  5
8D3
  8
1
  6
CONTINUOUS
 62
     7
 10
-282.907171768429
 20
217.7238193966277
 30
0.0
  0
VERTEX
  5
8D4
  8
1
  6
CONTINUOUS
 62
     7
 10
-283.00471524368
 20
217.7142125995473
 30
0.0
  0
VERTEX
  5
8D5
  8
1
  6
CONTINUOUS
 62
     7
 10
-283.0985090770009
 20
217.6857613564499
 30
0.0
  0
VERTEX
  5
8D6
  8
1
  6
CONTINUOUS
 62
     7
 10
-283.1849491723333
 20
217.6395589269825
 30
0.0
  0
VERTEX
  5
8D7
  8
1
  6
CONTINUOUS
 62
     7
 10
-283.2607140063337
 20
217.5773806730003
 30
0.0
  0
VERTEX
  5
8D8
  8
1
  6
CONTINUOUS
 62
     7
 10
-283.3228922603159
 20
217.501615839
 30
0.0
  0
VERTEX
  5
8D9
  8
1
  6
CONTINUOUS
 62
     7
 10
-283.3690946897832
 20
217.4151757436676
 30
0.0
  0
VERTEX
  5
8DA
  8
1
  6
CONTINUOUS
 62
     7
 10
-283.3975459328806
 20
217.3213819103467
 30
0.0
  0
VERTEX
  5
8DB
  8
1
  6
CONTINUOUS
 62
     7
 10
-283.4071527299611
 20
217.2238384350957
 30
0.0
  0
SEQEND
  5
A36
  8
1
  6
CONTINUOUS
 62
     7
  0
POLYLINE
  5
49B
  8
1
  6
CONTINUOUS
 62
     7
 66
     1
 10
0.0
 20
0.0
 30
0.0
  0
VERTEX
  5
8DC
  8
1
  6
CONTINUOUS
 62
     7
 10
-318.4595139367056
 20
217.2238384350957
 30
0.0
  0
VERTEX
  5
8DD
  8
1
  6
CONTINUOUS
 62
     7
 10
-318.4691207337861
 20
217.3213819103467
 30
0.0
  0
VERTEX
  5
8DE
  8
1
  6
CONTINUOUS
 62
     7
 10
-318.4975719768835
 20
217.4151757436676
 30
0.0
  0
VERTEX
  5
8DF
  8
1
  6
CONTINUOUS
 62
     7
 10
-318.5437744063508
 20
217.501615839
 30
0.0
  0
VERTEX
  5
8E0
  8
1
  6
CONTINUOUS
 62
     7
 10
-318.605952660333
 20
217.5773806730003
 30
0.0
  0
VERTEX
  5
8E1
  8
1
  6
CONTINUOUS
 62
     7
 10
-318.6817174943333
 20
217.6395589269825
 30
0.0
  0
VERTEX
  5
8E2
  8
1
  6
CONTINUOUS
 62
     7
 10
-318.7681575896657
 20
217.6857613564499
 30
0.0
  0
VERTEX
  5
8E3
  8
1
  6
CONTINUOUS
 62
     7
 10
-318.8619514229866
 20
217.7142125995473
 30
0.0
  0
VERTEX
  5
8E4
  8
1
  6
CONTINUOUS
 62
     7
 10
-318.9594948982377
 20
217.7238193966277
 30
0.0
  0
SEQEND
  5
A37
  8
1
  6
CONTINUOUS
 62
     7
  0
LINE
  5
49C
  8
1
  6
CONTINUOUS
 62
     9
 10
-318.9594948982377
 20
217.7238193966277
 30
0.0
 11
-318.9344946574034
 21
217.748819637462
 31
0.0
  0
LINE
  5
49D
  8
1
  6
CONTINUOUS
 62
     7
 10
-287.4333333333333
 20
217.25
 30
0.0
 11
-287.3995708067858
 21
217.2837625265475
 31
0.0
  0
LINE
  5
49E
  8
1
  6
CONTINUOUS
 62
     7
 10
-287.4333333333333
 20
218.25
 30
0.0
 11
-287.4333333333333
 21
217.25
 31
0.0
  0
LINE
  5
49F
  8
1
  6
CONTINUOUS
 62
     7
 10
-287.3997402647834
 20
218.2388023104834
 30
0.0
 11
-287.4333333333334
 21
218.25
 31
0.0
  0
LINE
  5
4A0
  8
1
  6
CONTINUOUS
 62
     7
 10
-314.4333333333333
 20
217.25
 30
0.0
 11
-314.4333333333333
 21
218.25
 31
0.0
  0
LINE
  5
4A1
  8
1
  6
CONTINUOUS
 62
     7
 10
-314.4333333333333
 20
217.25
 30
0.0
 11
-314.4670958598808
 21
217.2837625265475
 31
0.0
  0
LINE
  5
4A2
  8
1
  6
CONTINUOUS
 62
     7
 10
-314.4669264018833
 20
218.2388023104834
 30
0.0
 11
-314.4670248214377
 21
218.2165369764104
 31
0.0
  0
LINE
  5
4A3
  8
1
  6
CONTINUOUS
 62
     7
 10
-314.4333333333333
 20
218.25
 30
0.0
 11
-314.4669264018833
 21
218.2388023104834
 31
0.0
  0
LINE
  5
4A4
  8
1
  6
CONTINUOUS
 62
     7
 10
-315.9333333333333
 20
217.25
 30
0.0
 11
-314.4333333333333
 21
217.25
 31
0.0
  0
LINE
  5
4A5
  8
1
  6
CONTINUOUS
 62
     7
 10
-287.4333333333333
 20
217.25
 30
0.0
 11
-285.9333333333333
 21
217.25
 31
0.0
  0
LINE
  5
4A6
  8
1
  6
CONTINUOUS
 62
     7
 10
-282.0743934725845
 20
217.7238193966277
 30
0.0
 11
-282.907171768429
 21
217.7238193966277
 31
0.0
  0
LINE
  5
4A7
  8
1
  6
CONTINUOUS
 62
     7
 10
-335.407171768429
 20
217.7238193966277
 30
0.0
 11
-318.9594948982377
 21
217.7238193966277
 31
0.0
  0
LINE
  5
4A8
  8
1
  6
CONTINUOUS
 62
     7
 10
-315.9457396543148
 20
220.2251873580371
 30
0.0
 11
-314.4669264018833
 21
218.2388023104834
 31
0.0
  0
LINE
  5
4A9
  8
1
  6
CONTINUOUS
 62
     7
 10
-314.4333333333333
 20
218.25
 30
0.0
 11
-315.9333333333333
 21
220.25
 31
0.0
  0
LINE
  5
4AA
  8
1
  6
CONTINUOUS
 62
     7
 10
-285.9333333333333
 20
220.25
 30
0.0
 11
-287.4333333333333
 21
218.25
 31
0.0
  0
LINE
  5
4AB
  8
1
  6
CONTINUOUS
 62
     7
 10
-285.9333333333333
 20
220.25
 30
0.0
 11
-285.9209270123519
 21
220.2251873580371
 31
0.0
  0
LINE
  5
4AC
  8
1
  6
CONTINUOUS
 62
     7
 10
-295.7162979089789
 20
199.928532767264
 30
0.0
 11
-295.6833333333333
 21
199.7499809608072
 31
0.0
  0
POLYLINE
  5
4AD
  8
1
  6
CONTINUOUS
 62
     7
 66
     1
 10
0.0
 20
0.0
 30
0.0
  0
VERTEX
  5
8E5
  8
1
  6
CONTINUOUS
 62
     7
 10
-293.0260651160575
 20
200.2783126950872
 30
0.0
  0
VERTEX
  5
8E6
  8
1
  6
CONTINUOUS
 62
     7
 10
-293.0291825478593
 20
200.2782749930813
 30
0.0
  0
VERTEX
  5
8E7
  8
1
  6
CONTINUOUS
 62
     7
 10
-293.0588125100076
 20
200.2769447569347
 30
0.0
  0
VERTEX
  5
8E8
  8
1
  6
CONTINUOUS
 62
     7
 10
-293.0883662598791
 20
200.2738551792404
 30
0.0
  0
VERTEX
  5
8E9
  8
1
  6
CONTINUOUS
 62
     7
 10
-293.1176666176472
 20
200.2690243012989
 30
0.0
  0
VERTEX
  5
8EA
  8
1
  6
CONTINUOUS
 62
     7
 10
-293.1467866164551
 20
200.2624301353823
 30
0.0
  0
VERTEX
  5
8EB
  8
1
  6
CONTINUOUS
 62
     7
 10
-293.1724169263335
 20
200.2550912578051
 30
0.0
  0
VERTEX
  5
8EC
  8
1
  6
CONTINUOUS
 62
     7
 10
-293.197818526244
 20
200.2463335302077
 30
0.0
  0
VERTEX
  5
8ED
  8
1
  6
CONTINUOUS
 62
     7
 10
-293.2228624667016
 20
200.2361721724576
 30
0.0
  0
VERTEX
  5
8EE
  8
1
  6
CONTINUOUS
 62
     7
 10
-293.2478173635713
 20
200.2244388952979
 30
0.0
  0
VERTEX
  5
8EF
  8
1
  6
CONTINUOUS
 62
     7
 10
-293.2723205869276
 20
200.2112327927412
 30
0.0
  0
VERTEX
  5
8F0
  8
1
  6
CONTINUOUS
 62
     7
 10
-293.2966436186263
 20
200.1963199095704
 30
0.0
  0
VERTEX
  5
8F1
  8
1
  6
CONTINUOUS
 62
     7
 10
-293.3203966643263
 20
200.1798337712781
 30
0.0
  0
VERTEX
  5
8F2
  8
1
  6
CONTINUOUS
 62
     7
 10
-293.3436283632174
 20
200.1616407593778
 30
0.0
  0
VERTEX
  5
8F3
  8
1
  6
CONTINUOUS
 62
     7
 10
-293.3661267648979
 20
200.1417873334183
 30
0.0
  0
VERTEX
  5
8F4
  8
1
  6
CONTINUOUS
 62
     7
 10
-293.3878243920641
 20
200.1202031464076
 30
0.0
  0
VERTEX
  5
8F5
  8
1
  6
CONTINUOUS
 62
     7
 10
-293.4019649696534
 20
200.1046274417002
 30
0.0
  0
VERTEX
  5
8F6
  8
1
  6
CONTINUOUS
 62
     7
 10
-293.4156579545687
 20
200.0882162388849
 30
0.0
  0
VERTEX
  5
8F7
  8
1
  6
CONTINUOUS
 62
     7
 10
-293.4290476304375
 20
200.0706960512982
 30
0.0
  0
VERTEX
  5
8F8
  8
1
  6
CONTINUOUS
 62
     7
 10
-293.4418916317763
 20
200.0522672535231
 30
0.0
  0
VERTEX
  5
8F9
  8
1
  6
CONTINUOUS
 62
     7
 10
-293.454121067328
 20
200.0329317407069
 30
0.0
  0
VERTEX
  5
8FA
  8
1
  6
CONTINUOUS
 62
     7
 10
-293.4611093372269
 20
200.0209415087863
 30
0.0
  0
VERTEX
  5
8FB
  8
1
  6
CONTINUOUS
 62
     7
 10
-293.467844334411
 20
200.0086173231944
 30
0.0
  0
VERTEX
  5
8FC
  8
1
  6
CONTINUOUS
 62
     7
 10
-293.4764987209379
 20
199.9914641777072
 30
0.0
  0
VERTEX
  5
8FD
  8
1
  6
CONTINUOUS
 62
     7
 10
-293.4846268663094
 20
199.9736945231448
 30
0.0
  0
VERTEX
  5
8FE
  8
1
  6
CONTINUOUS
 62
     7
 10
-293.4921749278352
 20
199.9553359138514
 30
0.0
  0
VERTEX
  5
8FF
  8
1
  6
CONTINUOUS
 62
     7
 10
-293.4974994851208
 20
199.9409835465144
 30
0.0
  0
VERTEX
  5
900
  8
1
  6
CONTINUOUS
 62
     7
 10
-293.5024423395228
 20
199.9263021427528
 30
0.0
  0
VERTEX
  5
901
  8
1
  6
CONTINUOUS
 62
     7
 10
-293.5068868586862
 20
199.911631410472
 30
0.0
  0
VERTEX
  5
902
  8
1
  6
CONTINUOUS
 62
     7
 10
-293.5109256926466
 20
199.8966669228743
 30
0.0
  0
VERTEX
  5
903
  8
1
  6
CONTINUOUS
 62
     7
 10
-293.5145341168107
 20
199.8814426263047
 30
0.0
  0
VERTEX
  5
904
  8
1
  6
CONTINUOUS
 62
     7
 10
-293.5177508836673
 20
199.8656647811425
 30
0.0
  0
VERTEX
  5
905
  8
1
  6
CONTINUOUS
 62
     7
 10
-293.5204810354437
 20
199.8496623387649
 30
0.0
  0
VERTEX
  5
906
  8
1
  6
CONTINUOUS
 62
     7
 10
-293.5222303707274
 20
199.8372738915219
 30
0.0
  0
VERTEX
  5
907
  8
1
  6
CONTINUOUS
 62
     7
 10
-293.5236772372092
 20
199.8247800638559
 30
0.0
  0
VERTEX
  5
908
  8
1
  6
CONTINUOUS
 62
     7
 10
-293.5248150565882
 20
199.8122090025295
 30
0.0
  0
VERTEX
  5
909
  8
1
  6
CONTINUOUS
 62
     7
 10
-293.525637250564
 20
199.7995888543051
 30
0.0
  0
SEQEND
  5
A38
  8
1
  6
CONTINUOUS
 62
     7
  0
LINE
  5
4AE
  8
1
  6
CONTINUOUS
 62
     7
 10
-293.525637250564
 20
199.7995888543051
 30
0.0
 11
-293.5267857074758
 21
199.7776749909916
 31
0.0
  0
LINE
  5
4AF
  8
1
  6
CONTINUOUS
 62
     9
 10
-293.5267857074758
 20
199.7776749909916
 30
0.0
 11
-295.6833333333333
 21
199.7499809608071
 31
0.0
  0
POLYLINE
  5
4B0
  8
1
  6
CONTINUOUS
 62
     7
 66
     1
 10
0.0
 20
0.0
 30
0.0
  0
VERTEX
  5
90A
  8
1
  6
CONTINUOUS
 62
     7
 10
-296.1833304043927
 20
200.25
 30
0.0
  0
VERTEX
  5
90B
  8
1
  6
CONTINUOUS
 62
     7
 10
-296.1626432773492
 20
200.2495718437355
 30
0.0
  0
VERTEX
  5
90C
  8
1
  6
CONTINUOUS
 62
     7
 10
-296.141920257105
 20
200.2482821850742
 30
0.0
  0
VERTEX
  5
90D
  8
1
  6
CONTINUOUS
 62
     7
 10
-296.1212330055985
 20
200.2461287818352
 30
0.0
  0
VERTEX
  5
90E
  8
1
  6
CONTINUOUS
 62
     7
 10
-296.1003951110162
 20
200.2430734996234
 30
0.0
  0
VERTEX
  5
90F
  8
1
  6
CONTINUOUS
 62
     7
 10
-296.0796676930455
 20
200.2391355953367
 30
0.0
  0
VERTEX
  5
910
  8
1
  6
CONTINUOUS
 62
     7
 10
-296.0588658821945
 20
200.2342602444058
 30
0.0
  0
VERTEX
  5
911
  8
1
  6
CONTINUOUS
 62
     7
 10
-296.0382538877867
 20
200.2284892739853
 30
0.0
  0
VERTEX
  5
912
  8
1
  6
CONTINUOUS
 62
     7
 10
-296.0178333880444
 20
200.2218152869375
 30
0.0
  0
VERTEX
  5
913
  8
1
  6
CONTINUOUS
 62
     7
 10
-295.9983679164295
 20
200.2145291645915
 30
0.0
  0
VERTEX
  5
914
  8
1
  6
CONTINUOUS
 62
     7
 10
-295.9792219387015
 20
200.2064406726407
 30
0.0
  0
VERTEX
  5
915
  8
1
  6
CONTINUOUS
 62
     7
 10
-295.9602986330637
 20
200.1974982290535
 30
0.0
  0
VERTEX
  5
916
  8
1
  6
CONTINUOUS
 62
     7
 10
-295.941765985275
 20
200.1877719881985
 30
0.0
  0
VERTEX
  5
917
  8
1
  6
CONTINUOUS
 62
     7
 10
-295.9279631550507
 20
200.1798661560316
 30
0.0
  0
VERTEX
  5
918
  8
1
  6
CONTINUOUS
 62
     7
 10
-295.914418726173
 20
200.171525367619
 30
0.0
  0
VERTEX
  5
919
  8
1
  6
CONTINUOUS
 62
     7
 10
-295.9010929959381
 20
200.1627212343762
 30
0.0
  0
VERTEX
  5
91A
  8
1
  6
CONTINUOUS
 62
     7
 10
-295.8880551872223
 20
200.1534960843534
 30
0.0
  0
VERTEX
  5
91B
  8
1
  6
CONTINUOUS
 62
     7
 10
-295.870994912696
 20
200.1404390959493
 30
0.0
  0
VERTEX
  5
91C
  8
1
  6
CONTINUOUS
 62
     7
 10
-295.8550382237609
 20
200.1271204347968
 30
0.0
  0
VERTEX
  5
91D
  8
1
  6
CONTINUOUS
 62
     7
 10
-295.8396485993303
 20
200.1131503911594
 30
0.0
  0
VERTEX
  5
91E
  8
1
  6
CONTINUOUS
 62
     7
 10
-295.8247517497324
 20
200.0984482474212
 30
0.0
  0
VERTEX
  5
91F
  8
1
  6
CONTINUOUS
 62
     7
 10
-295.8104829640547
 20
200.0831358042224
 30
0.0
  0
VERTEX
  5
920
  8
1
  6
CONTINUOUS
 62
     7
 10
-295.8000748706231
 20
200.0711067764917
 30
0.0
  0
VERTEX
  5
921
  8
1
  6
CONTINUOUS
 62
     7
 10
-295.7900545743479
 20
200.0587528467377
 30
0.0
  0
VERTEX
  5
922
  8
1
  6
CONTINUOUS
 62
     7
 10
-295.7803940078465
 20
200.0460340878506
 30
0.0
  0
VERTEX
  5
923
  8
1
  6
CONTINUOUS
 62
     7
 10
-295.7711444782994
 20
200.033013351438
 30
0.0
  0
VERTEX
  5
924
  8
1
  6
CONTINUOUS
 62
     7
 10
-295.7686547269837
 20
200.0293525166499
 30
0.0
  0
SEQEND
  5
A39
  8
1
  6
CONTINUOUS
 62
     7
  0
POLYLINE
  5
4B1
  8
1
  6
CONTINUOUS
 62
     7
 66
     1
 10
0.0
 20
0.0
 30
0.0
  0
VERTEX
  5
925
  8
1
  6
CONTINUOUS
 62
     7
 10
-293.0275489215326
 20
200.25
 30
0.0
  0
VERTEX
  5
926
  8
1
  6
CONTINUOUS
 62
     7
 10
-293.12188257206
 20
200.2410201983812
 30
0.0
  0
VERTEX
  5
927
  8
1
  6
CONTINUOUS
 62
     7
 10
-293.2128280334124
 20
200.2144033285915
 30
0.0
  0
VERTEX
  5
928
  8
1
  6
CONTINUOUS
 62
     7
 10
-293.2971187411712
 20
200.1711054110691
 30
0.0
  0
VERTEX
  5
929
  8
1
  6
CONTINUOUS
 62
     7
 10
-293.3717271552841
 20
200.1126816134349
 30
0.0
  0
VERTEX
  5
92A
  8
1
  6
CONTINUOUS
 62
     7
 10
-293.4339735027611
 20
200.0412303922336
 30
0.0
  0
VERTEX
  5
92B
  8
1
  6
CONTINUOUS
 62
     7
 10
-293.4816220293291
 20
199.959318120909
 30
0.0
  0
VERTEX
  5
92C
  8
1
  6
CONTINUOUS
 62
     7
 10
-293.5129613028923
 20
199.8698869112167
 30
0.0
  0
VERTEX
  5
92D
  8
1
  6
CONTINUOUS
 62
     7
 10
-293.5268656844755
 20
199.7761489389286
 30
0.0
  0
SEQEND
  5
A3A
  8
1
  6
CONTINUOUS
 62
     7
  0
LINE
  5
4B2
  8
1
  6
CONTINUOUS
 62
     9
 10
-290.1843150184826
 20
199.7507387314174
 30
0.0
 11
-292.339880959191
 21
199.7776749909916
 31
0.0
  0
POLYLINE
  5
4B3
  8
1
  6
CONTINUOUS
 62
     7
 66
     1
 10
0.0
 20
0.0
 30
0.0
  0
VERTEX
  5
92E
  8
1
  6
CONTINUOUS
 62
     7
 10
-292.3410294161027
 20
199.7995888543051
 30
0.0
  0
VERTEX
  5
92F
  8
1
  6
CONTINUOUS
 62
     7
 10
-292.342136600085
 20
199.815712252128
 30
0.0
  0
VERTEX
  5
930
  8
1
  6
CONTINUOUS
 62
     7
 10
-292.3437562877933
 20
199.8317413818656
 30
0.0
  0
VERTEX
  5
931
  8
1
  6
CONTINUOUS
 62
     7
 10
-292.3458749743612
 20
199.84761721597
 30
0.0
  0
VERTEX
  5
932
  8
1
  6
CONTINUOUS
 62
     7
 10
-292.3485452371461
 20
199.8636636663406
 30
0.0
  0
VERTEX
  5
933
  8
1
  6
CONTINUOUS
 62
     7
 10
-292.3517056072986
 20
199.8794890026666
 30
0.0
  0
VERTEX
  5
934
  8
1
  6
CONTINUOUS
 62
     7
 10
-292.3554182483417
 20
199.8953861375211
 30
0.0
  0
VERTEX
  5
935
  8
1
  6
CONTINUOUS
 62
     7
 10
-292.3596004707179
 20
199.9110034575021
 30
0.0
  0
VERTEX
  5
936
  8
1
  6
CONTINUOUS
 62
     7
 10
-292.3642243271439
 20
199.9263021427528
 30
0.0
  0
VERTEX
  5
937
  8
1
  6
CONTINUOUS
 62
     7
 10
-292.3690311403675
 20
199.9405986130158
 30
0.0
  0
VERTEX
  5
938
  8
1
  6
CONTINUOUS
 62
     7
 10
-292.3742002457267
 20
199.9545835101688
 30
0.0
  0
VERTEX
  5
939
  8
1
  6
CONTINUOUS
 62
     7
 10
-292.3817307104357
 20
199.9729812329713
 30
0.0
  0
VERTEX
  5
93A
  8
1
  6
CONTINUOUS
 62
     7
 10
-292.3898440681101
 20
199.9907895118876
 30
0.0
  0
VERTEX
  5
93B
  8
1
  6
CONTINUOUS
 62
     7
 10
-292.3984862039847
 20
200.0079803579271
 30
0.0
  0
VERTEX
  5
93C
  8
1
  6
CONTINUOUS
 62
     7
 10
-292.405382523653
 20
200.0206316563063
 30
0.0
  0
VERTEX
  5
93D
  8
1
  6
CONTINUOUS
 62
     7
 10
-292.4125455993387
 20
200.0329317407069
 30
0.0
  0
VERTEX
  5
93E
  8
1
  6
CONTINUOUS
 62
     7
 10
-292.4244225551761
 20
200.0517361127012
 30
0.0
  0
VERTEX
  5
93F
  8
1
  6
CONTINUOUS
 62
     7
 10
-292.4368813224129
 20
200.0696833810768
 30
0.0
  0
VERTEX
  5
940
  8
1
  6
CONTINUOUS
 62
     7
 10
-292.4498583618627
 20
200.0867715847887
 30
0.0
  0
VERTEX
  5
941
  8
1
  6
CONTINUOUS
 62
     7
 10
-292.4635317122465
 20
200.1032789895535
 30
0.0
  0
VERTEX
  5
942
  8
1
  6
CONTINUOUS
 62
     7
 10
-292.4776572785825
 20
200.1189467631302
 30
0.0
  0
VERTEX
  5
943
  8
1
  6
CONTINUOUS
 62
     7
 10
-292.4924002931664
 20
200.1339932584926
 30
0.0
  0
VERTEX
  5
944
  8
1
  6
CONTINUOUS
 62
     7
 10
-292.5075406185461
 20
200.14822127876
 30
0.0
  0
VERTEX
  5
945
  8
1
  6
CONTINUOUS
 62
     7
 10
-292.5230383034493
 20
200.1616407593778
 30
0.0
  0
VERTEX
  5
946
  8
1
  6
CONTINUOUS
 62
     7
 10
-292.5454293514492
 20
200.1792127094257
 30
0.0
  0
VERTEX
  5
947
  8
1
  6
CONTINUOUS
 62
     7
 10
-292.5685294699662
 20
200.1953414506481
 30
0.0
  0
VERTEX
  5
948
  8
1
  6
CONTINUOUS
 62
     7
 10
-292.592173484648
 20
200.2099763784745
 30
0.0
  0
VERTEX
  5
949
  8
1
  6
CONTINUOUS
 62
     7
 10
-292.6166553766162
 20
200.2233265845746
 30
0.0
  0
VERTEX
  5
94A
  8
1
  6
CONTINUOUS
 62
     7
 10
-292.6415938485235
 20
200.2351993530377
 30
0.0
  0
VERTEX
  5
94B
  8
1
  6
CONTINUOUS
 62
     7
 10
-292.6672892362047
 20
200.2457462089248
 30
0.0
  0
VERTEX
  5
94C
  8
1
  6
CONTINUOUS
 62
     7
 10
-292.693364525135
 20
200.254811333296
 30
0.0
  0
VERTEX
  5
94D
  8
1
  6
CONTINUOUS
 62
     7
 10
-292.7198800502116
 20
200.2624301353823
 30
0.0
  0
VERTEX
  5
94E
  8
1
  6
CONTINUOUS
 62
     7
 10
-292.7487526975157
 20
200.2689759006719
 30
0.0
  0
VERTEX
  5
94F
  8
1
  6
CONTINUOUS
 62
     7
 10
-292.7780503503014
 20
200.2738214544781
 30
0.0
  0
VERTEX
  5
950
  8
1
  6
CONTINUOUS
 62
     7
 10
-292.8076018134033
 20
200.2769258577866
 30
0.0
  0
VERTEX
  5
951
  8
1
  6
CONTINUOUS
 62
     7
 10
-292.8374841188074
 20
200.2782749930813
 30
0.0
  0
VERTEX
  5
952
  8
1
  6
CONTINUOUS
 62
     7
 10
-292.8406015506092
 20
200.2783126950872
 30
0.0
  0
SEQEND
  5
A3B
  8
1
  6
CONTINUOUS
 62
     7
  0
POLYLINE
  5
4B4
  8
1
  6
CONTINUOUS
 62
     7
 66
     1
 10
0.0
 20
0.0
 30
0.0
  0
VERTEX
  5
953
  8
1
  6
CONTINUOUS
 62
     7
 10
-289.683336262274
 20
200.25
 30
0.0
  0
VERTEX
  5
954
  8
1
  6
CONTINUOUS
 62
     7
 10
-289.7040233893175
 20
200.2495718437355
 30
0.0
  0
VERTEX
  5
955
  8
1
  6
CONTINUOUS
 62
     7
 10
-289.7247464095617
 20
200.2482821850742
 30
0.0
  0
VERTEX
  5
956
  8
1
  6
CONTINUOUS
 62
     7
 10
-289.7454336610682
 20
200.2461287818352
 30
0.0
  0
VERTEX
  5
957
  8
1
  6
CONTINUOUS
 62
     7
 10
-289.7662715556505
 20
200.2430734996234
 30
0.0
  0
VERTEX
  5
958
  8
1
  6
CONTINUOUS
 62
     7
 10
-289.7869989736212
 20
200.2391355953367
 30
0.0
  0
VERTEX
  5
959
  8
1
  6
CONTINUOUS
 62
     7
 10
-289.8078007844722
 20
200.2342602444058
 30
0.0
  0
VERTEX
  5
95A
  8
1
  6
CONTINUOUS
 62
     7
 10
-289.82841277888
 20
200.2284892739853
 30
0.0
  0
VERTEX
  5
95B
  8
1
  6
CONTINUOUS
 62
     7
 10
-289.8488332786222
 20
200.2218152869375
 30
0.0
  0
VERTEX
  5
95C
  8
1
  6
CONTINUOUS
 62
     7
 10
-289.8682987502372
 20
200.2145291645915
 30
0.0
  0
VERTEX
  5
95D
  8
1
  6
CONTINUOUS
 62
     7
 10
-289.8874447279653
 20
200.2064406726407
 30
0.0
  0
VERTEX
  5
95E
  8
1
  6
CONTINUOUS
 62
     7
 10
-289.9063680336029
 20
200.1974982290535
 30
0.0
  0
VERTEX
  5
95F
  8
1
  6
CONTINUOUS
 62
     7
 10
-289.9249006813916
 20
200.1877719881985
 30
0.0
  0
VERTEX
  5
960
  8
1
  6
CONTINUOUS
 62
     7
 10
-289.9387035116159
 20
200.1798661560316
 30
0.0
  0
VERTEX
  5
961
  8
1
  6
CONTINUOUS
 62
     7
 10
-289.9522479404937
 20
200.171525367619
 30
0.0
  0
VERTEX
  5
962
  8
1
  6
CONTINUOUS
 62
     7
 10
-289.9655736707286
 20
200.1627212343762
 30
0.0
  0
VERTEX
  5
963
  8
1
  6
CONTINUOUS
 62
     7
 10
-289.9786114794444
 20
200.1534960843534
 30
0.0
  0
VERTEX
  5
964
  8
1
  6
CONTINUOUS
 62
     7
 10
-289.9956717539707
 20
200.1404390959493
 30
0.0
  0
VERTEX
  5
965
  8
1
  6
CONTINUOUS
 62
     7
 10
-290.0116284429058
 20
200.1271204347968
 30
0.0
  0
VERTEX
  5
966
  8
1
  6
CONTINUOUS
 62
     7
 10
-290.0270180673364
 20
200.1131503911594
 30
0.0
  0
VERTEX
  5
967
  8
1
  6
CONTINUOUS
 62
     7
 10
-290.0419149169343
 20
200.0984482474212
 30
0.0
  0
VERTEX
  5
968
  8
1
  6
CONTINUOUS
 62
     7
 10
-290.056183702612
 20
200.0831358042224
 30
0.0
  0
VERTEX
  5
969
  8
1
  6
CONTINUOUS
 62
     7
 10
-290.0665917960436
 20
200.0711067764917
 30
0.0
  0
VERTEX
  5
96A
  8
1
  6
CONTINUOUS
 62
     7
 10
-290.0766120923187
 20
200.0587528467377
 30
0.0
  0
VERTEX
  5
96B
  8
1
  6
CONTINUOUS
 62
     7
 10
-290.0862726588202
 20
200.0460340878506
 30
0.0
  0
VERTEX
  5
96C
  8
1
  6
CONTINUOUS
 62
     7
 10
-290.0955221883672
 20
200.033013351438
 30
0.0
  0
VERTEX
  5
96D
  8
1
  6
CONTINUOUS
 62
     7
 10
-290.098011939683
 20
200.0293525166499
 30
0.0
  0
SEQEND
  5
A3C
  8
1
  6
CONTINUOUS
 62
     7
  0
LINE
  5
4B5
  8
1
  6
CONTINUOUS
 62
     7
 10
-290.1833333333333
 20
199.7499809608071
 30
0.0
 11
-290.1843150184826
 21
199.7507387314174
 31
0.0
  0
LINE
  5
4B6
  8
1
  6
CONTINUOUS
 62
     7
 10
-292.3398809591909
 20
199.7776749909916
 30
0.0
 11
-292.3410294161027
 21
199.7995888543051
 31
0.0
  0
POLYLINE
  5
4B7
  8
1
  6
CONTINUOUS
 62
     7
 66
     1
 10
0.0
 20
0.0
 30
0.0
  0
VERTEX
  5
96E
  8
1
  6
CONTINUOUS
 62
     7
 10
-292.3398009821912
 20
199.7761489389286
 30
0.0
  0
VERTEX
  5
96F
  8
1
  6
CONTINUOUS
 62
     7
 10
-292.3537053637744
 20
199.8698869112167
 30
0.0
  0
VERTEX
  5
970
  8
1
  6
CONTINUOUS
 62
     7
 10
-292.3850446373376
 20
199.959318120909
 30
0.0
  0
VERTEX
  5
971
  8
1
  6
CONTINUOUS
 62
     7
 10
-292.4326931639056
 20
200.0412303922336
 30
0.0
  0
VERTEX
  5
972
  8
1
  6
CONTINUOUS
 62
     7
 10
-292.4949395113827
 20
200.1126816134349
 30
0.0
  0
VERTEX
  5
973
  8
1
  6
CONTINUOUS
 62
     7
 10
-292.5695479254955
 20
200.1711054110691
 30
0.0
  0
VERTEX
  5
974
  8
1
  6
CONTINUOUS
 62
     7
 10
-292.6538386332543
 20
200.2144033285915
 30
0.0
  0
VERTEX
  5
975
  8
1
  6
CONTINUOUS
 62
     7
 10
-292.7447840946067
 20
200.2410201983812
 30
0.0
  0
VERTEX
  5
976
  8
1
  6
CONTINUOUS
 62
     7
 10
-292.8391177451342
 20
200.25
 30
0.0
  0
SEQEND
  5
A3D
  8
1
  6
CONTINUOUS
 62
     7
  0
POLYLINE
  5
4B8
  8
1
  6
CONTINUOUS
 62
     7
 66
     1
 10
0.0
 20
0.0
 30
0.0
  0
VERTEX
  5
977
  8
1
  6
CONTINUOUS
 62
     7
 10
-255.0260651160575
 20
200.2783126950872
 30
0.0
  0
VERTEX
  5
978
  8
1
  6
CONTINUOUS
 62
     7
 10
-255.0291825478593
 20
200.2782749930813
 30
0.0
  0
VERTEX
  5
979
  8
1
  6
CONTINUOUS
 62
     7
 10
-255.0588125100075
 20
200.2769447569347
 30
0.0
  0
VERTEX
  5
97A
  8
1
  6
CONTINUOUS
 62
     7
 10
-255.0883414456795
 20
200.2738584972305
 30
0.0
  0
VERTEX
  5
97B
  8
1
  6
CONTINUOUS
 62
     7
 10
-255.1176666176472
 20
200.2690243012989
 30
0.0
  0
VERTEX
  5
97C
  8
1
  6
CONTINUOUS
 62
     7
 10
-255.1467866164551
 20
200.2624301353823
 30
0.0
  0
VERTEX
  5
97D
  8
1
  6
CONTINUOUS
 62
     7
 10
-255.1724169263336
 20
200.2550912578051
 30
0.0
  0
VERTEX
  5
97E
  8
1
  6
CONTINUOUS
 62
     7
 10
-255.1978004187065
 20
200.2463402503427
 30
0.0
  0
VERTEX
  5
97F
  8
1
  6
CONTINUOUS
 62
     7
 10
-255.2228624667016
 20
200.2361721724576
 30
0.0
  0
VERTEX
  5
980
  8
1
  6
CONTINUOUS
 62
     7
 10
-255.2477974232255
 20
200.2244488262088
 30
0.0
  0
VERTEX
  5
981
  8
1
  6
CONTINUOUS
 62
     7
 10
-255.2723205869276
 20
200.2112327927412
 30
0.0
  0
VERTEX
  5
982
  8
1
  6
CONTINUOUS
 62
     7
 10
-255.2966206789603
 20
200.1963346874849
 30
0.0
  0
VERTEX
  5
983
  8
1
  6
CONTINUOUS
 62
     7
 10
-255.3203966643264
 20
200.1798337712781
 30
0.0
  0
VERTEX
  5
984
  8
1
  6
CONTINUOUS
 62
     7
 10
-255.3436283632173
 20
200.1616407593778
 30
0.0
  0
VERTEX
  5
985
  8
1
  6
CONTINUOUS
 62
     7
 10
-255.3660974491208
 20
200.1418144790306
 30
0.0
  0
VERTEX
  5
986
  8
1
  6
CONTINUOUS
 62
     7
 10
-255.3770672136841
 20
200.1312294456
 30
0.0
  0
VERTEX
  5
987
  8
1
  6
CONTINUOUS
 62
     7
 10
-255.3878243920642
 20
200.1202031464076
 30
0.0
  0
VERTEX
  5
988
  8
1
  6
CONTINUOUS
 62
     7
 10
-255.4019543149061
 20
200.1046396179948
 30
0.0
  0
VERTEX
  5
989
  8
1
  6
CONTINUOUS
 62
     7
 10
-255.4156579545687
 20
200.0882162388849
 30
0.0
  0
VERTEX
  5
98A
  8
1
  6
CONTINUOUS
 62
     7
 10
-255.4257281511105
 20
200.0751888914507
 30
0.0
  0
VERTEX
  5
98B
  8
1
  6
CONTINUOUS
 62
     7
 10
-255.4354966661832
 20
200.0616604162692
 30
0.0
  0
VERTEX
  5
98C
  8
1
  6
CONTINUOUS
 62
     7
 10
-255.4449845916704
 20
200.0475563960434
 30
0.0
  0
VERTEX
  5
98D
  8
1
  6
CONTINUOUS
 62
     7
 10
-255.4541210673279
 20
200.0329317407069
 30
0.0
  0
VERTEX
  5
98E
  8
1
  6
CONTINUOUS
 62
     7
 10
-255.4611059873584
 20
200.0209474722341
 30
0.0
  0
VERTEX
  5
98F
  8
1
  6
CONTINUOUS
 62
     7
 10
-255.4678443344109
 20
200.0086173231944
 30
0.0
  0
VERTEX
  5
990
  8
1
  6
CONTINUOUS
 62
     7
 10
-255.4743682444184
 20
199.9958407789333
 30
0.0
  0
VERTEX
  5
991
  8
1
  6
CONTINUOUS
 62
     7
 10
-255.4806011422801
 20
199.982723630258
 30
0.0
  0
VERTEX
  5
992
  8
1
  6
CONTINUOUS
 62
     7
 10
-255.4865539313987
 20
199.9691987184652
 30
0.0
  0
VERTEX
  5
993
  8
1
  6
CONTINUOUS
 62
     7
 10
-255.4921749278352
 20
199.9553359138514
 30
0.0
  0
VERTEX
  5
994
  8
1
  6
CONTINUOUS
 62
     7
 10
-255.4974952370886
 20
199.9409958280676
 30
0.0
  0
VERTEX
  5
995
  8
1
  6
CONTINUOUS
 62
     7
 10
-255.5024423395228
 20
199.9263021427528
 30
0.0
  0
VERTEX
  5
996
  8
1
  6
CONTINUOUS
 62
     7
 10
-255.5058068587028
 20
199.9153493462391
 30
0.0
  0
VERTEX
  5
997
  8
1
  6
CONTINUOUS
 62
     7
 10
-255.5089458821153
 20
199.9042332715336
 30
0.0
  0
VERTEX
  5
998
  8
1
  6
CONTINUOUS
 62
     7
 10
-255.5118625518609
 20
199.8929120680266
 30
0.0
  0
VERTEX
  5
999
  8
1
  6
CONTINUOUS
 62
     7
 10
-255.5145341168107
 20
199.8814426263047
 30
0.0
  0
VERTEX
  5
99A
  8
1
  6
CONTINUOUS
 62
     7
 10
-255.5177475602216
 20
199.8656836860177
 30
0.0
  0
VERTEX
  5
99B
  8
1
  6
CONTINUOUS
 62
     7
 10
-255.5204810354437
 20
199.8496623387649
 30
0.0
  0
VERTEX
  5
99C
  8
1
  6
CONTINUOUS
 62
     7
 10
-255.522226752541
 20
199.8373079804172
 30
0.0
  0
VERTEX
  5
99D
  8
1
  6
CONTINUOUS
 62
     7
 10
-255.5236706644847
 20
199.8248584147744
 30
0.0
  0
VERTEX
  5
99E
  8
1
  6
CONTINUOUS
 62
     7
 10
-255.5248123626279
 20
199.8122532684862
 30
0.0
  0
VERTEX
  5
99F
  8
1
  6
CONTINUOUS
 62
     7
 10
-255.525637250564
 20
199.7995888543051
 30
0.0
  0
SEQEND
  5
A3E
  8
1
  6
CONTINUOUS
 62
     7
  0
POLYLINE
  5
4B9
  8
1
  6
CONTINUOUS
 62
     7
 66
     1
 10
0.0
 20
0.0
 30
0.0
  0
VERTEX
  5
9A0
  8
1
  6
CONTINUOUS
 62
     7
 10
-255.0275489215325
 20
200.25
 30
0.0
  0
VERTEX
  5
9A1
  8
1
  6
CONTINUOUS
 62
     7
 10
-255.1218825720599
 20
200.2410201983812
 30
0.0
  0
VERTEX
  5
9A2
  8
1
  6
CONTINUOUS
 62
     7
 10
-255.2128280334124
 20
200.2144033285915
 30
0.0
  0
VERTEX
  5
9A3
  8
1
  6
CONTINUOUS
 62
     7
 10
-255.2971187411711
 20
200.1711054110691
 30
0.0
  0
VERTEX
  5
9A4
  8
1
  6
CONTINUOUS
 62
     7
 10
-255.371727155284
 20
200.1126816134349
 30
0.0
  0
VERTEX
  5
9A5
  8
1
  6
CONTINUOUS
 62
     7
 10
-255.4339735027611
 20
200.0412303922336
 30
0.0
  0
VERTEX
  5
9A6
  8
1
  6
CONTINUOUS
 62
     7
 10
-255.481622029329
 20
199.959318120909
 30
0.0
  0
VERTEX
  5
9A7
  8
1
  6
CONTINUOUS
 62
     7
 10
-255.5129613028923
 20
199.8698869112167
 30
0.0
  0
VERTEX
  5
9A8
  8
1
  6
CONTINUOUS
 62
     7
 10
-255.5268656844754
 20
199.7761489389286
 30
0.0
  0
SEQEND
  5
A3F
  8
1
  6
CONTINUOUS
 62
     7
  0
LINE
  5
4BA
  8
1
  6
CONTINUOUS
 62
     7
 10
-257.7162979089788
 20
199.9285327672638
 30
0.0
 11
-257.6833333333333
 21
199.7499809608071
 31
0.0
  0
LINE
  5
4BB
  8
1
  6
CONTINUOUS
 62
     7
 10
-255.525637250564
 20
199.7995888543051
 30
0.0
 11
-255.5267857074758
 21
199.7776749909916
 31
0.0
  0
LINE
  5
4BC
  8
1
  6
CONTINUOUS
 62
     9
 10
-255.5267857074758
 20
199.7776749909916
 30
0.0
 11
-257.6833333333333
 21
199.7499809608071
 31
0.0
  0
POLYLINE
  5
4BD
  8
1
  6
CONTINUOUS
 62
     7
 66
     1
 10
0.0
 20
0.0
 30
0.0
  0
VERTEX
  5
9A9
  8
1
  6
CONTINUOUS
 62
     7
 10
-258.1833304043927
 20
200.25
 30
0.0
  0
VERTEX
  5
9AA
  8
1
  6
CONTINUOUS
 62
     7
 10
-258.1626432773492
 20
200.2495718437355
 30
0.0
  0
VERTEX
  5
9AB
  8
1
  6
CONTINUOUS
 62
     7
 10
-258.141920257105
 20
200.2482821850742
 30
0.0
  0
VERTEX
  5
9AC
  8
1
  6
CONTINUOUS
 62
     7
 10
-258.1212330055985
 20
200.2461287818352
 30
0.0
  0
VERTEX
  5
9AD
  8
1
  6
CONTINUOUS
 62
     7
 10
-258.1003951110162
 20
200.2430734996234
 30
0.0
  0
VERTEX
  5
9AE
  8
1
  6
CONTINUOUS
 62
     7
 10
-258.0796676930455
 20
200.2391355953367
 30
0.0
  0
VERTEX
  5
9AF
  8
1
  6
CONTINUOUS
 62
     7
 10
-258.0588658821945
 20
200.2342602444058
 30
0.0
  0
VERTEX
  5
9B0
  8
1
  6
CONTINUOUS
 62
     7
 10
-258.0382538877867
 20
200.2284892739853
 30
0.0
  0
VERTEX
  5
9B1
  8
1
  6
CONTINUOUS
 62
     7
 10
-258.0178333880444
 20
200.2218152869375
 30
0.0
  0
VERTEX
  5
9B2
  8
1
  6
CONTINUOUS
 62
     7
 10
-257.9983679164296
 20
200.2145291645915
 30
0.0
  0
VERTEX
  5
9B3
  8
1
  6
CONTINUOUS
 62
     7
 10
-257.9792219387015
 20
200.2064406726407
 30
0.0
  0
VERTEX
  5
9B4
  8
1
  6
CONTINUOUS
 62
     7
 10
-257.9602986330638
 20
200.1974982290535
 30
0.0
  0
VERTEX
  5
9B5
  8
1
  6
CONTINUOUS
 62
     7
 10
-257.9417659852751
 20
200.1877719881985
 30
0.0
  0
VERTEX
  5
9B6
  8
1
  6
CONTINUOUS
 62
     7
 10
-257.9279631550507
 20
200.1798661560316
 30
0.0
  0
VERTEX
  5
9B7
  8
1
  6
CONTINUOUS
 62
     7
 10
-257.914418726173
 20
200.171525367619
 30
0.0
  0
VERTEX
  5
9B8
  8
1
  6
CONTINUOUS
 62
     7
 10
-257.901092995938
 20
200.1627212343762
 30
0.0
  0
VERTEX
  5
9B9
  8
1
  6
CONTINUOUS
 62
     7
 10
-257.8880551872223
 20
200.1534960843534
 30
0.0
  0
VERTEX
  5
9BA
  8
1
  6
CONTINUOUS
 62
     7
 10
-257.8709949126961
 20
200.1404390959493
 30
0.0
  0
VERTEX
  5
9BB
  8
1
  6
CONTINUOUS
 62
     7
 10
-257.8550382237609
 20
200.1271204347968
 30
0.0
  0
VERTEX
  5
9BC
  8
1
  6
CONTINUOUS
 62
     7
 10
-257.8396485993303
 20
200.1131503911594
 30
0.0
  0
VERTEX
  5
9BD
  8
1
  6
CONTINUOUS
 62
     7
 10
-257.8247517497323
 20
200.0984482474212
 30
0.0
  0
VERTEX
  5
9BE
  8
1
  6
CONTINUOUS
 62
     7
 10
-257.8104829640547
 20
200.0831358042224
 30
0.0
  0
VERTEX
  5
9BF
  8
1
  6
CONTINUOUS
 62
     7
 10
-257.8000748706232
 20
200.0711067764917
 30
0.0
  0
VERTEX
  5
9C0
  8
1
  6
CONTINUOUS
 62
     7
 10
-257.7900545743479
 20
200.0587528467377
 30
0.0
  0
VERTEX
  5
9C1
  8
1
  6
CONTINUOUS
 62
     7
 10
-257.7803940078464
 20
200.0460340878506
 30
0.0
  0
VERTEX
  5
9C2
  8
1
  6
CONTINUOUS
 62
     7
 10
-257.7711444782994
 20
200.033013351438
 30
0.0
  0
VERTEX
  5
9C3
  8
1
  6
CONTINUOUS
 62
     7
 10
-257.7686547269838
 20
200.0293525166499
 30
0.0
  0
SEQEND
  5
A40
  8
1
  6
CONTINUOUS
 62
     7
  0
LINE
  5
4BE
  8
1
  6
CONTINUOUS
 62
     9
 10
-252.1843150184826
 20
199.7507387314174
 30
0.0
 11
-254.3398809591909
 21
199.7776749909916
 31
0.0
  0
POLYLINE
  5
4BF
  8
1
  6
CONTINUOUS
 62
     7
 66
     1
 10
0.0
 20
0.0
 30
0.0
  0
VERTEX
  5
9C4
  8
1
  6
CONTINUOUS
 62
     7
 10
-254.3410294161027
 20
199.7995888543051
 30
0.0
  0
VERTEX
  5
9C5
  8
1
  6
CONTINUOUS
 62
     7
 10
-254.3421469857833
 20
199.8158199209387
 30
0.0
  0
VERTEX
  5
9C6
  8
1
  6
CONTINUOUS
 62
     7
 10
-254.3437855563159
 20
199.8319648579758
 30
0.0
  0
VERTEX
  5
9C7
  8
1
  6
CONTINUOUS
 62
     7
 10
-254.3459295480654
 20
199.8479655607729
 30
0.0
  0
VERTEX
  5
9C8
  8
1
  6
CONTINUOUS
 62
     7
 10
-254.348563381397
 20
199.8637639246867
 30
0.0
  0
VERTEX
  5
9C9
  8
1
  6
CONTINUOUS
 62
     7
 10
-254.3517636436838
 20
199.8797532946028
 30
0.0
  0
VERTEX
  5
9CA
  8
1
  6
CONTINUOUS
 62
     7
 10
-254.355445660738
 20
199.895495096683
 30
0.0
  0
VERTEX
  5
9CB
  8
1
  6
CONTINUOUS
 62
     7
 10
-254.3595833417015
 20
199.9109457376502
 30
0.0
  0
VERTEX
  5
9CC
  8
1
  6
CONTINUOUS
 62
     7
 10
-254.3642243271439
 20
199.9263021427528
 30
0.0
  0
VERTEX
  5
9CD
  8
1
  6
CONTINUOUS
 62
     7
 10
-254.3707534931285
 20
199.9453989392987
 30
0.0
  0
VERTEX
  5
9CE
  8
1
  6
CONTINUOUS
 62
     7
 10
-254.3779264161495
 20
199.9639433532508
 30
0.0
  0
VERTEX
  5
9CF
  8
1
  6
CONTINUOUS
 62
     7
 10
-254.3856859360103
 20
199.981892296328
 30
0.0
  0
VERTEX
  5
9D0
  8
1
  6
CONTINUOUS
 62
     7
 10
-254.3941312055424
 20
199.9995209058687
 30
0.0
  0
VERTEX
  5
9D1
  8
1
  6
CONTINUOUS
 62
     7
 10
-254.403100972195
 20
200.0165394877317
 30
0.0
  0
VERTEX
  5
9D2
  8
1
  6
CONTINUOUS
 62
     7
 10
-254.4125455993387
 20
200.0329317407069
 30
0.0
  0
VERTEX
  5
9D3
  8
1
  6
CONTINUOUS
 62
     7
 10
-254.4243840312138
 20
200.0516780175326
 30
0.0
  0
VERTEX
  5
9D4
  8
1
  6
CONTINUOUS
 62
     7
 10
-254.4368581700317
 20
200.0696516034288
 30
0.0
  0
VERTEX
  5
9D5
  8
1
  6
CONTINUOUS
 62
     7
 10
-254.4498583618627
 20
200.0867715847887
 30
0.0
  0
VERTEX
  5
9D6
  8
1
  6
CONTINUOUS
 62
     7
 10
-254.4635317122465
 20
200.1032789895535
 30
0.0
  0
VERTEX
  5
9D7
  8
1
  6
CONTINUOUS
 62
     7
 10
-254.4776572785824
 20
200.1189467631302
 30
0.0
  0
VERTEX
  5
9D8
  8
1
  6
CONTINUOUS
 62
     7
 10
-254.4923861020328
 20
200.133979146453
 30
0.0
  0
VERTEX
  5
9D9
  8
1
  6
CONTINUOUS
 62
     7
 10
-254.5075065077076
 20
200.1481902563486
 30
0.0
  0
VERTEX
  5
9DA
  8
1
  6
CONTINUOUS
 62
     7
 10
-254.5230383034493
 20
200.1616407593778
 30
0.0
  0
VERTEX
  5
9DB
  8
1
  6
CONTINUOUS
 62
     7
 10
-254.5454293514492
 20
200.1792127094257
 30
0.0
  0
VERTEX
  5
9DC
  8
1
  6
CONTINUOUS
 62
     7
 10
-254.5685294699662
 20
200.1953414506481
 30
0.0
  0
VERTEX
  5
9DD
  8
1
  6
CONTINUOUS
 62
     7
 10
-254.5921734846479
 20
200.2099763784745
 30
0.0
  0
VERTEX
  5
9DE
  8
1
  6
CONTINUOUS
 62
     7
 10
-254.6166553766162
 20
200.2233265845746
 30
0.0
  0
VERTEX
  5
9DF
  8
1
  6
CONTINUOUS
 62
     7
 10
-254.6415938485236
 20
200.2351993530377
 30
0.0
  0
VERTEX
  5
9E0
  8
1
  6
CONTINUOUS
 62
     7
 10
-254.6672892362047
 20
200.2457462089248
 30
0.0
  0
VERTEX
  5
9E1
  8
1
  6
CONTINUOUS
 62
     7
 10
-254.693364525135
 20
200.254811333296
 30
0.0
  0
VERTEX
  5
9E2
  8
1
  6
CONTINUOUS
 62
     7
 10
-254.7198800502116
 20
200.2624301353823
 30
0.0
  0
VERTEX
  5
9E3
  8
1
  6
CONTINUOUS
 62
     7
 10
-254.748801875289
 20
200.2689855710356
 30
0.0
  0
VERTEX
  5
9E4
  8
1
  6
CONTINUOUS
 62
     7
 10
-254.7780254191884
 20
200.2738180632086
 30
0.0
  0
VERTEX
  5
9E5
  8
1
  6
CONTINUOUS
 62
     7
 10
-254.8076527056948
 20
200.276929688626
 30
0.0
  0
VERTEX
  5
9E6
  8
1
  6
CONTINUOUS
 62
     7
 10
-254.8374841188075
 20
200.2782749930813
 30
0.0
  0
VERTEX
  5
9E7
  8
1
  6
CONTINUOUS
 62
     7
 10
-254.8406015506092
 20
200.2783126950872
 30
0.0
  0
SEQEND
  5
A41
  8
1
  6
CONTINUOUS
 62
     7
  0
POLYLINE
  5
4C0
  8
1
  6
CONTINUOUS
 62
     7
 66
     1
 10
0.0
 20
0.0
 30
0.0
  0
VERTEX
  5
9E8
  8
1
  6
CONTINUOUS
 62
     7
 10
-251.683336262274
 20
200.25
 30
0.0
  0
VERTEX
  5
9E9
  8
1
  6
CONTINUOUS
 62
     7
 10
-251.7040233893175
 20
200.2495718437355
 30
0.0
  0
VERTEX
  5
9EA
  8
1
  6
CONTINUOUS
 62
     7
 10
-251.7247464095616
 20
200.2482821850742
 30
0.0
  0
VERTEX
  5
9EB
  8
1
  6
CONTINUOUS
 62
     7
 10
-251.7454336610681
 20
200.2461287818352
 30
0.0
  0
VERTEX
  5
9EC
  8
1
  6
CONTINUOUS
 62
     7
 10
-251.7662715556505
 20
200.2430734996234
 30
0.0
  0
VERTEX
  5
9ED
  8
1
  6
CONTINUOUS
 62
     7
 10
-251.7869989736212
 20
200.2391355953367
 30
0.0
  0
VERTEX
  5
9EE
  8
1
  6
CONTINUOUS
 62
     7
 10
-251.8078007844722
 20
200.2342602444058
 30
0.0
  0
VERTEX
  5
9EF
  8
1
  6
CONTINUOUS
 62
     7
 10
-251.82841277888
 20
200.2284892739853
 30
0.0
  0
VERTEX
  5
9F0
  8
1
  6
CONTINUOUS
 62
     7
 10
-251.8488332786223
 20
200.2218152869375
 30
0.0
  0
VERTEX
  5
9F1
  8
1
  6
CONTINUOUS
 62
     7
 10
-251.8682987502371
 20
200.2145291645915
 30
0.0
  0
VERTEX
  5
9F2
  8
1
  6
CONTINUOUS
 62
     7
 10
-251.8874447279652
 20
200.2064406726407
 30
0.0
  0
VERTEX
  5
9F3
  8
1
  6
CONTINUOUS
 62
     7
 10
-251.9063680336029
 20
200.1974982290535
 30
0.0
  0
VERTEX
  5
9F4
  8
1
  6
CONTINUOUS
 62
     7
 10
-251.9249006813916
 20
200.1877719881985
 30
0.0
  0
VERTEX
  5
9F5
  8
1
  6
CONTINUOUS
 62
     7
 10
-251.938703511616
 20
200.1798661560316
 30
0.0
  0
VERTEX
  5
9F6
  8
1
  6
CONTINUOUS
 62
     7
 10
-251.9522479404936
 20
200.171525367619
 30
0.0
  0
VERTEX
  5
9F7
  8
1
  6
CONTINUOUS
 62
     7
 10
-251.9655736707286
 20
200.1627212343762
 30
0.0
  0
VERTEX
  5
9F8
  8
1
  6
CONTINUOUS
 62
     7
 10
-251.9786114794444
 20
200.1534960843534
 30
0.0
  0
VERTEX
  5
9F9
  8
1
  6
CONTINUOUS
 62
     7
 10
-251.9956717539706
 20
200.1404390959493
 30
0.0
  0
VERTEX
  5
9FA
  8
1
  6
CONTINUOUS
 62
     7
 10
-252.0116284429058
 20
200.1271204347968
 30
0.0
  0
VERTEX
  5
9FB
  8
1
  6
CONTINUOUS
 62
     7
 10
-252.0270180673364
 20
200.1131503911594
 30
0.0
  0
VERTEX
  5
9FC
  8
1
  6
CONTINUOUS
 62
     7
 10
-252.0419149169343
 20
200.0984482474212
 30
0.0
  0
VERTEX
  5
9FD
  8
1
  6
CONTINUOUS
 62
     7
 10
-252.0561837026119
 20
200.0831358042224
 30
0.0
  0
VERTEX
  5
9FE
  8
1
  6
CONTINUOUS
 62
     7
 10
-252.0665917960435
 20
200.0711067764917
 30
0.0
  0
VERTEX
  5
9FF
  8
1
  6
CONTINUOUS
 62
     7
 10
-252.0766120923187
 20
200.0587528467377
 30
0.0
  0
VERTEX
  5
A00
  8
1
  6
CONTINUOUS
 62
     7
 10
-252.0862726588202
 20
200.0460340878506
 30
0.0
  0
VERTEX
  5
A01
  8
1
  6
CONTINUOUS
 62
     7
 10
-252.0955221883672
 20
200.033013351438
 30
0.0
  0
VERTEX
  5
A02
  8
1
  6
CONTINUOUS
 62
     7
 10
-252.0980119396829
 20
200.0293525166499
 30
0.0
  0
SEQEND
  5
A42
  8
1
  6
CONTINUOUS
 62
     7
  0
LINE
  5
4C1
  8
1
  6
CONTINUOUS
 62
     7
 10
-252.1833333333334
 20
199.7499809608071
 30
0.0
 11
-252.1843150184826
 21
199.7507387314174
 31
0.0
  0
LINE
  5
4C2
  8
1
  6
CONTINUOUS
 62
     7
 10
-254.3398809591909
 20
199.7776749909916
 30
0.0
 11
-254.3410294161027
 21
199.7995888543051
 31
0.0
  0
POLYLINE
  5
4C3
  8
1
  6
CONTINUOUS
 62
     7
 66
     1
 10
0.0
 20
0.0
 30
0.0
  0
VERTEX
  5
A03
  8
1
  6
CONTINUOUS
 62
     7
 10
-254.3398009821912
 20
199.7761489389286
 30
0.0
  0
VERTEX
  5
A04
  8
1
  6
CONTINUOUS
 62
     7
 10
-254.3537053637744
 20
199.8698869112167
 30
0.0
  0
VERTEX
  5
A05
  8
1
  6
CONTINUOUS
 62
     7
 10
-254.3850446373377
 20
199.959318120909
 30
0.0
  0
VERTEX
  5
A06
  8
1
  6
CONTINUOUS
 62
     7
 10
-254.4326931639056
 20
200.0412303922336
 30
0.0
  0
VERTEX
  5
A07
  8
1
  6
CONTINUOUS
 62
     7
 10
-254.4949395113827
 20
200.1126816134349
 30
0.0
  0
VERTEX
  5
A08
  8
1
  6
CONTINUOUS
 62
     7
 10
-254.5695479254955
 20
200.1711054110691
 30
0.0
  0
VERTEX
  5
A09
  8
1
  6
CONTINUOUS
 62
     7
 10
-254.6538386332542
 20
200.2144033285915
 30
0.0
  0
VERTEX
  5
A0A
  8
1
  6
CONTINUOUS
 62
     7
 10
-254.7447840946067
 20
200.2410201983812
 30
0.0
  0
VERTEX
  5
A0B
  8
1
  6
CONTINUOUS
 62
     7
 10
-254.8391177451342
 20
200.25
 30
0.0
  0
SEQEND
  5
A43
  8
1
  6
CONTINUOUS
 62
     7
  0
POLYLINE
  5
4C4
  8
1
  6
CONTINUOUS
 62
     7
 66
     1
 10
0.0
 20
0.0
 30
0.0
  0
VERTEX
  5
A0C
  8
1
  6
CONTINUOUS
 62
     7
 10
-250.6457200152925
 20
217.1965832034257
 30
0.0
  0
VERTEX
  5
A0D
  8
1
  6
CONTINUOUS
 62
     7
 10
-251.7878358662271
 20
218.375901038507
 30
0.0
  0
VERTEX
  5
A0E
  8
1
  6
CONTINUOUS
 62
     7
 10
-253.1466558409575
 20
219.2972272122973
 30
0.0
  0
SEQEND
  5
A44
  8
1
  6
CONTINUOUS
 62
     7
  0
LINE
  5
4C5
  8
1
  6
CONTINUOUS
 62
     7
 10
-294.257818371924
 20
207.7412731322093
 30
0.0
 11
-292.4333333333334
 21
207.7412731322093
 31
0.0
  0
LINE
  5
4C6
  8
1
  6
CONTINUOUS
 62
     7
 10
-285.9333333333334
 20
207.75
 30
0.0
 11
-294.1833333333333
 21
207.75
 31
0.0
  0
LINE
  5
4C7
  8
1
  6
CONTINUOUS
 62
     7
 10
-290.4333333333333
 20
207.7412731322093
 30
0.0
 11
-285.9246064655426
 21
207.7412731322093
 31
0.0
  0
LINE
  5
4C8
  8
1
  6
CONTINUOUS
 62
     7
 10
-315.9420602011241
 20
207.7412731322093
 30
0.0
 11
-311.4333333333333
 21
207.7412731322093
 31
0.0
  0
LINE
  5
4C9
  8
1
  6
CONTINUOUS
 62
     7
 10
-307.6833333333333
 20
207.75
 30
0.0
 11
-315.9333333333333
 21
207.75
 31
0.0
  0
LINE
  5
4CA
  8
1
  6
CONTINUOUS
 62
     7
 10
-309.4333333333333
 20
207.7412731322093
 30
0.0
 11
-307.6088482947426
 21
207.7412731322093
 31
0.0
  0
LINE
  5
4CB
  8
1
  6
CONTINUOUS
 62
     7
 10
-281.8533813077703
 20
220.25
 30
0.0
 11
-285.9333333333334
 21
220.25
 31
0.0
  0
LINE
  5
4CC
  8
1
  6
CONTINUOUS
 62
     9
 10
-258.6833333333334
 20
193.3816524975874
 30
0.0
 11
-255.8619870425995
 21
193.3816524975874
 31
0.0
  0
LINE
  5
4CD
  8
1
  6
CONTINUOUS
 62
     9
 10
-255.8755511739895
 20
193.1228334524849
 30
0.0
 11
-258.6492591596224
 21
193.1228334524849
 31
0.0
  0
LINE
  5
4CE
  8
1
  6
CONTINUOUS
 62
     7
 10
-255.8619870425995
 20
193.3816524975874
 30
0.0
 11
-255.8755511739895
 21
193.1228334524849
 31
0.0
  0
LINE
  5
4CF
  8
1
  6
CONTINUOUS
 62
     9
 10
-251.2174075070442
 20
193.1228334524849
 30
0.0
 11
-253.9911154926772
 21
193.1228334524849
 31
0.0
  0
LINE
  5
4D0
  8
1
  6
CONTINUOUS
 62
     9
 10
-254.0046796240672
 20
193.3816524975874
 30
0.0
 11
-251.1833333333333
 21
193.3816524975874
 31
0.0
  0
LINE
  5
4D1
  8
1
  6
CONTINUOUS
 62
     7
 10
-253.9911154926772
 20
193.1228334524849
 30
0.0
 11
-254.0046796240672
 21
193.3816524975874
 31
0.0
  0
LINE
  5
4D2
  8
1
  6
CONTINUOUS
 62
     9
 10
-296.6833333333333
 20
193.3816524975874
 30
0.0
 11
-293.8619870425995
 21
193.3816524975874
 31
0.0
  0
LINE
  5
4D3
  8
1
  6
CONTINUOUS
 62
     7
 10
-293.8619870425995
 20
193.3816524975874
 30
0.0
 11
-293.8755511739894
 21
193.1228334524849
 31
0.0
  0
LINE
  5
4D4
  8
1
  6
CONTINUOUS
 62
     9
 10
-293.8755511739894
 20
193.1228334524849
 30
0.0
 11
-296.6492591596224
 21
193.1228334524849
 31
0.0
  0
LINE
  5
4D5
  8
1
  6
CONTINUOUS
 62
     9
 10
-289.2174075070443
 20
193.1228334524849
 30
0.0
 11
-291.9911154926772
 21
193.1228334524849
 31
0.0
  0
LINE
  5
4D6
  8
1
  6
CONTINUOUS
 62
     9
 10
-292.0046796240673
 20
193.3816524975874
 30
0.0
 11
-289.1833333333333
 21
193.3816524975874
 31
0.0
  0
LINE
  5
4D7
  8
1
  6
CONTINUOUS
 62
     7
 10
-291.9911154926772
 20
193.1228334524849
 30
0.0
 11
-292.0046796240672
 21
193.3816524975874
 31
0.0
  0
LINE
  5
4D8
  8
1
  6
CONTINUOUS
 62
     7
 10
-255.8322012121369
 20
193.95
 30
0.0
 11
-258.6833333333333
 21
193.95
 31
0.0
  0
LINE
  5
4D9
  8
1
  6
CONTINUOUS
 62
     7
 10
-255.8322012121369
 20
193.95
 30
0.0
 11
-255.8619870425994
 21
193.3816524975874
 31
0.0
  0
LINE
  5
4DA
  8
1
  6
CONTINUOUS
 62
     7
 10
-251.1833333333333
 20
193.95
 30
0.0
 11
-254.0344654545297
 21
193.95
 31
0.0
  0
LINE
  5
4DB
  8
1
  6
CONTINUOUS
 62
     7
 10
-254.0046796240672
 20
193.3816524975874
 30
0.0
 11
-254.0344654545297
 21
193.95
 31
0.0
  0
LINE
  5
4DC
  8
1
  6
CONTINUOUS
 62
     7
 10
-289.1833333333333
 20
193.95
 30
0.0
 11
-292.0344654545297
 21
193.95
 31
0.0
  0
LINE
  5
4DD
  8
1
  6
CONTINUOUS
 62
     7
 10
-292.0046796240673
 20
193.3816524975875
 30
0.0
 11
-292.0344654545297
 21
193.9500000000001
 31
0.0
  0
LINE
  5
4DE
  8
1
  6
CONTINUOUS
 62
     7
 10
-293.832201212137
 20
193.95
 30
0.0
 11
-296.6833333333333
 21
193.95
 31
0.0
  0
LINE
  5
4DF
  8
1
  6
CONTINUOUS
 62
     7
 10
-293.832201212137
 20
193.95
 30
0.0
 11
-293.8619870425995
 21
193.3816524975874
 31
0.0
  0
LINE
  5
4E0
  8
1
  6
CONTINUOUS
 62
     9
 10
-253.7027551572799
 20
187.6205904774488
 30
0.0
 11
-252.691729068765
 21
187.6205904774488
 31
0.0
  0
LINE
  5
4E1
  8
1
  6
CONTINUOUS
 62
     7
 10
-253.7027551572799
 20
187.6205904774489
 30
0.0
 11
-253.9911154926772
 21
193.1228334524849
 31
0.0
  0
LINE
  5
4E2
  8
1
  6
CONTINUOUS
 62
     9
 10
-257.1749375979016
 20
187.6205904774488
 30
0.0
 11
-256.1639115093868
 21
187.6205904774488
 31
0.0
  0
LINE
  5
4E3
  8
1
  6
CONTINUOUS
 62
     7
 10
-255.8755511739895
 20
193.1228334524849
 30
0.0
 11
-256.1639115093868
 21
187.6205904774488
 31
0.0
  0
LINE
  5
4E4
  8
1
  6
CONTINUOUS
 62
     9
 10
-291.7027551572799
 20
187.6205904774488
 30
0.0
 11
-290.691729068765
 21
187.6205904774488
 31
0.0
  0
LINE
  5
4E5
  8
1
  6
CONTINUOUS
 62
     7
 10
-291.7027551572799
 20
187.6205904774489
 30
0.0
 11
-291.9911154926772
 21
193.1228334524849
 31
0.0
  0
LINE
  5
4E6
  8
1
  6
CONTINUOUS
 62
     9
 10
-295.1749375979016
 20
187.6205904774488
 30
0.0
 11
-294.1639115093868
 21
187.6205904774488
 31
0.0
  0
LINE
  5
4E7
  8
1
  6
CONTINUOUS
 62
     7
 10
-293.8755511739894
 20
193.1228334524849
 30
0.0
 11
-294.1639115093868
 21
187.6205904774488
 31
0.0
  0
LINE
  5
4E8
  8
1
  6
CONTINUOUS
 62
     7
 10
-293.832201212137
 20
193.95
 30
0.0
 11
-293.5294365586391
 21
199.7270937376046
 31
0.0
  0
LINE
  5
4E9
  8
1
  6
CONTINUOUS
 62
     7
 10
-293.5294365586391
 20
199.7270937376046
 30
0.0
 11
-293.5267857074758
 21
199.7776749909916
 31
0.0
  0
LINE
  5
4EA
  8
1
  6
CONTINUOUS
 62
     7
 10
-292.3398809591909
 20
199.7776749909916
 30
0.0
 11
-292.3372095953363
 21
199.7267023321403
 31
0.0
  0
LINE
  5
4EB
  8
1
  6
CONTINUOUS
 62
     7
 10
-292.3372095953364
 20
199.7267023321403
 30
0.0
 11
-292.0344654545297
 21
193.95
 31
0.0
  0
LINE
  5
4EC
  8
1
  6
CONTINUOUS
 62
     7
 10
-255.8322012121369
 20
193.95
 30
0.0
 11
-255.5294365586391
 21
199.7270937376045
 31
0.0
  0
LINE
  5
4ED
  8
1
  6
CONTINUOUS
 62
     7
 10
-255.5294365586391
 20
199.7270937376045
 30
0.0
 11
-255.5267857074758
 21
199.7776749909916
 31
0.0
  0
LINE
  5
4EE
  8
1
  6
CONTINUOUS
 62
     7
 10
-254.3398809591909
 20
199.7776749909915
 30
0.0
 11
-254.3372095953363
 21
199.7267023321403
 31
0.0
  0
LINE
  5
4EF
  8
1
  6
CONTINUOUS
 62
     7
 10
-254.3372095953363
 20
199.7267023321404
 30
0.0
 11
-254.0344654545297
 21
193.95
 31
0.0
  0
LINE
  5
4F0
  8
1
  6
CONTINUOUS
 62
     7
 10
-253.1746919819095
 20
187.25
 30
0.0
 11
-253.6833333333334
 21
187.25
 31
0.0
  0
LINE
  5
4F1
  8
1
  6
CONTINUOUS
 62
     7
 10
-253.6833333333334
 20
187.25
 30
0.0
 11
-253.7027551572799
 21
187.6205904774489
 31
0.0
  0
LINE
  5
4F2
  8
1
  6
CONTINUOUS
 62
     7
 10
-291.1746919819095
 20
187.25
 30
0.0
 11
-291.6833333333333
 21
187.25
 31
0.0
  0
LINE
  5
4F3
  8
1
  6
CONTINUOUS
 62
     7
 10
-291.6833333333333
 20
187.25
 30
0.0
 11
-291.7027551572799
 21
187.6205904774489
 31
0.0
  0
LINE
  5
4F4
  8
1
  6
CONTINUOUS
 62
     7
 10
-256.1833333333333
 20
187.25
 30
0.0
 11
-256.6919746847571
 21
187.25
 31
0.0
  0
LINE
  5
4F5
  8
1
  6
CONTINUOUS
 62
     7
 10
-256.1639115093868
 20
187.6205904774488
 30
0.0
 11
-256.1833333333334
 21
187.25
 31
0.0
  0
LINE
  5
4F6
  8
1
  6
CONTINUOUS
 62
     7
 10
-294.1833333333333
 20
187.25
 30
0.0
 11
-294.6919746847572
 21
187.25
 31
0.0
  0
LINE
  5
4F7
  8
1
  6
CONTINUOUS
 62
     7
 10
-294.1639115093868
 20
187.6205904774488
 30
0.0
 11
-294.1833333333333
 21
187.25
 31
0.0
  0
LINE
  5
4F8
  8
1
  6
CONTINUOUS
 62
     7
 10
-252.1503687576877
 20
199.9285327672643
 30
0.0
 11
-252.1833333333334
 21
199.7499809608071
 31
0.0
  0
LINE
  5
4F9
  8
1
  6
CONTINUOUS
 62
     7
 10
-290.1503687576878
 20
199.9285327672641
 30
0.0
 11
-290.1833333333334
 21
199.7499809608072
 31
0.0
  0
LINE
  5
4FA
  8
1
  6
CONTINUOUS
 62
     7
 10
-295.7686547269837
 20
200.0293525166499
 30
0.0
 11
-295.7297145879118
 21
199.9602996444984
 31
0.0
  0
LINE
  5
4FB
  8
1
  6
CONTINUOUS
 62
     7
 10
-295.7297145879118
 20
199.9602996444984
 30
0.0
 11
-295.7162979089788
 21
199.928532767264
 31
0.0
  0
LINE
  5
4FC
  8
1
  6
CONTINUOUS
 62
     7
 10
-257.7686547269838
 20
200.0293525166499
 30
0.0
 11
-257.7297145879119
 21
199.9602996444985
 31
0.0
  0
LINE
  5
4FD
  8
1
  6
CONTINUOUS
 62
     7
 10
-257.7297145879118
 20
199.9602996444985
 30
0.0
 11
-257.7162979089788
 21
199.9285327672638
 31
0.0
  0
LINE
  5
4FE
  8
1
  6
CONTINUOUS
 62
     9
 10
-338.463877370601
 20
168.9586887894051
 30
0.0
 11
-340.4333333333333
 21
168.9586887894051
 31
0.0
  0
LINE
  5
4FF
  8
1
  6
CONTINUOUS
 62
     7
 10
-338.4552266581318
 20
169.9586507124692
 30
0.0
 11
-338.463877370601
 21
168.9586887894051
 31
0.0
  0
LINE
  5
500
  8
1
  6
CONTINUOUS
 62
     9
 10
-340.4333333333333
 20
163.941311210595
 30
0.0
 11
-338.463877370601
 21
163.941311210595
 31
0.0
  0
LINE
  5
501
  8
1
  6
CONTINUOUS
 62
     7
 10
-338.463877370601
 20
163.941311210595
 30
0.0
 11
-338.4552266581318
 21
162.9413492875308
 31
0.0
  0
LINE
  5
502
  8
1
  6
CONTINUOUS
 62
     7
 10
-340.4333333333333
 20
164.2194559627324
 30
0.0
 11
-340.4333333333333
 21
168.6805440372677
 31
0.0
  0
LINE
  5
503
  8
1
  6
CONTINUOUS
 62
     7
 10
-338.463877370601
 20
163.941311210595
 30
0.0
 11
-338.463877370601
 21
168.9586887894051
 31
0.0
  0
LINE
  5
504
  8
1
  6
CONTINUOUS
 62
     7
 10
-342.4333333333333
 20
208.05
 30
0.0
 11
-342.4333333333333
 21
212.45
 31
0.0
  0
LINE
  5
505
  8
1
  6
CONTINUOUS
 62
     7
 10
-347.8111571842627
 20
212.45
 30
0.0
 11
-347.8111571842627
 21
208.05
 31
0.0
  0
LINE
  5
506
  8
1
  6
CONTINUOUS
 62
     7
 10
-260.7888264128238
 20
238.25
 30
0.0
 11
-254.4822464841874
 21
238.25
 31
0.0
  0
LINE
  5
507
  8
1
  6
CONTINUOUS
 62
     7
 10
-239.4333333333333
 20
238.25
 30
0.0
 11
-237.9333333333333
 21
238.25
 31
0.0
  0
LINE
  5
508
  8
1
  6
CONTINUOUS
 62
     7
 10
-237.9333333333333
 20
244.25
 30
0.0
 11
-239.4333333333333
 21
244.25
 31
0.0
  0
LINE
  5
509
  8
1
  6
CONTINUOUS
 62
     7
 10
-255.3562569802695
 20
244.25
 30
0.0
 11
-260.7888264128238
 21
244.25
 31
0.0
  0
LINE
  5
50A
  8
1
  6
CONTINUOUS
 62
     7
 10
-260.7888264128238
 20
244.25
 30
0.0
 11
-262.9333333333333
 21
243.25
 31
0.0
  0
LINE
  5
50B
  8
1
  6
CONTINUOUS
 62
     7
 10
-262.9333333333333
 20
239.25
 30
0.0
 11
-260.7888264128238
 21
238.25
 31
0.0
  0
LINE
  5
50C
  8
1
  6
CONTINUOUS
 62
     7
 10
-237.4867513459481
 20
247.0235026918963
 30
0.0
 11
-237.9333333333334
 21
246.25
 31
0.0
  0
LINE
  5
50D
  8
1
  6
CONTINUOUS
 62
     7
 10
-237.9333333333333
 20
236.25
 30
0.0
 11
-237.4867513459481
 21
235.4764973081038
 31
0.0
  0
LINE
  5
50E
  8
1
  6
CONTINUOUS
 62
     7
 10
-234.1799153207185
 20
235.4764973081038
 30
0.0
 11
-233.7333333333333
 21
236.25
 31
0.0
  0
LINE
  5
50F
  8
1
  6
CONTINUOUS
 62
     7
 10
-233.7333333333333
 20
246.25
 30
0.0
 11
-234.1799153207185
 21
247.0235026918963
 31
0.0
  0
LINE
  5
510
  8
1
  6
CONTINUOUS
 62
     7
 10
-294.1833333333333
 20
207.75
 30
0.0
 11
-294.1833333333333
 21
211.7500000000001
 31
0.0
  0
LINE
  5
511
  8
1
  6
CONTINUOUS
 62
     7
 10
-307.6833333333333
 20
211.75
 30
0.0
 11
-307.6833333333333
 21
207.75
 31
0.0
  0
LINE
  5
512
  8
1
  6
CONTINUOUS
 62
     7
 10
-295.7162983259655
 20
199.9285338592094
 30
0.0
 11
-295.714233658038
 21
199.9230443551088
 31
0.0
  0
LINE
  5
513
  8
1
  6
CONTINUOUS
 62
     7
 10
-295.714233658038
 20
199.9230443551088
 30
0.0
 11
-295.6833337440958
 21
199.7597101125891
 31
0.0
  0
LINE
  5
514
  8
1
  6
CONTINUOUS
 62
     7
 10
-295.6833337440958
 20
199.7597101125891
 30
0.0
 11
-295.6832333409241
 21
199.7502228241087
 31
0.0
  0
LINE
  5
515
  8
1
  6
CONTINUOUS
 62
     7
 10
-290.1844015524136
 20
199.7507714180718
 30
0.0
 11
-290.0980113323484
 21
200.029353504321
 31
0.0
  0
LINE
  5
516
  8
1
  6
CONTINUOUS
 62
     7
 10
-257.7162983259654
 20
199.9285338592093
 30
0.0
 11
-257.714233658038
 21
199.9230443551088
 31
0.0
  0
LINE
  5
517
  8
1
  6
CONTINUOUS
 62
     7
 10
-257.714233658038
 20
199.9230443551088
 30
0.0
 11
-257.6833337440958
 21
199.7597101125889
 31
0.0
  0
LINE
  5
518
  8
1
  6
CONTINUOUS
 62
     7
 10
-257.6833337440958
 20
199.7597101125889
 30
0.0
 11
-257.6832333409241
 21
199.7502228241087
 31
0.0
  0
LINE
  5
519
  8
1
  6
CONTINUOUS
 62
     7
 10
-252.1844015524136
 20
199.7507714180718
 30
0.0
 11
-252.0980113323484
 21
200.029353504321
 31
0.0
  0
ARC
  5
51A
  8
1
  6
CONTINUOUS
 62
     7
 10
-257.6833333333334
 20
193.3816524975874
 30
0.0
 40
1.000000000000001
 50
180.0
 51
195.0000000000001
  0
ARC
  5
51B
  8
1
  6
CONTINUOUS
 62
     7
 10
-252.1833333333333
 20
193.3816524975874
 30
0.0
 40
1.000000000000004
 50
344.9999999999998
 51
0.0
  0
ARC
  5
51C
  8
1
  6
CONTINUOUS
 62
     7
 10
-295.6833333333333
 20
193.3816524975874
 30
0.0
 40
1.000000000000001
 50
180.0
 51
195.0000000000001
  0
ARC
  5
51D
  8
1
  6
CONTINUOUS
 62
     7
 10
-290.1833333333333
 20
193.3816524975874
 30
0.0
 40
1.0
 50
344.9999999999998
 51
0.0
  0
LINE
  5
51E
  8
1
  6
CONTINUOUS
 62
     7
 10
-258.6833333333334
 20
193.95
 30
0.0
 11
-258.6833333333334
 21
193.3816524975874
 31
0.0
  0
LINE
  5
51F
  8
1
  6
CONTINUOUS
 62
     7
 10
-251.1833333333333
 20
193.3816524975874
 30
0.0
 11
-251.1833333333333
 21
193.95
 31
0.0
  0
LINE
  5
520
  8
1
  6
CONTINUOUS
 62
     7
 10
-289.1833333333333
 20
193.3816524975874
 30
0.0
 11
-289.1833333333333
 21
193.95
 31
0.0
  0
LINE
  5
521
  8
1
  6
CONTINUOUS
 62
     7
 10
-296.6833333333333
 20
193.95
 30
0.0
 11
-296.6833333333333
 21
193.3816524975874
 31
0.0
  0
LINE
  5
522
  8
1
  6
CONTINUOUS
 62
     7
 10
-252.691729068765
 20
187.6205904774488
 30
0.0
 11
-251.2174075070442
 21
193.1228334524849
 31
0.0
  0
LINE
  5
523
  8
1
  6
CONTINUOUS
 62
     7
 10
-258.6492591596224
 20
193.1228334524849
 30
0.0
 11
-257.1749375979016
 21
187.6205904774488
 31
0.0
  0
LINE
  5
524
  8
1
  6
CONTINUOUS
 62
     7
 10
-290.691729068765
 20
187.6205904774488
 30
0.0
 11
-289.2174075070443
 21
193.1228334524849
 31
0.0
  0
LINE
  5
525
  8
1
  6
CONTINUOUS
 62
     7
 10
-296.6492591596224
 20
193.1228334524849
 30
0.0
 11
-295.1749375979017
 21
187.6205904774488
 31
0.0
  0
LINE
  5
526
  8
1
  6
CONTINUOUS
 62
     7
 10
-295.6833333333333
 20
199.7499809608071
 30
0.0
 11
-295.6833333333333
 21
193.9500000000001
 31
0.0
  0
LINE
  5
527
  8
1
  6
CONTINUOUS
 62
     7
 10
-290.1833333333333
 20
193.9500000000001
 30
0.0
 11
-290.1833333333333
 21
199.7499809608071
 31
0.0
  0
LINE
  5
528
  8
1
  6
CONTINUOUS
 62
     7
 10
-257.6833333333333
 20
199.7499809608071
 30
0.0
 11
-257.6833333333333
 21
193.9500000000001
 31
0.0
  0
LINE
  5
529
  8
1
  6
CONTINUOUS
 62
     7
 10
-252.1833333333334
 20
193.9500000000001
 30
0.0
 11
-252.1833333333334
 21
199.7499809608071
 31
0.0
  0
ARC
  5
52A
  8
1
  6
CONTINUOUS
 62
     7
 10
-253.1746919819095
 20
187.75
 30
0.0
 40
0.5000000000000004
 50
270.0
 51
344.9999999999997
  0
ARC
  5
52B
  8
1
  6
CONTINUOUS
 62
     7
 10
-291.1746919819095
 20
187.75
 30
0.0
 40
0.5000000000000004
 50
270.0
 51
344.9999999999997
  0
ARC
  5
52C
  8
1
  6
CONTINUOUS
 62
     7
 10
-256.6919746847571
 20
187.75
 30
0.0
 40
0.5000000000000022
 50
195.0000000000003
 51
270.0
  0
ARC
  5
52D
  8
1
  6
CONTINUOUS
 62
     7
 10
-294.6919746847571
 20
187.75
 30
0.0
 40
0.4999999999999996
 50
194.9999999999999
 51
270.0
  0
LINE
  5
52E
  8
1
  6
CONTINUOUS
 62
     7
 10
-252.1834333257426
 20
199.7502228241087
 30
0.0
 11
-252.1833329225709
 21
199.759710112589
 31
0.0
  0
LINE
  5
52F
  8
1
  6
CONTINUOUS
 62
     7
 10
-252.1833329225709
 20
199.759710112589
 30
0.0
 11
-252.1524330086287
 21
199.9230443551088
 31
0.0
  0
LINE
  5
530
  8
1
  6
CONTINUOUS
 62
     7
 10
-252.1524330086287
 20
199.9230443551088
 30
0.0
 11
-252.1503683407011
 21
199.9285338592098
 31
0.0
  0
LINE
  5
531
  8
1
  6
CONTINUOUS
 62
     7
 10
-290.1834333257426
 20
199.7502228241087
 30
0.0
 11
-290.1833329225709
 21
199.7597101125891
 31
0.0
  0
LINE
  5
532
  8
1
  6
CONTINUOUS
 62
     7
 10
-290.1833329225709
 20
199.7597101125891
 30
0.0
 11
-290.1524330086287
 21
199.9230443551088
 31
0.0
  0
LINE
  5
533
  8
1
  6
CONTINUOUS
 62
     7
 10
-290.1524330086287
 20
199.9230443551088
 30
0.0
 11
-290.1503683407012
 21
199.9285338592096
 31
0.0
  0
LINE
  5
534
  8
1
  6
CONTINUOUS
 62
     7
 10
-295.7686553343183
 20
200.029353504321
 30
0.0
 11
-295.762983713883
 21
200.0207734529929
 31
0.0
  0
LINE
  5
535
  8
1
  6
CONTINUOUS
 62
     7
 10
-295.762983713883
 20
200.0207734529929
 30
0.0
 11
-295.7295703030423
 21
199.9603671858709
 31
0.0
  0
LINE
  5
536
  8
1
  6
CONTINUOUS
 62
     7
 10
-295.7295703030422
 20
199.9603671858709
 30
0.0
 11
-295.7180998746502
 21
199.9338309671415
 31
0.0
  0
LINE
  5
537
  8
1
  6
CONTINUOUS
 62
     7
 10
-257.7686553343182
 20
200.029353504321
 30
0.0
 11
-257.7629837138829
 21
200.0207734529928
 31
0.0
  0
LINE
  5
538
  8
1
  6
CONTINUOUS
 62
     7
 10
-257.7629837138829
 20
200.0207734529928
 30
0.0
 11
-257.7295703030424
 21
199.9603671858709
 31
0.0
  0
LINE
  5
539
  8
1
  6
CONTINUOUS
 62
     7
 10
-257.7295703030423
 20
199.9603671858709
 30
0.0
 11
-257.7180998746502
 21
199.9338309671413
 31
0.0
  0
ENDBLK
  8
0
  0
ENDSEC
  0
SECTION
  2
ENTITIES
  0
INSERT
  5
18D
  8
1
  6
CONTINUOUS
 62
     7
  2
D_FRAME_VIEW_2449
 10
0.0
 20
0.0
 30
0.0
  0
INSERT
  5
2CB
  8
1
  6
CONTINUOUS
 62
     7
  2
D_FRAME_VIEW_2766
 10
0.0
 20
0.0
 30
0.0
  0
LINE
  5
2CC
  8
1
  6
CENTER
 62
     1
 10
-148.0877538551097
 20
210.25
 30
0.0
 11
-139.6877538551097
 21
210.25
 31
0.0
  0
LINE
  5
2CE
  8
1
  6
CENTER
 62
     1
 10
-143.8877538551097
 20
206.05
 30
0.0
 11
-143.8877538551097
 21
214.45
 31
0.0
  0
LINE
  5
2CF
  8
1
  6
CENTER
 62
     1
 10
-280.4333333333333
 20
213.25
 30
0.0
 11
-267.4333333333333
 21
213.25
 31
0.0
  0
LINE
  5
2D0
  8
1
  6
CENTER
 62
     1
 10
-162.0877538551097
 20
166.45
 30
0.0
 11
-153.6877538551097
 21
166.45
 31
0.0
  0
LINE
  5
2D1
  8
1
  6
CENTER
 62
     1
 10
-162.9877538551097
 20
257.2500000000001
 30
0.0
 11
-152.7877538551097
 21
257.2500000000001
 31
0.0
  0
LINE
  5
2D2
  8
1
  6
CENTER
 62
     1
 10
-250.4333333333333
 20
215.188516565332
 30
0.0
 11
-250.4333333333333
 21
224.788516565332
 31
0.0
  0
LINE
  5
2D3
  8
1
  6
CENTER
 62
     1
 10
-157.8877538551097
 20
252.15
 30
0.0
 11
-157.8877538551097
 21
262.35
 31
0.0
  0
LINE
  5
2D4
  8
1
  6
CENTER
 62
     1
 10
-157.8877538551097
 20
235.0
 30
0.0
 11
-157.8877538551097
 21
247.5
 31
0.0
  0
LINE
  5
2D5
  8
1
  6
CENTER
 62
     1
 10
-273.9333333333333
 20
206.75
 30
0.0
 11
-273.9333333333333
 21
219.75
 31
0.0
  0
LINE
  5
2D6
  8
1
  6
CENTER
 62
     1
 10
-164.1377538551097
 20
241.25
 30
0.0
 11
-151.6377538551097
 21
241.25
 31
0.0
  0
LINE
  5
2D7
  8
1
  6
CENTER
 62
     1
 10
-157.8877538551097
 20
162.25
 30
0.0
 11
-157.8877538551097
 21
170.65
 31
0.0
  0
LINE
  5
2D8
  8
1
  6
CENTER
 62
     1
 10
-255.2333333333333
 20
219.988516565332
 30
0.0
 11
-245.6333333333333
 21
219.988516565332
 31
0.0
  0
LINE
  5
2D9
  8
1
  6
CENTER
 62
     1
 10
-230.8333333333333
 20
241.25
 30
0.0
 11
-262.7888264128238
 21
241.25
 31
0.0
  0
LINE
  5
2DA
  8
1
  6
CENTER
 62
     1
 10
-355.8333333333333
 20
88.72108718844301
 30
0.0
 11
-225.8333333333333
 21
88.72108718844301
 31
0.0
  0
LINE
  5
2DB
  8
1
  6
CENTER
 62
     1
 10
-157.8877538551097
 20
152.5
 30
0.0
 11
-157.8877538551097
 21
266.7500000000001
 31
0.0
  0
INSERT
  5
53A
  8
1
  6
CONTINUOUS
 62
     7
  2
D_FRAME_VIEW_1492
 10
0.0
 20
0.0
 30
0.0
  0
TEXT
  5
53B
  8
1
  6
CONTINUOUS
 62
     7
 10
-175.9121483056146
 20
99.16175336584553
 30
0.0
 40
3.0
  1
SM-6
  0
LINE
  5
53C
  8
1
  6
CONTINUOUS
 62
     2
 10
-175.8272727272727
 20
98.60378787878788
 30
0.0
 11
-169.1727272727273
 21
98.60378787878788
 31
0.0
  0
POINT
  5
53D
  8
1
 62
     7
 10
-355.8333333333333
 20
85.00000000000001
 30
0.0
  0
POINT
  5
53E
  8
1
 62
     7
 10
-149.1666666666667
 20
152.5
 30
0.0
  0
POINT
  5
53F
  8
1
 62
     7
 10
-230.8333333333333
 20
242.5
 30
0.0
  0
POINT
  5
540
  8
1
 62
     7
 10
-225.8333333333333
 20
80.00000000000001
 30
0.0
  0
ENDSEC
  0
EOF
