  0
SECTION
  2
HEADER
  9
$ACADVER
  1
AC1014
  9
$ACADMAINTVER
 70
     9
  9
$DWGCODEPAGE
  3
ANSI_932
  9
$INSBASE
 10
0.0
 20
0.0
 30
0.0
  9
$EXTMIN
 10
518.833333333333
 20
-6.583333333333364
 30
0.0
  9
$EXTMAX
 10
720.9726845467226
 20
244.1666666666669
 30
0.0
  9
$LIMMIN
 10
0.0
 20
0.0
  9
$LIMMAX
 10
12.0
 20
9.0
  9
$ORTHOMODE
 70
     0
  9
$REGENMODE
 70
     1
  9
$FILLMODE
 70
     1
  9
$QTEXTMODE
 70
     0
  9
$MIRRTEXT
 70
     1
  9
$DRAGMODE
 70
     2
  9
$LTSCALE
 40
1.0
  9
$OSMODE
 70
    37
  9
$ATTMODE
 70
     1
  9
$TEXTSIZE
 40
0.2
  9
$TRACEWID
 40
0.05
  9
$TEXTSTYLE
  7
STANDARD
  9
$CLAYER
  8
0
  9
$CELTYPE
  6
BYLAYER
  9
$CECOLOR
 62
   256
  9
$CELTSCALE
 40
1.0
  9
$DELOBJ
 70
     1
  9
$DISPSILH
 70
     0
  9
$DIMSCALE
 40
1.0
  9
$DIMASZ
 40
3.0
  9
$DIMEXO
 40
0.0625
  9
$DIMDLI
 40
0.38
  9
$DIMRND
 40
0.0
  9
$DIMDLE
 40
0.0
  9
$DIMEXE
 40
1.5
  9
$DIMTP
 40
0.0
  9
$DIMTM
 40
0.0
  9
$DIMTXT
 40
3.0
  9
$DIMCEN
 40
0.09
  9
$DIMTSZ
 40
0.0
  9
$DIMTOL
 70
     0
  9
$DIMLIM
 70
     0
  9
$DIMTIH
 70
     1
  9
$DIMTOH
 70
     1
  9
$DIMSE1
 70
     0
  9
$DIMSE2
 70
     0
  9
$DIMTAD
 70
     1
  9
$DIMZIN
 70
     0
  9
$DIMBLK
  1

  9
$DIMASO
 70
     1
  9
$DIMSHO
 70
     1
  9
$DIMPOST
  1

  9
$DIMAPOST
  1

  9
$DIMALT
 70
     0
  9
$DIMALTD
 70
     2
  9
$DIMALTF
 40
25.4
  9
$DIMLFAC
 40
1.0
  9
$DIMTOFL
 70
     0
  9
$DIMTVP
 40
0.0
  9
$DIMTIX
 70
     0
  9
$DIMSOXD
 70
     0
  9
$DIMSAH
 70
     0
  9
$DIMBLK1
  1

  9
$DIMBLK2
  1

  9
$DIMSTYLE
  2
STANDARD
  9
$DIMCLRD
 70
     0
  9
$DIMCLRE
 70
     0
  9
$DIMCLRT
 70
     0
  9
$DIMTFAC
 40
1.0
  9
$DIMGAP
 40
1.5
  9
$DIMJUST
 70
     0
  9
$DIMSD1
 70
     0
  9
$DIMSD2
 70
     0
  9
$DIMTOLJ
 70
     1
  9
$DIMTZIN
 70
     0
  9
$DIMALTZ
 70
     0
  9
$DIMALTTZ
 70
     0
  9
$DIMFIT
 70
     3
  9
$DIMUPT
 70
     0
  9
$DIMUNIT
 70
     2
  9
$DIMDEC
 70
     2
  9
$DIMTDEC
 70
     4
  9
$DIMALTU
 70
     2
  9
$DIMALTTD
 70
     2
  9
$DIMTXSTY
  7
ＭＳ_ゴシック
  9
$DIMAUNIT
 70
     0
  9
$LUNITS
 70
     2
  9
$LUPREC
 70
     4
  9
$SKETCHINC
 40
0.1
  9
$FILLETRAD
 40
0.5
  9
$AUNITS
 70
     0
  9
$AUPREC
 70
     0
  9
$MENU
  1
.
  9
$ELEVATION
 40
0.0
  9
$PELEVATION
 40
0.0
  9
$THICKNESS
 40
0.0
  9
$LIMCHECK
 70
     0
  9
$CHAMFERA
 40
0.0
  9
$CHAMFERB
 40
0.0
  9
$CHAMFERC
 40
0.0
  9
$CHAMFERD
 40
0.0
  9
$SKPOLY
 70
     0
  9
$TDCREATE
 40
2459772.600951585
  9
$TDUPDATE
 40
2459772.60095184
  9
$TDINDWG
 40
0.0000000116
  9
$TDUSRTIMER
 40
0.0000000116
  9
$USRTIMER
 70
     1
  9
$ANGBASE
 50
0.0
  9
$ANGDIR
 70
     0
  9
$PDMODE
 70
     0
  9
$PDSIZE
 40
0.0
  9
$PLINEWID
 40
0.0
  9
$COORDS
 70
     1
  9
$SPLFRAME
 70
     0
  9
$SPLINETYPE
 70
     6
  9
$SPLINESEGS
 70
     8
  9
$ATTDIA
 70
     0
  9
$ATTREQ
 70
     1
  9
$HANDLING
 70
     1
  9
$HANDSEED
  5
34F
  9
$SURFTAB1
 70
     6
  9
$SURFTAB2
 70
     6
  9
$SURFTYPE
 70
     6
  9
$SURFU
 70
     6
  9
$SURFV
 70
     6
  9
$UCSNAME
  2

  9
$UCSORG
 10
0.0
 20
0.0
 30
0.0
  9
$UCSXDIR
 10
1.0
 20
0.0
 30
0.0
  9
$UCSYDIR
 10
0.0
 20
1.0
 30
0.0
  9
$PUCSNAME
  2

  9
$PUCSORG
 10
0.0
 20
0.0
 30
0.0
  9
$PUCSXDIR
 10
1.0
 20
0.0
 30
0.0
  9
$PUCSYDIR
 10
0.0
 20
1.0
 30
0.0
  9
$USERI1
 70
     0
  9
$USERI2
 70
     0
  9
$USERI3
 70
     0
  9
$USERI4
 70
     0
  9
$USERI5
 70
     0
  9
$USERR1
 40
0.0
  9
$USERR2
 40
0.0
  9
$USERR3
 40
0.0
  9
$USERR4
 40
0.0
  9
$USERR5
 40
0.0
  9
$WORLDVIEW
 70
     1
  9
$SHADEDGE
 70
     3
  9
$SHADEDIF
 70
    70
  9
$TILEMODE
 70
     1
  9
$MAXACTVP
 70
    64
  9
$PINSBASE
 10
0.0
 20
0.0
 30
0.0
  9
$PLIMCHECK
 70
     0
  9
$PEXTMIN
 10
1.000000000000000E+20
 20
1.000000000000000E+20
 30
1.000000000000000E+20
  9
$PEXTMAX
 10
-1.000000000000000E+20
 20
-1.000000000000000E+20
 30
-1.000000000000000E+20
  9
$PLIMMIN
 10
0.0
 20
0.0
  9
$PLIMMAX
 10
12.0
 20
9.0
  9
$UNITMODE
 70
     0
  9
$VISRETAIN
 70
     1
  9
$PLINEGEN
 70
     0
  9
$PSLTSCALE
 70
     1
  9
$TREEDEPTH
 70
  3020
  9
$PICKSTYLE
 70
     1
  9
$CMLSTYLE
  2
STANDARD
  9
$CMLJUST
 70
     0
  9
$CMLSCALE
 40
1.0
  9
$PROXYGRAPHICS
 70
     1
  9
$MEASUREMENT
 70
     1
  0
ENDSEC
  0
SECTION
  2
CLASSES
  0
CLASS
  1
ACDBDICTIONARYWDFLT
  2
AcDbDictionaryWithDefault
  3
ObjectDBX Classes
 90
        0
280
     0
281
     0
  0
CLASS
  1
VISUALSTYLE
  2
AcDbVisualStyle
  3
ObjectDBX Classes
 90
     4095
280
     0
281
     0
  0
CLASS
  1
MATERIAL
  2
AcDbMaterial
  3
ObjectDBX Classes
 90
     1153
280
     0
281
     0
  0
CLASS
  1
SCALE
  2
AcDbScale
  3
ObjectDBX Classes
 90
     1153
280
     0
281
     0
  0
CLASS
  1
TABLESTYLE
  2
AcDbTableStyle
  3
ObjectDBX Classes
 90
     4095
280
     0
281
     0
  0
CLASS
  1
MLEADERSTYLE
  2
AcDbMLeaderStyle
  3
ACDB_MLEADERSTYLE_CLASS
 90
     4095
280
     0
281
     0
  0
CLASS
  1
SUN
  2
AcDbSun
  3
SCENEOE
 90
     1153
280
     0
281
     0
  0
CLASS
  1
DICTIONARYVAR
  2
AcDbDictionaryVar
  3
ObjectDBX Classes
 90
        0
280
     0
281
     0
  0
CLASS
  1
XRECORD
  2
AcDbXrecord
  3
ObjectDBX Classes
 90
        0
280
     0
281
     0
  0
CLASS
  1
LWPOLYLINE
  2
AcDbPolyline
  3
ObjectDBX Classes
 90
        0
280
     0
281
     1
  0
CLASS
  1
HATCH
  2
AcDbHatch
  3
ObjectDBX Classes
 90
        0
280
     0
281
     1
  0
CLASS
  1
ACDBPLACEHOLDER
  2
AcDbPlaceHolder
  3
ObjectDBX Classes
 90
        0
280
     0
281
     0
  0
CLASS
  1
LAYOUT
  2
AcDbLayout
  3
ObjectDBX Classes
 90
        0
280
     0
281
     0
  0
ENDSEC
  0
SECTION
  2
TABLES
  0
TABLE
  2
VPORT
  5
8
102
{ACAD_XDICTIONARY
360
344
102
}
330
0
100
AcDbSymbolTable
 70
     1
  0
VPORT
  5
29
330
8
100
AcDbSymbolTableRecord
100
AcDbViewportTableRecord
  2
*ACTIVE
 70
     0
 10
0.0
 20
0.0
 11
1.0
 21
1.0
 12
619.9030089400278
 22
118.7916666666668
 13
0.0
 23
0.0
 14
0.5
 24
0.5
 15
0.5
 25
0.5
 16
0.0
 26
0.0
 36
1.0
 17
0.0
 27
0.0
 37
0.0
 40
250.7500000000003
 41
1.6
 42
50.0
 43
0.0
 44
0.0
 50
0.0
 51
0.0
 71
     0
 72
   100
 73
     1
 74
     3
 75
     0
 76
     0
 77
     0
 78
     0
  0
ENDTAB
  0
TABLE
  2
LTYPE
  5
5
330
0
100
AcDbSymbolTable
 70
     3
  0
LTYPE
  5
14
330
5
100
AcDbSymbolTableRecord
100
AcDbLinetypeTableRecord
  2
BYBLOCK
 70
     0
  3

 72
    65
 73
     0
 40
0.0
  0
LTYPE
  5
15
330
5
100
AcDbSymbolTableRecord
100
AcDbLinetypeTableRecord
  2
BYLAYER
 70
     0
  3

 72
    65
 73
     0
 40
0.0
  0
LTYPE
  5
16
330
5
100
AcDbSymbolTableRecord
100
AcDbLinetypeTableRecord
  2
CONTINUOUS
 70
     0
  3
Solid line
 72
    65
 73
     0
 40
0.0
  0
LTYPE
  5
24A
330
5
100
AcDbSymbolTableRecord
100
AcDbLinetypeTableRecord
  2
________________
 70
     0
  3

 72
    65
 73
     4
 40
6.0
 49
2.99999998499985
 74
     0
 49
-1.499999992499925
 74
     0
 49
0.0000000300002998
 74
     0
 49
-1.499999992499925
 74
     0
  0
LTYPE
  5
257
330
5
100
AcDbSymbolTableRecord
100
AcDbLinetypeTableRecord
  2
CENTER
 70
     0
  3

 72
    65
 73
     0
 40
0.0
  0
ENDTAB
  0
TABLE
  2
LAYER
  5
2
330
0
100
AcDbSymbolTable
 70
     1
  0
LAYER
  5
10
330
2
100
AcDbSymbolTableRecord
100
AcDbLayerTableRecord
  2
0
 70
     0
 62
     7
  6
CONTINUOUS
  0
ENDTAB
  0
TABLE
  2
STYLE
  5
3
330
0
100
AcDbSymbolTable
 70
     2
  0
STYLE
  5
11
330
3
100
AcDbSymbolTableRecord
100
AcDbTextStyleTableRecord
  2
STANDARD
 70
     0
 40
0.0
 41
1.0
 50
0.0
 71
     0
 42
0.2
  3
txt
  4

  0
STYLE
  5
6E
330
3
100
AcDbSymbolTableRecord
100
AcDbTextStyleTableRecord
  2
ＭＳ_ゴシック
 70
     0
 40
0.0
 41
1.0
 50
0.0
 71
     0
 42
0.2
  3
ＭＳ ゴシック.shx
  4

  0
ENDTAB
  0
TABLE
  2
VIEW
  5
6
330
0
100
AcDbSymbolTable
 70
     0
  0
ENDTAB
  0
TABLE
  2
UCS
  5
7
330
0
100
AcDbSymbolTable
 70
     0
  0
ENDTAB
  0
TABLE
  2
APPID
  5
9
330
0
100
AcDbSymbolTable
 70
     2
  0
APPID
  5
12
330
9
100
AcDbSymbolTableRecord
100
AcDbRegAppTableRecord
  2
ACAD
 70
     0
  0
APPID
  5
34E
330
9
100
AcDbSymbolTableRecord
100
AcDbRegAppTableRecord
  2
ACAD_MLEADERVER
 70
     0
  0
ENDTAB
  0
TABLE
  2
DIMSTYLE
  5
A
330
0
100
AcDbSymbolTable
 70
     1
  0
DIMSTYLE
105
27
330
A
100
AcDbSymbolTableRecord
100
AcDbDimStyleTableRecord
  2
STANDARD
 70
     0
  3

  4

  5

  6

  7

 40
1.0
 41
0.18
 42
0.0625
 43
0.38
 44
0.18
 45
0.0
 46
0.0
 47
0.0
 48
0.0
140
0.18
141
0.09
142
0.0
143
25.4
144
1.0
145
0.0
146
1.0
147
0.09
 71
     0
 72
     0
 73
     1
 74
     1
 75
     0
 76
     0
 77
     0
 78
     0
170
     0
171
     2
172
     0
173
     0
174
     0
175
     0
176
     0
177
     0
178
     0
270
     2
271
     4
272
     4
273
     2
274
     2
340
11
275
     0
280
     0
281
     0
282
     0
283
     1
284
     0
285
     0
286
     0
287
     3
288
     0
  0
ENDTAB
  0
TABLE
  2
BLOCK_RECORD
  5
1
330
0
100
AcDbSymbolTable
 70
     0
  0
BLOCK_RECORD
  5
1F
330
1
100
AcDbSymbolTableRecord
100
AcDbBlockTableRecord
  2
*MODEL_SPACE
  0
BLOCK_RECORD
  5
1B
330
1
100
AcDbSymbolTableRecord
100
AcDbBlockTableRecord
  2
*PAPER_SPACE
  0
ENDTAB
  0
ENDSEC
  0
SECTION
  2
BLOCKS
  0
BLOCK
  5
20
330
1F
100
AcDbEntity
  8
0
100
AcDbBlockBegin
  2
*MODEL_SPACE
 70
     0
 10
0.0
 20
0.0
 30
0.0
  3
*MODEL_SPACE
  1

  0
ENDBLK
  5
21
330
1F
100
AcDbEntity
  8
0
100
AcDbBlockEnd
  0
BLOCK
  5
1C
330
1B
100
AcDbEntity
 67
     1
  8
0
100
AcDbBlockBegin
  2
*PAPER_SPACE
 70
     0
 10
0.0
 20
0.0
 30
0.0
  3
*PAPER_SPACE
  1

  0
ENDBLK
  5
1D
330
1B
100
AcDbEntity
 67
     1
  8
0
100
AcDbBlockEnd
  0
ENDSEC
  0
SECTION
  2
ENTITIES
  0
LINE
  5
6F
330
1F
100
AcDbEntity
  8
0
  6
CONTINUOUS
 62
     7
100
AcDbLine
 10
594.479762882153
 20
185.2492778340881
 30
0.0
 11
594.1688913103599
 21
185.7901181270417
 31
0.0
  0
LINE
  5
70
330
1F
100
AcDbEntity
  8
0
  6
CONTINUOUS
 62
     7
100
AcDbLine
 10
592.9960650833603
 20
132.450583453714
 30
0.0
 11
593.2842726204208
 21
131.9490965068361
 31
0.0
  0
LINE
  5
71
330
1F
100
AcDbEntity
  8
0
  6
CONTINUOUS
 62
     7
100
AcDbLine
 10
592.0815652224846
 20
132.2853484816769
 30
0.0
 11
592.1746544569772
 21
132.4457427474067
 31
0.0
  0
LINE
  5
72
330
1F
100
AcDbEntity
  8
0
  6
CONTINUOUS
 62
     7
100
AcDbLine
 10
593.7038431267288
 20
185.444193146463
 30
0.0
 11
592.9671354745959
 21
185.4449529871254
 31
0.0
  0
LINE
  5
73
330
1F
100
AcDbEntity
  8
0
  6
CONTINUOUS
 62
     7
100
AcDbLine
 10
592.0815652224846
 20
182.2853484816768
 30
0.0
 11
592.1746544569772
 21
182.4457427474068
 31
0.0
  0
LINE
  5
74
330
1F
100
AcDbEntity
  8
0
  6
CONTINUOUS
 62
     7
100
AcDbLine
 10
594.6870868767178
 20
131.9433818618656
 30
0.0
 11
594.8333010519082
 21
132.1976810517905
 31
0.0
  0
LINE
  5
75
330
1F
100
AcDbEntity
  8
0
  6
CONTINUOUS
 62
     7
100
AcDbLine
 10
593.8127847098626
 20
185.7902854935019
 30
0.0
 11
593.613160962609
 21
185.4436923659792
 31
0.0
  0
LINE
  5
76
330
1F
100
AcDbEntity
  8
0
  6
CONTINUOUS
 62
     7
100
AcDbLine
 10
593.7038431267288
 20
135.4441931464629
 30
0.0
 11
592.9671354745959
 21
135.4449529871253
 31
0.0
  0
LINE
  5
77
330
1F
100
AcDbEntity
  8
0
  6
CONTINUOUS
 62
     7
100
AcDbLine
 10
593.0794140826598
 20
135.250605726251
 30
0.0
 11
592.767977019343
 21
135.7924537627508
 31
0.0
  0
LINE
  5
78
330
1F
100
AcDbEntity
  8
0
  6
CONTINUOUS
 62
     7
100
AcDbLine
 10
594.479762882153
 20
135.2492778340882
 30
0.0
 11
594.1688913103599
 21
135.7901181270418
 31
0.0
  0
LINE
  5
79
330
1F
100
AcDbEntity
  8
0
  6
CONTINUOUS
 62
     7
100
AcDbLine
 10
709.7544248650138
 20
160.6666666666681
 30
0.0
 11
688.7544248650138
 21
160.6666666666667
 31
0.0
  0
LINE
  5
7A
330
1F
100
AcDbEntity
  8
0
  6
CONTINUOUS
 62
     7
100
AcDbLine
 10
593.2867924163252
 20
181.9451187470503
 30
0.0
 11
593.574905102618
 21
182.4442987462975
 31
0.0
  0
LINE
  5
7B
330
1F
100
AcDbEntity
  8
0
  6
CONTINUOUS
 62
     7
100
AcDbLine
 10
591.6920776965155
 20
187.4460820388079
 30
0.0
 11
590.5804180406379
 21
187.3492976497784
 31
0.0
  0
LINE
  5
7C
330
1F
100
AcDbEntity
  8
0
  6
CONTINUOUS
 62
     7
100
AcDbLine
 10
697.2544248650139
 20
162.6666666666667
 30
0.0
 11
691.2544248650139
 21
162.6666666666667
 31
0.0
  0
LINE
  5
7D
330
1F
100
AcDbEntity
  8
0
  6
CONTINUOUS
 62
     7
100
AcDbLine
 10
697.2544248650139
 20
155.6666666666668
 30
0.0
 11
691.2544248650139
 21
155.6666666666668
 31
0.0
  0
LINE
  5
7E
330
1F
100
AcDbEntity
  8
0
  6
CONTINUOUS
 62
     7
100
AcDbLine
 10
592.4129389575288
 20
185.7927144640598
 30
0.0
 11
592.2128139769083
 21
185.4451371247399
 31
0.0
  0
LINE
  5
7F
330
1F
100
AcDbEntity
  8
0
  6
CONTINUOUS
 62
     7
100
AcDbLine
 10
592.9960650833603
 20
182.4505834537143
 30
0.0
 11
593.2842726204208
 21
181.9490965068363
 31
0.0
  0
ARC
  5
80
330
1F
100
AcDbEntity
  8
0
  6
CONTINUOUS
 62
     7
100
AcDbCircle
 10
711.2544248650141
 20
157.1666666666667
 30
0.0
 40
2.999999999999892
100
AcDbArc
 50
269.9999999999994
 51
359.9999999999998
  0
LINE
  5
81
330
1F
100
AcDbEntity
  8
0
  6
CONTINUOUS
 62
     7
100
AcDbLine
 10
593.0794140826598
 20
185.2506057262509
 30
0.0
 11
592.767977019343
 21
185.7924537627509
 31
0.0
  0
LINE
  5
82
330
1F
100
AcDbEntity
  8
0
  6
CONTINUOUS
 62
     7
100
AcDbLine
 10
593.2867924163252
 20
131.9451187470502
 30
0.0
 11
593.5749051026179
 21
132.4442987462974
 31
0.0
  0
ARC
  5
83
330
1F
100
AcDbEntity
  8
0
  6
CONTINUOUS
 62
     7
100
AcDbCircle
 10
-701.2544248650141
 20
153.1666666666667
 30
0.0
 40
1.000000000000112
210
0.0
220
0.0
230
-1.0
100
AcDbArc
 50
359.9999999999997
 51
90.0
  0
ARC
  5
84
330
1F
100
AcDbEntity
  8
0
  6
CONTINUOUS
 62
     7
100
AcDbCircle
 10
-691.2544248650139
 20
145.6666666666667
 30
0.0
 40
0.9999999999998899
210
0.0
220
0.0
230
-1.0
100
AcDbArc
 50
270.0
 51
0.0
  0
LINE
  5
85
330
1F
100
AcDbEntity
  8
0
  6
CONTINUOUS
 62
     7
100
AcDbLine
 10
592.3036234252066
 20
185.4456373338043
 30
0.0
 11
592.0654185815221
 21
185.4458830184062
 31
0.0
  0
LINE
  5
86
330
1F
100
AcDbEntity
  8
0
  6
CONTINUOUS
 62
     7
100
AcDbLine
 10
592.1733723283728
 20
132.4457700791743
 30
0.0
 11
593.0006567203815
 21
132.4449168176146
 31
0.0
  0
LINE
  5
87
330
1F
100
AcDbEntity
  8
0
  6
CONTINUOUS
 62
     7
100
AcDbLine
 10
594.3964245946618
 20
182.4488236555693
 30
0.0
 11
594.6868411778843
 21
181.9433921302458
 31
0.0
  0
LINE
  5
88
330
1F
100
AcDbEntity
  8
0
  6
CONTINUOUS
 62
     7
100
AcDbLine
 10
593.284272620421
 20
131.9490965068362
 30
0.0
 11
593.2865439148651
 21
131.9451189319801
 31
0.0
  0
LINE
  5
89
330
1F
100
AcDbEntity
  8
0
  6
CONTINUOUS
 62
     7
100
AcDbLine
 10
593.5736898859157
 20
182.4443257909043
 30
0.0
 11
594.4008340773851
 21
182.4434726739475
 31
0.0
  0
LINE
  5
8A
330
1F
100
AcDbEntity
  8
0
  6
CONTINUOUS
 62
     7
100
AcDbLine
 10
594.3964245946618
 20
132.4488236555695
 30
0.0
 11
594.686841177884
 21
131.9433921302458
 31
0.0
  0
LINE
  5
8B
330
1F
100
AcDbEntity
  8
0
  6
CONTINUOUS
 62
     7
100
AcDbLine
 10
594.8333333333333
 20
185.4430281896662
 30
0.0
 11
594.3675577353614
 21
185.4435085908645
 31
0.0
  0
LINE
  5
8C
330
1F
100
AcDbEntity
  8
0
  6
CONTINUOUS
 62
     7
100
AcDbLine
 10
592.1733723283728
 20
182.4457700791742
 30
0.0
 11
593.0006567203815
 21
182.4449168176146
 31
0.0
  0
ARC
  5
8D
330
1F
100
AcDbEntity
  8
0
  6
CONTINUOUS
 62
     7
100
AcDbCircle
 10
598.0484771644907
 20
183.9397112907767
 30
0.0
 40
9.000000000000341
100
AcDbArc
 50
183.681821721106
 51
194.3538346756335
  0
LINE
  5
8E
330
1F
100
AcDbEntity
  8
0
  6
CONTINUOUS
 62
     7
100
AcDbLine
 10
680.7544248650137
 20
95.16666666666667
 30
0.0
 11
699.7544248650138
 21
95.16666666666667
 31
0.0
  0
LINE
  5
8F
330
1F
100
AcDbEntity
  8
0
  6
CONTINUOUS
 62
     7
100
AcDbLine
 10
684.7544248650139
 20
139.6666666666667
 30
0.0
 11
695.7544248650138
 21
139.6666666666667
 31
0.0
  0
LINE
  5
90
330
1F
100
AcDbEntity
  8
0
  6
CONTINUOUS
 62
     7
100
AcDbLine
 10
691.2544248650139
 20
173.6666666666668
 30
0.0
 11
697.2544248650139
 21
173.6666666666668
 31
0.0
  0
LINE
  5
91
330
1F
100
AcDbEntity
  8
0
  6
CONTINUOUS
 62
     7
100
AcDbLine
 10
698.2544248650138
 20
129.6680371319122
 30
0.0
 11
698.2544248650138
 21
98.16529620142131
 31
0.0
  0
LINE
  5
92
330
1F
100
AcDbEntity
  8
0
  6
CONTINUOUS
 62
     7
100
AcDbLine
 10
594.6870868767178
 20
181.9433818618655
 30
0.0
 11
594.8333010519082
 21
182.1976810517904
 31
0.0
  0
LINE
  5
93
330
1F
100
AcDbEntity
  8
0
  6
CONTINUOUS
 62
     7
100
AcDbLine
 10
590.5734006386014
 20
180.5455372897938
 30
0.0
 11
591.6848582826153
 21
180.4464599764045
 31
0.0
  0
LINE
  5
94
330
1F
100
AcDbEntity
  8
0
  6
CONTINUOUS
 62
     7
100
AcDbLine
 10
593.5736898859157
 20
132.4443257909043
 30
0.0
 11
594.4008340773851
 21
132.4434726739475
 31
0.0
  0
LINE
  5
95
330
1F
100
AcDbEntity
  8
0
  6
CONTINUOUS
 62
     7
100
AcDbLine
 10
592.3036234252066
 20
135.4456373338043
 30
0.0
 11
592.0654185815222
 21
135.4458830184062
 31
0.0
  0
ARC
  5
96
330
1F
100
AcDbEntity
  8
0
  6
CONTINUOUS
 62
     7
100
AcDbCircle
 10
598.0484771644907
 20
183.9397112907767
 30
0.0
 40
9.000000000000341
100
AcDbArc
 50
165.5279755716428
 51
176.5087434157594
  0
ELLIPSE
  5
97
330
1F
100
AcDbEntity
  8
0
  6
CONTINUOUS
 62
     7
100
AcDbEllipse
 10
688.8481777377638
 20
183.9340996368541
 30
0.0
 11
-0.007667829213797716
 21
-0.8786461990114568
 31
0.0
210
0.0
220
0.0
230
-1.0
 40
0.9930877441237494
 41
3.703197132792497
 42
5.817852537276121
  0
LINE
  5
98
330
1F
100
AcDbEntity
  8
0
  6
CONTINUOUS
 62
     7
100
AcDbLine
 10
592.8333333333331
 20
-4.083333333333383
 30
0.0
 11
531.7299608170198
 21
-4.083333333333383
 31
0.0
  0
SPLINE
  5
99
330
1F
100
AcDbEntity
  8
0
  6
CONTINUOUS
 62
     7
100
AcDbSpline
210
0.0
220
0.0
230
1.0
 70
     8
 71
     3
 72
    17
 73
    13
 74
     0
 42
0.000000001
 43
0.0001
 40
0.0012566960835019
 40
0.0012566960835019
 40
0.0012566960835019
 40
0.0012566960835019
 40
0.0012888871513181
 40
0.0018751643366986
 40
0.0024910936045014
 40
0.0031367533393659
 40
0.0038122115756512
 40
0.0045175277247337
 40
0.0052527539598469
 40
0.0060179363360759
 40
0.0068131157035367
 40
0.0072369110759467
 40
0.0072369110759467
 40
0.0072369110759467
 40
0.0072369110759467
 10
688.0559529410918
 20
132.6663007251593
 30
0.0
 10
688.0415981938204
 20
132.6733561302689
 30
0.0
 10
687.7681989168907
 20
132.8133212831501
 30
0.0
 10
687.3202855666227
 20
133.2595879155014
 30
0.0
 10
687.118277349189
 20
134.165367245621
 30
0.0
 10
687.4458219705522
 20
135.0578938778723
 30
0.0
 10
688.22502418167
 20
135.638896406471
 30
0.0
 10
689.2215250559904
 20
135.6944820610008
 30
0.0
 10
690.1132075352381
 20
135.1725322848667
 30
0.0
 10
690.5925537124
 20
134.2104269760902
 30
0.0
 10
690.4918123568806
 20
133.2872011485821
 30
0.0
 10
690.2083631652908
 20
132.8137470208195
 30
0.0
 10
690.0889360036056
 20
132.6664769810749
 30
0.0
  0
ELLIPSE
  5
9A
330
1F
100
AcDbEntity
  8
0
  6
CONTINUOUS
 62
   253
100
AcDbEllipse
 10
688.6254303199744
 20
183.9360435241199
 30
0.0
 11
-0.01308980324776776
 21
-1.499942884596206
 31
0.0
210
0.0
220
0.0
230
-1.0
 40
0.9930877441237419
 41
1.662818527870121
 42
2.084439767150427
  0
LINE
  5
9B
330
1F
100
AcDbEntity
  8
0
  6
CONTINUOUS
 62
     7
100
AcDbLine
 10
695.754424865014
 20
81.66666666666661
 30
0.0
 11
684.7544248650141
 21
81.66666666666661
 31
0.0
  0
LINE
  5
9C
330
1F
100
AcDbEntity
  8
0
  6
CONTINUOUS
 62
   253
100
AcDbLine
 10
579.8333333333331
 20
17.54585804494641
 30
0.0
 11
579.8333333333331
 21
22.54243188183284
 31
0.0
  0
ARC
  5
9D
330
1F
100
AcDbEntity
  8
0
  6
CONTINUOUS
 62
     7
100
AcDbCircle
 10
597.333333333333
 20
34.24557513498599
 30
0.0
 40
0.500000000000389
100
AcDbArc
 50
97.5946433685915
 51
179.9999999999984
  0
ARC
  5
9E
330
1F
100
AcDbEntity
  8
0
  6
CONTINUOUS
 62
     7
100
AcDbCircle
 10
-526.3294706597482
 20
34.24609015813068
 30
0.0
 40
0.4999999999997229
210
0.0
220
0.0
230
-1.0
100
AcDbArc
 50
97.5946433685915
 51
178.4999999999973
  0
ARC
  5
9F
330
1F
100
AcDbEntity
  8
0
  6
CONTINUOUS
 62
     7
100
AcDbCircle
 10
699.7544248650138
 20
93.66666666666661
 30
0.0
 40
0.500000000000167
100
AcDbArc
 50
0.0
 51
89.99999999999962
  0
ARC
  5
A0
330
1F
100
AcDbEntity
  8
0
  6
CONTINUOUS
 62
     7
100
AcDbCircle
 10
688.4409044863548
 20
133.9573846736722
 30
0.0
 40
1.999598711778461
100
AcDbArc
 50
121.2360789501934
 51
220.2146961393533
  0
LINE
  5
A1
330
1F
100
AcDbEntity
  8
0
  6
CONTINUOUS
 62
     7
100
AcDbLine
 10
526.7323973852477
 20
-0.2229277779178251
 30
0.0
 11
526.7313315171176
 21
-0.1880411265648557
 31
0.0
  0
SPLINE
  5
A2
330
1F
100
AcDbEntity
  8
0
  6
CONTINUOUS
 62
     7
100
AcDbSpline
210
0.0
220
0.0
230
1.0
 70
     8
 71
     3
 72
    17
 73
    13
 74
     0
 42
0.000000001
 43
0.0001
 40
0.0012566960835019
 40
0.0012566960835019
 40
0.0012566960835019
 40
0.0012566960835019
 40
0.0012888871513181
 40
0.0018751643366986
 40
0.0024910936045014
 40
0.0031367533393659
 40
0.0038122115756512
 40
0.0045175277247337
 40
0.0052527539598469
 40
0.0060179363360759
 40
0.0068131157035367
 40
0.0072369110759467
 40
0.0072369110759467
 40
0.0072369110759467
 40
0.0072369110759467
 10
688.0559529410918
 20
182.6663007251594
 30
0.0
 10
688.0415981938204
 20
182.6733561302688
 30
0.0
 10
687.7681989168907
 20
182.8133212831501
 30
0.0
 10
687.3202855666227
 20
183.2595879155013
 30
0.0
 10
687.118277349189
 20
184.1653672456208
 30
0.0
 10
687.4458219705522
 20
185.0578938778722
 30
0.0
 10
688.22502418167
 20
185.6388964064711
 30
0.0
 10
689.2215250559904
 20
185.6944820610007
 30
0.0
 10
690.1132075352381
 20
185.1725322848668
 30
0.0
 10
690.5925537124
 20
184.2104269760903
 30
0.0
 10
690.4918123568806
 20
183.2872011485823
 30
0.0
 10
690.2083631652908
 20
182.8137470208197
 30
0.0
 10
690.0889360036056
 20
182.6664769810749
 30
0.0
  0
LINE
  5
A3
330
1F
100
AcDbEntity
  8
0
  6
CONTINUOUS
 62
     7
100
AcDbLine
 10
531.72996081702
 20
-4.083333333333383
 30
0.0
 11
530.7299608170199
 21
-4.083333333333383
 31
0.0
  0
ARC
  5
A4
330
1F
100
AcDbEntity
  8
0
  6
CONTINUOUS
 62
     7
100
AcDbCircle
 10
688.4409044863548
 20
183.9573846736721
 30
0.0
 40
1.999598711778461
100
AcDbArc
 50
121.2360789501928
 51
220.2146961393533
  0
ARC
  5
A5
330
1F
100
AcDbEntity
  8
0
  6
CONTINUOUS
 62
     7
100
AcDbCircle
 10
-688.7700916786479
 20
133.8679466276043
 30
0.0
 40
1.335146100839513
210
0.0
220
0.0
230
-1.0
100
AcDbArc
 50
164.0519657058099
 51
244.1326881672098
  0
ELLIPSE
  5
A6
330
1F
100
AcDbEntity
  8
0
  6
CONTINUOUS
 62
     7
100
AcDbEllipse
 10
695.754424865014
 20
82.17602501414439
 30
0.0
 11
0.0
 21
-0.509358347477562
 31
0.0
210
0.0
220
0.0
230
-1.0
 40
0.9816271834485146
 41
4.71238898038469
 42
6.283185307179586
  0
ARC
  5
A7
330
1F
100
AcDbEntity
  8
0
  6
CONTINUOUS
 62
     7
100
AcDbCircle
 10
-525.3259669705615
 20
34.37989065002228
 30
0.0
 40
0.4999999999997229
210
0.0
220
0.0
230
-1.0
100
AcDbArc
 50
97.5946433685915
 51
178.4999999999973
  0
LINE
  5
A8
330
1F
100
AcDbEntity
  8
0
  6
CONTINUOUS
 62
   253
100
AcDbLine
 10
579.8333333333331
 20
17.54585804494641
 30
0.0
 11
574.8333333333333
 21
17.54585804494641
 31
0.0
  0
ARC
  5
A9
330
1F
100
AcDbEntity
  8
0
  6
CONTINUOUS
 62
     7
100
AcDbCircle
 10
592.8333333333331
 20
-0.0833333333333797
 30
0.0
 40
4.000000000000004
100
AcDbArc
 50
270.0
 51
0.0
  0
LINE
  5
AA
330
1F
100
AcDbEntity
  8
0
  6
CONTINUOUS
 62
     7
100
AcDbLine
 10
680.2544248650138
 20
75.16666666666666
 30
0.0
 11
680.2544248650138
 21
93.66666666666657
 31
0.0
  0
ARC
  5
AB
330
1F
100
AcDbEntity
  8
0
  6
CONTINUOUS
 62
     7
100
AcDbCircle
 10
-695.754424865014
 20
86.16666666666656
 30
0.0
 40
0.4999999999999449
210
0.0
220
0.0
230
-1.0
100
AcDbArc
 50
90.0
 51
180.0
  0
ELLIPSE
  5
AC
330
1F
100
AcDbEntity
  8
0
  6
CONTINUOUS
 62
   253
100
AcDbEllipse
 10
592.8333333333331
 20
33.64557513498606
 30
0.0
 11
3.999999539157306
 21
0.6000062136324313
 31
0.0
210
0.0
220
0.0
230
1.0
 40
0.0032001151927014
 41
6.28270528491106
 42
6.871598111303428
  0
ELLIPSE
  5
AD
330
1F
100
AcDbEntity
  8
0
  6
CONTINUOUS
 62
     7
100
AcDbEllipse
 10
688.8481777377638
 20
133.9340996368539
 30
0.0
 11
-0.007667829213797716
 21
-0.8786461990114568
 31
0.0
210
0.0
220
0.0
230
-1.0
 40
0.9930877441237494
 41
3.703197132792472
 42
5.817852537276121
  0
ARC
  5
AE
330
1F
100
AcDbEntity
  8
0
  6
CONTINUOUS
 62
     7
100
AcDbCircle
 10
688.5265480648906
 20
133.9755586251218
 30
0.0
 40
1.969397044263799
100
AcDbArc
 50
9.511328789368934
 51
59.17749918540774
  0
ARC
  5
AF
330
1F
100
AcDbEntity
  8
0
  6
CONTINUOUS
 62
     7
100
AcDbCircle
 10
688.1126447928256
 20
133.9596713683891
 30
0.0
 40
2.001739650666634
100
AcDbArc
 50
121.4584623792514
 51
220.2511387686646
  0
LINE
  5
B0
330
1F
100
AcDbEntity
  8
0
  6
CONTINUOUS
 62
     7
100
AcDbLine
 10
680.2544248650138
 20
94.66666666666673
 30
0.0
 11
680.2544248650138
 21
93.66666666666667
 31
0.0
  0
LWPOLYLINE
  5
B1
330
1F
100
AcDbEntity
  8
0
  6
CONTINUOUS
 62
     7
100
AcDbPolyline
 90
        4
 70
     0
 43
0.0
 10
-592.3036274622506
 20
135.4456373296405
 10
-592.4454650051887
 20
135.3495750187654
 10
-592.5270952258144
 20
135.2045630207218
 42
0.057244381966321
 10
-592.9980124713887
 20
132.4472228927921
210
0.0
220
0.0
230
-1.0
  0
ELLIPSE
  5
B2
330
1F
100
AcDbEntity
  8
0
  6
CONTINUOUS
 62
     7
100
AcDbEllipse
 10
695.754424865014
 20
236.1573083191891
 30
0.0
 11
0.0
 21
0.509358347477562
 31
0.0
210
0.0
220
0.0
230
-1.0
 40
0.9816271834476428
 41
0.0
 42
1.570796326794897
  0
ARC
  5
B3
330
1F
100
AcDbEntity
  8
0
  6
CONTINUOUS
 62
     7
100
AcDbCircle
 10
-684.7544248650139
 20
232.1666666666666
 30
0.0
 40
0.4999999999999449
210
0.0
220
0.0
230
-1.0
100
AcDbArc
 50
270.0
 51
0.0
  0
ARC
  5
B4
330
1F
100
AcDbEntity
  8
0
  6
CONTINUOUS
 62
     7
100
AcDbCircle
 10
684.7544248650139
 20
134.1666666666666
 30
0.0
 40
1.499999999999835
100
AcDbArc
 50
89.99999999999955
 51
270.0
  0
ARC
  5
B5
330
1F
100
AcDbEntity
  8
0
  6
CONTINUOUS
 62
     7
100
AcDbCircle
 10
699.7544248650138
 20
224.6666666666667
 30
0.0
 40
0.500000000000167
100
AcDbArc
 50
270.0000000000004
 51
0.0
  0
ARC
  5
B6
330
1F
100
AcDbEntity
  8
0
  6
CONTINUOUS
 62
     7
100
AcDbCircle
 10
-695.754424865014
 20
177.1666666666667
 30
0.0
 40
1.500000000000279
210
0.0
220
0.0
230
-1.0
100
AcDbArc
 50
90.00000000000054
 51
269.9999999999991
  0
LINE
  5
B7
330
1F
100
AcDbEntity
  8
0
  6
CONTINUOUS
 62
     7
100
AcDbLine
 10
589.0663038914563
 20
134.4489757749915
 30
0.0
 11
589.0651702118093
 21
134.4876129167402
 31
0.0
  0
LINE
  5
B8
330
1F
100
AcDbEntity
  8
0
  6
CONTINUOUS
 62
     7
100
AcDbLine
 10
684.254424865014
 20
82.17602501414439
 30
0.0
 11
684.254424865014
 21
86.16666666666667
 31
0.0
  0
LINE
  5
B9
330
1F
100
AcDbEntity
  8
0
  6
CONTINUOUS
 62
     7
100
AcDbLine
 10
684.7544248650139
 20
86.66666666666673
 30
0.0
 11
695.7544248650138
 21
86.66666666666673
 31
0.0
  0
ARC
  5
BA
330
1F
100
AcDbEntity
  8
0
  6
CONTINUOUS
 62
     7
100
AcDbCircle
 10
699.2544248650141
 20
75.16666666666666
 30
0.0
 40
0.9999999999998899
100
AcDbArc
 50
270.0
 51
0.0
  0
LINE
  5
BB
330
1F
100
AcDbEntity
  8
0
  6
CONTINUOUS
 62
     7
100
AcDbLine
 10
695.754424865014
 20
175.6666666666667
 30
0.0
 11
684.7544248650141
 21
175.6666666666667
 31
0.0
  0
ARC
  5
BC
330
1F
100
AcDbEntity
  8
0
  6
CONTINUOUS
 62
     7
100
AcDbCircle
 10
531.72996081702
 20
-0.0833333333333797
 30
0.0
 40
4.000000000000004
100
AcDbArc
 50
181.5
 51
270.0
  0
LINE
  5
BD
330
1F
100
AcDbEntity
  8
0
  6
CONTINUOUS
 62
     7
100
AcDbLine
 10
526.7313315171176
 20
-0.1880411265647863
 30
0.0
 11
525.8257956330492
 21
34.39297912417628
 31
0.0
  0
ELLIPSE
  5
BE
330
1F
100
AcDbEntity
  8
0
  6
CONTINUOUS
 62
     7
100
AcDbEllipse
 10
684.7544248650139
 20
82.17602501414439
 30
0.0
 11
0.0
 21
-0.509358347477562
 31
0.0
210
0.0
220
0.0
230
-1.0
 40
0.9816271834476428
 41
0.0
 42
1.570796326794897
  0
ARC
  5
BF
330
1F
100
AcDbEntity
  8
0
  6
CONTINUOUS
 62
     7
100
AcDbCircle
 10
688.2726762036859
 20
183.9590508963574
 30
0.0
 40
1.997923695589154
100
AcDbArc
 50
121.2452660726158
 51
220.3200358643045
  0
ARC
  5
C0
330
1F
100
AcDbEntity
  8
0
  6
CONTINUOUS
 62
     7
100
AcDbCircle
 10
-530.7299608170201
 20
-0.0833333333332686
 30
0.0
 40
4.000000000000226
210
0.0
220
0.0
230
-1.0
100
AcDbArc
 50
270.0000000000001
 51
358.0000507695698
  0
LINE
  5
C1
330
1F
100
AcDbEntity
  8
0
  6
CONTINUOUS
 62
     7
100
AcDbLine
 10
680.7544248650137
 20
94.16666666666679
 30
0.0
 11
699.7544248650138
 21
94.16666666666679
 31
0.0
  0
LINE
  5
C2
330
1F
100
AcDbEntity
  8
0
  6
CONTINUOUS
 62
   253
100
AcDbLine
 10
679.859877219922
 20
213.1666666666669
 30
0.0
 11
679.0833333333334
 21
213.1666666666669
 31
0.0
  0
LINE
  5
C3
330
1F
100
AcDbEntity
  8
0
  6
CONTINUOUS
 62
     7
100
AcDbLine
 10
718.5833333333334
 20
209.77003918298
 30
0.0
 11
718.5833333333334
 21
108.5632941503534
 31
0.0
  0
ARC
  5
C4
330
1F
100
AcDbEntity
  8
0
  6
CONTINUOUS
 62
     7
100
AcDbCircle
 10
699.2544248650141
 20
243.1666666666666
 30
0.0
 40
0.9999999999998899
100
AcDbArc
 50
0.0
 51
90.0
  0
ELLIPSE
  5
C5
330
1F
100
AcDbEntity
  8
0
  6
CONTINUOUS
 62
     7
100
AcDbEllipse
 10
597.989792267189
 20
133.9397718184108
 30
0.0
 11
-0.009268263756245785
 21
-8.98609559816088
 31
0.0
210
0.0
220
0.0
230
-1.0
 40
0.9930882723405791
 41
1.715973629850815
 42
1.802510168026853
  0
LINE
  5
C6
330
1F
100
AcDbEntity
  8
0
  6
CONTINUOUS
 62
     7
100
AcDbLine
 10
681.2544248650139
 20
74.16666666666654
 30
0.0
 11
699.2544248650139
 21
74.16666666666654
 31
0.0
  0
ARC
  5
C7
330
1F
100
AcDbEntity
  8
0
  6
CONTINUOUS
 62
     7
100
AcDbCircle
 10
688.6092739031568
 20
133.9557254424974
 30
0.0
 40
2.001547316495822
100
AcDbArc
 50
121.2434084283232
 51
220.1017657775106
  0
LINE
  5
C8
330
1F
100
AcDbEntity
  8
0
  6
CONTINUOUS
 62
   253
100
AcDbLine
 10
584.833333333333
 20
17.54585804494641
 30
0.0
 11
579.8333333333331
 21
17.54585804494641
 31
0.0
  0
LINE
  5
C9
330
1F
100
AcDbEntity
  8
0
  6
CONTINUOUS
 62
     7
100
AcDbLine
 10
687.1433607519853
 20
134.0868211690812
 30
0.0
 11
687.3749249778981
 21
134.7708124200118
 31
0.0
  0
LINE
  5
CA
330
1F
100
AcDbEntity
  8
0
  6
CONTINUOUS
 62
     7
100
AcDbLine
 10
592.0814201303086
 20
132.285094515968
 30
0.0
 11
592.1541271370502
 21
132.5538501758174
 31
0.0
  0
LINE
  5
CB
330
1F
100
AcDbEntity
  8
0
  6
CONTINUOUS
 62
     7
100
AcDbLine
 10
700.254424865014
 20
223.6666666666667
 30
0.0
 11
700.254424865014
 21
224.6666666666668
 31
0.0
  0
ARC
  5
CC
330
1F
100
AcDbEntity
  8
0
  6
CONTINUOUS
 62
     7
100
AcDbCircle
 10
582.5402731790141
 20
131.905946775536
 30
0.0
 40
11.04654293477303
100
AcDbArc
 50
2.793550034065537
 51
17.85753604484593
  0
LINE
  5
CD
330
1F
100
AcDbEntity
  8
0
  6
CONTINUOUS
 62
     7
100
AcDbLine
 10
679.0833333333333
 20
105.1666666666669
 30
0.0
 11
679.0833333333333
 21
213.1666666666667
 31
0.0
  0
LINE
  5
CE
330
1F
100
AcDbEntity
  8
0
  6
CONTINUOUS
 62
     7
100
AcDbLine
 10
684.254424865014
 20
236.1573083191891
 30
0.0
 11
684.254424865014
 21
232.1666666666666
 31
0.0
  0
ARC
  5
CF
330
1F
100
AcDbEntity
  8
0
  6
CONTINUOUS
 62
     7
100
AcDbCircle
 10
-688.7700916786479
 20
183.8679466276043
 30
0.0
 40
1.335146100839513
210
0.0
220
0.0
230
-1.0
100
AcDbArc
 50
164.0519657058099
 51
244.1326881672098
  0
ARC
  5
D0
330
1F
100
AcDbEntity
  8
0
  6
CONTINUOUS
 62
     7
100
AcDbCircle
 10
-592.5904356914929
 20
135.7652095758401
 30
0.0
 40
0.1796297371727817
210
0.0
220
0.0
230
-1.0
100
AcDbArc
 50
8.796405084849141
 51
171.2843640779151
  0
LINE
  5
D1
330
1F
100
AcDbEntity
  8
0
  6
CONTINUOUS
 62
     7
100
AcDbLine
 10
696.254424865014
 20
86.16666666666656
 30
0.0
 11
696.254424865014
 21
82.17602501414429
 31
0.0
  0
LINE
  5
D2
330
1F
100
AcDbEntity
  8
0
  6
CONTINUOUS
 62
     7
100
AcDbLine
 10
714.6880411265646
 20
104.5646648504511
 30
0.0
 11
700.2544248650138
 21
104.1867073070664
 31
0.0
  0
ELLIPSE
  5
D3
330
1F
100
AcDbEntity
  8
0
  6
CONTINUOUS
 62
     7
100
AcDbEllipse
 10
697.2530525190161
 20
129.6652943206687
 30
0.0
 11
0.7090462434351519
 21
0.7090462434350409
 31
0.0
210
0.0
220
0.0
230
-1.0
 40
0.997264688634075
 41
5.499156671652532
 42
7.067213942706634
  0
LINE
  5
D4
330
1F
100
AcDbEntity
  8
0
  6
CONTINUOUS
 62
   253
100
AcDbLine
 10
679.0833333333333
 20
105.1666666666669
 30
0.0
 11
677.0833333333333
 21
105.1666666666669
 31
0.0
  0
ARC
  5
D5
330
1F
100
AcDbEntity
  8
0
  6
CONTINUOUS
 62
     7
100
AcDbCircle
 10
688.2726762036859
 20
133.9590508963574
 30
0.0
 40
1.997923695589154
100
AcDbArc
 50
121.2452660726158
 51
220.3200358643045
  0
LINE
  5
D6
330
1F
100
AcDbEntity
  8
0
  6
CONTINUOUS
 62
   253
100
AcDbLine
 10
680.7544248650137
 20
94.66666666666673
 30
0.0
 11
680.2544248650138
 21
94.66666666666673
 31
0.0
  0
LINE
  5
D7
330
1F
100
AcDbEntity
  8
0
  6
CONTINUOUS
 62
     7
100
AcDbLine
 10
684.7544248650139
 20
178.6666666666668
 30
0.0
 11
695.7544248650138
 21
178.6666666666668
 31
0.0
  0
LINE
  5
D8
330
1F
100
AcDbEntity
  8
0
  6
CONTINUOUS
 62
     7
100
AcDbLine
 10
700.254424865014
 20
93.66666666666661
 30
0.0
 11
700.254424865014
 21
75.1666666666667
 31
0.0
  0
ARC
  5
D9
330
1F
100
AcDbEntity
  8
0
  6
CONTINUOUS
 62
     7
100
AcDbCircle
 10
-695.754424865014
 20
232.1666666666666
 30
0.0
 40
0.4999999999999449
210
0.0
220
0.0
230
-1.0
100
AcDbArc
 50
180.0
 51
270.0
  0
ARC
  5
DA
330
1F
100
AcDbEntity
  8
0
  6
CONTINUOUS
 62
     7
100
AcDbCircle
 10
681.2544248650139
 20
75.16666666666666
 30
0.0
 40
0.9999999999998899
100
AcDbArc
 50
180.0000000000008
 51
270.0
  0
LINE
  5
DB
330
1F
100
AcDbEntity
  8
0
  6
CONTINUOUS
 62
   253
100
AcDbLine
 10
596.1595579650048
 20
34.15177870080605
 30
0.0
 11
594.6111111111112
 21
34.12815795889025
 31
0.0
  0
ELLIPSE
  5
DC
330
1F
100
AcDbEntity
  8
0
  6
CONTINUOUS
 62
   253
100
AcDbEllipse
 10
530.7299608170201
 20
-3.083333333333382
 30
0.0
 11
0.0
 21
-1.000000000000001
 31
0.0
210
0.0
220
0.0
230
-1.0
 40
0.4364563188654632
 41
0.0
 42
0.6522284551837252
  0
LINE
  5
DD
330
1F
100
AcDbEntity
  8
0
  6
CONTINUOUS
 62
   253
100
AcDbLine
 10
579.8333333333331
 20
12.54928420805995
 30
0.0
 11
579.8333333333331
 21
17.54585804494639
 31
0.0
  0
ARC
  5
DE
330
1F
100
AcDbEntity
  8
0
  6
CONTINUOUS
 62
     7
100
AcDbCircle
 10
688.1126447928256
 20
183.959671368389
 30
0.0
 40
2.001739650666634
100
AcDbArc
 50
121.458462379251
 51
220.2511387686654
  0
ARC
  5
DF
330
1F
100
AcDbEntity
  8
0
  6
CONTINUOUS
 62
     7
100
AcDbCircle
 10
688.6092739031568
 20
183.9557254424973
 30
0.0
 40
2.001547316495822
100
AcDbArc
 50
121.2434084283232
 51
220.1017657775106
  0
ARC
  5
E0
330
1F
100
AcDbEntity
  8
0
  6
CONTINUOUS
 62
     7
100
AcDbCircle
 10
-714.5833333333331
 20
108.5632941503534
 30
0.0
 40
4.000000000000004
210
0.0
220
0.0
230
-1.0
100
AcDbArc
 50
180.0
 51
268.5000000000001
  0
LINE
  5
E1
330
1F
100
AcDbEntity
  8
0
  6
CONTINUOUS
 62
     7
100
AcDbLine
 10
700.254424865014
 20
243.1666666666666
 30
0.0
 11
700.254424865014
 21
224.6666666666667
 31
0.0
  0
LINE
  5
E2
330
1F
100
AcDbEntity
  8
0
  6
CONTINUOUS
 62
     7
100
AcDbLine
 10
687.1433607519853
 20
184.086821169081
 30
0.0
 11
687.374924977898
 21
184.7708124200117
 31
0.0
  0
LINE
  5
E3
330
1F
100
AcDbEntity
  8
0
  6
CONTINUOUS
 62
     7
100
AcDbLine
 10
596.8333333333331
 20
15.24557513498598
 30
0.0
 11
596.8333333333331
 21
-0.0833333333333588
 31
0.0
  0
ARC
  5
E4
330
1F
100
AcDbEntity
  8
0
  6
CONTINUOUS
 62
     7
100
AcDbCircle
 10
-684.7544248650139
 20
86.16666666666656
 30
0.0
 40
0.4999999999999449
210
0.0
220
0.0
230
-1.0
100
AcDbArc
 50
0.0
 51
90.0
  0
ARC
  5
E5
330
1F
100
AcDbEntity
  8
0
  6
CONTINUOUS
 62
     7
100
AcDbCircle
 10
680.7544248650137
 20
93.66666666666661
 30
0.0
 40
0.500000000000167
100
AcDbArc
 50
90.0
 51
180.0
  0
LINE
  5
E6
330
1F
100
AcDbEntity
  8
0
  6
CONTINUOUS
 62
     7
100
AcDbLine
 10
679.0833333333333
 20
95.16666666666679
 30
0.0
 11
679.0833333333333
 21
105.1666666666669
 31
0.0
  0
LINE
  5
E7
330
1F
100
AcDbEntity
  8
0
  6
CONTINUOUS
 62
     7
100
AcDbLine
 10
596.8333333333331
 20
34.24557513498599
 30
0.0
 11
596.8333333333331
 21
33.24557513498594
 31
0.0
  0
ARC
  5
E8
330
1F
100
AcDbEntity
  8
0
  6
CONTINUOUS
 62
     7
100
AcDbCircle
 10
688.5265480648906
 20
183.9755586251219
 30
0.0
 40
1.969397044263799
100
AcDbArc
 50
9.511328789368934
 51
59.17749918540774
  0
ELLIPSE
  5
E9
330
1F
100
AcDbEntity
  8
0
  6
CONTINUOUS
 62
   253
100
AcDbEllipse
 10
688.6254303199744
 20
133.9360435241198
 30
0.0
 11
-0.01308980324776776
 21
-1.499942884596317
 31
0.0
210
0.0
220
0.0
230
-1.0
 40
0.9930877441236684
 41
1.662818527870121
 42
2.084439767150427
  0
LINE
  5
EA
330
1F
100
AcDbEntity
  8
0
  6
CONTINUOUS
 62
     7
100
AcDbLine
 10
679.0833333333333
 20
223.1666666666668
 30
0.0
 11
677.0833333333333
 21
223.1666666666668
 31
0.0
  0
LINE
  5
EB
330
1F
100
AcDbEntity
  8
0
  6
CONTINUOUS
 62
     7
100
AcDbLine
 10
680.2544248650138
 20
224.6666666666667
 30
0.0
 11
680.2544248650138
 21
223.6666666666667
 31
0.0
  0
ARC
  5
EC
330
1F
100
AcDbEntity
  8
0
  6
CONTINUOUS
 62
     7
100
AcDbCircle
 10
680.7544248650137
 20
95.66666666666673
 30
0.0
 40
0.4999999999999449
100
AcDbArc
 50
180.0
 51
270.0
  0
LINE
  5
ED
330
1F
100
AcDbEntity
  8
0
  6
CONTINUOUS
 62
   253
100
AcDbLine
 10
680.2544248650138
 20
223.6666666666667
 30
0.0
 11
680.7544248650137
 21
223.6666666666667
 31
0.0
  0
ELLIPSE
  5
EE
330
1F
100
AcDbEntity
  8
0
  6
CONTINUOUS
 62
     7
100
AcDbEllipse
 10
589.3629912529008
 20
133.9486695055431
 30
0.0
 11
0.002190002933888382
 21
2.123329270825036
 31
0.0
210
0.0
220
0.0
230
-1.0
 40
0.1173698570315308
 41
1.333084792600857
 42
1.808507860988878
  0
LINE
  5
EF
330
1F
100
AcDbEntity
  8
0
  6
CONTINUOUS
 62
     7
100
AcDbLine
 10
589.0651702118095
 20
134.4876129167402
 30
0.0
 11
589.1610248471237
 21
135.2488785052625
 31
0.0
  0
ELLIPSE
  5
F0
330
1F
100
AcDbEntity
  8
0
  6
CONTINUOUS
 62
   253
100
AcDbEllipse
 10
589.4518176836553
 20
183.9485778899155
 30
0.0
 11
-0.002540069825585078
 21
-2.462738531947561
 31
0.0
210
0.0
220
0.0
230
1.0
 40
0.1173698570313429
 41
5.853936896028719
 42
9.424777960769346
  0
LINE
  5
F1
330
1F
100
AcDbEntity
  8
0
  6
CONTINUOUS
 62
     7
100
AcDbLine
 10
684.7544248650139
 20
185.6666666666668
 30
0.0
 11
695.7544248650138
 21
185.6666666666668
 31
0.0
  0
LINE
  5
F2
330
1F
100
AcDbEntity
  8
0
  6
CONTINUOUS
 62
     7
100
AcDbLine
 10
589.0651702118095
 20
184.4876129167401
 30
0.0
 11
589.1610248471237
 21
185.2488785052624
 31
0.0
  0
ARC
  5
F3
330
1F
100
AcDbEntity
  8
0
  6
CONTINUOUS
 62
     7
100
AcDbCircle
 10
-592.5904356914929
 20
185.76520957584
 30
0.0
 40
0.1796297371727817
210
0.0
220
0.0
230
-1.0
100
AcDbArc
 50
8.79640508483608
 51
171.2843640779282
  0
LINE
  5
F4
330
1F
100
AcDbEntity
  8
0
  6
CONTINUOUS
 62
     7
100
AcDbLine
 10
589.3714653574249
 20
184.4486610312941
 30
0.0
 11
589.0663038914563
 21
184.4489757749916
 31
0.0
  0
LINE
  5
F5
330
1F
100
AcDbEntity
  8
0
  6
CONTINUOUS
 62
   253
100
AcDbLine
 10
700.254424865014
 20
223.6666666666667
 30
0.0
 11
699.754424865014
 21
223.6666666666667
 31
0.0
  0
LINE
  5
F6
330
1F
100
AcDbEntity
  8
0
  6
CONTINUOUS
 62
     7
100
AcDbLine
 10
696.254424865014
 20
232.1666666666666
 30
0.0
 11
696.254424865014
 21
236.1573083191891
 31
0.0
  0
LINE
  5
F7
330
1F
100
AcDbEntity
  8
0
  6
CONTINUOUS
 62
     7
100
AcDbLine
 10
677.0833333333333
 20
95.16666666666679
 30
0.0
 11
677.0833333333333
 21
105.1666666666669
 31
0.0
  0
ELLIPSE
  5
F8
330
1F
100
AcDbEntity
  8
0
  6
CONTINUOUS
 62
     7
100
AcDbEllipse
 10
589.3629912529008
 20
133.9486695055431
 30
0.0
 11
0.002190002933888382
 21
2.123329270825036
 31
0.0
210
0.0
220
0.0
230
-1.0
 40
0.1173698570315308
 41
2.903881119395777
 42
3.082632768808313
  0
ELLIPSE
  5
F9
330
1F
100
AcDbEntity
  8
0
  6
CONTINUOUS
 62
   253
100
AcDbEllipse
 10
589.4518176836553
 20
133.9485778899155
 30
0.0
 11
-0.002540069825585078
 21
-2.46273853194745
 31
0.0
210
0.0
220
0.0
230
1.0
 40
0.1173698570313481
 41
3.141592653589781
 42
3.571017413899759
  0
ARC
  5
FA
330
1F
100
AcDbEntity
  8
0
  6
CONTINUOUS
 62
     7
100
AcDbCircle
 10
-695.754424865014
 20
184.1666666666669
 30
0.0
 40
1.500000000000279
210
0.0
220
0.0
230
-1.0
100
AcDbArc
 50
90.00000000000054
 51
269.9999999999991
  0
LINE
  5
FB
330
1F
100
AcDbEntity
  8
0
  6
CONTINUOUS
 62
   253
100
AcDbLine
 10
679.7588109146726
 20
210.6689732876871
 30
0.0
 11
680.2544248650138
 21
210.6689732876871
 31
0.0
  0
LINE
  5
FC
330
1F
100
AcDbEntity
  8
0
  6
CONTINUOUS
 62
     7
100
AcDbLine
 10
684.7544248650139
 20
231.6666666666665
 30
0.0
 11
695.7544248650138
 21
231.6666666666665
 31
0.0
  0
LINE
  5
FD
330
1F
100
AcDbEntity
  8
0
  6
CONTINUOUS
 62
     7
100
AcDbLine
 10
677.0833333333333
 20
95.16666666666679
 30
0.0
 11
679.0833333333333
 21
95.16666666666679
 31
0.0
  0
LINE
  5
FE
330
1F
100
AcDbEntity
  8
0
  6
CONTINUOUS
 62
     7
100
AcDbLine
 10
695.754424865014
 20
182.6666666666668
 30
0.0
 11
684.7544248650141
 21
182.6666666666668
 31
0.0
  0
LINE
  5
FF
330
1F
100
AcDbEntity
  8
0
  6
CONTINUOUS
 62
   253
100
AcDbLine
 10
680.2544248650138
 20
107.6643600456462
 30
0.0
 11
679.7588109146724
 21
107.6643600456462
 31
0.0
  0
ELLIPSE
  5
100
330
1F
100
AcDbEntity
  8
0
  6
CONTINUOUS
 62
   253
100
AcDbEllipse
 10
680.8544248650139
 20
210.6532617347456
 30
0.0
 11
-0.01579917580896149
 21
4.001744046029372
 31
0.0
210
0.0
220
0.0
230
1.0
 40
0.1499183192919917
 41
1.52265692378769
 42
1.566278252686767
  0
LINE
  5
101
330
1F
100
AcDbEntity
  8
0
  6
CONTINUOUS
 62
     7
100
AcDbLine
 10
700.254424865014
 20
222.6666666666666
 30
0.0
 11
700.254424865014
 21
223.6666666666667
 31
0.0
  0
ELLIPSE
  5
102
330
1F
100
AcDbEntity
  8
0
  6
CONTINUOUS
 62
     7
100
AcDbEllipse
 10
598.1071620617923
 20
133.9396507631426
 30
0.0
 11
0.00926826375646783
 21
8.98609559816088
 31
0.0
210
0.0
220
0.0
230
1.0
 40
0.993088272340604
 41
1.339082485562936
 42
1.425619023738976
  0
ARC
  5
103
330
1F
100
AcDbEntity
  8
0
  6
CONTINUOUS
 62
     7
100
AcDbCircle
 10
680.7544248650137
 20
224.6666666666667
 30
0.0
 40
0.4999999999999449
100
AcDbArc
 50
180.0
 51
270.0
  0
LINE
  5
104
330
1F
100
AcDbEntity
  8
0
  6
CONTINUOUS
 62
     7
100
AcDbLine
 10
680.2544248650138
 20
223.6666666666667
 30
0.0
 11
680.2544248650138
 21
222.6666666666666
 31
0.0
  0
LINE
  5
105
330
1F
100
AcDbEntity
  8
0
  6
CONTINUOUS
 62
   253
100
AcDbLine
 10
679.0833333333333
 20
213.1666666666669
 30
0.0
 11
677.0833333333333
 21
213.1666666666669
 31
0.0
  0
ARC
  5
106
330
1F
100
AcDbEntity
  8
0
  6
CONTINUOUS
 62
     7
100
AcDbCircle
 10
-684.7544248650139
 20
184.1666666666669
 30
0.0
 40
1.499999999999835
210
0.0
220
0.0
230
-1.0
100
AcDbArc
 50
269.9999999999995
 51
90.00000000000011
  0
LINE
  5
107
330
1F
100
AcDbEntity
  8
0
  6
CONTINUOUS
 62
     7
100
AcDbLine
 10
700.254424865014
 20
93.66666666666661
 30
0.0
 11
700.254424865014
 21
94.66666666666667
 31
0.0
  0
ELLIPSE
  5
108
330
1F
100
AcDbEntity
  8
0
  6
CONTINUOUS
 62
   253
100
AcDbEllipse
 10
680.3835667802387
 20
214.6981023024808
 30
0.0
 11
-0.495613950341145
 21
-0.06608186004541938
 31
0.0
210
0.0
220
0.0
230
-1.0
 40
0.8935478212318336
 41
5.092687020049718
 42
6.283185307179586
  0
ARC
  5
109
330
1F
100
AcDbEntity
  8
0
  6
CONTINUOUS
 62
     7
100
AcDbCircle
 10
681.2544248650139
 20
243.1666666666666
 30
0.0
 40
1.000000000000334
100
AcDbArc
 50
90.0
 51
180.0
  0
ELLIPSE
  5
10A
330
1F
100
AcDbEntity
  8
0
  6
CONTINUOUS
 62
   253
100
AcDbEllipse
 10
680.3588109146725
 20
210.6532617347456
 30
0.0
 11
-0.0021320187575391
 21
4.501569975856712
 31
0.0
210
0.0
220
0.0
230
-1.0
 40
0.1332859902847069
 41
4.715942352458494
 42
5.304835178850931
  0
ELLIPSE
  5
10B
330
1F
100
AcDbEntity
  8
0
  6
CONTINUOUS
 62
     7
100
AcDbEllipse
 10
684.7544248650139
 20
236.1573083191891
 30
0.0
 11
0.0
 21
0.509358347477562
 31
0.0
210
0.0
220
0.0
230
-1.0
 40
0.9816271834476428
 41
4.71238898038469
 42
6.283185307179586
  0
ELLIPSE
  5
10C
330
1F
100
AcDbEntity
  8
0
  6
CONTINUOUS
 62
     7
100
AcDbEllipse
 10
589.3629912529008
 20
133.9486695055431
 30
0.0
 11
0.002190002933888382
 21
2.123329270825036
 31
0.0
210
0.0
220
0.0
230
-1.0
 40
0.1173698570315308
 41
4.474677446190668
 42
4.950100514578708
  0
ELLIPSE
  5
10D
330
1F
100
AcDbEntity
  8
0
  6
CONTINUOUS
 62
   253
100
AcDbEllipse
 10
680.3554911702631
 20
105.1666666666669
 30
0.0
 11
0.4980209585121464
 21
0.04444237710421463
 31
0.0
210
0.0
220
0.0
230
-1.0
 40
0.5546823329424656
 41
3.301107012618364
 42
4.557745527351948
  0
LINE
  5
10E
330
1F
100
AcDbEntity
  8
0
  6
CONTINUOUS
 62
     7
100
AcDbLine
 10
680.2544248650138
 20
224.6666666666667
 30
0.0
 11
680.2544248650138
 21
243.1666666666666
 31
0.0
  0
LINE
  5
10F
330
1F
100
AcDbEntity
  8
0
  6
CONTINUOUS
 62
     7
100
AcDbLine
 10
695.754424865014
 20
236.6666666666666
 30
0.0
 11
684.7544248650141
 21
236.6666666666666
 31
0.0
  0
LINE
  5
110
330
1F
100
AcDbEntity
  8
0
  6
CONTINUOUS
 62
   253
100
AcDbLine
 10
680.7544248650137
 20
94.66666666666673
 30
0.0
 11
699.7544248650138
 21
94.66666666666673
 31
0.0
  0
LINE
  5
111
330
1F
100
AcDbEntity
  8
0
  6
CONTINUOUS
 62
     7
100
AcDbLine
 10
589.3714653574249
 20
134.4486610312939
 30
0.0
 11
589.0663038914563
 21
134.4489757749914
 31
0.0
  0
ELLIPSE
  5
112
330
1F
100
AcDbEntity
  8
0
  6
CONTINUOUS
 62
     7
100
AcDbEllipse
 10
589.3629912529008
 20
133.9486695055431
 30
0.0
 11
0.002190002933888382
 21
2.123329270825036
 31
0.0
210
0.0
220
0.0
230
-1.0
 40
0.1173698570315308
 41
6.045473772985591
 42
6.342145191961037
  0
ELLIPSE
  5
113
330
1F
100
AcDbEntity
  8
0
  6
CONTINUOUS
 62
     7
100
AcDbEllipse
 10
597.989792267189
 20
183.9397718184109
 30
0.0
 11
-0.009268263756245785
 21
-8.98609559816088
 31
0.0
210
0.0
220
0.0
230
-1.0
 40
0.9930882723405791
 41
1.715973629850815
 42
1.802510168026849
  0
LINE
  5
114
330
1F
100
AcDbEntity
  8
0
  6
CONTINUOUS
 62
     7
100
AcDbLine
 10
680.7544248650137
 20
224.1666666666666
 30
0.0
 11
699.7544248650138
 21
224.1666666666666
 31
0.0
  0
LINE
  5
115
330
1F
100
AcDbEntity
  8
0
  6
CONTINUOUS
 62
     7
100
AcDbLine
 10
700.254424865014
 20
94.66666666666673
 30
0.0
 11
700.254424865014
 21
95.66666666666683
 31
0.0
  0
LWPOLYLINE
  5
116
330
1F
100
AcDbEntity
  8
0
  6
CONTINUOUS
 62
     7
100
AcDbPolyline
 90
        4
 70
     0
 43
0.0
 10
-592.3036274622506
 20
185.4456373296405
 10
-592.4454650051887
 20
185.3495750187654
 10
-592.5270952258144
 20
185.2045630207217
 42
0.0572443819663217
 10
-592.9980124713886
 20
182.447222892792
210
0.0
220
0.0
230
-1.0
  0
LINE
  5
117
330
1F
100
AcDbEntity
  8
0
  6
CONTINUOUS
 62
   253
100
AcDbLine
 10
679.859877219922
 20
213.1666666666669
 30
0.0
 11
679.8879528298974
 21
214.6320204424354
 31
0.0
  0
LWPOLYLINE
  5
118
330
1F
100
AcDbEntity
  8
0
  6
CONTINUOUS
 62
     7
100
AcDbPolyline
 90
        4
 70
     0
 43
0.0
 10
589.3704339574441
 20
133.4486615631872
 10
589.2751037099529
 20
133.3209504384725
 10
589.2515454896424
 20
133.1714424652418
 42
0.0517516293481941
 10
589.275713001777
 20
132.6487588329162
  0
ELLIPSE
  5
119
330
1F
100
AcDbEntity
  8
0
  6
CONTINUOUS
 62
   253
100
AcDbEllipse
 10
589.4518176836553
 20
133.9485778899155
 30
0.0
 11
-0.002540069825585078
 21
-2.46273853194745
 31
0.0
210
0.0
220
0.0
230
1.0
 40
0.1173698570313481
 41
5.853936896028729
 42
9.424777960769346
  0
LINE
  5
11A
330
1F
100
AcDbEntity
  8
0
  6
CONTINUOUS
 62
     7
100
AcDbLine
 10
700.254424865014
 20
153.1666666666667
 30
0.0
 11
700.254424865014
 21
95.66666666666681
 31
0.0
  0
LINE
  5
11B
330
1F
100
AcDbEntity
  8
0
  6
CONTINUOUS
 62
   253
100
AcDbLine
 10
699.7544248650138
 20
223.6666666666667
 30
0.0
 11
680.7544248650137
 21
223.6666666666667
 31
0.0
  0
ELLIPSE
  5
11C
330
1F
100
AcDbEntity
  8
0
  6
CONTINUOUS
 62
     7
100
AcDbEllipse
 10
589.3629912529008
 20
183.9486695055433
 30
0.0
 11
0.002190002933888382
 21
2.123329270825147
 31
0.0
210
0.0
220
0.0
230
-1.0
 40
0.1173698570315247
 41
6.045473772985586
 42
6.34214519196104
  0
ARC
  5
11D
330
1F
100
AcDbEntity
  8
0
  6
CONTINUOUS
 62
     7
100
AcDbCircle
 10
-680.3208100878153
 20
215.1687774956585
 30
0.0
 40
0.500000000000389
210
0.0
220
0.0
230
-1.0
100
AcDbArc
 50
277.6297152546049
 51
352.4053566314069
  0
LINE
  5
11E
330
1F
100
AcDbEntity
  8
0
  6
CONTINUOUS
 62
   253
100
AcDbLine
 10
700.254424865014
 20
94.66666666666673
 30
0.0
 11
699.754424865014
 21
94.66666666666673
 31
0.0
  0
ARC
  5
11F
330
1F
100
AcDbEntity
  8
0
  6
CONTINUOUS
 62
     7
100
AcDbCircle
 10
-593.9908198741452
 20
185.7550998636545
 30
0.0
 40
0.1814866809730642
210
0.0
220
0.0
230
-1.0
100
AcDbArc
 50
11.17208656973899
 51
168.8789800671699
  0
LINE
  5
120
330
1F
100
AcDbEntity
  8
0
  6
CONTINUOUS
 62
   253
100
AcDbLine
 10
679.8879528298976
 20
103.7013128908981
 30
0.0
 11
679.8598772199222
 21
105.1666666666669
 31
0.0
  0
ELLIPSE
  5
121
330
1F
100
AcDbEntity
  8
0
  6
CONTINUOUS
 62
     7
100
AcDbEllipse
 10
591.6927156020986
 20
133.9462666266165
 30
0.0
 11
0.003609899932310868
 21
3.499998138374094
 31
0.0
210
0.0
220
0.0
230
-1.0
 40
0.1173698570315249
 41
0.0
 42
3.151932837038143
  0
ELLIPSE
  5
122
330
1F
100
AcDbEntity
  8
0
  6
CONTINUOUS
 62
   253
100
AcDbEllipse
 10
680.3588109146725
 20
107.6800715985878
 30
0.0
 11
-0.0021320187575391
 21
-4.501569975856712
 31
0.0
210
0.0
220
0.0
230
-1.0
 40
0.1332859902847069
 41
0.9783501283287035
 42
1.56724295472109
  0
LINE
  5
123
330
1F
100
AcDbEntity
  8
0
  6
CONTINUOUS
 62
     7
100
AcDbLine
 10
681.2544248650139
 20
244.1666666666666
 30
0.0
 11
699.2544248650139
 21
244.1666666666666
 31
0.0
  0
LINE
  5
124
330
1F
100
AcDbEntity
  8
0
  6
CONTINUOUS
 62
     7
100
AcDbLine
 10
679.0833333333333
 20
213.1666666666669
 30
0.0
 11
679.0833333333333
 21
223.1666666666668
 31
0.0
  0
ELLIPSE
  5
125
330
1F
100
AcDbEntity
  8
0
  6
CONTINUOUS
 62
     7
100
AcDbEllipse
 10
597.989792267189
 20
133.9397718184108
 30
0.0
 11
-0.009268263756245785
 21
-8.98609559816088
 31
0.0
210
0.0
220
0.0
230
-1.0
 40
0.9930882723405791
 41
1.33908248556294
 42
1.425619023738983
  0
LINE
  5
126
330
1F
100
AcDbEntity
  8
0
  6
CONTINUOUS
 62
     7
100
AcDbLine
 10
700.254424865014
 20
214.1466260262671
 30
0.0
 11
714.6880411265648
 21
213.7686684828823
 31
0.0
  0
LINE
  5
127
330
1F
100
AcDbEntity
  8
0
  6
CONTINUOUS
 62
     7
100
AcDbLine
 10
680.2544248650138
 20
95.66666666666673
 30
0.0
 11
680.2544248650138
 21
94.66666666666663
 31
0.0
  0
LINE
  5
128
330
1F
100
AcDbEntity
  8
0
  6
CONTINUOUS
 62
     7
100
AcDbLine
 10
589.0684051261785
 20
133.355449850465
 30
0.0
 11
589.0652724914755
 21
133.4489763068846
 31
0.0
  0
LINE
  5
129
330
1F
100
AcDbEntity
  8
0
  6
CONTINUOUS
 62
     7
100
AcDbLine
 10
677.0833333333333
 20
213.1666666666669
 30
0.0
 11
677.0833333333333
 21
223.1666666666668
 31
0.0
  0
ELLIPSE
  5
12A
330
1F
100
AcDbEntity
  8
0
  6
CONTINUOUS
 62
     7
100
AcDbEllipse
 10
589.3629912529008
 20
133.9486695055431
 30
0.0
 11
0.002190002933888382
 21
2.123329270825036
 31
0.0
210
0.0
220
0.0
230
-1.0
 40
0.1173698570315308
 41
3.082632768808256
 42
3.379304187783792
  0
LINE
  5
12B
330
1F
100
AcDbEntity
  8
0
  6
CONTINUOUS
 62
     7
100
AcDbLine
 10
677.0833333333333
 20
105.1666666666669
 30
0.0
 11
677.0833333333333
 21
213.1666666666669
 31
0.0
  0
ARC
  5
12C
330
1F
100
AcDbEntity
  8
0
  6
CONTINUOUS
 62
     7
100
AcDbCircle
 10
-581.0204671060761
 20
182.0606316226368
 30
0.0
 40
13.66712204462783
210
0.0
220
0.0
230
-1.0
100
AcDbArc
 50
164.1643300660992
 51
180.4915494958016
  0
LINE
  5
12D
330
1F
100
AcDbEntity
  8
0
  6
CONTINUOUS
 62
     7
100
AcDbLine
 10
589.3704339574441
 20
133.4486615631872
 30
0.0
 11
589.0652724914758
 21
133.4489763068846
 31
0.0
  0
LINE
  5
12E
330
1F
100
AcDbEntity
  8
0
  6
CONTINUOUS
 62
   253
100
AcDbLine
 10
603.6389530241956
 20
75.16666666666666
 30
0.0
 11
606.8333333333334
 21
75.16666666666666
 31
0.0
  0
ARC
  5
12F
330
1F
100
AcDbEntity
  8
0
  6
CONTINUOUS
 62
     7
100
AcDbCircle
 10
-593.9908198741452
 20
135.7550998636546
 30
0.0
 40
0.1814866809730642
210
0.0
220
0.0
230
-1.0
100
AcDbArc
 50
11.17208656972609
 51
168.8789800671829
  0
ARC
  5
130
330
1F
100
AcDbEntity
  8
0
  6
CONTINUOUS
 62
     7
100
AcDbCircle
 10
-680.3208100878153
 20
103.1645558376749
 30
0.0
 40
0.500000000000389
210
0.0
220
0.0
230
-1.0
100
AcDbArc
 50
7.594643368591494
 51
82.37028474539757
  0
ELLIPSE
  5
131
330
1F
100
AcDbEntity
  8
0
  6
CONTINUOUS
 62
   253
100
AcDbEllipse
 10
590.5810380965041
 20
133.947413211384
 30
0.0
 11
0.003508888600345373
 21
3.402062051577892
 31
0.0
210
0.0
220
0.0
230
-1.0
 40
0.1173698570314385
 41
6.272836418339401
 42
9.424777960769376
  0
ARC
  5
132
330
1F
100
AcDbEntity
  8
0
  6
CONTINUOUS
 62
     7
100
AcDbCircle
 10
597.8333333333334
 20
95.16666666666667
 30
0.0
 40
0.9999999999998899
100
AcDbArc
 50
180.0
 51
270.0
  0
LINE
  5
133
330
1F
100
AcDbEntity
  8
0
  6
CONTINUOUS
 62
     7
100
AcDbLine
 10
596.8333333333331
 20
222.9646256377995
 30
0.0
 11
596.8333333333331
 21
223.1666666666668
 31
0.0
  0
LWPOLYLINE
  5
134
330
1F
100
AcDbEntity
  8
0
  6
CONTINUOUS
 62
     7
100
AcDbPolyline
 90
        4
 70
     0
 43
0.0
 10
-593.7038459703588
 20
185.4441931435289
 10
-593.8402813392223
 20
185.3554018591233
 10
-593.9212520785642
 20
185.2163519260236
 42
0.0588129346745405
 10
-594.3982549184111
 20
182.4456639748166
210
0.0
220
0.0
230
-1.0
  0
LINE
  5
135
330
1F
100
AcDbEntity
  8
0
  6
CONTINUOUS
 62
     7
100
AcDbLine
 10
589.3704339574441
 20
183.4486615631871
 30
0.0
 11
589.0652724914758
 21
183.4489763068847
 31
0.0
  0
ELLIPSE
  5
136
330
1F
100
AcDbEntity
  8
0
  6
CONTINUOUS
 62
     7
100
AcDbEllipse
 10
592.0899506997481
 20
183.9458569181264
 30
0.0
 11
-0.001547099971022092
 21
-1.499999202160373
 31
0.0
210
0.0
220
0.0
230
1.0
 40
0.1173698570315212
 41
0.0
 42
0.3818955385941026
  0
LINE
  5
137
330
1F
100
AcDbEntity
  8
0
  6
CONTINUOUS
 62
     7
100
AcDbLine
 10
606.8333333333334
 20
75.16666666666666
 30
0.0
 11
606.8333333333334
 21
74.1666666666666
 31
0.0
  0
LINE
  5
138
330
1F
100
AcDbEntity
  8
0
  6
CONTINUOUS
 62
   253
100
AcDbLine
 10
606.8333333333334
 20
243.1666666666666
 30
0.0
 11
603.6389530241956
 21
243.1666666666666
 31
0.0
  0
ARC
  5
139
330
1F
100
AcDbEntity
  8
0
  6
CONTINUOUS
 62
     7
100
AcDbCircle
 10
-579.9210471650615
 20
182.1014150900014
 30
0.0
 40
13.36665828372063
210
0.0
220
0.0
230
-1.0
100
AcDbArc
 50
163.9702836610135
 51
180.6699808066423
  0
LINE
  5
13A
330
1F
100
AcDbEntity
  8
0
  6
CONTINUOUS
 62
     7
100
AcDbLine
 10
589.3714653574249
 20
134.4486610312939
 30
0.0
 11
589.6057137359473
 21
134.4484194273923
 31
0.0
  0
LINE
  5
13B
330
1F
100
AcDbEntity
  8
0
  6
CONTINUOUS
 62
   253
100
AcDbLine
 10
589.2757130017771
 20
132.6487588329162
 30
0.0
 11
589.1583432071741
 21
132.6488798881845
 31
0.0
  0
LINE
  5
13C
330
1F
100
AcDbEntity
  8
0
  6
CONTINUOUS
 62
     7
100
AcDbLine
 10
679.8879528298976
 20
214.6320204424354
 30
0.0
 11
679.0833333333335
 21
220.6666666666667
 31
0.0
  0
LINE
  5
13D
330
1F
100
AcDbEntity
  8
0
  6
CONTINUOUS
 62
   253
100
AcDbLine
 10
599.7513468414412
 20
223.1666666666668
 30
0.0
 11
597.8333333333334
 21
223.1666666666668
 31
0.0
  0
LINE
  5
13E
330
1F
100
AcDbEntity
  8
0
  6
CONTINUOUS
 62
   253
100
AcDbLine
 10
679.859877219922
 20
105.1666666666669
 30
0.0
 11
679.0833333333334
 21
105.1666666666669
 31
0.0
  0
ELLIPSE
  5
13F
330
1F
100
AcDbEntity
  8
0
  6
CONTINUOUS
 62
     7
100
AcDbEllipse
 10
589.3629912529008
 20
183.9486695055433
 30
0.0
 11
0.002190002933888382
 21
2.123329270825147
 31
0.0
210
0.0
220
0.0
230
-1.0
 40
0.1173698570315247
 41
2.903881119395777
 42
3.082632768808317
  0
LINE
  5
140
330
1F
100
AcDbEntity
  8
0
  6
CONTINUOUS
 62
     7
100
AcDbLine
 10
606.8333333333334
 20
75.16666666666666
 30
0.0
 11
606.8333333333334
 21
93.66666666666657
 31
0.0
  0
ARC
  5
141
330
1F
100
AcDbEntity
  8
0
  6
CONTINUOUS
 62
     7
100
AcDbCircle
 10
526.3333333333335
 20
159.1666666666667
 30
0.0
 40
0.4999999999999449
100
AcDbArc
 50
270.0
 51
89.99999999999841
  0
ARC
  5
142
330
1F
100
AcDbEntity
  8
0
  6
CONTINUOUS
 62
     7
100
AcDbCircle
 10
528.6333333333333
 20
129.1666666666667
 30
0.0
 40
0.4999999999999449
100
AcDbArc
 50
180.0
 51
269.9999999999968
  0
LINE
  5
143
330
1F
100
AcDbEntity
  8
0
  6
CONTINUOUS
 62
     7
100
AcDbLine
 10
597.8333333333334
 20
224.1666666666666
 30
0.0
 11
599.945727150579
 21
224.1666666666666
 31
0.0
  0
LINE
  5
144
330
1F
100
AcDbEntity
  8
0
  6
CONTINUOUS
 62
     7
100
AcDbLine
 10
592.173369900765
 20
182.4457700816811
 30
0.0
 11
592.1541271370502
 21
182.5538501758173
 31
0.0
  0
ELLIPSE
  5
145
330
1F
100
AcDbEntity
  8
0
  6
CONTINUOUS
 62
     7
100
AcDbEllipse
 10
589.3629912529008
 20
133.9486695055431
 30
0.0
 11
0.002190002933888382
 21
2.123329270825036
 31
0.0
210
0.0
220
0.0
230
-1.0
 40
0.1173698570315308
 41
0.0589598847814556
 42
0.2377115341939905
  0
LINE
  5
146
330
1F
100
AcDbEntity
  8
0
  6
CONTINUOUS
 62
     7
100
AcDbLine
 10
528.8382683137042
 20
189.6666666666668
 30
0.0
 11
528.8382683137042
 21
210.6624170363447
 31
0.0
  0
ARC
  5
147
330
1F
100
AcDbEntity
  8
0
  6
CONTINUOUS
 62
   253
100
AcDbCircle
 10
-603.333333333333
 20
94.66666666666673
 30
0.0
 40
0.9999999999998899
210
0.0
220
0.0
230
-1.0
100
AcDbArc
 50
0.0
 51
90.0
  0
ELLIPSE
  5
148
330
1F
100
AcDbEntity
  8
0
  6
CONTINUOUS
 62
     7
100
AcDbEllipse
 10
598.1071620617923
 20
183.9396507631427
 30
0.0
 11
0.00926826375646783
 21
8.98609559816088
 31
0.0
210
0.0
220
0.0
230
1.0
 40
0.9930882723405791
 41
1.339082485562941
 42
1.425619023738979
  0
LINE
  5
149
330
1F
100
AcDbEntity
  8
0
  6
CONTINUOUS
 62
     7
100
AcDbLine
 10
592.0814201303086
 20
182.285094515968
 30
0.0
 11
592.1541271370502
 21
182.5538501758173
 31
0.0
  0
LINE
  5
14A
330
1F
100
AcDbEntity
  8
0
  6
CONTINUOUS
 62
     7
100
AcDbLine
 10
589.0663038914563
 20
184.4489757749915
 30
0.0
 11
589.0651702118093
 21
184.4876129167401
 31
0.0
  0
LINE
  5
14B
330
1F
100
AcDbEntity
  8
0
  6
CONTINUOUS
 62
     7
100
AcDbLine
 10
604.8333333333331
 20
105.1666666666669
 30
0.0
 11
604.8333333333331
 21
213.1666666666669
 31
0.0
  0
LINE
  5
14C
330
1F
100
AcDbEntity
  8
0
  6
CONTINUOUS
 62
     7
100
AcDbLine
 10
528.1333333333333
 20
141.666666666667
 30
0.0
 11
528.1333333333331
 21
129.1666666666668
 31
0.0
  0
LINE
  5
14D
330
1F
100
AcDbEntity
  8
0
  6
CONTINUOUS
 62
   253
100
AcDbLine
 10
597.8333333333334
 20
95.16666666666667
 30
0.0
 11
599.7513468414413
 21
95.16666666666667
 31
0.0
  0
ELLIPSE
  5
14E
330
1F
100
AcDbEntity
  8
0
  6
CONTINUOUS
 62
     7
100
AcDbEllipse
 10
589.3629912529008
 20
183.9486695055433
 30
0.0
 11
0.002190002933888382
 21
2.123329270825147
 31
0.0
210
0.0
220
0.0
230
-1.0
 40
0.1173698570315247
 41
1.333084792600857
 42
1.808507860988878
  0
LINE
  5
14F
330
1F
100
AcDbEntity
  8
0
  6
CONTINUOUS
 62
     7
100
AcDbLine
 10
596.8333333333331
 20
95.16666666666667
 30
0.0
 11
596.8333333333331
 21
95.36870769553403
 31
0.0
  0
LINE
  5
150
330
1F
100
AcDbEntity
  8
0
  6
CONTINUOUS
 62
     7
100
AcDbLine
 10
594.8333623397546
 20
183.7138378783109
 30
0.0
 11
594.4551406805687
 21
185.2917547781599
 31
0.0
  0
ELLIPSE
  5
151
330
1F
100
AcDbEntity
  8
0
  6
CONTINUOUS
 62
   253
100
AcDbEllipse
 10
589.4518176836553
 20
183.9485778899155
 30
0.0
 11
-0.002540069825585078
 21
-2.462738531947561
 31
0.0
210
0.0
220
0.0
230
1.0
 40
0.1173698570313429
 41
3.141592653589781
 42
3.571017413899757
  0
ELLIPSE
  5
152
330
1F
100
AcDbEntity
  8
0
  6
CONTINUOUS
 62
     7
100
AcDbEllipse
 10
598.1071620617923
 20
133.9396507631426
 30
0.0
 11
0.00926826375646783
 21
8.98609559816088
 31
0.0
210
0.0
220
0.0
230
1.0
 40
0.993088272340604
 41
1.715973629850817
 42
1.80251016802685
  0
LINE
  5
153
330
1F
100
AcDbEntity
  8
0
  6
CONTINUOUS
 62
     7
100
AcDbLine
 10
606.8333333333334
 20
244.1666666666668
 30
0.0
 11
606.8333333333334
 21
243.1666666666667
 31
0.0
  0
ARC
  5
154
330
1F
100
AcDbEntity
  8
0
  6
CONTINUOUS
 62
     7
100
AcDbCircle
 10
714.5833333333331
 20
209.77003918298
 30
0.0
 40
4.000000000000226
100
AcDbArc
 50
0.0
 51
88.50000000000004
  0
ARC
  5
155
330
1F
100
AcDbEntity
  8
0
  6
CONTINUOUS
 62
     7
100
AcDbCircle
 10
582.5402731790134
 20
181.905946775536
 30
0.0
 40
11.0465429347737
100
AcDbArc
 50
2.79355003406619
 51
17.8575360448454
  0
LINE
  5
156
330
1F
100
AcDbEntity
  8
0
  6
CONTINUOUS
 62
     7
100
AcDbLine
 10
589.3714653574249
 20
184.4486610312941
 30
0.0
 11
589.6057137359473
 21
184.4484194273925
 31
0.0
  0
ARC
  5
157
330
1F
100
AcDbEntity
  8
0
  6
CONTINUOUS
 62
     7
100
AcDbCircle
 10
603.333333333333
 20
94.66666666666673
 30
0.0
 40
0.500000000000167
100
AcDbArc
 50
90.0
 51
180.0
  0
ARC
  5
158
330
1F
100
AcDbEntity
  8
0
  6
CONTINUOUS
 62
     7
100
AcDbCircle
 10
603.333333333333
 20
94.66666666666673
 30
0.0
 40
0.500000000000167
100
AcDbArc
 50
180.0
 51
270.0
  0
ELLIPSE
  5
159
330
1F
100
AcDbEntity
  8
0
  6
CONTINUOUS
 62
     7
100
AcDbEllipse
 10
530.838953898686
 20
210.6610461013141
 30
0.0
 11
1.41518295988674
 21
-1.41518295988674
 31
0.0
210
0.0
220
0.0
230
-1.0
 40
0.9993150019884235
 41
2.356537106530515
 42
3.926648200649064
  0
LINE
  5
15A
330
1F
100
AcDbEntity
  8
0
  6
CONTINUOUS
 62
     7
100
AcDbLine
 10
589.6046823359666
 20
133.4484199592855
 30
0.0
 11
589.3704339574441
 21
133.4486615631872
 31
0.0
  0
ELLIPSE
  5
15B
330
1F
100
AcDbEntity
  8
0
  6
CONTINUOUS
 62
   253
100
AcDbEllipse
 10
680.8544248650139
 20
107.6800715985878
 30
0.0
 11
-0.01579917580896149
 21
-4.001744046029372
 31
0.0
210
0.0
220
0.0
230
1.0
 40
0.1499183192919361
 41
4.716907054492823
 42
4.760528383392426
  0
ELLIPSE
  5
15C
330
1F
100
AcDbEntity
  8
0
  6
CONTINUOUS
 62
   253
100
AcDbEllipse
 10
680.3554911702631
 20
213.1666666666669
 30
0.0
 11
-0.4980209585119243
 21
0.04444237710410359
 31
0.0
210
0.0
220
0.0
230
-1.0
 40
0.5546823329429431
 41
4.867032433417335
 42
6.123670948150929
  0
ARC
  5
15D
330
1F
100
AcDbEntity
  8
0
  6
CONTINUOUS
 62
     7
100
AcDbCircle
 10
-579.9210471650615
 20
132.1014150900013
 30
0.0
 40
13.36665828372063
210
0.0
220
0.0
230
-1.0
100
AcDbArc
 50
163.9702836610136
 51
180.6699808066424
  0
LINE
  5
15E
330
1F
100
AcDbEntity
  8
0
  6
CONTINUOUS
 62
     7
100
AcDbLine
 10
589.1583432071739
 20
182.6488798881845
 30
0.0
 11
589.0684057684743
 21
183.3554456966228
 31
0.0
  0
ELLIPSE
  5
15F
330
1F
100
AcDbEntity
  8
0
  6
CONTINUOUS
 62
     7
100
AcDbEllipse
 10
598.1071620617923
 20
183.9396507631427
 30
0.0
 11
0.00926826375646783
 21
8.98609559816088
 31
0.0
210
0.0
220
0.0
230
1.0
 40
0.9930882723405791
 41
1.715973629850817
 42
1.802510168026854
  0
LINE
  5
160
330
1F
100
AcDbEntity
  8
0
  6
CONTINUOUS
 62
   253
100
AcDbLine
 10
679.7588109146726
 20
107.6643600456462
 30
0.0
 11
679.7588109146726
 21
210.6689732876871
 31
0.0
  0
ELLIPSE
  5
161
330
1F
100
AcDbEntity
  8
0
  6
CONTINUOUS
 62
   253
100
AcDbEllipse
 10
680.3835667802387
 20
103.6352310308525
 30
0.0
 11
0.4956139503415891
 21
-0.06608186004564144
 31
0.0
210
0.0
220
0.0
230
-1.0
 40
0.8935478212309944
 41
3.141592653589629
 42
4.332090940719493
  0
ELLIPSE
  5
162
330
1F
100
AcDbEntity
  8
0
  6
CONTINUOUS
 62
     7
100
AcDbEllipse
 10
592.0899506997481
 20
133.9458569181263
 30
0.0
 11
-0.001547099971022092
 21
-1.499999202160262
 31
0.0
210
0.0
220
0.0
230
1.0
 40
0.1173698570315298
 41
0.0
 42
0.3818955385940927
  0
LINE
  5
163
330
1F
100
AcDbEntity
  8
0
  6
CONTINUOUS
 62
     7
100
AcDbLine
 10
589.1583432071739
 20
132.6488798881846
 30
0.0
 11
589.0684057684743
 21
133.3554456966227
 31
0.0
  0
LINE
  5
164
330
1F
100
AcDbEntity
  8
0
  6
CONTINUOUS
 62
     7
100
AcDbLine
 10
679.0833333333333
 20
97.66666666666684
 30
0.0
 11
679.8879528298974
 21
103.701312890898
 31
0.0
  0
LWPOLYLINE
  5
165
330
1F
100
AcDbEntity
  8
0
  6
CONTINUOUS
 62
     7
100
AcDbPolyline
 90
        4
 70
     0
 43
0.0
 10
-593.7038459703588
 20
135.4441931435287
 10
-593.8402813392223
 20
135.355401859123
 10
-593.9212520785642
 20
135.2163519260237
 42
0.0588129346745399
 10
-594.3982549184111
 20
132.4456639748164
210
0.0
220
0.0
230
-1.0
  0
ARC
  5
166
330
1F
100
AcDbEntity
  8
0
  6
CONTINUOUS
 62
     7
100
AcDbCircle
 10
-581.0204671060761
 20
132.0606316226369
 30
0.0
 40
13.66712204462783
210
0.0
220
0.0
230
-1.0
100
AcDbArc
 50
164.1643300660992
 51
180.4915494958016
  0
LINE
  5
167
330
1F
100
AcDbEntity
  8
0
  6
CONTINUOUS
 62
   253
100
AcDbLine
 10
597.8333333333334
 20
223.1666666666668
 30
0.0
 11
596.8333333333334
 21
223.1666666666668
 31
0.0
  0
LINE
  5
168
330
1F
100
AcDbEntity
  8
0
  6
CONTINUOUS
 62
     7
100
AcDbLine
 10
592.173369900765
 20
132.4457700816812
 30
0.0
 11
592.1541271370502
 21
132.5538501758174
 31
0.0
  0
LINE
  5
169
330
1F
100
AcDbEntity
  8
0
  6
CONTINUOUS
 62
     7
100
AcDbLine
 10
603.8333333333333
 20
74.16666666666654
 30
0.0
 11
603.6389530241955
 21
75.1666666666666
 31
0.0
  0
LINE
  5
16A
330
1F
100
AcDbEntity
  8
0
  6
CONTINUOUS
 62
   253
100
AcDbLine
 10
606.8333333333334
 20
93.66666666666661
 30
0.0
 11
603.3333333333334
 21
93.66666666666661
 31
0.0
  0
LINE
  5
16B
330
1F
100
AcDbEntity
  8
0
  6
CONTINUOUS
 62
     7
100
AcDbLine
 10
606.8333333333334
 20
223.1666666666668
 30
0.0
 11
606.8333333333334
 21
222.6666666666666
 31
0.0
  0
ARC
  5
16C
330
1F
100
AcDbEntity
  8
0
  6
CONTINUOUS
 62
     7
100
AcDbCircle
 10
521.3333333333334
 20
159.1666666666667
 30
0.0
 40
0.4999999999999449
100
AcDbArc
 50
89.9999999999992
 51
270.0
  0
LINE
  5
16D
330
1F
100
AcDbEntity
  8
0
  6
CONTINUOUS
 62
     7
100
AcDbLine
 10
603.333333333333
 20
94.16666666666679
 30
0.0
 11
606.833333333333
 21
94.16666666666679
 31
0.0
  0
LINE
  5
16E
330
1F
100
AcDbEntity
  8
0
  6
CONTINUOUS
 62
     7
100
AcDbLine
 10
528.8382683137042
 20
141.666666666667
 30
0.0
 11
528.1333333333336
 21
141.666666666667
 31
0.0
  0
LINE
  5
16F
330
1F
100
AcDbEntity
  8
0
  6
CONTINUOUS
 62
     7
100
AcDbLine
 10
528.8382683137042
 20
128.6666666666665
 30
0.0
 11
528.8382683137042
 21
107.6709162969886
 31
0.0
  0
LINE
  5
170
330
1F
100
AcDbEntity
  8
0
  6
CONTINUOUS
 62
     7
100
AcDbLine
 10
603.6389530241956
 20
243.1666666666666
 30
0.0
 11
599.7513468414412
 21
223.1666666666667
 31
0.0
  0
LINE
  5
171
330
1F
100
AcDbEntity
  8
0
  6
CONTINUOUS
 62
   253
100
AcDbLine
 10
589.2783946417265
 20
185.2487574499942
 30
0.0
 11
589.1610248471233
 21
185.2488785052624
 31
0.0
  0
LINE
  5
172
330
1F
100
AcDbEntity
  8
0
  6
CONTINUOUS
 62
     7
100
AcDbLine
 10
530.8375829636553
 20
105.6716016470376
 30
0.0
 11
592.8333333333331
 21
105.6716016470376
 31
0.0
  0
ARC
  5
173
330
1F
100
AcDbEntity
  8
0
  6
CONTINUOUS
 62
     7
100
AcDbCircle
 10
528.6333333333333
 20
189.1666666666668
 30
0.0
 40
0.4999999999999449
100
AcDbArc
 50
90.00000000000318
 51
180.0
  0
LINE
  5
174
330
1F
100
AcDbEntity
  8
0
  6
CONTINUOUS
 62
   253
100
AcDbLine
 10
596.8333333333331
 20
95.16666666666667
 30
0.0
 11
597.8333333333333
 21
95.16666666666667
 31
0.0
  0
LINE
  5
175
330
1F
100
AcDbEntity
  8
0
  6
CONTINUOUS
 62
     7
100
AcDbLine
 10
526.3333333333335
 20
159.6666666666667
 30
0.0
 11
521.3333333333336
 21
159.6666666666667
 31
0.0
  0
ARC
  5
176
330
1F
100
AcDbEntity
  8
0
  6
CONTINUOUS
 62
   253
100
AcDbCircle
 10
-603.333333333333
 20
223.6666666666667
 30
0.0
 40
0.9999999999998899
210
0.0
220
0.0
230
-1.0
100
AcDbArc
 50
0.0
 51
90.0
  0
ARC
  5
177
330
1F
100
AcDbEntity
  8
0
  6
CONTINUOUS
 62
     7
100
AcDbCircle
 10
564.8333333333333
 20
97.66666666666684
 30
0.0
 40
0.4999999999999449
100
AcDbArc
 50
180.0
 51
0.0
  0
ELLIPSE
  5
178
330
1F
100
AcDbEntity
  8
0
  6
CONTINUOUS
 62
     7
100
AcDbEllipse
 10
592.8333333333331
 20
210.6610461013141
 30
0.0
 11
0.0
 21
-2.000685584981787
 31
0.0
210
0.0
220
0.0
230
-1.0
 40
0.9996573249755325
 41
3.14159265358979
 42
4.712388980384691
  0
LINE
  5
179
330
1F
100
AcDbEntity
  8
0
  6
CONTINUOUS
 62
     7
100
AcDbLine
 10
599.9457271505788
 20
94.16666666666679
 30
0.0
 11
597.8333333333333
 21
94.16666666666679
 31
0.0
  0
ELLIPSE
  5
17A
330
1F
100
AcDbEntity
  8
0
  6
CONTINUOUS
 62
     7
100
AcDbEllipse
 10
589.3629912529008
 20
183.9486695055433
 30
0.0
 11
0.002190002933888382
 21
2.123329270825147
 31
0.0
210
0.0
220
0.0
230
-1.0
 40
0.1173698570315247
 41
3.082632768808257
 42
3.379304187783794
  0
ARC
  5
17B
330
1F
100
AcDbEntity
  8
0
  6
CONTINUOUS
 62
     7
100
AcDbCircle
 10
603.333333333333
 20
223.6666666666667
 30
0.0
 40
0.500000000000167
100
AcDbArc
 50
90.0
 51
180.0
  0
LINE
  5
17C
330
1F
100
AcDbEntity
  8
0
  6
CONTINUOUS
 62
     7
100
AcDbLine
 10
603.6389530241956
 20
243.1666666666666
 30
0.0
 11
603.8333333333334
 21
244.1666666666667
 31
0.0
  0
LINE
  5
17D
330
1F
100
AcDbEntity
  8
0
  6
CONTINUOUS
 62
     7
100
AcDbLine
 10
606.8333333333334
 20
95.66666666666673
 30
0.0
 11
606.8333333333334
 21
95.16666666666657
 31
0.0
  0
LINE
  5
17E
330
1F
100
AcDbEntity
  8
0
  6
CONTINUOUS
 62
     7
100
AcDbLine
 10
528.1333333333333
 20
176.6666666666665
 30
0.0
 11
528.838268313704
 21
176.6666666666665
 31
0.0
  0
LINE
  5
17F
330
1F
100
AcDbEntity
  8
0
  6
CONTINUOUS
 62
   253
100
AcDbLine
 10
589.2757130017771
 20
182.6487588329161
 30
0.0
 11
589.1583432071741
 21
182.6488798881844
 31
0.0
  0
ARC
  5
180
330
1F
100
AcDbEntity
  8
0
  6
CONTINUOUS
 62
     7
100
AcDbCircle
 10
597.8333333333334
 20
223.1666666666668
 30
0.0
 40
0.9999999999998899
100
AcDbArc
 50
90.0
 51
180.0
  0
LINE
  5
181
330
1F
100
AcDbEntity
  8
0
  6
CONTINUOUS
 62
   253
100
AcDbLine
 10
592.8333333333331
 20
105.6716016470376
 30
0.0
 11
592.8333333333331
 21
106.6156657585589
 31
0.0
  0
LINE
  5
182
330
1F
100
AcDbEntity
  8
0
  6
CONTINUOUS
 62
   253
100
AcDbLine
 10
603.333333333333
 20
95.66666666666673
 30
0.0
 11
606.833333333333
 21
95.66666666666673
 31
0.0
  0
LINE
  5
183
330
1F
100
AcDbEntity
  8
0
  6
CONTINUOUS
 62
     7
100
AcDbLine
 10
606.8333333333334
 20
95.66666666666673
 30
0.0
 11
606.8333333333334
 21
222.6666666666665
 31
0.0
  0
ARC
  5
184
330
1F
100
AcDbEntity
  8
0
  6
CONTINUOUS
 62
     7
100
AcDbCircle
 10
564.8333333333333
 20
102.6666666666667
 30
0.0
 40
0.4999999999999449
100
AcDbArc
 50
0.0000000000007951
 51
179.9999999999992
  0
LINE
  5
185
330
1F
100
AcDbEntity
  8
0
  6
CONTINUOUS
 62
     7
100
AcDbLine
 10
528.6333333333333
 20
128.6666666666665
 30
0.0
 11
528.8382683137042
 21
128.6666666666665
 31
0.0
  0
LINE
  5
186
330
1F
100
AcDbEntity
  8
0
  6
CONTINUOUS
 62
   253
100
AcDbLine
 10
592.8333333333331
 20
211.7176675747746
 30
0.0
 11
592.8333333333331
 21
212.6617316862958
 31
0.0
  0
LINE
  5
187
330
1F
100
AcDbEntity
  8
0
  6
CONTINUOUS
 62
   253
100
AcDbLine
 10
603.333333333333
 20
224.6666666666667
 30
0.0
 11
606.833333333333
 21
224.6666666666667
 31
0.0
  0
ELLIPSE
  5
188
330
1F
100
AcDbEntity
  8
0
  6
CONTINUOUS
 62
     7
100
AcDbEllipse
 10
597.989792267189
 20
183.9397718184109
 30
0.0
 11
-0.009268263756245785
 21
-8.98609559816088
 31
0.0
210
0.0
220
0.0
230
-1.0
 40
0.9930882723405791
 41
1.33908248556294
 42
1.425619023738978
  0
LINE
  5
189
330
1F
100
AcDbEntity
  8
0
  6
CONTINUOUS
 62
     7
100
AcDbLine
 10
521.3333333333334
 20
158.6666666666668
 30
0.0
 11
526.3333333333333
 21
158.6666666666668
 31
0.0
  0
LINE
  5
18A
330
1F
100
AcDbEntity
  8
0
  6
CONTINUOUS
 62
     7
100
AcDbLine
 10
530.8375829636553
 20
212.6617316862957
 30
0.0
 11
592.8333333333333
 21
212.6617316862957
 31
0.0
  0
LINE
  5
18B
330
1F
100
AcDbEntity
  8
0
  6
CONTINUOUS
 62
     7
100
AcDbLine
 10
603.8333333333333
 20
244.1666666666666
 30
0.0
 11
606.8333333333333
 21
244.1666666666666
 31
0.0
  0
LINE
  5
18C
330
1F
100
AcDbEntity
  8
0
  6
CONTINUOUS
 62
     7
100
AcDbLine
 10
594.8333623397546
 20
133.713837878311
 30
0.0
 11
594.4551406805687
 21
135.2917547781597
 31
0.0
  0
ARC
  5
18D
330
1F
100
AcDbEntity
  8
0
  6
CONTINUOUS
 62
     7
100
AcDbCircle
 10
594.8333333333333
 20
213.1666666666669
 30
0.0
 40
9.999999999999787
100
AcDbArc
 50
0.0
 51
90.0
  0
LINE
  5
18E
330
1F
100
AcDbEntity
  8
0
  6
CONTINUOUS
 62
   253
100
AcDbLine
 10
606.8333333333334
 20
222.6666666666666
 30
0.0
 11
603.3333333333334
 21
222.6666666666666
 31
0.0
  0
ELLIPSE
  5
18F
330
1F
100
AcDbEntity
  8
0
  6
CONTINUOUS
 62
     7
100
AcDbEllipse
 10
589.3629912529008
 20
183.9486695055433
 30
0.0
 11
0.002190002933888382
 21
2.123329270825147
 31
0.0
210
0.0
220
0.0
230
-1.0
 40
0.1173698570315247
 41
0.0589598847814594
 42
0.2377115341939987
  0
LINE
  5
190
330
1F
100
AcDbEntity
  8
0
  6
CONTINUOUS
 62
     7
100
AcDbLine
 10
528.6333333333333
 20
189.6666666666668
 30
0.0
 11
528.8382683137042
 21
189.6666666666668
 31
0.0
  0
ARC
  5
191
330
1F
100
AcDbEntity
  8
0
  6
CONTINUOUS
 62
     7
100
AcDbCircle
 10
603.333333333333
 20
223.6666666666667
 30
0.0
 40
0.500000000000167
100
AcDbArc
 50
180.0
 51
270.0
  0
LINE
  5
192
330
1F
100
AcDbEntity
  8
0
  6
CONTINUOUS
 62
     7
100
AcDbLine
 10
599.7513468414412
 20
95.16666666666667
 30
0.0
 11
603.6389530241956
 21
75.16666666666676
 31
0.0
  0
LINE
  5
193
330
1F
100
AcDbEntity
  8
0
  6
CONTINUOUS
 62
     7
100
AcDbLine
 10
603.333333333333
 20
223.1666666666668
 30
0.0
 11
606.833333333333
 21
223.1666666666668
 31
0.0
  0
LWPOLYLINE
  5
194
330
1F
100
AcDbEntity
  8
0
  6
CONTINUOUS
 62
     7
100
AcDbPolyline
 90
        4
 70
     0
 43
0.0
 10
589.3704339574441
 20
183.4486615631871
 10
589.2751037099529
 20
183.3209504384726
 10
589.2515454896424
 20
183.1714424652417
 42
0.0517516293482079
 10
589.2757130017769
 20
182.6487588329162
  0
LINE
  5
195
330
1F
100
AcDbEntity
  8
0
  6
CONTINUOUS
 62
     7
100
AcDbLine
 10
528.1333333333333
 20
189.1666666666668
 30
0.0
 11
528.1333333333336
 21
176.6666666666665
 31
0.0
  0
LINE
  5
196
330
1F
100
AcDbEntity
  8
0
  6
CONTINUOUS
 62
     7
100
AcDbLine
 10
606.8333333333334
 20
224.6666666666667
 30
0.0
 11
606.8333333333334
 21
243.1666666666666
 31
0.0
  0
ELLIPSE
  5
197
330
1F
100
AcDbEntity
  8
0
  6
CONTINUOUS
 62
   253
100
AcDbEllipse
 10
592.8333333333331
 20
108.6149804085101
 30
0.0
 11
2.000000000000224
 21
0.0
 31
0.0
210
0.0
220
0.0
230
1.0
 40
0.9996573249754772
 41
4.71238898038469
 42
6.283185307179586
  0
LINE
  5
198
330
1F
100
AcDbEntity
  8
0
  6
CONTINUOUS
 62
     7
100
AcDbLine
 10
606.8333333333334
 20
94.16666666666679
 30
0.0
 11
606.8333333333334
 21
93.66666666666663
 31
0.0
  0
LINE
  5
199
330
1F
100
AcDbEntity
  8
0
  6
CONTINUOUS
 62
     7
100
AcDbLine
 10
564.3333333333334
 20
102.6666666666667
 30
0.0
 11
564.3333333333334
 21
97.66666666666683
 31
0.0
  0
ELLIPSE
  5
19A
330
1F
100
AcDbEntity
  8
0
  6
CONTINUOUS
 62
   253
100
AcDbEllipse
 10
590.5810380965041
 20
183.947413211384
 30
0.0
 11
0.003508888600345373
 21
3.402062051577892
 31
0.0
210
0.0
220
0.0
230
-1.0
 40
0.1173698570314385
 41
6.272836418339401
 42
9.424777960769376
  0
ELLIPSE
  5
19B
330
1F
100
AcDbEntity
  8
0
  6
CONTINUOUS
 62
     7
100
AcDbEllipse
 10
591.6927156020986
 20
183.9462666266163
 30
0.0
 11
0.003609899932310867
 21
3.499998138374205
 31
0.0
210
0.0
220
0.0
230
-1.0
 40
0.1173698570315211
 41
0.0
 42
3.151932837038128
  0
LINE
  5
19C
330
1F
100
AcDbEntity
  8
0
  6
CONTINUOUS
 62
   253
100
AcDbLine
 10
589.2783946417265
 20
135.2487574499941
 30
0.0
 11
589.1610248471233
 21
135.2488785052625
 31
0.0
  0
LINE
  5
19D
330
1F
100
AcDbEntity
  8
0
  6
CONTINUOUS
 62
     7
100
AcDbLine
 10
589.6046823359666
 20
183.4484199592856
 30
0.0
 11
589.3704339574441
 21
183.4486615631871
 31
0.0
  0
LINE
  5
19E
330
1F
100
AcDbEntity
  8
0
  6
CONTINUOUS
 62
     7
100
AcDbLine
 10
528.8382683137042
 20
141.666666666667
 30
0.0
 11
528.8382683137042
 21
176.6666666666665
 31
0.0
  0
LINE
  5
19F
330
1F
100
AcDbEntity
  8
0
  6
CONTINUOUS
 62
     7
100
AcDbLine
 10
589.0684051261785
 20
183.355449850465
 30
0.0
 11
589.0652724914755
 21
183.4489763068847
 31
0.0
  0
LINE
  5
1A0
330
1F
100
AcDbEntity
  8
0
  6
CONTINUOUS
 62
     7
100
AcDbLine
 10
606.8333333333334
 20
224.1666666666666
 30
0.0
 11
603.3333333333334
 21
224.1666666666666
 31
0.0
  0
ELLIPSE
  5
1A1
330
1F
100
AcDbEntity
  8
0
  6
CONTINUOUS
 62
     7
100
AcDbEllipse
 10
530.838953898686
 20
107.6722872320193
 30
0.0
 11
1.41518295988674
 21
1.41518295988674
 31
0.0
210
0.0
220
0.0
230
-1.0
 40
0.9993150019884235
 41
2.356537106530515
 42
3.926648200649071
  0
ELLIPSE
  5
1A2
330
1F
100
AcDbEntity
  8
0
  6
CONTINUOUS
 62
     7
100
AcDbEllipse
 10
592.8333333333331
 20
107.6722872320193
 30
0.0
 11
0.0
 21
2.000685584981787
 31
0.0
210
0.0
220
0.0
230
-1.0
 40
0.9996573249756434
 41
1.570796326794899
 42
3.141592653589793
  0
ARC
  5
1A3
330
1F
100
AcDbEntity
  8
0
  6
CONTINUOUS
 62
   253
100
AcDbCircle
 10
-603.333333333333
 20
94.66666666666673
 30
0.0
 40
0.9999999999998899
210
0.0
220
0.0
230
-1.0
100
AcDbArc
 50
270.0
 51
0.0
  0
LINE
  5
1A4
330
1F
100
AcDbEntity
  8
0
  6
CONTINUOUS
 62
     7
100
AcDbLine
 10
606.8333333333334
 20
224.6666666666667
 30
0.0
 11
606.8333333333334
 21
224.1666666666666
 31
0.0
  0
ELLIPSE
  5
1A5
330
1F
100
AcDbEntity
  8
0
  6
CONTINUOUS
 62
     7
100
AcDbEllipse
 10
589.3629912529008
 20
183.9486695055433
 30
0.0
 11
0.002190002933888382
 21
2.123329270825147
 31
0.0
210
0.0
220
0.0
230
-1.0
 40
0.1173698570315247
 41
4.474677446190649
 42
4.950100514578692
  0
ELLIPSE
  5
1A6
330
1F
100
AcDbEntity
  8
0
  6
CONTINUOUS
 62
   253
100
AcDbEllipse
 10
592.8333333333331
 20
209.7183529248233
 30
0.0
 11
2.000000000000224
 21
0.0
 31
0.0
210
0.0
220
0.0
230
-1.0
 40
0.9996573249754217
 41
4.71238898038469
 42
6.283185307179586
  0
LINE
  5
1A7
330
1F
100
AcDbEntity
  8
0
  6
CONTINUOUS
 62
     7
100
AcDbLine
 10
606.8333333333334
 20
74.16666666666654
 30
0.0
 11
603.8333333333334
 21
74.16666666666654
 31
0.0
  0
ARC
  5
1A8
330
1F
100
AcDbEntity
  8
0
  6
CONTINUOUS
 62
   253
100
AcDbCircle
 10
-603.333333333333
 20
223.6666666666667
 30
0.0
 40
0.9999999999998899
210
0.0
220
0.0
230
-1.0
100
AcDbArc
 50
270.0
 51
0.0
  0
LINE
  5
1A9
330
1F
100
AcDbEntity
  8
0
  6
CONTINUOUS
 62
     7
100
AcDbLine
 10
606.8333333333334
 20
95.16666666666667
 30
0.0
 11
603.3333333333334
 21
95.16666666666667
 31
0.0
  0
LINE
  5
1AA
330
1F
100
AcDbEntity
  8
0
  6
CONTINUOUS
 62
   253
100
AcDbLine
 10
531.7816470751768
 20
106.6156657585589
 30
0.0
 11
531.7816470751768
 21
108.6149804085101
 31
0.0
  0
LINE
  5
1AB
330
1F
100
AcDbEntity
  8
0
  6
CONTINUOUS
 62
     7
100
AcDbLine
 10
589.3432172579027
 20
136.2234363122485
 30
0.0
 11
589.333527230957
 21
136.1868511518649
 31
0.0
  0
LINE
  5
1AC
330
1F
100
AcDbEntity
  8
0
  6
CONTINUOUS
 62
   253
100
AcDbLine
 10
594.8333333333333
 20
209.7183529248233
 30
0.0
 11
592.8333333333333
 21
209.7183529248233
 31
0.0
  0
LINE
  5
1AD
330
1F
100
AcDbEntity
  8
0
  6
CONTINUOUS
 62
     7
100
AcDbLine
 10
594.8333333333333
 20
223.1666666666668
 30
0.0
 11
528.8333333333335
 21
223.1666666666668
 31
0.0
  0
LINE
  5
1AE
330
1F
100
AcDbEntity
  8
0
  6
CONTINUOUS
 62
   253
100
AcDbLine
 10
531.7816470751768
 20
209.7183529248233
 30
0.0
 11
531.7816470751768
 21
211.7176675747745
 31
0.0
  0
LINE
  5
1AF
330
1F
100
AcDbEntity
  8
0
  6
CONTINUOUS
 62
     7
100
AcDbLine
 10
594.8333333333333
 20
107.6722872320193
 30
0.0
 11
594.8333333333333
 21
210.661046101314
 31
0.0
  0
LINE
  5
1B0
330
1F
100
AcDbEntity
  8
0
  6
CONTINUOUS
 62
     7
100
AcDbLine
 10
518.833333333333
 20
213.1666666666667
 30
0.0
 11
518.833333333333
 21
105.1666666666668
 31
0.0
  0
LINE
  5
1B1
330
1F
100
AcDbEntity
  8
0
  6
CONTINUOUS
 62
   253
100
AcDbLine
 10
529.7823324252255
 20
132.6666666666667
 30
0.0
 11
529.7823324252255
 21
185.6666666666668
 31
0.0
  0
ARC
  5
1B2
330
1F
100
AcDbEntity
  8
0
  6
CONTINUOUS
 62
     7
100
AcDbCircle
 10
598.0484771644907
 20
133.9397112907767
 30
0.0
 40
9.000000000000341
100
AcDbArc
 50
183.681821721106
 51
194.3538346756335
  0
LINE
  5
1B3
330
1F
100
AcDbEntity
  8
0
  6
CONTINUOUS
 62
     7
100
AcDbLine
 10
528.9953838431192
 20
177.6666666666665
 30
0.0
 11
528.9691979215498
 21
176.6666666666664
 31
0.0
  0
LINE
  5
1B4
330
1F
100
AcDbEntity
  8
0
  6
CONTINUOUS
 62
     7
100
AcDbLine
 10
528.9953838431192
 20
140.666666666667
 30
0.0
 11
528.9953838431192
 21
132.6666666666667
 31
0.0
  0
LINE
  5
1B5
330
1F
100
AcDbEntity
  8
0
  6
CONTINUOUS
 62
   253
100
AcDbLine
 10
528.1333333333333
 20
177.6666666666665
 30
0.0
 11
528.9953838431193
 21
177.6666666666665
 31
0.0
  0
LINE
  5
1B6
330
1F
100
AcDbEntity
  8
0
  6
CONTINUOUS
 62
   253
100
AcDbLine
 10
529.7823324252257
 20
189.6666666666668
 30
0.0
 11
529.7823324252257
 21
209.7183529248233
 31
0.0
  0
LINE
  5
1B7
330
1F
100
AcDbEntity
  8
0
  6
CONTINUOUS
 62
   253
100
AcDbLine
 10
592.8333333333331
 20
209.7183529248233
 30
0.0
 11
531.7816470751764
 21
209.7183529248233
 31
0.0
  0
LINE
  5
1B8
330
1F
100
AcDbEntity
  8
0
  6
CONTINUOUS
 62
   253
100
AcDbLine
 10
530.8375829636553
 20
212.6617316862957
 30
0.0
 11
531.7816470751766
 21
211.7176675747745
 31
0.0
  0
LINE
  5
1B9
330
1F
100
AcDbEntity
  8
0
  6
CONTINUOUS
 62
   253
100
AcDbLine
 10
528.8382683137042
 20
107.6709162969887
 30
0.0
 11
529.7823324252255
 21
108.6149804085101
 31
0.0
  0
LINE
  5
1BA
330
1F
100
AcDbEntity
  8
0
  6
CONTINUOUS
 62
     7
100
AcDbLine
 10
528.8382683137042
 20
189.6666666666668
 30
0.0
 11
529.7823324252255
 21
189.6666666666668
 31
0.0
  0
LINE
  5
1BB
330
1F
100
AcDbEntity
  8
0
  6
CONTINUOUS
 62
   253
100
AcDbLine
 10
531.7816470751768
 20
128.6666666666665
 30
0.0
 11
531.7816470751768
 21
108.61498040851
 31
0.0
  0
LINE
  5
1BC
330
1F
100
AcDbEntity
  8
0
  6
CONTINUOUS
 62
   253
100
AcDbLine
 10
529.7823324252255
 20
108.6149804085101
 30
0.0
 11
529.7823324252255
 21
128.6666666666666
 31
0.0
  0
LINE
  5
1BD
330
1F
100
AcDbEntity
  8
0
  6
CONTINUOUS
 62
     7
100
AcDbLine
 10
602.3333333333331
 20
159.6666666666667
 30
0.0
 11
597.3333333333333
 21
159.6666666666667
 31
0.0
  0
ARC
  5
1BE
330
1F
100
AcDbEntity
  8
0
  6
CONTINUOUS
 62
     7
100
AcDbCircle
 10
528.6333333333333
 20
186.1666666666667
 30
0.0
 40
0.4999999999999449
100
AcDbArc
 50
180.0000000000028
 51
270.0
  0
ARC
  5
1BF
330
1F
100
AcDbEntity
  8
0
  6
CONTINUOUS
 62
     7
100
AcDbCircle
 10
597.333333333333
 20
159.1666666666667
 30
0.0
 40
0.4999999999999449
100
AcDbArc
 50
90.0000000000008
 51
270.0
  0
ARC
  5
1C0
330
1F
100
AcDbEntity
  8
0
  6
CONTINUOUS
 62
     7
100
AcDbCircle
 10
602.3333333333331
 20
159.1666666666667
 30
0.0
 40
0.4999999999999449
100
AcDbArc
 50
269.9999999999984
 51
90.0
  0
LINE
  5
1C1
330
1F
100
AcDbEntity
  8
0
  6
CONTINUOUS
 62
     7
100
AcDbLine
 10
564.3333333333334
 20
220.6666666666665
 30
0.0
 11
564.3333333333334
 21
215.6666666666665
 31
0.0
  0
LINE
  5
1C2
330
1F
100
AcDbEntity
  8
0
  6
CONTINUOUS
 62
   253
100
AcDbLine
 10
592.8333333333331
 20
106.6156657585589
 30
0.0
 11
531.7816470751766
 21
106.6156657585589
 31
0.0
  0
LINE
  5
1C3
330
1F
100
AcDbEntity
  8
0
  6
CONTINUOUS
 62
     7
100
AcDbLine
 10
592.4129389575288
 20
135.7927144640597
 30
0.0
 11
592.2128139769083
 21
135.4451371247397
 31
0.0
  0
LINE
  5
1C4
330
1F
100
AcDbEntity
  8
0
  6
CONTINUOUS
 62
     7
100
AcDbLine
 10
528.8333333333333
 20
95.16666666666679
 30
0.0
 11
594.8333333333333
 21
95.16666666666679
 31
0.0
  0
LINE
  5
1C5
330
1F
100
AcDbEntity
  8
0
  6
CONTINUOUS
 62
     7
100
AcDbLine
 10
565.3333333333333
 20
97.66666666666684
 30
0.0
 11
565.3333333333333
 21
102.6666666666668
 31
0.0
  0
LINE
  5
1C6
330
1F
100
AcDbEntity
  8
0
  6
CONTINUOUS
 62
     7
100
AcDbLine
 10
597.333333333333
 20
158.6666666666668
 30
0.0
 11
602.3333333333329
 21
158.6666666666668
 31
0.0
  0
LINE
  5
1C7
330
1F
100
AcDbEntity
  8
0
  6
CONTINUOUS
 62
   253
100
AcDbLine
 10
531.7816470751768
 20
209.7183529248233
 30
0.0
 11
531.7816470751768
 21
189.6666666666668
 31
0.0
  0
LINE
  5
1C8
330
1F
100
AcDbEntity
  8
0
  6
CONTINUOUS
 62
     7
100
AcDbLine
 10
531.7816470751768
 20
185.6666666666668
 30
0.0
 11
529.7823324252257
 21
185.6666666666668
 31
0.0
  0
ARC
  5
1C9
330
1F
100
AcDbEntity
  8
0
  6
CONTINUOUS
 62
     7
100
AcDbCircle
 10
528.6333333333333
 20
132.1666666666667
 30
0.0
 40
0.4999999999999449
100
AcDbArc
 50
90.0
 51
179.9999999999972
  0
ARC
  5
1CA
330
1F
100
AcDbEntity
  8
0
  6
CONTINUOUS
 62
     7
100
AcDbCircle
 10
598.0484771644907
 20
133.9397112907767
 30
0.0
 40
9.000000000000341
100
AcDbArc
 50
165.5279755716428
 51
176.5087434157594
  0
LINE
  5
1CB
330
1F
100
AcDbEntity
  8
0
  6
CONTINUOUS
 62
     7
100
AcDbLine
 10
529.7823324252255
 20
189.6666666666668
 30
0.0
 11
531.7816470751766
 21
189.6666666666668
 31
0.0
  0
ARC
  5
1CC
330
1F
100
AcDbEntity
  8
0
  6
CONTINUOUS
 62
     7
100
AcDbCircle
 10
528.8333333333333
 20
105.1666666666669
 30
0.0
 40
10.00000000000001
100
AcDbArc
 50
180.0
 51
270.0
  0
ARC
  5
1CD
330
1F
100
AcDbEntity
  8
0
  6
CONTINUOUS
 62
     7
100
AcDbCircle
 10
564.8333333333333
 20
215.6666666666666
 30
0.0
 40
0.4999999999999449
100
AcDbArc
 50
180.0
 51
359.9999999999993
  0
LINE
  5
1CE
330
1F
100
AcDbEntity
  8
0
  6
CONTINUOUS
 62
   253
100
AcDbLine
 10
531.7816470751768
 20
106.6156657585589
 30
0.0
 11
530.8375829636556
 21
105.6716016470376
 31
0.0
  0
ARC
  5
1CF
330
1F
100
AcDbEntity
  8
0
  6
CONTINUOUS
 62
     7
100
AcDbCircle
 10
564.8333333333333
 20
220.6666666666665
 30
0.0
 40
0.4999999999999449
100
AcDbArc
 50
0.0
 51
180.0
  0
ARC
  5
1D0
330
1F
100
AcDbEntity
  8
0
  6
CONTINUOUS
 62
     7
100
AcDbCircle
 10
594.8333333333333
 20
105.1666666666669
 30
0.0
 40
9.999999999999787
100
AcDbArc
 50
270.0000000000001
 51
0.0
  0
LINE
  5
1D1
330
1F
100
AcDbEntity
  8
0
  6
CONTINUOUS
 62
     7
100
AcDbLine
 10
565.3333333333333
 20
215.6666666666666
 30
0.0
 11
565.3333333333333
 21
220.6666666666666
 31
0.0
  0
LINE
  5
1D2
330
1F
100
AcDbEntity
  8
0
  6
CONTINUOUS
 62
     7
100
AcDbLine
 10
531.7816470751768
 20
128.6666666666665
 30
0.0
 11
529.7823324252257
 21
128.6666666666665
 31
0.0
  0
LINE
  5
1D3
330
1F
100
AcDbEntity
  8
0
  6
CONTINUOUS
 62
     7
100
AcDbLine
 10
590.5734006386014
 20
130.5455372897937
 30
0.0
 11
591.6848582826153
 21
130.4464599764045
 31
0.0
  0
LINE
  5
1D4
330
1F
100
AcDbEntity
  8
0
  6
CONTINUOUS
 62
   253
100
AcDbLine
 10
529.7823324252255
 20
108.6149804085101
 30
0.0
 11
531.7816470751766
 21
108.6149804085101
 31
0.0
  0
LINE
  5
1D5
330
1F
100
AcDbEntity
  8
0
  6
CONTINUOUS
 62
   253
100
AcDbLine
 10
594.8333333333333
 20
108.6149804085101
 30
0.0
 11
592.8333333333333
 21
108.6149804085101
 31
0.0
  0
ELLIPSE
  5
1D6
330
1F
100
AcDbEntity
  8
0
  6
CONTINUOUS
 62
   253
100
AcDbEllipse
 10
531.7816470751768
 20
209.7183529248233
 30
0.0
 11
-1.414213562373368
 21
-1.414213562373146
 31
0.0
210
0.0
220
0.0
230
1.0
 40
0.9993150019882757
 41
3.92733343332541
 42
5.497444527443985
  0
ELLIPSE
  5
1D7
330
1F
100
AcDbEntity
  8
0
  6
CONTINUOUS
 62
   253
100
AcDbEllipse
 10
531.7816470751768
 20
108.6149804085101
 30
0.0
 11
1.414213562372924
 21
-1.414213562373035
 31
0.0
210
0.0
220
0.0
230
1.0
 40
0.9993150019884327
 41
3.927333433325384
 42
5.497444527443967
  0
LINE
  5
1D8
330
1F
100
AcDbEntity
  8
0
  6
CONTINUOUS
 62
     7
100
AcDbLine
 10
591.6920776965155
 20
137.4460820388079
 30
0.0
 11
590.5804180406379
 21
137.3492976497785
 31
0.0
  0
ARC
  5
1D9
330
1F
100
AcDbEntity
  8
0
  6
CONTINUOUS
 62
     7
100
AcDbCircle
 10
528.8333333333333
 20
213.1666666666667
 30
0.0
 40
10.00000000000001
100
AcDbArc
 50
89.99999999999996
 51
180.0
  0
LINE
  5
1DA
330
1F
100
AcDbEntity
  8
0
  6
CONTINUOUS
 62
     7
100
AcDbLine
 10
528.9953838431192
 20
132.6666666666667
 30
0.0
 11
529.7823324252253
 21
132.6666666666667
 31
0.0
  0
LINE
  5
1DB
330
1F
100
AcDbEntity
  8
0
  6
CONTINUOUS
 62
     7
100
AcDbLine
 10
529.7823324252255
 20
132.6666666666667
 30
0.0
 11
531.7816470751766
 21
132.6666666666667
 31
0.0
  0
LINE
  5
1DC
330
1F
100
AcDbEntity
  8
0
  6
CONTINUOUS
 62
   253
100
AcDbLine
 10
592.8333333333331
 20
106.6156657585589
 30
0.0
 11
592.8333333333331
 21
108.6149804085101
 31
0.0
  0
LINE
  5
1DD
330
1F
100
AcDbEntity
  8
0
  6
CONTINUOUS
 62
     7
100
AcDbLine
 10
528.9953838431192
 20
185.6666666666668
 30
0.0
 11
528.9953838431192
 21
177.6666666666665
 31
0.0
  0
LINE
  5
1DE
330
1F
100
AcDbEntity
  8
0
  6
CONTINUOUS
 62
   253
100
AcDbLine
 10
528.9953838431192
 20
140.666666666667
 30
0.0
 11
528.1333333333332
 21
140.666666666667
 31
0.0
  0
LINE
  5
1DF
330
1F
100
AcDbEntity
  8
0
  6
CONTINUOUS
 62
   253
100
AcDbLine
 10
529.7823324252257
 20
209.7183529248233
 30
0.0
 11
528.8382683137045
 21
210.6624170363447
 31
0.0
  0
LINE
  5
1E0
330
1F
100
AcDbEntity
  8
0
  6
CONTINUOUS
 62
     7
100
AcDbLine
 10
528.9953838431192
 20
132.6666666666667
 30
0.0
 11
528.6333333333332
 21
132.6666666666667
 31
0.0
  0
LINE
  5
1E1
330
1F
100
AcDbEntity
  8
0
  6
CONTINUOUS
 62
     7
100
AcDbLine
 10
528.8382683137042
 20
141.666666666667
 30
0.0
 11
528.9691979215502
 21
141.666666666667
 31
0.0
  0
LINE
  5
1E2
330
1F
100
AcDbEntity
  8
0
  6
CONTINUOUS
 62
     7
100
AcDbLine
 10
528.6333333333333
 20
185.6666666666668
 30
0.0
 11
528.9953838431194
 21
185.6666666666668
 31
0.0
  0
LINE
  5
1E3
330
1F
100
AcDbEntity
  8
0
  6
CONTINUOUS
 62
   253
100
AcDbLine
 10
531.7816470751768
 20
209.7183529248233
 30
0.0
 11
529.7823324252257
 21
209.7183529248233
 31
0.0
  0
LINE
  5
1E4
330
1F
100
AcDbEntity
  8
0
  6
CONTINUOUS
 62
   253
100
AcDbLine
 10
592.8333333333331
 20
209.7183529248233
 30
0.0
 11
592.8333333333331
 21
211.7176675747745
 31
0.0
  0
LINE
  5
1E5
330
1F
100
AcDbEntity
  8
0
  6
CONTINUOUS
 62
     7
100
AcDbLine
 10
528.9691979215503
 20
141.666666666667
 30
0.0
 11
528.9953838431194
 21
140.6666666666669
 31
0.0
  0
LINE
  5
1E6
330
1F
100
AcDbEntity
  8
0
  6
CONTINUOUS
 62
   253
100
AcDbLine
 10
531.7816470751768
 20
185.6666666666668
 30
0.0
 11
531.7816470751768
 21
132.6666666666667
 31
0.0
  0
LINE
  5
1E7
330
1F
100
AcDbEntity
  8
0
  6
CONTINUOUS
 62
     7
100
AcDbLine
 10
529.7823324252255
 20
128.6666666666665
 30
0.0
 11
528.8382683137042
 21
128.6666666666665
 31
0.0
  0
LINE
  5
1E8
330
1F
100
AcDbEntity
  8
0
  6
CONTINUOUS
 62
   253
100
AcDbLine
 10
531.7816470751768
 20
211.7176675747746
 30
0.0
 11
592.8333333333333
 21
211.7176675747746
 31
0.0
  0
LINE
  5
1E9
330
1F
100
AcDbEntity
  8
0
  6
CONTINUOUS
 62
   253
100
AcDbLine
 10
531.7816470751768
 20
108.6149804085101
 30
0.0
 11
592.8333333333333
 21
108.6149804085101
 31
0.0
  0
LINE
  5
1EA
330
1F
100
AcDbEntity
  8
0
  6
CONTINUOUS
 62
     7
100
AcDbLine
 10
593.284272620421
 20
181.9490965068362
 30
0.0
 11
593.2865439148651
 21
181.9451189319801
 31
0.0
  0
LINE
  5
1EB
330
1F
100
AcDbEntity
  8
0
  6
CONTINUOUS
 62
     7
100
AcDbLine
 10
529.7823324252257
 20
185.6666666666668
 30
0.0
 11
528.9953838431196
 21
185.6666666666668
 31
0.0
  0
LINE
  5
1EC
330
1F
100
AcDbEntity
  8
0
  6
CONTINUOUS
 62
     7
100
AcDbLine
 10
589.3432172579027
 20
186.2234363122484
 30
0.0
 11
589.333527230957
 21
186.1868511518648
 31
0.0
  0
LINE
  5
1ED
330
1F
100
AcDbEntity
  8
0
  6
CONTINUOUS
 62
     7
100
AcDbLine
 10
528.9691979215503
 20
176.6666666666665
 30
0.0
 11
528.8382683137044
 21
176.6666666666665
 31
0.0
  0
LINE
  5
1EE
330
1F
100
AcDbEntity
  8
0
  6
CONTINUOUS
 62
     7
100
AcDbLine
 10
593.8127847098626
 20
135.7902854935021
 30
0.0
 11
593.613160962609
 21
135.4436923659794
 31
0.0
  0
LINE
  5
1EF
330
1F
100
AcDbEntity
  8
0
  6
CONTINUOUS
 62
     7
100
AcDbLine
 10
594.8333333333333
 20
135.443028189666
 30
0.0
 11
594.3675577353613
 21
135.4435085908642
 31
0.0
  0
LWPOLYLINE
  5
1F0
330
1F
100
AcDbEntity
  8
0
  6
CONTINUOUS
 62
     7
100
AcDbPolyline
 90
       34
 70
     0
 43
0.0
 10
589.2783946417265
 20
185.2487574499942
 10
589.2731012572572
 20
185.2109089450181
 10
589.2682796360375
 20
185.1730001422863
 10
589.2639438334619
 20
185.1351603517892
 10
589.2601079049235
 20
185.0975188835167
 10
589.2567859058166
 20
185.0602050474589
 10
589.2539918915359
 20
185.0233481536062
 10
589.251739917474
 20
184.9870775119484
 10
589.2500327227992
 20
184.9513350205081
 10
589.2488692360107
 20
184.9161472764502
 10
589.2482503245086
 20
184.8816347756418
 10
589.2481768556945
 20
184.8479180139499
 10
589.2486496969696
 20
184.8151174872411
 10
589.249669715735
 20
184.7833536913826
 10
589.2512377793917
 20
184.7527471222411
 10
589.2533326153657
 20
184.7236204814768
 10
589.2559654517765
 20
184.6955969349913
 10
589.2591233949282
 20
184.6687651663518
 10
589.2627935511263
 20
184.643213859125
 10
589.2669630266743
 20
184.6190316968782
 10
589.2716189278775
 20
184.5963073631776
 10
589.2767483610409
 20
184.5751295415908
 10
589.282327638233
 20
184.5555948488014
 10
589.2883798675381
 20
184.5375662573552
 10
589.2948810287577
 20
184.5210909992561
 10
589.3018071016946
 20
184.5062163065073
 10
589.3091340661505
 20
184.4929894111121
 10
589.316837901928
 20
184.481457545074
 10
589.3248945888296
 20
184.4716679403965
 10
589.333540613298
 20
184.4634222879787
 10
589.3425536684613
 20
184.4569880641889
 10
589.35190078825
 20
184.4523759756978
 10
589.3615490065944
 20
184.449596729176
 10
589.3714653574251
 20
184.4486610312941
  0
LWPOLYLINE
  5
1F1
330
1F
100
AcDbEntity
  8
0
  6
CONTINUOUS
 62
     7
100
AcDbPolyline
 90
       32
 70
     0
 43
0.0
 10
590.5803058947969
 20
187.3492878812444
 10
590.5609337885192
 20
187.3474566884208
 10
590.4949053124326
 20
187.3390526846613
 10
590.429689791554
 20
187.3274192531829
 10
590.365438783407
 20
187.3126332855084
 10
590.3023007841921
 20
187.2947797246189
 10
590.2404215642647
 20
187.273952288408
 10
590.1799445560845
 20
187.2502545132846
 10
590.1210112973016
 20
187.2238012022769
 10
590.0637619005366
 20
187.1947203710179
 10
590.0083354690677
 20
187.1631557707565
 10
589.9548702930049
 20
187.1292700058409
 10
589.9035035332798
 20
187.0932481152628
 10
589.8543699308623
 20
187.0553012028561
 10
589.8075988955096
 20
187.0156692342009
 10
589.7633092209604
 20
186.9746214848149
 10
589.7216008130379
 20
186.9324524909893
 10
589.6825434229229
 20
186.8894711313527
 10
589.6461635537266
 20
186.8459812443109
 10
589.612432160461
 20
186.8022543249349
 10
589.5812566514418
 20
186.7584977933293
 10
589.5524800418008
 20
186.7148243604587
 10
589.5258877156315
 20
186.6712272199927
 10
589.5012192355135
 20
186.6275617635211
 10
589.478180617169
 20
186.5835287832917
 10
589.4564521299284
 20
186.5386483069031
 10
589.435687123248
 20
186.4922064131074
 10
589.4154967264378
 20
186.4431440910766
 10
589.3954107192856
 20
186.3898224518678
 10
589.3747901272123
 20
186.3294973299036
 10
589.35262155137
 20
186.2570029924744
 10
589.3432172579028
 20
186.2234363122484
  0
LWPOLYLINE
  5
1F2
330
1F
100
AcDbEntity
  8
0
  6
CONTINUOUS
 62
     7
100
AcDbPolyline
 90
       27
 70
     0
 43
0.0
 10
687.1433607519853
 20
184.086821169081
 10
687.1392103020248
 20
184.0158380528978
 10
687.138465840976
 20
183.9445943358827
 10
687.1411280138133
 20
183.8733377868147
 10
687.1471974655115
 20
183.8023161744731
 10
687.1571257136364
 20
183.7288699993853
 10
687.1707234992073
 20
183.6558695138893
 10
687.1879378755126
 20
183.5835883367854
 10
687.2087158958409
 20
183.5123000868729
 10
687.2288538582749
 20
183.4534285780468
 10
687.2514582395836
 20
183.3953714533677
 10
687.2764680042802
 20
183.338279543918
 10
687.3038221168779
 20
183.2823036807807
 10
687.3344045072515
 20
183.2259156805658
 10
687.3674179576282
 20
183.1708153452335
 10
687.4027707905173
 20
183.1171570189032
 10
687.4403713284307
 20
183.0650950456947
 10
687.4789416217233
 20
183.016207521539
 10
687.5195626379098
 20
182.9689176557809
 10
687.5621276068207
 20
182.9233505757269
 10
687.6065297582869
 20
182.8796314086834
 10
687.6541210517821
 20
182.8366092690126
 10
687.7035760663709
 20
182.7956324844027
 10
687.7547555039354
 20
182.7568141581051
 10
687.8075200663569
 20
182.7202673933706
 10
687.8599546148778
 20
182.6871592995124
 10
687.8954723493326
 20
182.6664102511566
  0
LWPOLYLINE
  5
1F3
330
1F
100
AcDbEntity
  8
0
  6
CONTINUOUS
 62
     7
100
AcDbPolyline
 90
       25
 70
     0
 43
0.0
 10
-689.3193519958713
 20
184.6737320741767
 10
-689.348802426847
 20
184.6714291564855
 10
-689.378152485236
 20
184.668068574646
 10
-689.407513398106
 20
184.6636472490758
 10
-689.436704137133
 20
184.6582015982552
 10
-689.4661189555353
 20
184.6516499282328
 10
-689.4952935557263
 20
184.6440870131721
 10
-689.5243308205936
 20
184.6354914570004
 10
-689.5530644693166
 20
184.6259170275953
 10
-689.5864958464173
 20
184.6134037353407
 10
-689.6194194809366
 20
184.5995924615075
 10
-689.6519845595672
 20
184.5844282044945
 10
-689.6839575825148
 20
184.5680357024837
 10
-689.7158447527138
 20
184.5501429784499
 10
-689.7470517653654
 20
184.531072596238
 10
-689.7777110523538
 20
184.510758501089
 10
-689.807625344418
 20
184.4893473857517
 10
-689.8421394605081
 20
184.4625640012847
 10
-689.8755298803161
 20
184.434372576327
 10
-689.9079721111208
 20
184.4046431815374
 10
-689.9392081455961
 20
184.3736310561068
 10
-689.9697868756396
 20
184.3407569188508
 10
-689.9990514690595
 20
184.3066910730116
 10
-690.0271427151159
 20
184.2712799377715
 10
-690.0538497365307
 20
184.2347985860407
210
0.0
220
0.0
230
-1.0
  0
LWPOLYLINE
  5
1F4
330
1F
100
AcDbEntity
  8
0
  6
CONTINUOUS
 62
     7
100
AcDbPolyline
 90
       31
 70
     0
 43
0.0
 10
589.3289088919879
 20
181.7105592137601
 10
589.335627692426
 20
181.6847549679129
 10
589.369080349623
 20
181.5703047941678
 10
589.3907209569911
 20
181.5064877289477
 10
589.4123961338588
 20
181.4488969334256
 10
589.43387992146
 20
181.3969857794881
 10
589.4557217285883
 20
181.348625773534
 10
589.4783745365337
 20
181.302445801532
 10
589.5022321455609
 20
181.2575355317697
 10
589.5276479099954
 20
181.2132904167816
 10
589.554941809757
 20
181.1693274000165
 10
589.5843964505445
 20
181.1254417637894
 10
589.6162456155918
 20
181.0815831981987
 10
589.6506603146934
 20
181.037836299643
 10
589.6877380511787
 20
180.9943964549936
 10
589.7275000596737
 20
180.9515382482612
 10
589.7698981557304
 20
180.9095794890121
 10
589.8148290212926
 20
180.8688473085063
 10
589.8621514546965
 20
180.8296521248138
 10
589.9117023159577
 20
180.7922719264548
 10
589.9633087207993
 20
180.7569458949521
 10
590.0167959778937
 20
180.7238745684164
 10
590.0782906054662
 20
180.6899384449135
 10
590.1415366270882
 20
180.6592412544231
 10
590.2060793384928
 20
180.6319970607844
 10
590.2716684233598
 20
180.6082715163483
 10
590.3380784611891
 20
180.588097616983
 10
590.4050998399925
 20
180.5714863897552
 10
590.4725352401159
 20
180.5584324632003
 10
590.5401970001113
 20
180.548917725359
 10
590.5736758295152
 20
180.545512787609
  0
LWPOLYLINE
  5
1F5
330
1F
100
AcDbEntity
  8
0
  6
CONTINUOUS
 62
   253
100
AcDbPolyline
 90
        3
 70
     0
 43
0.0
 10
-592.4580188350943
 20
191.5660224373153
 10
-587.9543333350337
 20
190.6846502590929
 10
-591.7725921896193
 20
193.2304113082445
210
0.0
220
0.0
230
-1.0
  0
LWPOLYLINE
  5
1F6
330
1F
100
AcDbEntity
  8
0
  6
CONTINUOUS
 62
     7
100
AcDbPolyline
 90
       32
 70
     0
 43
0.0
 10
-690.0538497365305
 20
184.2347985860407
 10
-690.0540918837747
 20
184.1780000782921
 10
-690.0516256590377
 20
184.1211203557296
 10
-690.0464550519976
 20
184.0643596173348
 10
-690.0385840527667
 20
184.0079180620858
 10
-690.0280166514594
 20
183.9519958889603
 10
-690.0147568381877
 20
183.8967932969368
 10
-690.0011911820937
 20
183.8499130512275
 10
-689.9856429589919
 20
183.8036136565349
 10
-689.9681401658657
 20
183.7580285263241
 10
-689.9487107996993
 20
183.7132910740603
 10
-689.9266234017105
 20
183.668053366219
 10
-689.9024719189035
 20
183.6238358577886
 10
-689.8763046675969
 20
183.5808008376397
 10
-689.8481699641095
 20
183.5391105946436
 10
-689.8207236799392
 20
183.502258036004
 10
-689.7916275054449
 20
183.4666505051506
 10
-689.7609596470686
 20
183.4324085586713
 10
-689.7287983112519
 20
183.3996527531539
 10
-689.6939315769453
 20
183.3673399027248
 10
-689.657524150874
 20
183.3367116610997
 10
-689.6196938216135
 20
183.3078879897268
 10
-689.5805583777386
 20
183.2809888500549
 10
-689.5454335780893
 20
183.2591759300134
 10
-689.5093643691292
 20
183.2389035494456
 10
-689.4724449867995
 20
183.2202526503939
 10
-689.4347696670421
 20
183.2033041749015
 10
-689.3950046089439
 20
183.1876113978126
 10
-689.3544868770051
 20
183.173848887436
 10
-689.3133518845267
 20
183.1621036325849
 10
-689.2717350448079
 20
183.1524626220716
 10
-689.2328662516542
 20
183.1454609452283
210
0.0
220
0.0
230
-1.0
  0
LWPOLYLINE
  5
1F7
330
1F
100
AcDbEntity
  8
0
  6
CONTINUOUS
 62
     7
100
AcDbPolyline
 90
      120
 70
     0
 43
0.0
 10
-689.2328662516543
 20
183.1454609452283
 10
-689.2180855293172
 20
183.1365467574492
 10
-689.1851534826804
 20
183.118012974018
 10
-689.1514407233474
 20
183.1008248591939
 10
-689.1170341716532
 20
183.0850223641656
 10
-689.0820207479344
 20
183.0706454401216
 10
-689.0454407215723
 20
183.0573724022231
 10
-689.0082895622087
 20
183.0456231133305
 10
-688.9706674277769
 20
183.0354204379116
 10
-688.9326744762094
 20
183.0267872404348
 10
-688.8943810721253
 20
183.0197344626557
 10
-688.8557915496851
 20
183.0142455046651
 10
-688.8170045552646
 20
183.0103219669252
 10
-688.778118735238
 20
183.0079654498984
 10
-688.7381203455849
 20
183.0071767008435
 10
-688.69808642272
 20
183.0080361958473
 10
-688.6581176280297
 20
183.010538442809
 10
-688.6183146228997
 20
183.0146779496272
 10
-688.5782743478488
 20
183.0205274004742
 10
-688.5384736069682
 20
183.0280354092801
 10
-688.499012800017
 20
183.0371752355742
 10
-688.4599923267558
 20
183.0479201388855
 10
-688.4203841697283
 20
183.0606241152735
 10
-688.3813102662601
 20
183.0749847168661
 10
-688.3428682901512
 20
183.0909512146424
 10
-688.3051559151995
 20
183.108472879581
 10
-688.268315207994
 20
183.1274641246031
 10
-688.2322561807246
 20
183.1479471129662
 10
-688.1970650234348
 20
183.1698678264277
 10
-688.1628279261678
 20
183.1931722467446
 10
-688.1286867504173
 20
183.2185329134838
 10
-688.0956100288829
 20
183.2453079138415
 10
-688.0636787677341
 20
183.273422998023
 10
-688.0329739731396
 20
183.3028039162339
 10
-688.0033511945376
 20
183.3336105416757
 10
-687.9750141033329
 20
183.365632934262
 10
-687.948026066713
 20
183.3987805910324
 10
-687.922450451867
 20
183.432963009027
 10
-687.8976608179308
 20
183.4691241534257
 10
-687.8743871279003
 20
183.5062932809909
 10
-687.8526780939658
 20
183.5443670626987
 10
-687.8325824283203
 20
183.583242169525
 10
-687.814088217329
 20
183.6229541788091
 10
-687.7972430889547
 20
183.6634024997563
 10
-687.7820848963803
 20
183.7044835106188
 10
-687.7686514927881
 20
183.7460935896491
 10
-687.7566571854207
 20
183.7893707002802
 10
-687.7464975216694
 20
183.8331244590603
 10
-687.738188416783
 20
183.877236286379
 10
-687.7317457860106
 20
183.9215876026255
 10
-687.7271851809801
 20
183.9659669016158
 10
-687.7244636264605
 20
184.0104971283998
 10
-687.7235710167427
 20
184.0550627497728
 10
-687.7244972461192
 20
184.0995482325299
 10
-687.7273322170258
 20
184.1451145556059
 10
-687.7320631052819
 20
184.1905137700424
 10
-687.7386748543192
 20
184.2356314653545
 10
-687.74715240757
 20
184.2803532310576
 10
-687.7575610663075
 20
184.324906749406
 10
-687.7698353687531
 20
184.3689811982349
 10
-687.7839354554771
 20
184.4124648193921
 10
-687.7998214670508
 20
184.4552458547247
 10
-687.8179966407092
 20
184.4984496485154
 10
-687.8380075978479
 20
184.5408330612868
 10
-687.8597860014823
 20
184.5822878461181
 10
-687.8832635146259
 20
184.6227057560879
 10
-687.9082110318757
 20
184.6617598889458
 10
-687.9347583908044
 20
184.699730143161
 10
-687.9628317970598
 20
184.7365264256003
 10
-687.9923574562889
 20
184.7720586431296
 10
-688.0241767285147
 20
184.8072083606801
 10
-688.0574743528754
 20
184.8409634036686
 10
-688.0921595329754
 20
184.8732400786602
 10
-688.1281414724202
 20
184.90395469222
 10
-688.165536980849
 20
184.933188585499
 10
-688.2041625113584
 20
184.9608008621588
 10
-688.2439094840795
 20
184.9867280710665
 10
-688.2846693191433
 20
185.0109067610888
 10
-688.327574280859
 20
185.0339148645655
 10
-688.3714496668218
 20
185.0550486084483
 10
-688.4161684662826
 20
185.0742657466949
 10
-688.4616036684936
 20
185.0915240332625
 10
-688.5075107810424
 20
185.1067469919801
 10
-688.5540455793187
 20
185.120006330019
 10
-688.6010907093319
 20
185.1312720629761
 10
-688.6485288170902
 20
185.1405142064492
 10
-688.6976495649135
 20
185.147890703614
 10
-688.7470939116918
 20
185.1531202135617
 10
-688.7967280520335
 20
185.1561971823346
 10
-688.8464181805493
 20
185.1571160559749
 10
-688.8958940915668
 20
185.1558862734133
 10
-688.9453279662179
 20
185.1525343354031
 10
-688.9945898466647
 20
185.1470824326394
 10
-689.0435497750684
 20
185.1395527558168
 10
-689.0934873258487
 20
185.1296685714461
 10
-689.1430084313077
 20
185.1176320024279
 10
-689.1919871089407
 20
185.1034787597207
 10
-689.2402973762413
 20
185.0872445542836
 10
-689.2879430502501
 20
185.0689180093231
 10
-689.3348362019433
 20
185.0485370452159
 10
-689.3808579307876
 20
185.0261592066119
 10
-689.4258893362507
 20
185.0018420381599
 10
-689.471108414661
 20
184.9748401266657
 10
-689.51519684218
 20
184.9458475247008
 10
-689.5580398657968
 20
184.914952296083
 10
-689.5995227324978
 20
184.8822425046295
 10
-689.6392003661824
 20
184.8481169506191
 10
-689.6774775622006
 20
184.8122955525446
 10
-689.714263327466
 20
184.7748788451074
 10
-689.7494666688937
 20
184.7359673630097
 10
-689.7839499401281
 20
184.6944684311083
 10
-689.8167036975447
 20
184.6514621837763
 10
-689.8476462579357
 20
184.6070617433709
 10
-689.8766959380937
 20
184.5613802322488
 10
-689.9095103856627
 20
184.5040091244686
 10
-689.939417834174
 20
184.4449144162809
 10
-689.96630917513
 20
184.3843279858947
 10
-689.9906473066219
 20
184.3209124099168
 10
-690.0117415011986
 20
184.2562025264299
 10
-690.029522078275
 20
184.1904614328035
210
0.0
220
0.0
230
-1.0
  0
LWPOLYLINE
  5
1F8
330
1F
100
AcDbEntity
  8
0
  6
CONTINUOUS
 62
     7
100
AcDbPolyline
 90
       32
 70
     0
 43
0.0
 10
-690.0538497365305
 20
134.2347985860407
 10
-690.0540918837747
 20
134.1780000782921
 10
-690.0516256590377
 20
134.1211203557296
 10
-690.0464550519976
 20
134.0643596173348
 10
-690.0385840527667
 20
134.0079180620856
 10
-690.0280166514594
 20
133.9519958889604
 10
-690.0147568381877
 20
133.8967932969369
 10
-690.0011911820937
 20
133.8499130512276
 10
-689.9856429589919
 20
133.8036136565349
 10
-689.9681401658657
 20
133.7580285263242
 10
-689.9487107996993
 20
133.7132910740602
 10
-689.9266234017105
 20
133.6680533662192
 10
-689.9024719189035
 20
133.6238358577884
 10
-689.8763046675969
 20
133.5808008376395
 10
-689.8481699641095
 20
133.5391105946437
 10
-689.8207236799392
 20
133.5022580360038
 10
-689.7916275054449
 20
133.4666505051505
 10
-689.7609596470686
 20
133.4324085586714
 10
-689.7287983112519
 20
133.3996527531537
 10
-689.6939315769453
 20
133.3673399027248
 10
-689.657524150874
 20
133.3367116610998
 10
-689.6196938216135
 20
133.307887989727
 10
-689.5805583777386
 20
133.2809888500549
 10
-689.5454335780893
 20
133.2591759300135
 10
-689.5093643691292
 20
133.2389035494456
 10
-689.4724449867995
 20
133.220252650394
 10
-689.4347696670421
 20
133.2033041749014
 10
-689.3950046089439
 20
133.1876113978126
 10
-689.3544868770051
 20
133.1738488874362
 10
-689.3133518845267
 20
133.1621036325848
 10
-689.2717350448079
 20
133.1524626220715
 10
-689.2328662516542
 20
133.1454609452284
210
0.0
220
0.0
230
-1.0
  0
LWPOLYLINE
  5
1F9
330
1F
100
AcDbEntity
  8
0
  6
CONTINUOUS
 62
     7
100
AcDbPolyline
 90
       34
 70
     0
 43
0.0
 10
589.2783946417265
 20
135.2487574499941
 10
589.2731012572572
 20
135.2109089450181
 10
589.2682796360375
 20
135.1730001422864
 10
589.2639438334619
 20
135.1351603517891
 10
589.2601079049235
 20
135.0975188835167
 10
589.2567859058166
 20
135.0602050474588
 10
589.2539918915359
 20
135.0233481536059
 10
589.251739917474
 20
134.9870775119483
 10
589.2500327227992
 20
134.9513350205081
 10
589.2488692360107
 20
134.9161472764502
 10
589.2482503245086
 20
134.8816347756418
 10
589.2481768556945
 20
134.8479180139497
 10
589.2486496969696
 20
134.815117487241
 10
589.249669715735
 20
134.7833536913826
 10
589.2512377793917
 20
134.7527471222411
 10
589.2533326153657
 20
134.7236204814767
 10
589.2559654517765
 20
134.6955969349913
 10
589.2591233949282
 20
134.6687651663519
 10
589.2627935511263
 20
134.6432138591252
 10
589.2669630266743
 20
134.6190316968782
 10
589.2716189278775
 20
134.5963073631777
 10
589.2767483610409
 20
134.5751295415907
 10
589.282327638233
 20
134.5555948488013
 10
589.2883798675381
 20
134.5375662573552
 10
589.2948810287577
 20
134.521090999256
 10
589.3018071016946
 20
134.506216306507
 10
589.3091340661505
 20
134.492989411112
 10
589.316837901928
 20
134.481457545074
 10
589.3248945888296
 20
134.4716679403964
 10
589.333540613298
 20
134.4634222879786
 10
589.3425536684613
 20
134.4569880641889
 10
589.35190078825
 20
134.4523759756977
 10
589.3615490065944
 20
134.4495967291759
 10
589.3714653574251
 20
134.4486610312939
  0
LWPOLYLINE
  5
1FA
330
1F
100
AcDbEntity
  8
0
  6
CONTINUOUS
 62
     7
100
AcDbPolyline
 90
       27
 70
     0
 43
0.0
 10
687.1433607519853
 20
134.0868211690812
 10
687.1392103020248
 20
134.0158380528978
 10
687.138465840976
 20
133.9445943358826
 10
687.1411280138133
 20
133.8733377868148
 10
687.1471974655115
 20
133.802316174473
 10
687.1571257136364
 20
133.7288699993852
 10
687.1707234992073
 20
133.6558695138893
 10
687.1879378755126
 20
133.5835883367852
 10
687.2087158958409
 20
133.5123000868728
 10
687.2288538582749
 20
133.4534285780467
 10
687.2514582395836
 20
133.3953714533676
 10
687.2764680042802
 20
133.338279543918
 10
687.3038221168779
 20
133.2823036807808
 10
687.3344045072515
 20
133.2259156805658
 10
687.3674179576282
 20
133.1708153452334
 10
687.4027707905173
 20
133.1171570189032
 10
687.4403713284307
 20
133.0650950456947
 10
687.4789416217233
 20
133.0162075215389
 10
687.5195626379098
 20
132.9689176557807
 10
687.5621276068207
 20
132.9233505757269
 10
687.6065297582869
 20
132.8796314086835
 10
687.6541210517821
 20
132.8366092690126
 10
687.7035760663709
 20
132.7956324844027
 10
687.7547555039354
 20
132.7568141581051
 10
687.8075200663569
 20
132.7202673933707
 10
687.8599546148778
 20
132.6871592995124
 10
687.8954723493326
 20
132.6664102511567
  0
LWPOLYLINE
  5
1FB
330
1F
100
AcDbEntity
  8
0
  6
CONTINUOUS
 62
     7
100
AcDbPolyline
 90
       32
 70
     0
 43
0.0
 10
590.5803058947969
 20
137.3492878812442
 10
590.5609337885192
 20
137.3474566884208
 10
590.4949053124326
 20
137.3390526846612
 10
590.429689791554
 20
137.3274192531829
 10
590.365438783407
 20
137.3126332855085
 10
590.3023007841921
 20
137.294779724619
 10
590.2404215642647
 20
137.2739522884081
 10
590.1799445560845
 20
137.2502545132846
 10
590.1210112973016
 20
137.2238012022769
 10
590.0637619005366
 20
137.1947203710178
 10
590.0083354690677
 20
137.1631557707564
 10
589.9548702930049
 20
137.1292700058409
 10
589.9035035332798
 20
137.0932481152628
 10
589.8543699308623
 20
137.0553012028562
 10
589.8075988955096
 20
137.0156692342011
 10
589.7633092209604
 20
136.9746214848149
 10
589.7216008130379
 20
136.9324524909893
 10
589.6825434229229
 20
136.8894711313529
 10
589.6461635537266
 20
136.8459812443106
 10
589.612432160461
 20
136.8022543249349
 10
589.5812566514418
 20
136.7584977933292
 10
589.5524800418008
 20
136.7148243604586
 10
589.5258877156315
 20
136.6712272199926
 10
589.5012192355135
 20
136.6275617635211
 10
589.478180617169
 20
136.5835287832918
 10
589.4564521299284
 20
136.538648306903
 10
589.435687123248
 20
136.4922064131074
 10
589.4154967264378
 20
136.4431440910766
 10
589.3954107192856
 20
136.3898224518679
 10
589.3747901272123
 20
136.3294973299036
 10
589.35262155137
 20
136.2570029924746
 10
589.3432172579028
 20
136.2234363122485
  0
LWPOLYLINE
  5
1FC
330
1F
100
AcDbEntity
  8
0
  6
CONTINUOUS
 62
     7
100
AcDbPolyline
 90
       25
 70
     0
 43
0.0
 10
-689.3193519958713
 20
134.6737320741767
 10
-689.348802426847
 20
134.6714291564855
 10
-689.378152485236
 20
134.6680685746458
 10
-689.407513398106
 20
134.6636472490758
 10
-689.436704137133
 20
134.6582015982551
 10
-689.4661189555353
 20
134.6516499282329
 10
-689.4952935557263
 20
134.6440870131721
 10
-689.5243308205936
 20
134.6354914570003
 10
-689.5530644693166
 20
134.6259170275952
 10
-689.5864958464173
 20
134.6134037353409
 10
-689.6194194809366
 20
134.5995924615074
 10
-689.6519845595672
 20
134.5844282044944
 10
-689.6839575825148
 20
134.5680357024837
 10
-689.7158447527138
 20
134.5501429784497
 10
-689.7470517653654
 20
134.531072596238
 10
-689.7777110523538
 20
134.5107585010888
 10
-689.807625344418
 20
134.4893473857516
 10
-689.8421394605081
 20
134.4625640012846
 10
-689.8755298803161
 20
134.4343725763269
 10
-689.9079721111208
 20
134.4046431815374
 10
-689.9392081455961
 20
134.3736310561067
 10
-689.9697868756396
 20
134.3407569188507
 10
-689.9990514690595
 20
134.3066910730116
 10
-690.0271427151159
 20
134.2712799377716
 10
-690.0538497365307
 20
134.2347985860407
210
0.0
220
0.0
230
-1.0
  0
LWPOLYLINE
  5
1FD
330
1F
100
AcDbEntity
  8
0
  6
CONTINUOUS
 62
     7
100
AcDbPolyline
 90
       31
 70
     0
 43
0.0
 10
589.3289088919879
 20
131.71055921376
 10
589.335627692426
 20
131.6847549679128
 10
589.369080349623
 20
131.5703047941677
 10
589.3907209569911
 20
131.5064877289477
 10
589.4123961338588
 20
131.4488969334257
 10
589.43387992146
 20
131.3969857794881
 10
589.4557217285883
 20
131.3486257735339
 10
589.4783745365337
 20
131.302445801532
 10
589.5022321455609
 20
131.2575355317696
 10
589.5276479099954
 20
131.2132904167816
 10
589.554941809757
 20
131.1693274000166
 10
589.5843964505445
 20
131.1254417637893
 10
589.6162456155918
 20
131.0815831981988
 10
589.6506603146934
 20
131.0378362996431
 10
589.6877380511787
 20
130.9943964549936
 10
589.7275000596737
 20
130.9515382482612
 10
589.7698981557304
 20
130.9095794890121
 10
589.8148290212926
 20
130.8688473085063
 10
589.8621514546965
 20
130.8296521248138
 10
589.9117023159577
 20
130.7922719264548
 10
589.9633087207993
 20
130.7569458949521
 10
590.0167959778937
 20
130.7238745684166
 10
590.0782906054662
 20
130.6899384449133
 10
590.1415366270882
 20
130.6592412544231
 10
590.2060793384928
 20
130.6319970607844
 10
590.2716684233598
 20
130.6082715163484
 10
590.3380784611891
 20
130.588097616983
 10
590.4050998399925
 20
130.5714863897552
 10
590.4725352401159
 20
130.5584324632004
 10
590.5401970001113
 20
130.5489177253589
 10
590.5736758295152
 20
130.545512787609
  0
LWPOLYLINE
  5
1FE
330
1F
100
AcDbEntity
  8
0
  6
CONTINUOUS
 62
     7
100
AcDbPolyline
 90
      120
 70
     0
 43
0.0
 10
-689.2328662516543
 20
133.1454609452283
 10
-689.2180855293172
 20
133.1365467574492
 10
-689.1851534826804
 20
133.118012974018
 10
-689.1514407233474
 20
133.1008248591939
 10
-689.1170341716532
 20
133.0850223641656
 10
-689.0820207479344
 20
133.0706454401216
 10
-689.0454407215723
 20
133.0573724022233
 10
-689.0082895622087
 20
133.0456231133306
 10
-688.9706674277769
 20
133.0354204379115
 10
-688.9326744762094
 20
133.0267872404347
 10
-688.8943810721253
 20
133.0197344626556
 10
-688.8557915496851
 20
133.014245504665
 10
-688.8170045552646
 20
133.010321966925
 10
-688.778118735238
 20
133.0079654498985
 10
-688.7381203455849
 20
133.0071767008432
 10
-688.69808642272
 20
133.0080361958473
 10
-688.6581176280297
 20
133.0105384428091
 10
-688.6183146228997
 20
133.0146779496272
 10
-688.5782743478488
 20
133.0205274004742
 10
-688.5384736069682
 20
133.0280354092802
 10
-688.499012800017
 20
133.0371752355742
 10
-688.4599923267558
 20
133.0479201388857
 10
-688.4203841697283
 20
133.0606241152735
 10
-688.3813102662601
 20
133.074984716866
 10
-688.3428682901512
 20
133.0909512146424
 10
-688.3051559151995
 20
133.1084728795811
 10
-688.268315207994
 20
133.1274641246033
 10
-688.2322561807246
 20
133.1479471129662
 10
-688.1970650234348
 20
133.1698678264277
 10
-688.1628279261678
 20
133.1931722467448
 10
-688.1286867504173
 20
133.2185329134839
 10
-688.0956100288829
 20
133.2453079138415
 10
-688.0636787677341
 20
133.273422998023
 10
-688.0329739731396
 20
133.3028039162339
 10
-688.0033511945376
 20
133.3336105416756
 10
-687.9750141033329
 20
133.3656329342617
 10
-687.948026066713
 20
133.3987805910324
 10
-687.922450451867
 20
133.4329630090271
 10
-687.8976608179308
 20
133.4691241534258
 10
-687.8743871279003
 20
133.506293280991
 10
-687.8526780939658
 20
133.5443670626985
 10
-687.8325824283203
 20
133.5832421695249
 10
-687.814088217329
 20
133.6229541788092
 10
-687.7972430889547
 20
133.6634024997563
 10
-687.7820848963803
 20
133.7044835106188
 10
-687.7686514927881
 20
133.7460935896491
 10
-687.7566571854207
 20
133.7893707002802
 10
-687.7464975216694
 20
133.8331244590604
 10
-687.738188416783
 20
133.8772362863789
 10
-687.7317457860106
 20
133.9215876026257
 10
-687.7271851809801
 20
133.9659669016158
 10
-687.7244636264605
 20
134.0104971283998
 10
-687.7235710167427
 20
134.0550627497727
 10
-687.7244972461192
 20
134.0995482325299
 10
-687.7273322170258
 20
134.1451145556059
 10
-687.7320631052819
 20
134.1905137700424
 10
-687.7386748543192
 20
134.2356314653544
 10
-687.74715240757
 20
134.2803532310575
 10
-687.7575610663075
 20
134.3249067494058
 10
-687.7698353687531
 20
134.368981198235
 10
-687.7839354554771
 20
134.4124648193921
 10
-687.7998214670508
 20
134.4552458547244
 10
-687.8179966407092
 20
134.4984496485154
 10
-687.8380075978479
 20
134.540833061287
 10
-687.8597860014823
 20
134.5822878461181
 10
-687.8832635146259
 20
134.6227057560879
 10
-687.9082110318757
 20
134.6617598889456
 10
-687.9347583908044
 20
134.6997301431611
 10
-687.9628317970598
 20
134.7365264256002
 10
-687.9923574562889
 20
134.7720586431294
 10
-688.0241767285147
 20
134.8072083606798
 10
-688.0574743528754
 20
134.8409634036684
 10
-688.0921595329754
 20
134.8732400786601
 10
-688.1281414724202
 20
134.9039546922202
 10
-688.165536980849
 20
134.9331885854988
 10
-688.2041625113584
 20
134.9608008621587
 10
-688.2439094840795
 20
134.9867280710664
 10
-688.2846693191433
 20
135.0109067610889
 10
-688.327574280859
 20
135.0339148645653
 10
-688.3714496668218
 20
135.0550486084482
 10
-688.4161684662826
 20
135.0742657466949
 10
-688.4616036684936
 20
135.0915240332625
 10
-688.5075107810424
 20
135.1067469919803
 10
-688.5540455793187
 20
135.1200063300189
 10
-688.6010907093319
 20
135.1312720629763
 10
-688.6485288170902
 20
135.1405142064493
 10
-688.6976495649135
 20
135.1478907036141
 10
-688.7470939116918
 20
135.1531202135617
 10
-688.7967280520335
 20
135.1561971823346
 10
-688.8464181805493
 20
135.1571160559749
 10
-688.8958940915668
 20
135.1558862734133
 10
-688.9453279662179
 20
135.1525343354031
 10
-688.9945898466647
 20
135.1470824326392
 10
-689.0435497750684
 20
135.1395527558166
 10
-689.0934873258487
 20
135.1296685714461
 10
-689.1430084313077
 20
135.1176320024279
 10
-689.1919871089407
 20
135.1034787597208
 10
-689.2402973762413
 20
135.0872445542835
 10
-689.2879430502501
 20
135.0689180093231
 10
-689.3348362019433
 20
135.0485370452159
 10
-689.3808579307876
 20
135.0261592066116
 10
-689.4258893362507
 20
135.0018420381599
 10
-689.471108414661
 20
134.9748401266658
 10
-689.51519684218
 20
134.9458475247008
 10
-689.5580398657968
 20
134.9149522960827
 10
-689.5995227324978
 20
134.8822425046293
 10
-689.6392003661824
 20
134.8481169506192
 10
-689.6774775622006
 20
134.8122955525445
 10
-689.714263327466
 20
134.7748788451075
 10
-689.7494666688937
 20
134.7359673630096
 10
-689.7839499401281
 20
134.6944684311084
 10
-689.8167036975447
 20
134.6514621837764
 10
-689.8476462579357
 20
134.6070617433707
 10
-689.8766959380937
 20
134.5613802322489
 10
-689.9095103856627
 20
134.5040091244685
 10
-689.939417834174
 20
134.4449144162809
 10
-689.96630917513
 20
134.3843279858947
 10
-689.9906473066219
 20
134.3209124099166
 10
-690.0117415011986
 20
134.2562025264299
 10
-690.0295220782751
 20
134.1904614328034
210
0.0
220
0.0
230
-1.0
  0
MTEXT
  5
1FF
330
1F
100
AcDbEntity
  8
0
 62
     7
100
AcDbMText
 10
680.4931390921771
 20
8.51893939393934
 30
0.0
 40
4.5
 41
0.0
 71
     1
 72
     1
  1
{\fＭＳ ゴシック;ＳＭ３６－ＮＣＳ}
  0
LINE
  5
200
330
1F
100
AcDbEntity
  8
0
  6
CONTINUOUS
 62
     7
100
AcDbLine
 10
566.4983220279336
 20
134.4703846606667
 30
0.0
 11
564.1423255213331
 21
130.3896790089667
 31
0.0
  0
ARC
  5
201
330
1F
100
AcDbEntity
  8
0
  6
CONTINUOUS
 62
     7
100
AcDbCircle
 10
686.7544248650137
 20
149.6666666666668
 30
0.0
 40
1.500000000000279
100
AcDbArc
 50
180.0000000000002
 51
0.0
  0
LINE
  5
202
330
1F
100
AcDbEntity
  8
0
  6
CONTINUOUS
 62
     7
100
AcDbLine
 10
691.2544248650139
 20
144.6666666666667
 30
0.0
 11
697.2544248650139
 21
144.6666666666667
 31
0.0
  0
ARC
  5
203
330
1F
100
AcDbEntity
  8
0
  6
CONTINUOUS
 62
     7
100
AcDbCircle
 10
583.6833333291333
 20
197.1666666668666
 30
0.0
 40
1.000000000000112
100
AcDbArc
 50
281.5369590338
 51
310.5416020339
  0
ARC
  5
204
330
1F
100
AcDbEntity
  8
0
  6
CONTINUOUS
 62
     7
100
AcDbCircle
 10
680.7544248650137
 20
222.6666666666666
 30
0.0
 40
0.4999999999999449
100
AcDbArc
 50
90.0
 51
180.0
  0
LINE
  5
205
330
1F
100
AcDbEntity
  8
0
  6
CONTINUOUS
 62
     7
100
AcDbLine
 10
688.254424865014
 20
149.6666666666668
 30
0.0
 11
688.254424865014
 21
157.1666666666668
 31
0.0
  0
ARC
  5
206
330
1F
100
AcDbEntity
  8
0
  6
CONTINUOUS
 62
     7
100
AcDbCircle
 10
711.2544248650141
 20
161.1666666666667
 30
0.0
 40
2.999999999999892
100
AcDbArc
 50
0.0000000000000994
 51
89.99999999999987
  0
LINE
  5
207
330
1F
100
AcDbEntity
  8
0
  6
CONTINUOUS
 62
     7
100
AcDbLine
 10
697.2557953302592
 20
221.1666666666666
 30
0.0
 11
683.2530543997683
 21
221.1666666666666
 31
0.0
  0
CIRCLE
  5
208
330
1F
100
AcDbEntity
  8
0
  6
CONTINUOUS
 62
     7
100
AcDbCircle
 10
567.3333333333335
 20
117.4166666666668
 30
0.0
 40
1.900000000000013
  0
LINE
  5
209
330
1F
100
AcDbEntity
  8
0
  6
CONTINUOUS
 62
     7
100
AcDbLine
 10
680.2544248650138
 20
95.66666666666673
 30
0.0
 11
680.2544248650138
 21
222.6666666666665
 31
0.0
  0
ARC
  5
20A
330
1F
100
AcDbEntity
  8
0
  6
CONTINUOUS
 62
     7
100
AcDbCircle
 10
567.3333333333335
 20
140.9166667279667
 30
0.0
 40
8.299999999999974
100
AcDbArc
 50
300.0000104061
 51
20.00001040609999
  0
LINE
  5
20B
330
1F
100
AcDbEntity
  8
0
  6
CONTINUOUS
 62
     7
100
AcDbLine
 10
683.2530543997683
 20
130.6666666666668
 30
0.0
 11
697.2557953302592
 21
130.6666666666668
 31
0.0
  0
LINE
  5
20C
330
1F
100
AcDbEntity
  8
0
  6
CONTINUOUS
 62
     7
100
AcDbLine
 10
680.7544248650137
 20
223.1666666666668
 30
0.0
 11
699.7544248650138
 21
223.1666666666668
 31
0.0
  0
LINE
  5
20D
330
1F
100
AcDbEntity
  8
0
  6
CONTINUOUS
 62
     7
100
AcDbLine
 10
562.6878102512329
 20
136.6703846608667
 30
0.0
 11
561.6480831136325
 21
134.8695244324668
 31
0.0
  0
ARC
  5
20E
330
1F
100
AcDbEntity
  8
0
  6
CONTINUOUS
 62
     7
100
AcDbCircle
 10
-684.7544248650139
 20
177.1666666666667
 30
0.0
 40
1.499999999999835
210
0.0
220
0.0
230
-1.0
100
AcDbArc
 50
269.9999999999995
 51
90.0
  0
LINE
  5
20F
330
1F
100
AcDbEntity
  8
0
  6
CONTINUOUS
 62
     7
100
AcDbLine
 10
683.2530543997683
 20
187.6666666666667
 30
0.0
 11
697.2557953302592
 21
187.6666666666667
 31
0.0
  0
ARC
  5
210
330
1F
100
AcDbEntity
  8
0
  6
CONTINUOUS
 62
     7
100
AcDbCircle
 10
-697.2544248650139
 20
172.6666666666668
 30
0.0
 40
0.9999999999998899
210
0.0
220
0.0
230
-1.0
100
AcDbArc
 50
90.0
 51
180.0
  0
LINE
  5
211
330
1F
100
AcDbEntity
  8
0
  6
CONTINUOUS
 62
     7
100
AcDbLine
 10
688.254424865014
 20
161.1666666666667
 30
0.0
 11
688.254424865014
 21
168.6666666666667
 31
0.0
  0
LINE
  5
212
330
1F
100
AcDbEntity
  8
0
  6
CONTINUOUS
 62
     7
100
AcDbLine
 10
698.2544248650138
 20
145.6666666666667
 30
0.0
 11
698.2544248650138
 21
154.6666666666667
 31
0.0
  0
ARC
  5
213
330
1F
100
AcDbEntity
  8
0
  6
CONTINUOUS
 62
     7
100
AcDbCircle
 10
695.754424865014
 20
141.1666666666667
 30
0.0
 40
1.499999999999835
100
AcDbArc
 50
270.0000000000005
 51
89.9999999999991
  0
LINE
  5
214
330
1F
100
AcDbEntity
  8
0
  6
CONTINUOUS
 62
     7
100
AcDbLine
 10
581.9833333354336
 20
203.8666666667666
 30
0.0
 11
580.3333333354337
 21
201.8666666667666
 31
0.0
  0
LINE
  5
215
330
1F
100
AcDbEntity
  8
0
  6
CONTINUOUS
 62
     7
100
AcDbLine
 10
580.3333333354338
 20
174.6666666669666
 30
0.0
 11
580.3333333354338
 21
201.8666666667664
 31
0.0
  0
LINE
  5
216
330
1F
100
AcDbEntity
  8
0
  6
CONTINUOUS
 62
     7
100
AcDbLine
 10
581.9833333354336
 20
203.8666666667666
 30
0.0
 11
574.6833333354327
 21
203.8666666667666
 31
0.0
  0
ARC
  5
217
330
1F
100
AcDbEntity
  8
0
  6
CONTINUOUS
 62
     7
100
AcDbCircle
 10
695.754424865014
 20
134.1666666666666
 30
0.0
 40
1.499999999999835
100
AcDbArc
 50
270.0000000000005
 51
89.99999999999902
  0
ARC
  5
218
330
1F
100
AcDbEntity
  8
0
  6
CONTINUOUS
 62
     7
100
AcDbCircle
 10
-701.2544248650141
 20
165.1666666666667
 30
0.0
 40
1.000000000000112
210
0.0
220
0.0
230
-1.0
100
AcDbArc
 50
270.0
 51
359.9999999999998
  0
LINE
  5
219
330
1F
100
AcDbEntity
  8
0
  6
CONTINUOUS
 62
     7
100
AcDbLine
 10
688.7544248650141
 20
157.6666666666667
 30
0.0
 11
709.7544248650141
 21
157.6666666666667
 31
0.0
  0
LINE
  5
21A
330
1F
100
AcDbEntity
  8
0
  6
CONTINUOUS
 62
     7
100
AcDbLine
 10
584.7123333350335
 20
174.1666666669666
 30
0.0
 11
584.3333333350337
 21
174.6666666669667
 31
0.0
  0
ELLIPSE
  5
21B
330
1F
100
AcDbEntity
  8
0
  6
CONTINUOUS
 62
     7
100
AcDbEllipse
 10
683.2557972110118
 20
129.6652943206687
 30
0.0
 11
-0.7090462434351519
 21
0.7090462434350409
 31
0.0
210
0.0
220
0.0
230
-1.0
 40
0.9972646886341533
 41
5.499156671652532
 42
7.067213942706642
  0
ARC
  5
21C
330
1F
100
AcDbEntity
  8
0
  6
CONTINUOUS
 62
     7
100
AcDbCircle
 10
-691.2544248650139
 20
163.6666666666667
 30
0.0
 40
0.9999999999998899
210
0.0
220
0.0
230
-1.0
100
AcDbArc
 50
270.0
 51
0.0
  0
LINE
  5
21D
330
1F
100
AcDbEntity
  8
0
  6
CONTINUOUS
 62
     7
100
AcDbLine
 10
684.7544248650139
 20
132.6666666666667
 30
0.0
 11
695.7544248650138
 21
132.6666666666667
 31
0.0
  0
ARC
  5
21E
330
1F
100
AcDbEntity
  8
0
  6
CONTINUOUS
 62
     7
100
AcDbCircle
 10
567.3333333333335
 20
140.9166667279667
 30
0.0
 40
11.00000000000012
100
AcDbArc
 50
226.8634414308
 51
253.1365588794999
  0
LINE
  5
21F
330
1F
100
AcDbEntity
  8
0
  6
CONTINUOUS
 62
     7
100
AcDbLine
 10
584.3333333350338
 20
201.8666666667664
 30
0.0
 11
588.3333333350333
 21
201.8666666667664
 31
0.0
  0
LINE
  5
220
330
1F
100
AcDbEntity
  8
0
  6
CONTINUOUS
 62
     7
100
AcDbLine
 10
587.9543333350337
 20
174.1666666669666
 30
0.0
 11
584.7123333350335
 21
174.1666666669666
 31
0.0
  0
ARC
  5
221
330
1F
100
AcDbEntity
  8
0
  6
CONTINUOUS
 62
     7
100
AcDbCircle
 10
583.6833333291333
 20
197.1666666668666
 30
0.0
 40
1.000000000000112
100
AcDbArc
 50
49.4583979661
 51
78.4630409669
  0
ARC
  5
222
330
1F
100
AcDbEntity
  8
0
  6
CONTINUOUS
 62
     7
100
AcDbCircle
 10
-691.2544248650139
 20
154.6666666666668
 30
0.0
 40
0.9999999999998899
210
0.0
220
0.0
230
-1.0
100
AcDbArc
 50
0.0
 51
90.0
  0
LINE
  5
223
330
1F
100
AcDbEntity
  8
0
  6
CONTINUOUS
 62
     7
100
AcDbLine
 10
584.3333333350338
 20
174.6666666669666
 30
0.0
 11
584.3333333350338
 21
201.8666666667664
 31
0.0
  0
LINE
  5
224
330
1F
100
AcDbEntity
  8
0
  6
CONTINUOUS
 62
     7
100
AcDbLine
 10
711.2544248650141
 20
164.1666666666666
 30
0.0
 11
701.2544248650141
 21
164.1666666666666
 31
0.0
  0
ARC
  5
225
330
1F
100
AcDbEntity
  8
0
  6
CONTINUOUS
 62
     7
100
AcDbCircle
 10
-688.7544248650141
 20
161.1666666666667
 30
0.0
 40
0.500000000000167
210
0.0
220
0.0
230
-1.0
100
AcDbArc
 50
269.9999999999996
 51
0.0
  0
LINE
  5
226
330
1F
100
AcDbEntity
  8
0
  6
CONTINUOUS
 62
     7
100
AcDbLine
 10
559.8121985024336
 20
132.8896790089667
 30
0.0
 11
561.210998036334
 21
135.3124708713667
 31
0.0
  0
LINE
  5
227
330
1F
100
AcDbEntity
  8
0
  6
CONTINUOUS
 62
     7
100
AcDbLine
 10
714.254424865014
 20
159.1666666666667
 30
0.0
 11
714.254424865014
 21
161.1666666666667
 31
0.0
  0
ELLIPSE
  5
228
330
1F
100
AcDbEntity
  8
0
  6
CONTINUOUS
 62
     7
100
AcDbEllipse
 10
683.2557972110118
 20
188.6680390126645
 30
0.0
 11
-0.7090462434351521
 21
-0.7090462434349299
 31
0.0
210
0.0
220
0.0
230
-1.0
 40
0.9972646886342311
 41
5.499156671652528
 42
7.067213942706635
  0
LINE
  5
229
330
1F
100
AcDbEntity
  8
0
  6
CONTINUOUS
 62
     7
100
AcDbLine
 10
695.754424865014
 20
142.6666666666668
 30
0.0
 11
684.7544248650141
 21
142.6666666666668
 31
0.0
  0
ELLIPSE
  5
22A
330
1F
100
AcDbEntity
  8
0
  6
CONTINUOUS
 62
     7
100
AcDbEllipse
 10
697.2530525190161
 20
98.16803901266464
 30
0.0
 11
0.7090462434351519
 21
-0.7090462434350409
 31
0.0
210
0.0
220
0.0
230
-1.0
 40
0.9972646886342313
 41
5.499156671652516
 42
7.06721394270664
  0
ELLIPSE
  5
22B
330
1F
100
AcDbEntity
  8
0
  6
CONTINUOUS
 62
     7
100
AcDbEllipse
 10
683.2557972110118
 20
98.16803901266464
 30
0.0
 11
-0.7090462434351519
 21
-0.7090462434350409
 31
0.0
210
0.0
220
0.0
230
-1.0
 40
0.9972646886341533
 41
5.499156671652528
 42
7.067213942706656
  0
ARC
  5
22C
330
1F
100
AcDbEntity
  8
0
  6
CONTINUOUS
 62
     7
100
AcDbCircle
 10
-697.2544248650139
 20
145.6666666666667
 30
0.0
 40
0.9999999999998899
210
0.0
220
0.0
230
-1.0
100
AcDbArc
 50
180.0
 51
270.0
  0
ARC
  5
22D
330
1F
100
AcDbEntity
  8
0
  6
CONTINUOUS
 62
     7
100
AcDbCircle
 10
-691.2544248650139
 20
172.6666666666668
 30
0.0
 40
0.9999999999998899
210
0.0
220
0.0
230
-1.0
100
AcDbArc
 50
0.0
 51
90.0
  0
LINE
  5
22E
330
1F
100
AcDbEntity
  8
0
  6
CONTINUOUS
 62
     7
100
AcDbLine
 10
714.254424865014
 20
157.1666666666667
 30
0.0
 11
714.254424865014
 21
159.1666666666666
 31
0.0
  0
ARC
  5
22F
330
1F
100
AcDbEntity
  8
0
  6
CONTINUOUS
 62
     7
100
AcDbCircle
 10
709.7544248650138
 20
159.1666666666667
 30
0.0
 40
1.500000000001611
100
AcDbArc
 50
269.9999999999994
 51
90.0
  0
ARC
  5
230
330
1F
100
AcDbEntity
  8
0
  6
CONTINUOUS
 62
     7
100
AcDbCircle
 10
699.7544248650138
 20
95.66666666666673
 30
0.0
 40
0.500000000000167
100
AcDbArc
 50
270.0
 51
0.0
  0
LINE
  5
231
330
1F
100
AcDbEntity
  8
0
  6
CONTINUOUS
 62
     7
100
AcDbLine
 10
698.2544248650138
 20
172.6666666666668
 30
0.0
 11
698.2544248650138
 21
163.6666666666668
 31
0.0
  0
LINE
  5
232
330
1F
100
AcDbEntity
  8
0
  6
CONTINUOUS
 62
     7
100
AcDbLine
 10
563.5833333333331
 20
159.5416666666669
 30
0.0
 11
567.3333333333331
 21
159.5416666666669
 31
0.0
  0
LINE
  5
233
330
1F
100
AcDbEntity
  8
0
  6
CONTINUOUS
 62
     7
100
AcDbLine
 10
576.3333333354334
 20
174.6666666669666
 30
0.0
 11
576.712333335434
 21
174.1666666669667
 31
0.0
  0
ARC
  5
234
330
1F
100
AcDbEntity
  8
0
  6
CONTINUOUS
 62
     7
100
AcDbCircle
 10
-688.7544248650141
 20
157.1666666666667
 30
0.0
 40
0.500000000000167
210
0.0
220
0.0
230
-1.0
100
AcDbArc
 50
0.0000000000011927
 51
90.00000000000001
  0
LINE
  5
235
330
1F
100
AcDbEntity
  8
0
  6
CONTINUOUS
 62
     7
100
AcDbLine
 10
594.8019602999335
 20
206.1666666666668
 30
0.0
 11
539.8647063667339
 21
206.1666666666668
 31
0.0
  0
LINE
  5
236
330
1F
100
AcDbEntity
  8
0
  6
CONTINUOUS
 62
     7
100
AcDbLine
 10
580.7833333333332
 20
196.1868707697668
 30
0.0
 11
580.7833333333332
 21
192.6666666668667
 31
0.0
  0
LINE
  5
237
330
1F
100
AcDbEntity
  8
0
  6
CONTINUOUS
 62
     7
100
AcDbLine
 10
690.254424865014
 20
154.6666666666668
 30
0.0
 11
690.254424865014
 21
145.6666666666668
 31
0.0
  0
LINE
  5
238
330
1F
100
AcDbEntity
  8
0
  6
CONTINUOUS
 62
     7
100
AcDbLine
 10
682.2544248650138
 20
98.16529620142128
 30
0.0
 11
682.2544248650138
 21
129.6680371319121
 31
0.0
  0
LINE
  5
239
330
1F
100
AcDbEntity
  8
0
  6
CONTINUOUS
 62
     7
100
AcDbLine
 10
576.712333335434
 20
174.1666666669666
 30
0.0
 11
579.9543333354342
 21
174.1666666669666
 31
0.0
  0
LINE
  5
23A
330
1F
100
AcDbEntity
  8
0
  6
CONTINUOUS
 62
     7
100
AcDbLine
 10
581.9833333354336
 20
204.1666666667668
 30
0.0
 11
581.9833333354336
 21
203.8666666667664
 31
0.0
  0
ARC
  5
23B
330
1F
100
AcDbEntity
  8
0
  6
CONTINUOUS
 62
     7
100
AcDbCircle
 10
684.7544248650139
 20
141.1666666666667
 30
0.0
 40
1.499999999999835
100
AcDbArc
 50
89.99999999999955
 51
270.0
  0
ARC
  5
23C
330
1F
100
AcDbEntity
  8
0
  6
CONTINUOUS
 62
     7
100
AcDbCircle
 10
686.7544248650137
 20
168.6666666666667
 30
0.0
 40
1.499999999999835
100
AcDbArc
 50
0.0000000000001325
 51
180.0
  0
LINE
  5
23D
330
1F
100
AcDbEntity
  8
0
  6
CONTINUOUS
 62
     7
100
AcDbLine
 10
594.8019602999335
 20
112.1666666666669
 30
0.0
 11
539.8647063667339
 21
112.1666666666669
 31
0.0
  0
LINE
  5
23E
330
1F
100
AcDbEntity
  8
0
  6
CONTINUOUS
 62
     7
100
AcDbLine
 10
700.254424865014
 20
222.6666666666666
 30
0.0
 11
700.254424865014
 21
165.1666666666667
 31
0.0
  0
LINE
  5
23F
330
1F
100
AcDbEntity
  8
0
  6
CONTINUOUS
 62
     7
100
AcDbLine
 10
698.2544248650138
 20
188.6652962014213
 30
0.0
 11
698.2544248650138
 21
220.1680371319121
 31
0.0
  0
ELLIPSE
  5
240
330
1F
100
AcDbEntity
  8
0
  6
CONTINUOUS
 62
     7
100
AcDbEllipse
 10
683.2557972110118
 20
220.1652943206687
 30
0.0
 11
-0.7090462434351519
 21
0.7090462434350409
 31
0.0
210
0.0
220
0.0
230
-1.0
 40
0.99726468863431
 41
5.49915667165252
 42
7.067213942706642
  0
LINE
  5
241
330
1F
100
AcDbEntity
  8
0
  6
CONTINUOUS
 62
     7
100
AcDbLine
 10
690.254424865014
 20
163.6666666666667
 30
0.0
 11
690.254424865014
 21
172.6666666666667
 31
0.0
  0
LINE
  5
242
330
1F
100
AcDbEntity
  8
0
  6
CONTINUOUS
 62
     7
100
AcDbLine
 10
697.2557953302592
 20
97.16666666666667
 30
0.0
 11
683.2530543997683
 21
97.16666666666667
 31
0.0
  0
LINE
  5
243
330
1F
100
AcDbEntity
  8
0
  6
CONTINUOUS
 62
     7
100
AcDbLine
 10
536.2974349484338
 20
159.9166666666665
 30
0.0
 11
536.2974349484338
 21
161.1666666666668
 31
0.0
  0
LINE
  5
244
330
1F
100
AcDbEntity
  8
0
  6
CONTINUOUS
 62
     7
100
AcDbLine
 10
576.3333333354334
 20
174.6666666669666
 30
0.0
 11
576.3333333354334
 21
201.8666666667664
 31
0.0
  0
LINE
  5
245
330
1F
100
AcDbEntity
  8
0
  6
CONTINUOUS
 62
     7
100
AcDbLine
 10
573.1938138032331
 20
202.1666666666669
 30
0.0
 11
573.1938138032331
 21
199.6666666666668
 31
0.0
  0
LINE
  5
246
330
1F
100
AcDbEntity
  8
0
  6
CONTINUOUS
 62
     7
100
AcDbLine
 10
539.8333333333334
 20
159.9166666666665
 30
0.0
 11
532.3333333333333
 21
159.9166666666665
 31
0.0
  0
LINE
  5
247
330
1F
100
AcDbEntity
  8
0
  6
CONTINUOUS
 62
     7
100
AcDbLine
 10
576.3333333354334
 20
192.6666666668667
 30
0.0
 11
574.333333333334
 21
192.6666666668667
 31
0.0
  0
ELLIPSE
  5
248
330
1F
100
AcDbEntity
  8
0
  6
CONTINUOUS
 62
     7
100
AcDbEllipse
 10
697.2530525190161
 20
220.1652943206687
 30
0.0
 11
0.7090462434351519
 21
0.7090462434350409
 31
0.0
210
0.0
220
0.0
230
-1.0
 40
0.997264688634075
 41
5.499156671652532
 42
7.067213942706656
  0
LINE
  5
249
330
1F
100
AcDbEntity
  8
0
  6
________________
 62
     7
100
AcDbLine
 10
576.193813803233
 20
117.4166666666668
 30
0.0
 11
558.4728528635329
 21
117.4166666666668
 31
0.0
  0
LINE
  5
24B
330
1F
100
AcDbEntity
  8
0
  6
CONTINUOUS
 62
     7
100
AcDbLine
 10
573.1938138032331
 20
202.1666666666669
 30
0.0
 11
571.9159090283337
 21
202.1666666666669
 31
0.0
  0
CIRCLE
  5
24C
330
1F
100
AcDbEntity
  8
0
  6
CONTINUOUS
 62
     7
100
AcDbCircle
 10
567.3333333333335
 20
117.4166666666668
 30
0.0
 40
2.999999999999892
  0
CIRCLE
  5
24D
330
1F
100
AcDbEntity
  8
0
  6
CONTINUOUS
 62
     7
100
AcDbCircle
 10
567.3333333333335
 20
200.9166666666669
 30
0.0
 40
1.900000000000013
  0
ARC
  5
24E
330
1F
100
AcDbEntity
  8
0
  6
CONTINUOUS
 62
     7
100
AcDbCircle
 10
580.9833333375338
 20
197.1666666668666
 30
0.0
 40
1.000000000000334
100
AcDbArc
 50
101.5369590331
 51
130.5416020338
  0
LINE
  5
24F
330
1F
100
AcDbEntity
  8
0
  6
CONTINUOUS
 62
     7
100
AcDbLine
 10
580.3333333354338
 20
200.1666666668665
 30
0.0
 11
584.3333333350338
 21
200.1666666668665
 31
0.0
  0
LINE
  5
250
330
1F
100
AcDbEntity
  8
0
  6
CONTINUOUS
 62
     7
100
AcDbLine
 10
579.9543333354342
 20
174.1666666669666
 30
0.0
 11
580.3333333354338
 21
174.6666666669667
 31
0.0
  0
LINE
  5
251
330
1F
100
AcDbEntity
  8
0
  6
CONTINUOUS
 62
     7
100
AcDbLine
 10
565.5653841408832
 20
160.1666666666666
 30
0.0
 11
565.5653841408832
 21
159.5416666666667
 31
0.0
  0
LINE
  5
252
330
1F
100
AcDbEntity
  8
0
  6
CONTINUOUS
 62
     7
100
AcDbLine
 10
533.2773864832614
 20
158.4166666666668
 30
0.0
 11
538.5273864832616
 21
158.4166666666668
 31
0.0
  0
LINE
  5
253
330
1F
100
AcDbEntity
  8
0
  6
CONTINUOUS
 62
     7
100
AcDbLine
 10
584.3333333350338
 20
174.6666666669666
 30
0.0
 11
588.3333333350333
 21
174.6666666669666
 31
0.0
  0
LINE
  5
254
330
1F
100
AcDbEntity
  8
0
  6
CONTINUOUS
 62
     7
100
AcDbLine
 10
582.683333335033
 20
203.8666666667666
 30
0.0
 11
584.3333333350336
 21
201.8666666667666
 31
0.0
  0
LINE
  5
255
330
1F
100
AcDbEntity
  8
0
  6
CONTINUOUS
 62
     7
100
AcDbLine
 10
588.3333333350333
 20
201.8666666667664
 30
0.0
 11
589.9833333350332
 21
203.8666666667663
 31
0.0
  0
LINE
  5
256
330
1F
100
AcDbEntity
  8
0
  6
CENTER
 62
     1
100
AcDbLine
 10
564.8333333333333
 20
40.4166666666666
 30
0.0
 11
564.8333333333333
 21
-6.583333333333364
 31
0.0
  0
ARC
  5
258
330
1F
100
AcDbEntity
  8
0
  6
CONTINUOUS
 62
     7
100
AcDbCircle
 10
543.833333333334
 20
205.6666666666668
 30
0.0
 40
3.999999999999559
100
AcDbArc
 50
90.0
 51
180.0
  0
LINE
  5
259
330
1F
100
AcDbEntity
  8
0
  6
CONTINUOUS
 62
     7
100
AcDbLine
 10
582.683333335033
 20
203.8666666667666
 30
0.0
 11
589.9833333350331
 21
203.8666666667666
 31
0.0
  0
ARC
  5
25A
330
1F
100
AcDbEntity
  8
0
  6
CONTINUOUS
 62
     7
100
AcDbCircle
 10
590.8333333333337
 20
112.6666666666665
 30
0.0
 40
1.499999999999835
100
AcDbArc
 50
270.0
 51
0.0
  0
ARC
  5
25B
330
1F
100
AcDbEntity
  8
0
  6
CONTINUOUS
 62
     7
100
AcDbCircle
 10
590.8333333333337
 20
112.6666666666665
 30
0.0
 40
3.999999999999559
100
AcDbArc
 50
270.0
 51
0.0
  0
LINE
  5
25C
330
1F
100
AcDbEntity
  8
0
  6
CONTINUOUS
 62
     7
100
AcDbLine
 10
539.8333333333334
 20
112.6666666666665
 30
0.0
 11
539.8333333333334
 21
205.6666666666669
 31
0.0
  0
LINE
  5
25D
330
1F
100
AcDbEntity
  8
0
  6
CONTINUOUS
 62
     7
100
AcDbLine
 10
587.9543333350337
 20
174.1666666669666
 30
0.0
 11
587.9543333350337
 21
201.8666666667665
 31
0.0
  0
ARC
  5
25E
330
1F
100
AcDbEntity
  8
0
  6
CONTINUOUS
 62
     7
100
AcDbCircle
 10
567.3333333333335
 20
140.9166667279667
 30
0.0
 40
6.49999999999995
100
AcDbArc
 50
300.0000104061
 51
20.00001040609999
  0
LINE
  5
25F
330
1F
100
AcDbEntity
  8
0
  6
CONTINUOUS
 62
     7
100
AcDbLine
 10
594.8333333333333
 20
182.4166666666667
 30
0.0
 11
594.8333333333333
 21
135.9166666666667
 31
0.0
  0
LINE
  5
260
330
1F
100
AcDbEntity
  8
0
  6
CONTINUOUS
 62
     7
100
AcDbLine
 10
532.8333332724335
 20
209.6666666665668
 30
0.0
 11
590.8333333333339
 21
209.6666666666669
 31
0.0
  0
LINE
  5
261
330
1F
100
AcDbEntity
  8
0
  6
CONTINUOUS
 62
     7
100
AcDbLine
 10
571.9159090283337
 20
118.6666666666669
 30
0.0
 11
573.1938138032331
 21
118.6666666666669
 31
0.0
  0
LINE
  5
262
330
1F
100
AcDbEntity
  8
0
  6
CONTINUOUS
 62
     7
100
AcDbLine
 10
574.6833333354328
 20
204.1666666667668
 30
0.0
 11
581.9833333354337
 21
204.1666666667668
 31
0.0
  0
ARC
  5
263
330
1F
100
AcDbEntity
  8
0
  6
CONTINUOUS
 62
     7
100
AcDbCircle
 10
-697.2544248650139
 20
163.6666666666667
 30
0.0
 40
0.9999999999998899
210
0.0
220
0.0
230
-1.0
100
AcDbArc
 50
180.0
 51
270.0
  0
LINE
  5
264
330
1F
100
AcDbEntity
  8
0
  6
CONTINUOUS
 62
     7
100
AcDbLine
 10
539.8333333333334
 20
124.1666666666669
 30
0.0
 11
594.8333333333331
 21
124.1666666666669
 31
0.0
  0
LINE
  5
265
330
1F
100
AcDbEntity
  8
0
  6
CONTINUOUS
 62
     7
100
AcDbLine
 10
576.3333333354334
 20
201.8666666667664
 30
0.0
 11
574.6833333354328
 21
203.8666666667663
 31
0.0
  0
LINE
  5
266
330
1F
100
AcDbEntity
  8
0
  6
CONTINUOUS
 62
     7
100
AcDbLine
 10
588.3333333350333
 20
174.6666666669666
 30
0.0
 11
587.9543333350337
 21
174.1666666669667
 31
0.0
  0
ARC
  5
267
330
1F
100
AcDbEntity
  8
0
  6
CONTINUOUS
 62
     7
100
AcDbCircle
 10
580.9833333375338
 20
197.1666666668666
 30
0.0
 40
1.000000000000334
100
AcDbArc
 50
229.4583979662
 51
258.4630409662
  0
LINE
  5
268
330
1F
100
AcDbEntity
  8
0
  6
CONTINUOUS
 62
     7
100
AcDbLine
 10
695.754424865014
 20
135.6666666666667
 30
0.0
 11
684.7544248650141
 21
135.6666666666667
 31
0.0
  0
LINE
  5
269
330
1F
100
AcDbEntity
  8
0
  6
CONTINUOUS
 62
     7
100
AcDbLine
 10
574.6833333354328
 20
203.8666666667666
 30
0.0
 11
574.6833333354328
 21
204.1666666667669
 31
0.0
  0
LINE
  5
26A
330
1F
100
AcDbEntity
  8
0
  6
CONTINUOUS
 62
     7
100
AcDbLine
 10
583.8833333333329
 20
198.6666666668667
 30
0.0
 11
583.8833333333329
 21
198.1464625639669
 31
0.0
  0
LINE
  5
26B
330
1F
100
AcDbEntity
  8
0
  6
CONTINUOUS
 62
     7
100
AcDbLine
 10
590.333333333334
 20
204.1666666667668
 30
0.0
 11
590.333333333334
 21
198.6666666668667
 31
0.0
  0
LINE
  5
26C
330
1F
100
AcDbEntity
  8
0
  6
CONTINUOUS
 62
     7
100
AcDbLine
 10
570.583334355733
 20
135.2875021935668
 30
0.0
 11
571.4833346388341
 21
133.7286566302668
 31
0.0
  0
LINE
  5
26D
330
1F
100
AcDbEntity
  8
0
  6
CONTINUOUS
 62
     7
100
AcDbLine
 10
565.5653841408832
 20
158.7916666666667
 30
0.0
 11
565.5653841408832
 21
158.1666666666667
 31
0.0
  0
LINE
  5
26E
330
1F
100
AcDbEntity
  8
0
  6
CONTINUOUS
 62
     7
100
AcDbLine
 10
573.1938138032331
 20
116.166666666667
 30
0.0
 11
573.1938138032331
 21
118.6666666666669
 31
0.0
  0
LINE
  5
26F
330
1F
100
AcDbEntity
  8
0
  6
CONTINUOUS
 62
     7
100
AcDbLine
 10
539.8333333333334
 20
190.1666666666669
 30
0.0
 11
532.3333333333331
 21
190.1666666666669
 31
0.0
  0
LINE
  5
270
330
1F
100
AcDbEntity
  8
0
  6
CONTINUOUS
 62
     7
100
AcDbLine
 10
580.3333333354338
 20
174.6666666669666
 30
0.0
 11
576.3333333354336
 21
174.6666666669666
 31
0.0
  0
ARC
  5
271
330
1F
100
AcDbEntity
  8
0
  6
CONTINUOUS
 62
     7
100
AcDbCircle
 10
590.8333333333337
 20
205.6666666666668
 30
0.0
 40
1.499999999999835
100
AcDbArc
 50
0.0
 51
90.0
  0
ARC
  5
272
330
1F
100
AcDbEntity
  8
0
  6
CONTINUOUS
 62
     7
100
AcDbCircle
 10
543.833333333334
 20
112.6666666666665
 30
0.0
 40
3.999999999999559
100
AcDbArc
 50
180.0
 51
270.0
  0
LINE
  5
273
330
1F
100
AcDbEntity
  8
0
  6
CONTINUOUS
 62
     7
100
AcDbLine
 10
561.4728528635333
 20
116.166666666667
 30
0.0
 11
561.4728528635333
 21
118.6666666666669
 31
0.0
  0
ARC
  5
274
330
1F
100
AcDbEntity
  8
0
  6
CONTINUOUS
 62
     7
100
AcDbCircle
 10
575.3333333371338
 20
204.1666666667668
 30
0.0
 40
1.000000000000556
100
AcDbArc
 50
90.0
 51
180.0
  0
LINE
  5
275
330
1F
100
AcDbEntity
  8
0
  6
CONTINUOUS
 62
     7
100
AcDbLine
 10
580.3333333354338
 20
201.8666666667664
 30
0.0
 11
576.3333333354336
 21
201.8666666667664
 31
0.0
  0
CIRCLE
  5
276
330
1F
100
AcDbEntity
  8
0
  6
CONTINUOUS
 62
     7
100
AcDbCircle
 10
567.3333333333335
 20
200.9166666666669
 30
0.0
 40
2.999999999999892
  0
LINE
  5
277
330
1F
100
AcDbEntity
  8
0
  6
CONTINUOUS
 62
     7
100
AcDbLine
 10
566.833333333333
 20
159.5416666666669
 30
0.0
 11
566.833333333333
 21
158.7916666666669
 31
0.0
  0
ARC
  5
278
330
1F
100
AcDbEntity
  8
0
  6
CONTINUOUS
 62
     7
100
AcDbCircle
 10
574.333333333334
 20
193.1666666668665
 30
0.0
 40
0.4999999999995008
100
AcDbArc
 50
180.0
 51
270.0
  0
LINE
  5
279
330
1F
100
AcDbEntity
  8
0
  6
CONTINUOUS
 62
     7
100
AcDbLine
 10
539.8333333333334
 20
194.1666666666668
 30
0.0
 11
594.833333333333
 21
194.1666666666668
 31
0.0
  0
CIRCLE
  5
27A
330
1F
100
AcDbEntity
  8
0
  6
CONTINUOUS
 62
     7
100
AcDbCircle
 10
577.2333333333332
 20
140.9166667279667
 30
0.0
 40
1.500000000000279
  0
ARC
  5
27B
330
1F
100
AcDbEntity
  8
0
  6
CONTINUOUS
 62
     7
100
AcDbCircle
 10
588.9833333333336
 20
197.1666666668666
 30
0.0
 40
1.000000000000334
100
AcDbArc
 50
229.4583979662
 51
258.4630409662
  0
LINE
  5
27C
330
1F
100
AcDbEntity
  8
0
  6
CONTINUOUS
 62
     7
100
AcDbLine
 10
576.712333335434
 20
174.1666666669666
 30
0.0
 11
576.712333335434
 21
201.8666666667665
 31
0.0
  0
LINE
  5
27D
330
1F
100
AcDbEntity
  8
0
  6
CONTINUOUS
 62
     7
100
AcDbLine
 10
543.833333333334
 20
111.166666666667
 30
0.0
 11
590.8333333333337
 21
111.166666666667
 31
0.0
  0
ARC
  5
27E
330
1F
100
AcDbEntity
  8
0
  6
CONTINUOUS
 62
     7
100
AcDbCircle
 10
588.9833333333336
 20
197.1666666668666
 30
0.0
 40
1.000000000000334
100
AcDbArc
 50
101.5369590331
 51
130.5416020338
  0
LINE
  5
27F
330
1F
100
AcDbEntity
  8
0
  6
CONTINUOUS
 62
     7
100
AcDbLine
 10
590.8333333371334
 20
193.1666666668665
 30
0.0
 11
590.8333333371334
 21
198.1666666668665
 31
0.0
  0
LINE
  5
280
330
1F
100
AcDbEntity
  8
0
  6
CONTINUOUS
 62
     7
100
AcDbLine
 10
532.3333333333333
 20
128.1666666666668
 30
0.0
 11
539.8333333333336
 21
128.1666666666668
 31
0.0
  0
LINE
  5
281
330
1F
100
AcDbEntity
  8
0
  6
CONTINUOUS
 62
     7
100
AcDbLine
 10
536.2974349484338
 20
157.1666666666667
 30
0.0
 11
536.2974349484338
 21
158.4166666666668
 31
0.0
  0
LINE
  5
282
330
1F
100
AcDbEntity
  8
0
  6
CONTINUOUS
 62
     7
100
AcDbLine
 10
588.3333333350333
 20
174.6666666669666
 30
0.0
 11
588.3333333350333
 21
201.8666666667664
 31
0.0
  0
LINE
  5
283
330
1F
100
AcDbEntity
  8
0
  6
CENTER
 62
     1
100
AcDbLine
 10
675.254424865014
 20
159.1666666666667
 30
0.0
 11
720.2544248650141
 21
159.1666666666667
 31
0.0
  0
LINE
  5
284
330
1F
100
AcDbEntity
  8
0
  6
CONTINUOUS
 62
     7
100
AcDbLine
 10
594.8333333333333
 20
112.6666666666665
 30
0.0
 11
594.8333333333333
 21
205.6666666666667
 31
0.0
  0
ELLIPSE
  5
285
330
1F
100
AcDbEntity
  8
0
  6
CONTINUOUS
 62
     7
100
AcDbEllipse
 10
602.4423783284853
 20
18.74557513498604
 30
0.0
 11
0.0
 21
0.4999999999999449
 31
0.0
210
0.0
220
0.0
230
-1.0
 40
0.1908089953759561
 41
1.570796326794897
 42
3.141592653589793
  0
LINE
  5
286
330
1F
100
AcDbEntity
  8
0
  6
CONTINUOUS
 62
     7
100
AcDbLine
 10
575.8833333333331
 20
192.6666666668667
 30
0.0
 11
575.8833333333331
 21
196.1868707697667
 31
0.0
  0
LWPOLYLINE
  5
287
330
1F
100
AcDbEntity
  8
0
  6
CONTINUOUS
 62
     7
100
AcDbPolyline
 90
        4
 70
     0
 43
0.0
 10
-599.9457271505788
 20
15.24557513498598
 42
0.0638278901090009
 10
-599.851278291786
 20
14.38784652498565
 10
-599.7703994434793
 20
14.25039040831383
 10
-599.7513468414412
 20
14.24557513498601
210
0.0
220
0.0
230
-1.0
  0
LINE
  5
288
330
1F
100
AcDbEntity
  8
0
  6
CONTINUOUS
 62
     7
100
AcDbLine
 10
562.6878119037335
 20
136.6703837067667
 30
0.0
 11
566.4983236803338
 21
134.4703837066666
 31
0.0
  0
LINE
  5
289
330
1F
100
AcDbEntity
  8
0
  6
CONTINUOUS
 62
     7
100
AcDbLine
 10
590.3333333273333
 20
192.6666666668667
 30
0.0
 11
588.333333335033
 21
192.6666666668667
 31
0.0
  0
ARC
  5
28A
330
1F
100
AcDbEntity
  8
0
  6
CONTINUOUS
 62
     7
100
AcDbCircle
 10
590.8333333333337
 20
205.6666666666668
 30
0.0
 40
3.999999999999559
100
AcDbArc
 50
0.0
 51
90.0
  0
LINE
  5
28B
330
1F
100
AcDbEntity
  8
0
  6
CONTINUOUS
 62
     7
100
AcDbLine
 10
532.3333333333335
 20
158.4166666666668
 30
0.0
 11
539.8333333333337
 21
158.4166666666668
 31
0.0
  0
LINE
  5
28C
330
1F
100
AcDbEntity
  8
0
  6
CONTINUOUS
 62
     7
100
AcDbLine
 10
561.4728528635333
 20
202.1666666666669
 30
0.0
 11
562.7507576383332
 21
202.1666666666669
 31
0.0
  0
ARC
  5
28D
330
1F
100
AcDbEntity
  8
0
  6
CONTINUOUS
 62
     7
100
AcDbCircle
 10
-533.2773864832614
 20
159.1666666666669
 30
0.0
 40
0.7500000000002505
210
0.0
220
0.0
230
-1.0
100
AcDbArc
 50
270.0
 51
90.0
  0
LINE
  5
28E
330
1F
100
AcDbEntity
  8
0
  6
CONTINUOUS
 62
     7
100
AcDbLine
 10
606.8333333333334
 20
14.24557513498598
 30
0.0
 11
603.6389530241956
 21
14.24557513498598
 31
0.0
  0
ARC
  5
28F
330
1F
100
AcDbEntity
  8
0
  6
CONTINUOUS
 62
     7
100
AcDbCircle
 10
574.333333333334
 20
198.1666666668665
 30
0.0
 40
0.4999999999995008
100
AcDbArc
 50
90.0
 51
180.0
  0
LINE
  5
290
330
1F
100
AcDbEntity
  8
0
  6
CONTINUOUS
 62
     7
100
AcDbLine
 10
568.3333333333336
 20
112.7731227613669
 30
0.0
 11
568.3333333333336
 21
111.1666666666669
 31
0.0
  0
LINE
  5
291
330
1F
100
AcDbEntity
  8
0
  6
CONTINUOUS
 62
     7
100
AcDbLine
 10
563.1833320278334
 20
148.104676825567
 30
0.0
 11
564.0833323109329
 21
146.5458312622669
 31
0.0
  0
LINE
  5
292
330
1F
100
AcDbEntity
  8
0
  6
CONTINUOUS
 62
     7
100
AcDbLine
 10
536.2974349484338
 20
161.1666666666669
 30
0.0
 11
534.1323714390336
 21
159.9166666666666
 31
0.0
  0
LINE
  5
293
330
1F
100
AcDbEntity
  8
0
  6
CONTINUOUS
 62
     7
100
AcDbLine
 10
601.4035794691117
 20
18.74557513498604
 30
0.0
 11
601.4035794691117
 21
29.74557513498605
 31
0.0
  0
LINE
  5
294
330
1F
100
AcDbEntity
  8
0
  6
CONTINUOUS
 62
     7
100
AcDbLine
 10
603.8333333333333
 20
15.24557513498598
 30
0.0
 11
603.8333333333333
 21
33.24557513498595
 31
0.0
  0
ARC
  5
295
330
1F
100
AcDbEntity
  8
0
  6
CONTINUOUS
 62
     7
100
AcDbCircle
 10
567.3333333333335
 20
140.9166667279667
 30
0.0
 40
6.49999999999995
100
AcDbArc
 50
120.0000104061
 51
200.0000104061
  0
LINE
  5
296
330
1F
100
AcDbEntity
  8
0
  6
CONTINUOUS
 62
     7
100
AcDbLine
 10
573.4556686302334
 20
146.5208624618666
 30
0.0
 11
574.8544681641329
 21
148.9436543242669
 31
0.0
  0
LINE
  5
297
330
1F
100
AcDbEntity
  8
0
  6
CONTINUOUS
 62
     7
100
AcDbLine
 10
534.1323714390331
 20
158.4166666666668
 30
0.0
 11
536.2974349410327
 21
157.1666666709666
 31
0.0
  0
LINE
  5
298
330
1F
100
AcDbEntity
  8
0
  6
CONTINUOUS
 62
     7
100
AcDbLine
 10
574.333333333334
 20
198.6666666668667
 30
0.0
 11
576.3333333354334
 21
198.6666666668667
 31
0.0
  0
ARC
  5
299
330
1F
100
AcDbEntity
  8
0
  6
CONTINUOUS
 62
     7
100
AcDbCircle
 10
567.3333333333335
 20
140.9166667279667
 30
0.0
 40
11.00000000000012
100
AcDbArc
 50
46.8634409947
 51
73.13655869499999
  0
LINE
  5
29A
330
1F
100
AcDbEntity
  8
0
  6
CONTINUOUS
 62
     7
100
AcDbLine
 10
575.132781570233
 20
143.7554353340667
 30
0.0
 11
573.4413349646333
 21
143.1397987688667
 31
0.0
  0
CIRCLE
  5
29B
330
1F
100
AcDbEntity
  8
0
  6
CONTINUOUS
 62
     7
100
AcDbCircle
 10
567.3333333333335
 20
117.4166666666668
 30
0.0
 40
2.150000000000318
  0
LINE
  5
29C
330
1F
100
AcDbEntity
  8
0
  6
CONTINUOUS
 62
     7
100
AcDbLine
 10
573.1938138032331
 20
116.166666666667
 30
0.0
 11
571.9159090283337
 21
116.166666666667
 31
0.0
  0
LINE
  5
29D
330
1F
100
AcDbEntity
  8
0
  6
CONTINUOUS
 62
     7
100
AcDbLine
 10
568.3333333333336
 20
205.5602105718666
 30
0.0
 11
568.3333333333336
 21
207.1666666666668
 31
0.0
  0
LINE
  5
29E
330
1F
100
AcDbEntity
  8
0
  6
CONTINUOUS
 62
     7
100
AcDbLine
 10
575.8833333333331
 20
198.1464625639669
 30
0.0
 11
575.8833333333331
 21
198.6666666668667
 31
0.0
  0
CIRCLE
  5
29F
330
1F
100
AcDbEntity
  8
0
  6
CONTINUOUS
 62
     7
100
AcDbCircle
 10
567.3333333333335
 20
200.9166666666669
 30
0.0
 40
2.150000000000318
  0
ARC
  5
2A0
330
1F
100
AcDbEntity
  8
0
  6
CONTINUOUS
 62
     7
100
AcDbCircle
 10
590.3333333273333
 20
193.1666666668665
 30
0.0
 40
0.4999999999999449
100
AcDbArc
 50
270.0
 51
0.0
  0
LINE
  5
2A1
330
1F
100
AcDbEntity
  8
0
  6
CONTINUOUS
 62
     7
100
AcDbLine
 10
568.1683433726339
 20
147.3629504183666
 30
0.0
 11
571.9788551492333
 21
145.1629504182667
 31
0.0
  0
ARC
  5
2A2
330
1F
100
AcDbEntity
  8
0
  6
CONTINUOUS
 62
     7
100
AcDbCircle
 10
-536.7773864831618
 20
159.1666666666669
 30
0.0
 40
0.7500000000002505
210
0.0
220
0.0
230
-1.0
100
AcDbArc
 50
90.0
 51
270.0
  0
LINE
  5
2A3
330
1F
100
AcDbEntity
  8
0
  6
CONTINUOUS
 62
     7
100
AcDbLine
 10
606.8333333333334
 20
34.24557513498599
 30
0.0
 11
606.8333333333334
 21
33.24557513498594
 31
0.0
  0
LINE
  5
2A4
330
1F
100
AcDbEntity
  8
0
  6
CONTINUOUS
 62
     7
100
AcDbLine
 10
566.3333333333338
 20
111.166666666667
 30
0.0
 11
566.3333333333338
 21
112.7731227613669
 31
0.0
  0
LINE
  5
2A5
330
1F
100
AcDbEntity
  8
0
  6
CONTINUOUS
 62
     7
100
AcDbLine
 10
561.4728528635333
 20
116.166666666667
 30
0.0
 11
562.7507576383332
 21
116.166666666667
 31
0.0
  0
LINE
  5
2A6
330
1F
100
AcDbEntity
  8
0
  6
CONTINUOUS
 62
     7
100
AcDbLine
 10
538.5273864832616
 20
159.9166666666668
 30
0.0
 11
533.2773864832614
 21
159.9166666666668
 31
0.0
  0
LINE
  5
2A7
330
1F
100
AcDbEntity
  8
0
  6
CONTINUOUS
 62
     7
100
AcDbLine
 10
601.4035794691117
 20
29.74557513498604
 30
0.0
 11
601.5007696236805
 21
30.24557513498599
 31
0.0
  0
CIRCLE
  5
2A8
330
1F
100
AcDbEntity
  8
0
  6
CONTINUOUS
 62
     7
100
AcDbCircle
 10
567.3333333333335
 20
200.9166666666669
 30
0.0
 40
4.749999999999366
  0
LINE
  5
2A9
330
1F
100
AcDbEntity
  8
0
  6
CONTINUOUS
 62
     7
100
AcDbLine
 10
562.7507576383331
 20
118.6666666666669
 30
0.0
 11
561.4728528635331
 21
118.6666666666669
 31
0.0
  0
LINE
  5
2AA
330
1F
100
AcDbEntity
  8
0
  6
CONTINUOUS
 62
     7
100
AcDbLine
 10
592.3333333333338
 20
205.6666666666668
 30
0.0
 11
592.3333333333336
 21
112.6666666666667
 31
0.0
  0
LINE
  5
2AB
330
1F
100
AcDbEntity
  8
0
  6
CONTINUOUS
 62
     7
100
AcDbLine
 10
543.8333333333683
 20
209.6666666670717
 30
0.0
 11
590.8333333333334
 21
209.6666666666667
 31
0.0
  0
LINE
  5
2AC
330
1F
100
AcDbEntity
  8
0
  6
________________
 62
     7
100
AcDbLine
 10
552.9333333333333
 20
140.9166667279667
 30
0.0
 11
581.7333333333338
 21
140.9166719585666
 31
0.0
  0
CIRCLE
  5
2AD
330
1F
100
AcDbEntity
  8
0
  6
CONTINUOUS
 62
     7
100
AcDbCircle
 10
567.3333333333335
 20
117.4166666666668
 30
0.0
 40
4.749999999999366
  0
LINE
  5
2AE
330
1F
100
AcDbEntity
  8
0
  6
CONTINUOUS
 62
     7
100
AcDbLine
 10
582.683333335033
 20
204.1666666667668
 30
0.0
 11
582.683333335033
 21
203.8666666667664
 31
0.0
  0
LINE
  5
2AF
330
1F
100
AcDbEntity
  8
0
  6
________________
 62
     7
100
AcDbLine
 10
567.3333333333335
 20
211.6666666671668
 30
0.0
 11
567.3333333333335
 21
106.6666666666665
 31
0.0
  0
LINE
  5
2B0
330
1F
100
AcDbEntity
  8
0
  6
CENTER
 62
     1
100
AcDbLine
 10
681.754424865014
 20
234.1666666666667
 30
0.0
 11
698.7544248650139
 21
234.1666666666667
 31
0.0
  0
LINE
  5
2B1
330
1F
100
AcDbEntity
  8
0
  6
CONTINUOUS
 62
     7
100
AcDbLine
 10
561.2253317019333
 20
138.6935346869666
 30
0.0
 11
559.5338850963336
 21
138.0778981217666
 31
0.0
  0
LINE
  5
2B2
330
1F
100
AcDbEntity
  8
0
  6
CONTINUOUS
 62
     7
100
AcDbLine
 10
589.9833333350331
 20
203.8666666667666
 30
0.0
 11
589.9833333350331
 21
204.1666666667669
 31
0.0
  0
LINE
  5
2B3
330
1F
100
AcDbEntity
  8
0
  6
CONTINUOUS
 62
     7
100
AcDbLine
 10
562.7507576383331
 20
199.6666666666668
 30
0.0
 11
561.4728528635331
 21
199.6666666666668
 31
0.0
  0
LINE
  5
2B4
330
1F
100
AcDbEntity
  8
0
  6
CONTINUOUS
 62
     7
100
AcDbLine
 10
567.3333333333335
 20
158.7916666666667
 30
0.0
 11
563.5833333333334
 21
158.7916666666667
 31
0.0
  0
LINE
  5
2B5
330
1F
100
AcDbEntity
  8
0
  6
CONTINUOUS
 62
     7
100
AcDbLine
 10
543.8333333333269
 20
108.6666666667476
 30
0.0
 11
590.8333333333335
 21
108.6666666666666
 31
0.0
  0
LINE
  5
2B6
330
1F
100
AcDbEntity
  8
0
  6
CONTINUOUS
 62
     7
100
AcDbLine
 10
589.9833333350331
 20
204.1666666667668
 30
0.0
 11
582.683333335033
 21
204.1666666667668
 31
0.0
  0
ARC
  5
2B7
330
1F
100
AcDbEntity
  8
0
  6
CONTINUOUS
 62
     7
100
AcDbCircle
 10
543.833333333334
 20
205.6666666666668
 30
0.0
 40
1.500000000000057
100
AcDbArc
 50
90.0
 51
180.0
  0
LINE
  5
2B8
330
1F
100
AcDbEntity
  8
0
  6
CONTINUOUS
 62
     7
100
AcDbLine
 10
588.3333333350333
 20
200.1666666668665
 30
0.0
 11
590.3333333333342
 21
200.1666666668665
 31
0.0
  0
LINE
  5
2B9
330
1F
100
AcDbEntity
  8
0
  6
CONTINUOUS
 62
     7
100
AcDbLine
 10
579.9543333354342
 20
201.8666666667664
 30
0.0
 11
579.9543333354342
 21
174.1666666669666
 31
0.0
  0
LINE
  5
2BA
330
1F
100
AcDbEntity
  8
0
  6
CONTINUOUS
 62
     7
100
AcDbLine
 10
601.5007696236805
 20
30.24557513498599
 30
0.0
 11
602.442378328485
 21
30.24557513498599
 31
0.0
  0
LINE
  5
2BB
330
1F
100
AcDbEntity
  8
0
  6
CONTINUOUS
 62
     7
100
AcDbLine
 10
542.3333333333337
 20
205.6666666666668
 30
0.0
 11
542.3333333333337
 21
112.6666666666667
 31
0.0
  0
LINE
  5
2BC
330
1F
100
AcDbEntity
  8
0
  6
CONTINUOUS
 62
     7
100
AcDbLine
 10
538.8333333333333
 20
158.4166666666668
 30
0.0
 11
538.8333333333333
 21
159.9166666666665
 31
0.0
  0
LINE
  5
2BD
330
1F
100
AcDbEntity
  8
0
  6
________________
 62
     7
100
AcDbLine
 10
558.4728528635329
 20
200.9166666666669
 30
0.0
 11
576.0833333333331
 21
200.9166666666669
 31
0.0
  0
LINE
  5
2BE
330
1F
100
AcDbEntity
  8
0
  6
CONTINUOUS
 62
     7
100
AcDbLine
 10
590.8333333333337
 20
207.1666666666669
 30
0.0
 11
543.833333333334
 21
207.1666666666669
 31
0.0
  0
LINE
  5
2BF
330
1F
100
AcDbEntity
  8
0
  6
CONTINUOUS
 62
     7
100
AcDbLine
 10
571.9159090283337
 20
199.6666666666668
 30
0.0
 11
573.1938138032331
 21
199.6666666666668
 31
0.0
  0
LINE
  5
2C0
330
1F
100
AcDbEntity
  8
0
  6
CONTINUOUS
 62
     7
100
AcDbLine
 10
573.8333333333334
 20
193.1666666668665
 30
0.0
 11
573.8333333333334
 21
198.1666666668665
 31
0.0
  0
LINE
  5
2C1
330
1F
100
AcDbEntity
  8
0
  6
CONTINUOUS
 62
     7
100
AcDbLine
 10
573.0185835986341
 20
146.9638089798667
 30
0.0
 11
571.9788568549337
 21
145.1629494333667
 31
0.0
  0
LINE
  5
2C2
330
1F
100
AcDbEntity
  8
0
  6
CONTINUOUS
 62
     7
100
AcDbLine
 10
532.3333333333333
 20
190.1666666666669
 30
0.0
 11
532.3333333333333
 21
128.1666666666669
 31
0.0
  0
LINE
  5
2C3
330
1F
100
AcDbEntity
  8
0
  6
CONTINUOUS
 62
     7
100
AcDbLine
 10
528.8333333333333
 20
35.41666666666671
 30
0.0
 11
594.8333333333333
 21
35.41666666666671
 31
0.0
  0
LINE
  5
2C4
330
1F
100
AcDbEntity
  8
0
  6
CONTINUOUS
 62
   253
100
AcDbLine
 10
529.0552153960899
 20
34.13412534753862
 30
0.0
 11
527.504296193985
 21
34.16301114703506
 31
0.0
  0
ARC
  5
2C5
330
1F
100
AcDbEntity
  8
0
  6
CONTINUOUS
 62
     7
100
AcDbCircle
 10
590.3333333200336
 20
198.1666666668665
 30
0.0
 40
0.4999999999995008
100
AcDbArc
 50
0.0
 51
90.0
  0
LINE
  5
2C6
330
1F
100
AcDbEntity
  8
0
  6
CONTINUOUS
 62
     7
100
AcDbLine
 10
566.3333333333338
 20
207.1666666666669
 30
0.0
 11
566.3333333333338
 21
205.5602105718667
 31
0.0
  0
LINE
  5
2C7
330
1F
100
AcDbEntity
  8
0
  6
CONTINUOUS
 62
   253
100
AcDbLine
 10
606.8333333333334
 20
3.245575134986078
 30
0.0
 11
597.8333333333334
 21
3.245575134986078
 31
0.0
  0
ARC
  5
2C8
330
1F
100
AcDbEntity
  8
0
  6
CONTINUOUS
 62
     7
100
AcDbCircle
 10
567.3333333333335
 20
140.9166667279667
 30
0.0
 40
8.299999999999974
100
AcDbArc
 50
222.4700185791
 51
257.5299818244
  0
ARC
  5
2C9
330
1F
100
AcDbEntity
  8
0
  6
CONTINUOUS
 62
     7
100
AcDbCircle
 10
575.6833333333335
 20
197.1666666668666
 30
0.0
 40
1.000000000000112
100
AcDbArc
 50
49.4583979661
 51
78.4630409668
  0
LINE
  5
2CA
330
1F
100
AcDbEntity
  8
0
  6
CENTER
 62
     1
100
AcDbLine
 10
540.8333333329333
 20
159.1666666669356
 30
0.0
 11
593.8333333337689
 21
159.1666666664788
 31
0.0
  0
LINE
  5
2CB
330
1F
100
AcDbEntity
  8
0
  6
CONTINUOUS
 62
   253
100
AcDbLine
 10
549.8333333333334
 20
12.54928420805995
 30
0.0
 11
549.8333333333334
 21
17.54585804494639
 31
0.0
  0
ELLIPSE
  5
2CC
330
1F
100
AcDbEntity
  8
0
  6
CONTINUOUS
 62
   253
100
AcDbEllipse
 10
530.8485370765627
 20
34.07249525289674
 30
0.0
 11
-4.501580990518672
 21
0.002568992077844892
 31
0.0
210
0.0
220
0.0
230
-1.0
 40
0.1337981327419185
 41
1.106566746369616
 42
1.566531071697898
  0
ARC
  5
2CD
330
1F
100
AcDbEntity
  8
0
  6
CONTINUOUS
 62
     7
100
AcDbCircle
 10
567.3333333333335
 20
140.9166667279667
 30
0.0
 40
8.299999999999974
100
AcDbArc
 50
42.4700179548
 51
77.52998164180002
  0
LINE
  5
2CE
330
1F
100
AcDbEntity
  8
0
  6
CONTINUOUS
 62
     7
100
AcDbLine
 10
606.8333333333334
 20
3.245575134986078
 30
0.0
 11
606.8333333333334
 21
0.2455751349860553
 31
0.0
  0
ARC
  5
2CF
330
1F
100
AcDbEntity
  8
0
  6
CONTINUOUS
 62
     7
100
AcDbCircle
 10
597.8333333333334
 20
1.245575134985966
 30
0.0
 40
0.9999999999998899
100
AcDbArc
 50
180.0
 51
270.0
  0
CIRCLE
  5
2D0
330
1F
100
AcDbEntity
  8
0
  6
CONTINUOUS
 62
     7
100
AcDbCircle
 10
557.4333333333334
 20
140.9166667279667
 30
0.0
 40
1.499999999999835
  0
LINE
  5
2D1
330
1F
100
AcDbEntity
  8
0
  6
CONTINUOUS
 62
   253
100
AcDbLine
 10
606.8333333333334
 20
33.24557513498588
 30
0.0
 11
603.8333333333334
 21
33.24557513498588
 31
0.0
  0
LINE
  5
2D2
330
1F
100
AcDbEntity
  8
0
  6
CONTINUOUS
 62
     7
100
AcDbLine
 10
518.833333333333
 20
37.41666666666671
 30
0.0
 11
528.833333333333
 21
37.41666666666671
 31
0.0
  0
LINE
  5
2D3
330
1F
100
AcDbEntity
  8
0
  6
CONTINUOUS
 62
     7
100
AcDbLine
 10
599.7513468414412
 20
34.24557513498599
 30
0.0
 11
603.6389530241956
 21
34.24557513498599
 31
0.0
  0
LINE
  5
2D4
330
1F
100
AcDbEntity
  8
0
  6
CONTINUOUS
 62
     7
100
AcDbLine
 10
602.4423783284853
 20
18.24557513498598
 30
0.0
 11
601.5007696236808
 21
18.24557513498598
 31
0.0
  0
ELLIPSE
  5
2D5
330
1F
100
AcDbEntity
  8
0
  6
CONTINUOUS
 62
   253
100
AcDbEllipse
 10
592.8333333333331
 20
33.57688130255537
 30
0.0
 11
-3.999999999999782
 21
0.0
 31
0.0
210
0.0
220
0.0
230
1.0
 40
0.1538492709458412
 41
4.251834988703369
 42
4.71238898038469
  0
LWPOLYLINE
  5
2D6
330
1F
100
AcDbEntity
  8
0
  6
CONTINUOUS
 62
     7
100
AcDbPolyline
 90
        3
 70
     0
 43
0.0
 10
603.6389530241956
 20
14.24557513498598
 10
603.7388844745403
 20
14.38784652498565
 42
0.0713707009889868
 10
603.8333333333336
 20
15.24557513498598
  0
LWPOLYLINE
  5
2D7
330
1F
100
AcDbEntity
  8
0
  6
CONTINUOUS
 62
     7
100
AcDbPolyline
 90
        4
 70
     0
 43
0.0
 10
603.8333333333333
 20
33.24557513498588
 42
0.0638278901090007
 10
603.7388844745403
 20
34.10330374498621
 10
603.6580056262337
 20
34.24075986165814
 10
603.6389530241956
 20
34.24557513498603
  0
LINE
  5
2D8
330
1F
100
AcDbEntity
  8
0
  6
CONTINUOUS
 62
     7
100
AcDbLine
 10
564.4828523861834
 20
159.5416666666669
 30
0.0
 11
565.5653841371833
 21
160.1666666645168
 31
0.0
  0
LINE
  5
2D9
330
1F
100
AcDbEntity
  8
0
  6
CONTINUOUS
 62
   253
100
AcDbLine
 10
601.4035794691117
 20
18.74557513498604
 30
0.0
 11
602.5377828261733
 21
18.74557513498604
 31
0.0
  0
ELLIPSE
  5
2DA
330
1F
100
AcDbEntity
  8
0
  6
CONTINUOUS
 62
   253
100
AcDbEllipse
 10
530.8467852319694
 20
33.64378154850117
 30
0.0
 11
-4.017485451209168
 21
0.6154044463695384
 31
0.0
210
0.0
220
0.0
230
1.0
 40
0.0031682454984374
 41
5.695550773229476
 42
6.283755875806974
  0
LINE
  5
2DB
330
1F
100
AcDbEntity
  8
0
  6
CONTINUOUS
 62
   253
100
AcDbLine
 10
544.8333333333335
 20
17.54585804494641
 30
0.0
 11
549.8333333333334
 21
17.54585804494641
 31
0.0
  0
LINE
  5
2DC
330
1F
100
AcDbEntity
  8
0
  6
CONTINUOUS
 62
     7
100
AcDbLine
 10
583.8833333333329
 20
196.1868707697668
 30
0.0
 11
583.8833333333329
 21
192.6666666668667
 31
0.0
  0
LINE
  5
2DD
330
1F
100
AcDbEntity
  8
0
  6
CONTINUOUS
 62
     7
100
AcDbLine
 10
588.7833333333332
 20
198.1464625639669
 30
0.0
 11
588.7833333333332
 21
198.6666666668667
 31
0.0
  0
LINE
  5
2DE
330
1F
100
AcDbEntity
  8
0
  6
CONTINUOUS
 62
     7
100
AcDbLine
 10
589.3333333333337
 20
205.1666666667667
 30
0.0
 11
575.333333337134
 21
205.1666666667667
 31
0.0
  0
ARC
  5
2DF
330
1F
100
AcDbEntity
  8
0
  6
CONTINUOUS
 62
     7
100
AcDbCircle
 10
-589.3333333333326
 20
204.1666666667668
 30
0.0
 40
1.000000000000112
210
0.0
220
0.0
230
-1.0
100
AcDbArc
 50
90.0
 51
180.0
  0
LINE
  5
2E0
330
1F
100
AcDbEntity
  8
0
  6
CONTINUOUS
 62
     7
100
AcDbLine
 10
590.333333333334
 20
198.6666666668667
 30
0.0
 11
588.3333333350332
 21
198.6666666668667
 31
0.0
  0
LINE
  5
2E1
330
1F
100
AcDbEntity
  8
0
  6
CONTINUOUS
 62
     7
100
AcDbLine
 10
584.3333333350338
 20
192.6666666668667
 30
0.0
 11
580.3333333354341
 21
192.6666666668667
 31
0.0
  0
LINE
  5
2E2
330
1F
100
AcDbEntity
  8
0
  6
CONTINUOUS
 62
     7
100
AcDbLine
 10
603.6389530241956
 20
34.24557513498599
 30
0.0
 11
606.8333333333334
 21
34.24557513498599
 31
0.0
  0
LINE
  5
2E3
330
1F
100
AcDbEntity
  8
0
  6
CONTINUOUS
 62
     7
100
AcDbLine
 10
518.833333333333
 20
35.41666666666671
 30
0.0
 11
518.833333333333
 21
37.41666666666667
 31
0.0
  0
LINE
  5
2E4
330
1F
100
AcDbEntity
  8
0
  6
CONTINUOUS
 62
     7
100
AcDbLine
 10
601.5007696236805
 20
18.24557513498598
 30
0.0
 11
601.4035794691117
 21
18.74557513498599
 31
0.0
  0
LINE
  5
2E5
330
1F
100
AcDbEntity
  8
0
  6
CONTINUOUS
 62
     7
100
AcDbLine
 10
604.8333333333331
 20
35.41666666666671
 30
0.0
 11
604.8333333333331
 21
37.41666666666667
 31
0.0
  0
LINE
  5
2E6
330
1F
100
AcDbEntity
  8
0
  6
CONTINUOUS
 62
     7
100
AcDbLine
 10
527.154741662654
 20
34.64047888942395
 30
0.0
 11
521.3333333333334
 21
35.41666666666666
 31
0.0
  0
LINE
  5
2E7
330
1F
100
AcDbEntity
  8
0
  6
CONTINUOUS
 62
     7
100
AcDbLine
 10
599.7513468414412
 20
14.24557513498598
 30
0.0
 11
603.6389530241956
 21
14.24557513498598
 31
0.0
  0
ELLIPSE
  5
2E8
330
1F
100
AcDbEntity
  8
0
  6
CONTINUOUS
 62
     7
100
AcDbEllipse
 10
602.4423783284853
 20
29.74557513498604
 30
0.0
 11
0.0
 21
0.4999999999999449
 31
0.0
210
0.0
220
0.0
230
-1.0
 40
0.1908089953759561
 41
0.0
 42
1.570796326794897
  0
LINE
  5
2E9
330
1F
100
AcDbEntity
  8
0
  6
CONTINUOUS
 62
     7
100
AcDbLine
 10
597.8333333333334
 20
34.24557513498599
 30
0.0
 11
599.7513468414413
 21
34.24557513498599
 31
0.0
  0
ELLIPSE
  5
2EA
330
1F
100
AcDbEntity
  8
0
  6
CONTINUOUS
 62
   253
100
AcDbEllipse
 10
592.8333333333331
 20
34.07249525289674
 30
0.0
 11
-4.499999999999726
 21
0.0
 31
0.0
210
0.0
220
0.0
230
-1.0
 40
0.1338463576954547
 41
1.570796326794897
 42
2.031350318476215
  0
LINE
  5
2EB
330
1F
100
AcDbEntity
  8
0
  6
CONTINUOUS
 62
     7
100
AcDbLine
 10
574.333333329633
 20
200.1666666668665
 30
0.0
 11
576.3333333354334
 21
200.1666666668665
 31
0.0
  0
LINE
  5
2EC
330
1F
100
AcDbEntity
  8
0
  6
CONTINUOUS
 62
   253
100
AcDbLine
 10
606.8333333333334
 20
13.24557513498598
 30
0.0
 11
597.8333333333334
 21
13.24557513498598
 31
0.0
  0
LINE
  5
2ED
330
1F
100
AcDbEntity
  8
0
  6
CONTINUOUS
 62
     7
100
AcDbLine
 10
599.7513468414412
 20
14.24557513498598
 30
0.0
 11
597.8333333333334
 21
14.24557513498598
 31
0.0
  0
LINE
  5
2EE
330
1F
100
AcDbEntity
  8
0
  6
CONTINUOUS
 62
     7
100
AcDbLine
 10
602.5377828261733
 20
29.74557513498604
 30
0.0
 11
602.5377828261733
 21
18.74557513498603
 31
0.0
  0
ARC
  5
2EF
330
1F
100
AcDbEntity
  8
0
  6
CONTINUOUS
 62
     7
100
AcDbCircle
 10
575.6833333333335
 20
197.1666666668666
 30
0.0
 40
1.000000000000112
100
AcDbArc
 50
281.5369590339001
 51
310.5416020339001
  0
ELLIPSE
  5
2F0
330
1F
100
AcDbEntity
  8
0
  6
CONTINUOUS
 62
   253
100
AcDbEllipse
 10
530.8485370765627
 20
33.57688130255537
 30
0.0
 11
-4.001756365495934
 21
0.01636610869759636
 31
0.0
210
0.0
220
0.0
230
1.0
 40
0.1537620968590262
 41
4.717729925907479
 42
5.177694251235756
  0
LINE
  5
2F1
330
1F
100
AcDbEntity
  8
0
  6
CONTINUOUS
 62
     7
100
AcDbLine
 10
596.5092541839181
 20
34.64012278007794
 30
0.0
 11
602.3333333333335
 21
35.41666666666668
 31
0.0
  0
LINE
  5
2F2
330
1F
100
AcDbEntity
  8
0
  6
CONTINUOUS
 62
     7
100
AcDbLine
 10
584.7123333350335
 20
201.8666666667664
 30
0.0
 11
584.7123333350335
 21
174.1666666669666
 31
0.0
  0
LINE
  5
2F3
330
1F
100
AcDbEntity
  8
0
  6
CONTINUOUS
 62
     7
100
AcDbLine
 10
561.4728528635333
 20
202.1666666666669
 30
0.0
 11
561.4728528635333
 21
199.6666666666668
 31
0.0
  0
LINE
  5
2F4
330
1F
100
AcDbEntity
  8
0
  6
CONTINUOUS
 62
     7
100
AcDbLine
 10
565.5653841408832
 20
158.1666666666666
 30
0.0
 11
564.4828523861831
 21
158.7916666666667
 31
0.0
  0
LINE
  5
2F5
330
1F
100
AcDbEntity
  8
0
  6
CONTINUOUS
 62
     7
100
AcDbLine
 10
580.7833333333332
 20
198.6666666668667
 30
0.0
 11
580.7833333333332
 21
198.1464625639669
 31
0.0
  0
LINE
  5
2F6
330
1F
100
AcDbEntity
  8
0
  6
CONTINUOUS
 62
   253
100
AcDbLine
 10
530.8296804667316
 20
34.67480386252625
 30
0.0
 11
592.8333333333333
 21
34.67480386252625
 31
0.0
  0
LINE
  5
2F7
330
1F
100
AcDbEntity
  8
0
  6
CONTINUOUS
 62
     7
100
AcDbLine
 10
599.9457271505788
 20
15.24557513498598
 30
0.0
 11
599.9457271505788
 21
33.24557513498595
 31
0.0
  0
LWPOLYLINE
  5
2F8
330
1F
100
AcDbEntity
  8
0
  6
CONTINUOUS
 62
     7
100
AcDbPolyline
 90
        3
 70
     0
 43
0.0
 10
-599.7513468414412
 20
34.24557513498599
 10
-599.851278291786
 20
34.10330374498621
 42
0.0713707009890208
 10
-599.9457271505787
 20
33.24557513498596
210
0.0
220
0.0
230
-1.0
  0
LINE
  5
2F9
330
1F
100
AcDbEntity
  8
0
  6
CONTINUOUS
 62
     7
100
AcDbLine
 10
574.333333333334
 20
204.1666666667668
 30
0.0
 11
574.333333333334
 21
198.6666666668667
 31
0.0
  0
LINE
  5
2FA
330
1F
100
AcDbEntity
  8
0
  6
CONTINUOUS
 62
   253
100
AcDbLine
 10
596.8333333333331
 20
13.24557513498598
 30
0.0
 11
597.8333333333333
 21
13.24557513498598
 31
0.0
  0
LINE
  5
2FB
330
1F
100
AcDbEntity
  8
0
  6
CONTINUOUS
 62
     7
100
AcDbLine
 10
570.5243411452332
 20
151.4436543242669
 30
0.0
 11
568.1683450780332
 21
147.3629494336667
 31
0.0
  0
ARC
  5
2FC
330
1F
100
AcDbEntity
  8
0
  6
CONTINUOUS
 62
     7
100
AcDbCircle
 10
543.833333333334
 20
112.6666666666665
 30
0.0
 40
1.500000000000057
100
AcDbArc
 50
180.0
 51
270.0
  0
LINE
  5
2FD
330
1F
100
AcDbEntity
  8
0
  6
CONTINUOUS
 62
     7
100
AcDbLine
 10
588.7833333333332
 20
192.6666666668667
 30
0.0
 11
588.7833333333332
 21
196.1868707697667
 31
0.0
  0
ARC
  5
2FE
330
1F
100
AcDbEntity
  8
0
  6
CONTINUOUS
 62
     7
100
AcDbCircle
 10
597.8333333333334
 20
15.24557513498598
 30
0.0
 40
0.9999999999998899
100
AcDbArc
 50
180.0
 51
270.0
  0
LINE
  5
2FF
330
1F
100
AcDbEntity
  8
0
  6
CONTINUOUS
 62
     7
100
AcDbLine
 10
606.8333333333334
 20
15.24557513498598
 30
0.0
 11
606.8333333333334
 21
14.24557513498596
 31
0.0
  0
LINE
  5
300
330
1F
100
AcDbEntity
  8
0
  6
CONTINUOUS
 62
     7
100
AcDbLine
 10
584.3333333350338
 20
198.6666666668667
 30
0.0
 11
580.3333333354341
 21
198.6666666668667
 31
0.0
  0
LINE
  5
301
330
1F
100
AcDbEntity
  8
0
  6
CONTINUOUS
 62
   253
100
AcDbLine
 10
592.8333333333331
 20
34.19227838633881
 30
0.0
 11
530.8296804667314
 21
34.19227838633881
 31
0.0
  0
LINE
  5
302
330
1F
100
AcDbEntity
  8
0
  6
CONTINUOUS
 62
   253
100
AcDbLine
 10
549.8333333333334
 20
17.54585804494641
 30
0.0
 11
549.8333333333334
 21
22.54243188183284
 31
0.0
  0
LINE
  5
303
330
1F
100
AcDbEntity
  8
0
  6
CONTINUOUS
 62
     7
100
AcDbLine
 10
518.833333333333
 20
35.41666666666671
 30
0.0
 11
528.8333333333329
 21
35.41666666666671
 31
0.0
  0
LINE
  5
304
330
1F
100
AcDbEntity
  8
0
  6
CONTINUOUS
 62
     7
100
AcDbLine
 10
528.8333333333333
 20
37.41666666666671
 30
0.0
 11
594.8333333333333
 21
37.41666666666671
 31
0.0
  0
LINE
  5
305
330
1F
100
AcDbEntity
  8
0
  6
CONTINUOUS
 62
     7
100
AcDbLine
 10
527.731331517118
 20
-0.1880411265647863
 30
0.0
 11
526.8292993222361
 21
34.25917863228474
 31
0.0
  0
LINE
  5
306
330
1F
100
AcDbEntity
  8
0
  6
CONTINUOUS
 62
     7
100
AcDbLine
 10
606.8333333333334
 20
13.24557513498598
 30
0.0
 11
606.8333333333334
 21
3.245575134985995
 31
0.0
  0
LINE
  5
307
330
1F
100
AcDbEntity
  8
0
  6
CONTINUOUS
 62
     7
100
AcDbLine
 10
606.8333333333334
 20
0.2455751349859647
 30
0.0
 11
597.8333333333334
 21
0.2455751349859647
 31
0.0
  0
LINE
  5
308
330
1F
100
AcDbEntity
  8
0
  6
CONTINUOUS
 62
   253
100
AcDbLine
 10
594.8333333333333
 20
34.61204717010263
 30
0.0
 11
596.5092541839181
 21
34.64012278007799
 31
0.0
  0
ARC
  5
309
330
1F
100
AcDbEntity
  8
0
  6
CONTINUOUS
 62
     7
100
AcDbCircle
 10
-597.8333333333334
 20
33.24557513498588
 30
0.0
 40
1.000000000000334
210
0.0
220
0.0
230
-1.0
100
AcDbArc
 50
0.0
 51
90.0
  0
LINE
  5
30A
330
1F
100
AcDbEntity
  8
0
  6
CENTER
 62
     1
100
AcDbLine
 10
681.754424865014
 20
84.16666666666667
 30
0.0
 11
698.7544248650139
 21
84.16666666666667
 31
0.0
  0
ARC
  5
30B
330
1F
100
AcDbEntity
  8
0
  6
CONTINUOUS
 62
     7
100
AcDbCircle
 10
567.3333333333335
 20
140.9166667279667
 30
0.0
 40
8.299999999999974
100
AcDbArc
 50
120.0000104061
 51
200.0000104061
  0
LINE
  5
30C
330
1F
100
AcDbEntity
  8
0
  6
CONTINUOUS
 62
   253
100
AcDbLine
 10
602.5377828261733
 20
29.74557513498604
 30
0.0
 11
601.4035794691117
 21
29.74557513498604
 31
0.0
  0
LINE
  5
30D
330
1F
100
AcDbEntity
  8
0
  6
CONTINUOUS
 62
   253
100
AcDbLine
 10
596.8333333333331
 20
3.245575134986078
 30
0.0
 11
597.8333333333333
 21
3.245575134986078
 31
0.0
  0
LINE
  5
30E
330
1F
100
AcDbEntity
  8
0
  6
CONTINUOUS
 62
     7
100
AcDbLine
 10
594.8333333333333
 20
37.41666666666671
 30
0.0
 11
604.8333333333333
 21
37.41666666666671
 31
0.0
  0
LINE
  5
30F
330
1F
100
AcDbEntity
  8
0
  6
CONTINUOUS
 62
     7
100
AcDbLine
 10
606.8333333333334
 20
33.24557513498588
 30
0.0
 11
606.8333333333334
 21
15.24557513498591
 31
0.0
  0
LINE
  5
310
330
1F
100
AcDbEntity
  8
0
  6
CONTINUOUS
 62
     7
100
AcDbLine
 10
596.8333333333331
 20
15.24557513498598
 30
0.0
 11
596.8333333333331
 21
33.24557513498595
 31
0.0
  0
LINE
  5
311
330
1F
100
AcDbEntity
  8
0
  6
CONTINUOUS
 62
   253
100
AcDbLine
 10
549.8333333333334
 20
17.54585804494641
 30
0.0
 11
554.8333333333333
 21
17.54585804494641
 31
0.0
  0
LINE
  5
312
330
1F
100
AcDbEntity
  8
0
  6
CONTINUOUS
 62
   253
100
AcDbLine
 10
603.8333333333333
 20
15.24557513498598
 30
0.0
 11
606.8333333333333
 21
15.24557513498598
 31
0.0
  0
LINE
  5
313
330
1F
100
AcDbEntity
  8
0
  6
CONTINUOUS
 62
   253
100
AcDbLine
 10
527.154741662654
 20
34.64047888942395
 30
0.0
 11
528.8333333333335
 21
34.61220492567782
 31
0.0
  0
LINE
  5
314
330
1F
100
AcDbEntity
  8
0
  6
CONTINUOUS
 62
     7
100
AcDbLine
 10
594.8333333333333
 20
35.41666666666671
 30
0.0
 11
604.8333333333333
 21
35.41666666666671
 31
0.0
  0
LINE
  5
315
330
1F
100
AcDbEntity
  8
0
  6
CONTINUOUS
 62
     7
100
AcDbLine
 10
606.8333333333334
 20
13.24557513498598
 30
0.0
 11
606.8333333333334
 21
14.24557513498597
 31
0.0
  0
ARC
  5
316
330
1F
100
AcDbEntity
  8
0
  6
CONTINUOUS
 62
     7
100
AcDbCircle
 10
-697.2544248650139
 20
154.6666666666668
 30
0.0
 40
0.9999999999998899
210
0.0
220
0.0
230
-1.0
100
AcDbArc
 50
90.0
 51
180.0
  0
LINE
  5
317
330
1F
100
AcDbEntity
  8
0
  6
CONTINUOUS
 62
     7
100
AcDbLine
 10
682.2544248650138
 20
220.1680371319122
 30
0.0
 11
682.2544248650138
 21
188.6652962014214
 31
0.0
  0
ARC
  5
318
330
1F
100
AcDbEntity
  8
0
  6
CONTINUOUS
 62
     7
100
AcDbCircle
 10
699.7544248650138
 20
222.6666666666666
 30
0.0
 40
0.500000000000167
100
AcDbArc
 50
0.0
 51
90.0
  0
LINE
  5
319
330
1F
100
AcDbEntity
  8
0
  6
CONTINUOUS
 62
     7
100
AcDbLine
 10
685.2544248650139
 20
168.6666666666667
 30
0.0
 11
685.2544248650139
 21
149.6666666666667
 31
0.0
  0
ELLIPSE
  5
31A
330
1F
100
AcDbEntity
  8
0
  6
CONTINUOUS
 62
     7
100
AcDbEllipse
 10
697.2530525190161
 20
188.6680390126645
 30
0.0
 11
0.7090462434351521
 21
-0.7090462434349299
 31
0.0
210
0.0
220
0.0
230
-1.0
 40
0.9972646886343095
 41
5.499156671652533
 42
7.06721394270664
  0
LINE
  5
31B
330
1F
100
AcDbEntity
  8
0
  6
CONTINUOUS
 62
     7
100
AcDbLine
 10
701.2544248650141
 20
154.1666666666668
 30
0.0
 11
711.2544248650141
 21
154.1666666666668
 31
0.0
  0
ENDSEC
  0
SECTION
  2
OBJECTS
  0
DICTIONARY
  5
C
330
0
100
AcDbDictionary
  3
ACAD_GROUP
350
D
  3
ACAD_LAYOUT
350
1A
  3
ACAD_MATERIAL
350
43
  3
ACAD_MLEADERSTYLE
350
6B
  3
ACAD_MLINESTYLE
350
17
  3
ACAD_PLOTSETTINGS
350
19
  3
ACAD_SCALELIST
350
47
  3
ACAD_VISUALSTYLE
350
2A
  3
ACDBHEADERROUNDTRIPXREC
350
31C
  3
ACDBVARIABLEDICTIONARY
350
33D
  0
DICTIONARY
  5
344
330
8
100
AcDbDictionary
280
     1
  3
ACAD_XREC_ROUNDTRIP
360
345
  0
DICTIONARY
  5
D
102
{ACAD_REACTORS
330
C
102
}
330
C
100
AcDbDictionary
  0
DICTIONARY
  5
1A
102
{ACAD_REACTORS
330
C
102
}
330
C
100
AcDbDictionary
  0
DICTIONARY
  5
43
102
{ACAD_REACTORS
330
C
102
}
330
C
100
AcDbDictionary
  3
BYBLOCK
350
45
  3
BYLAYER
350
44
  3
GLOBAL
350
46
  0
DICTIONARY
  5
6B
102
{ACAD_REACTORS
330
C
102
}
330
C
100
AcDbDictionary
  3
STANDARD
350
6C
  0
DICTIONARY
  5
17
102
{ACAD_REACTORS
330
C
102
}
330
C
100
AcDbDictionary
  3
STANDARD
350
18
  0
DICTIONARY
  5
19
102
{ACAD_REACTORS
330
C
102
}
330
C
100
AcDbDictionary
  0
DICTIONARY
  5
47
102
{ACAD_REACTORS
330
C
102
}
330
C
100
AcDbDictionary
  3
A0
350
48
  3
A1
350
49
  3
A2
350
4A
  3
A3
350
4B
  3
A4
350
4C
  3
A5
350
4D
  3
A6
350
4E
  3
A7
350
4F
  3
A8
350
50
  3
A9
350
51
  3
B0
350
52
  3
B1
350
53
  3
B2
350
54
  3
B3
350
55
  3
B4
350
56
  3
B5
350
57
  3
B6
350
58
  3
B7
350
59
  3
B8
350
5A
  3
B9
350
5B
  3
C0
350
5C
  3
C1
350
5D
  3
C2
350
5E
  3
C3
350
5F
  3
C4
350
60
  3
C5
350
61
  3
C6
350
62
  3
C7
350
63
  3
C8
350
64
  3
C9
350
65
  3
D0
350
66
  3
D1
350
67
  3
D2
350
68
  0
DICTIONARY
  5
2A
102
{ACAD_REACTORS
330
C
102
}
330
C
100
AcDbDictionary
  3
2DWIREFRAME
350
2F
  3
BASIC
350
32
  3
BRIGHTEN
350
36
  3
COLORCHANGE
350
3A
  3
CONCEPTUAL
350
34
  3
DIM
350
35
  3
EDGECOLOROFF
350
3D
  3
FACEPATTERN
350
39
  3
FLAT
350
2B
  3
FLATWITHEDGES
350
2C
  3
GOURAUD
350
2D
  3
GOURAUDWITHEDGES
350
2E
  3
HIDDEN
350
31
  3
JITTEROFF
350
3B
  3
LINEPATTERN
350
38
  3
OVERHANGOFF
350
3C
  3
REALISTIC
350
33
  3
SHADED
350
42
  3
SHADED_WITH_EDGES
350
41
  3
SHADES_OF_GRAY
350
3E
  3
SKETCHY
350
3F
  3
THICKEN
350
37
  3
WIREFRAME
350
30
  3
X-RAY
350
40
  0
DICTIONARY
  5
31C
102
{ACAD_REACTORS
330
C
102
}
330
C
100
AcDbDictionary
  3
CEPSNID
350
326
  3
CEPSNTYPE
350
325
  3
DIMSTYLEDATA
350
33C
  3
FINGERPRINTGUID
350
327
  3
HYPERLINKBASE
350
31F
  3
INSUNITS
350
324
  3
LAYOUTDICT
350
321
  3
LWETCUNION
350
323
  3
PLOTSETDICT
350
322
  3
PSVPSCALE
350
329
  3
PUCSBASE
350
32C
  3
PUCSORGBACK
350
332
  3
PUCSORGBOTTOM
350
32E
  3
PUCSORGFRONT
350
331
  3
PUCSORGLEFT
350
32F
  3
PUCSORGRIGHT
350
330
  3
PUCSORGTOP
350
32D
  3
PUCSORTHOREF
350
32A
  3
PUCSORTHOVIEW
350
32B
  3
STYLESHEET
350
320
  3
TSTACKALIGN
350
31D
  3
TSTACKSIZE
350
31E
  3
UCSBASE
350
335
  3
UCSORGBACK
350
33B
  3
UCSORGBOTTOM
350
337
  3
UCSORGFRONT
350
33A
  3
UCSORGLEFT
350
338
  3
UCSORGRIGHT
350
339
  3
UCSORGTOP
350
336
  3
UCSORTHOREF
350
333
  3
UCSORTHOVIEW
350
334
  3
VERSIONGUID
350
328
  0
DICTIONARY
  5
33D
102
{ACAD_REACTORS
330
C
102
}
330
C
100
AcDbDictionary
  3
CANNOSCALE
350
346
  3
CMLEADERSTYLE
350
33F
  3
CTABLESTYLE
350
33E
  3
DIMASSOC
350
342
  3
HIDETEXT
350
343
  3
MSLTSCALE
350
347
  0
XRECORD
  5
345
102
{ACAD_REACTORS
330
344
102
}
330
344
100
AcDbXrecord
102
VTR_0.000_0.000_1.000_1.000_VISUALSTYLE
340
2F
102
VTR_0.000_0.000_1.000_1.000_GRIDDISPLAY
 70
     3
102
VTR_0.000_0.000_1.000_1.000_GRIDMAJOR
 70
     5
102
VTR_0.000_0.000_1.000_1.000_DEFAULTLIGHTING
280
     1
102
VTR_0.000_0.000_1.000_1.000_DEFAULTLIGHTINGTYPE
 70
     1
102
VTR_0.000_0.000_1.000_1.000_BRIGHTNESS
141
0.0
102
VTR_0.000_0.000_1.000_1.000_CONTRAST
142
0.0
  0
MATERIAL
  5
45
102
{ACAD_REACTORS
330
43
102
}
102
{ACAD_XDICTIONARY
360
34A
102
}
330
43
100
AcDbMaterial
  1
BYBLOCK
  0
MATERIAL
  5
44
102
{ACAD_REACTORS
330
43
102
}
102
{ACAD_XDICTIONARY
360
348
102
}
330
43
100
AcDbMaterial
  1
BYLAYER
  0
MATERIAL
  5
46
102
{ACAD_REACTORS
330
43
102
}
102
{ACAD_XDICTIONARY
360
34C
102
}
330
43
100
AcDbMaterial
  1
GLOBAL
  0
ACAD_PROXY_OBJECT
  5
6C
102
{ACAD_REACTORS
330
6B
102
}
330
6B
100
AcDbProxyObject
 90
      499
 91
      505
 93
      610
310
40901902A4063FBFFFFFE056BD1B81E855B9FC0AD7A3703D0AD73F4214DD185B99185C9900AD7A3703D0AC73F90141901A02B5E8DC0F42B1CFC02B5E8DC0F42B1CFE5764000000000000300FC0
340
14
340
0
340
11
340
0
 94
        0
1001
ACAD_MLEADERVER
1070
     2
  0
MLINESTYLE
  5
18
102
{ACAD_REACTORS
330
17
102
}
330
17
100
AcDbMlineStyle
  2
Standard
 70
     0
  3

 62
   256
 51
90.0
 52
90.0
 71
     2
 49
0.5
 62
   256
  6
BYLAYER
 49
-0.5
 62
   256
  6
BYLAYER
  0
ACAD_PROXY_OBJECT
  5
48
102
{ACAD_REACTORS
330
47
102
}
330
47
100
AcDbProxyObject
 90
      499
 91
      503
 93
       41
310
903313A31580
  0
ACAD_PROXY_OBJECT
  5
49
102
{ACAD_REACTORS
330
47
102
}
330
47
100
AcDbProxyObject
 90
      499
 91
      503
 93
      105
310
903313A324000000000000004000
  0
ACAD_PROXY_OBJECT
  5
4A
102
{ACAD_REACTORS
330
47
102
}
330
47
100
AcDbProxyObject
 90
      499
 91
      503
 93
      105
310
903313A344000000000000104000
  0
ACAD_PROXY_OBJECT
  5
4B
102
{ACAD_REACTORS
330
47
102
}
330
47
100
AcDbProxyObject
 90
      499
 91
      503
 93
      105
310
903313A354000000000000144000
  0
ACAD_PROXY_OBJECT
  5
4C
102
{ACAD_REACTORS
330
47
102
}
330
47
100
AcDbProxyObject
 90
      499
 91
      503
 93
      105
310
903313A384000000000000204000
  0
ACAD_PROXY_OBJECT
  5
4D
102
{ACAD_REACTORS
330
47
102
}
330
47
100
AcDbProxyObject
 90
      499
 91
      503
 93
      113
310
904313A31304000000000000244000
  0
ACAD_PROXY_OBJECT
  5
4E
102
{ACAD_REACTORS
330
47
102
}
330
47
100
AcDbProxyObject
 90
      499
 91
      503
 93
      113
310
904313A31364000000000000304000
  0
ACAD_PROXY_OBJECT
  5
4F
102
{ACAD_REACTORS
330
47
102
}
330
47
100
AcDbProxyObject
 90
      499
 91
      503
 93
      113
310
904313A32304000000000000344000
  0
ACAD_PROXY_OBJECT
  5
50
102
{ACAD_REACTORS
330
47
102
}
330
47
100
AcDbProxyObject
 90
      499
 91
      503
 93
      113
310
904313A333040000000000003E4000
  0
ACAD_PROXY_OBJECT
  5
51
102
{ACAD_REACTORS
330
47
102
}
330
47
100
AcDbProxyObject
 90
      499
 91
      503
 93
      113
310
904313A34304000000000000444000
  0
ACAD_PROXY_OBJECT
  5
52
102
{ACAD_REACTORS
330
47
102
}
330
47
100
AcDbProxyObject
 90
      499
 91
      503
 93
      113
310
904313A35304000000000000494000
  0
ACAD_PROXY_OBJECT
  5
53
102
{ACAD_REACTORS
330
47
102
}
330
47
100
AcDbProxyObject
 90
      499
 91
      503
 93
      121
310
905313A3130304000000000000594000
  0
ACAD_PROXY_OBJECT
  5
54
102
{ACAD_REACTORS
330
47
102
}
330
47
100
AcDbProxyObject
 90
      499
 91
      503
 93
      105
310
903323A310000000000000010100
  0
ACAD_PROXY_OBJECT
  5
55
102
{ACAD_REACTORS
330
47
102
}
330
47
100
AcDbProxyObject
 90
      499
 91
      503
 93
      105
310
903343A310000000000000410100
  0
ACAD_PROXY_OBJECT
  5
56
102
{ACAD_REACTORS
330
47
102
}
330
47
100
AcDbProxyObject
 90
      499
 91
      503
 93
      105
310
903383A310000000000000810100
  0
ACAD_PROXY_OBJECT
  5
57
102
{ACAD_REACTORS
330
47
102
}
330
47
100
AcDbProxyObject
 90
      499
 91
      503
 93
      113
310
90431303A310000000000000910100
  0
ACAD_PROXY_OBJECT
  5
58
102
{ACAD_REACTORS
330
47
102
}
330
47
100
AcDbProxyObject
 90
      499
 91
      503
 93
      121
310
9053130303A310000000000001650100
  0
ACAD_PROXY_OBJECT
  5
59
102
{ACAD_REACTORS
330
47
102
}
330
47
100
AcDbProxyObject
 90
      499
 91
      503
 93
      257
310
90E312F31323822203D2031272D3022000000000000200FC000000000000284000
  0
ACAD_PROXY_OBJECT
  5
5A
102
{ACAD_REACTORS
330
47
102
}
330
47
100
AcDbProxyObject
 90
      499
 91
      503
 93
      249
310
90D312F363422203D2031272D3022000000000000240FC000000000000284000
  0
ACAD_PROXY_OBJECT
  5
5B
102
{ACAD_REACTORS
330
47
102
}
330
47
100
AcDbProxyObject
 90
      499
 91
      503
 93
      249
310
90D312F333222203D2031272D3022000000000000280FC000000000000284000
  0
ACAD_PROXY_OBJECT
  5
5C
102
{ACAD_REACTORS
330
47
102
}
330
47
100
AcDbProxyObject
 90
      499
 91
      503
 93
      249
310
90D312F313622203D2031272D30220000000000002C0FC000000000000284000
  0
ACAD_PROXY_OBJECT
  5
5D
102
{ACAD_REACTORS
330
47
102
}
330
47
100
AcDbProxyObject
 90
      499
 91
      503
 93
      249
310
90D332F333222203D2031272D30220000000000002E0FC000000000000284000
  0
ACAD_PROXY_OBJECT
  5
5E
102
{ACAD_REACTORS
330
47
102
}
330
47
100
AcDbProxyObject
 90
      499
 91
      503
 93
      241
310
90C312F3822203D2031272D3022000000000000300FC000000000000284000
  0
ACAD_PROXY_OBJECT
  5
5F
102
{ACAD_REACTORS
330
47
102
}
330
47
100
AcDbProxyObject
 90
      499
 91
      503
 93
      249
310
90D332F313622203D2031272D3022000000000000320FC000000000000284000
  0
ACAD_PROXY_OBJECT
  5
60
102
{ACAD_REACTORS
330
47
102
}
330
47
100
AcDbProxyObject
 90
      499
 91
      503
 93
      241
310
90C312F3422203D2031272D3022000000000000340FC000000000000284000
  0
ACAD_PROXY_OBJECT
  5
61
102
{ACAD_REACTORS
330
47
102
}
330
47
100
AcDbProxyObject
 90
      499
 91
      503
 93
      241
310
90C332F3822203D2031272D3022000000000000360FC000000000000284000
  0
ACAD_PROXY_OBJECT
  5
62
102
{ACAD_REACTORS
330
47
102
}
330
47
100
AcDbProxyObject
 90
      499
 91
      503
 93
      241
310
90C312F3222203D2031272D3022000000000000380FC000000000000284000
  0
ACAD_PROXY_OBJECT
  5
63
102
{ACAD_REACTORS
330
47
102
}
330
47
100
AcDbProxyObject
 90
      499
 91
      503
 93
      241
310
90C332F3422203D2031272D30220000000000003A0FC000000000000284000
  0
ACAD_PROXY_OBJECT
  5
64
102
{ACAD_REACTORS
330
47
102
}
330
47
100
AcDbProxyObject
 90
      499
 91
      503
 93
      161
310
90A3122203D2031272D30224000000000000284000
  0
ACAD_PROXY_OBJECT
  5
65
102
{ACAD_REACTORS
330
47
102
}
330
47
100
AcDbProxyObject
 90
      499
 91
      503
 93
      257
310
90E312D312F3222203D2031272D30220000000000003E0FC000000000000284000
  0
ACAD_PROXY_OBJECT
  5
66
102
{ACAD_REACTORS
330
47
102
}
330
47
100
AcDbProxyObject
 90
      499
 91
      503
 93
      225
310
90A3322203D2031272D302200000000000002100000000000000284000
  0
ACAD_PROXY_OBJECT
  5
67
102
{ACAD_REACTORS
330
47
102
}
330
47
100
AcDbProxyObject
 90
      499
 91
      503
 93
      225
310
90A3622203D2031272D302200000000000006100000000000000284000
  0
ACAD_PROXY_OBJECT
  5
68
102
{ACAD_REACTORS
330
47
102
}
330
47
100
AcDbProxyObject
 90
      499
 91
      503
 93
      249
310
90D31272D3022203D2031272D30220000000000000A100000000000000284000
  0
ACAD_PROXY_OBJECT
  5
2F
102
{ACAD_REACTORS
330
2A
102
}
330
2A
100
AcDbProxyObject
 90
      499
 91
      501
 93
      436
310
42CC9915DA5C99599C985B595049028333333333333E33F0000000000000F90107901411070040501600405405064090741402480A0340
1001
ACAD
1000
AcDbSavedByObjectVersion
1070
     0
  0
ACAD_PROXY_OBJECT
  5
32
102
{ACAD_REACTORS
330
2A
102
}
330
2A
100
AcDbProxyObject
 90
      499
 91
      501
 93
      388
310
4150985CDA58D07406404333333333333E33F0000000000000F90107A41107004050150841D405064090741402480A0350
1001
ACAD
1000
AcDbSavedByObjectVersion
1070
     0
  0
ACAD_PROXY_OBJECT
  5
36
102
{ACAD_REACTORS
330
2A
102
}
330
2A
100
AcDbProxyObject
 90
      499
 91
      501
 93
      428
310
42109C9A59DA1D195B90C409028333333333333E33F0000000000000F9010790141107004050150841D405064090741402480A029950
1001
ACAD
1000
AcDbSavedByObjectVersion
1070
     0
  0
ACAD_PROXY_OBJECT
  5
3A
102
{ACAD_REACTORS
330
2A
102
}
330
2A
100
AcDbProxyObject
 90
      499
 91
      501
 93
      452
310
42D0DBDB1BDC90DA185B99D95104090240C333333333333E33F0000000000000F90108901411070040501508421405064090741402480A0350
1001
ACAD
1000
AcDbSavedByObjectVersion
1070
     0
  0
ACAD_PROXY_OBJECT
  5
34
102
{ACAD_REACTORS
330
2A
102
}
330
2A
100
AcDbProxyObject
 90
      499
 91
      501
 93
      500
310
4290DBDB98D95C1D1D585B10940D028333333333333E33F0000000000000F90107902409070040501000000000018199010841D405064090740C02480A0340
1001
ACAD
1000
AcDbSavedByObjectVersion
1070
     0
  0
ACAD_PROXY_OBJECT
  5
35
102
{ACAD_REACTORS
330
2A
102
}
330
2A
100
AcDbProxyObject
 90
      499
 91
      501
 93
      412
310
40D11A5B50B409028333333333333E33F0000000000000F9010790141107004050150841D405064090741402480A02677FFFFFD0
1001
ACAD
1000
AcDbSavedByObjectVersion
1070
     0
  0
ACAD_PROXY_OBJECT
  5
3D
102
{ACAD_REACTORS
330
2A
102
}
330
2A
100
AcDbProxyObject
 90
      499
 91
      501
 93
      452
310
43115919D950DBDB1BDC93D999916409028333333333333E33F0000000000000F9010790141107004050150841D405064090741402480A0350
1001
ACAD
1000
AcDbSavedByObjectVersion
1070
     0
  0
ACAD_PROXY_OBJECT
  5
39
102
{ACAD_REACTORS
330
2A
102
}
330
2A
100
AcDbProxyObject
 90
      499
 91
      501
 93
      444
310
42D19858D95C185D1D195C9B90F409028333333333333E33F0000000000000F9010790141107004050150841D405064090741402480A0350
1001
ACAD
1000
AcDbSavedByObjectVersion
1070
     0
  0
ACAD_PROXY_OBJECT
  5
2B
102
{ACAD_REACTORS
330
2A
102
}
330
2A
100
AcDbProxyObject
 90
      499
 91
      501
 93
      380
310
41119B185D240901404333333333333E33F0000000000000F9010740A907004050150841D405064090741402480A1B50
1001
ACAD
1000
AcDbSavedByObjectVersion
1070
     0
  0
ACAD_PROXY_OBJECT
  5
2C
102
{ACAD_REACTORS
330
2A
102
}
330
2A
100
AcDbProxyObject
 90
      499
 91
      501
 93
      468
310
43519B185D15DA5D1A115919D95CD0140901404333333333333E33F0000000000000F90107409019070040501600405405064090741402480A1B50
1001
ACAD
1000
AcDbSavedByObjectVersion
1070
     0
  0
ACAD_PROXY_OBJECT
  5
2D
102
{ACAD_REACTORS
330
2A
102
}
330
2A
100
AcDbProxyObject
 90
      499
 91
      501
 93
      404
310
41D1DBDD5C985D5910240902404333333333333E33F0000000000000F9010740A9070040501641D405064090741402480A1B50
1001
ACAD
1000
AcDbSavedByObjectVersion
1070
     0
  0
ACAD_PROXY_OBJECT
  5
2E
102
{ACAD_REACTORS
330
2A
102
}
330
2A
100
AcDbProxyObject
 90
      499
 91
      501
 93
      492
310
4411DBDD5C985D5915DA5D1A115919D95CD0340902404333333333333E33F0000000000000F90107409019070040501600405405064090741402480A1B50
1001
ACAD
1000
AcDbSavedByObjectVersion
1070
     0
  0
ACAD_PROXY_OBJECT
  5
31
102
{ACAD_REACTORS
330
2A
102
}
330
2A
100
AcDbProxyObject
 90
      499
 91
      501
 93
      476
310
41921A5919195B90640502408333333333333E33F0000000000000F901079024090700405020000000000001110200405405064090740C02480A0340
1001
ACAD
1000
AcDbSavedByObjectVersion
1070
     0
  0
ACAD_PROXY_OBJECT
  5
3B
102
{ACAD_REACTORS
330
2A
102
}
330
2A
100
AcDbProxyObject
 90
      499
 91
      501
 93
      428
310
42529A5D1D195C93D999914409028333333333333E33F0000000000000F9010790141107004050150A41D405064090741402480A0350
1001
ACAD
1000
AcDbSavedByObjectVersion
1070
     0
  0
ACAD_PROXY_OBJECT
  5
38
102
{ACAD_REACTORS
330
2A
102
}
330
2A
100
AcDbProxyObject
 90
      499
 91
      501
 93
      444
310
42D31A5B995C185D1D195C9B90E409028333333333333E33F0000000000000F9010790141107004050750841D405064090741402483A0350
1001
ACAD
1000
AcDbSavedByObjectVersion
1070
     0
  0
ACAD_PROXY_OBJECT
  5
3C
102
{ACAD_REACTORS
330
2A
102
}
330
2A
100
AcDbProxyObject
 90
      499
 91
      501
 93
      444
310
42D3DD995C9A185B99D3D999915409028333333333333E33F0000000000000F9010790141107004050150941D405064090741402480A0350
1001
ACAD
1000
AcDbSavedByObjectVersion
1070
     0
  0
ACAD_PROXY_OBJECT
  5
33
102
{ACAD_REACTORS
330
2A
102
}
330
2A
100
AcDbProxyObject
 90
      499
 91
      501
 93
      428
310
425499585B1A5CDD1A58D08409038333333333333E33F0000000000000F9010740A907004050150800405405064090740C02480A1B40
1001
ACAD
1000
AcDbSavedByObjectVersion
1070
     0
  0
ACAD_PROXY_OBJECT
  5
42
102
{ACAD_REACTORS
330
2A
102
}
330
2A
100
AcDbProxyObject
 90
      499
 91
      501
 93
      420
310
4194DA1859195911B40902404333333333333E33F0000000000000F9010740A41107004050150800405405064090840C02480A0B40
1001
ACAD
1000
AcDbSavedByObjectVersion
1070
     0
  0
ACAD_PROXY_OBJECT
  5
41
102
{ACAD_REACTORS
330
2A
102
}
330
2A
100
AcDbProxyObject
 90
      499
 91
      501
 93
      516
310
4454DA18591959081DDA5D1A08195919D95CD1A40902404333333333333E33F0000000000000F901074090142907004050250800405405064090740C02480A0B40
1001
ACAD
1000
AcDbSavedByObjectVersion
1070
     0
  0
ACAD_PROXY_OBJECT
  5
3E
102
{ACAD_REACTORS
330
2A
102
}
330
2A
100
AcDbProxyObject
 90
      499
 91
      501
 93
      532
310
4394DA1859195CC81BD98811DC985E5174090240C333333333333E33F0000000000000F901079024090741D01000000000000111010841D405064090740C02480A0340
1001
ACAD
1000
AcDbSavedByObjectVersion
1070
     0
  0
ACAD_PROXY_OBJECT
  5
3F
102
{ACAD_REACTORS
330
2A
102
}
330
2A
100
AcDbProxyObject
 90
      499
 91
      501
 93
      476
310
41D4DAD95D18DA1E51840502408333333333333E33F0000000000000F901079024090741D01000000000000111010B41D405064090741802480A0340
1001
ACAD
1000
AcDbSavedByObjectVersion
1070
     0
  0
ACAD_PROXY_OBJECT
  5
37
102
{ACAD_REACTORS
330
2A
102
}
330
2A
100
AcDbProxyObject
 90
      499
 91
      501
 93
      412
310
41D51A1A58DAD95B90D409028333333333333E33F0000000000000F9010790141107004050150C41D405064090741402480A0350
1001
ACAD
1000
AcDbSavedByObjectVersion
1070
     0
  0
ACAD_PROXY_OBJECT
  5
30
102
{ACAD_REACTORS
330
2A
102
}
330
2A
100
AcDbProxyObject
 90
      499
 91
      501
 93
      420
310
4255DA5C99599C985B595059028333333333333E33F0000000000000F90107901411070040501600405405064090740C02480A0340
1001
ACAD
1000
AcDbSavedByObjectVersion
1070
     0
  0
ACAD_PROXY_OBJECT
  5
40
102
{ACAD_REACTORS
330
2A
102
}
330
2A
100
AcDbProxyObject
 90
      499
 91
      501
 93
      404
310
41560B54985E51940902404000000000000E03F0000000000000F9010740501907004050150841D405064090740C02480A1B40
1001
ACAD
1000
AcDbSavedByObjectVersion
1070
     0
  0
XRECORD
  5
326
102
{ACAD_REACTORS
330
31C
102
}
330
31C
100
AcDbXrecord
340
0
  0
XRECORD
  5
325
102
{ACAD_REACTORS
330
31C
102
}
330
31C
100
AcDbXrecord
 90
        0
  0
XRECORD
  5
33C
102
{ACAD_REACTORS
330
31C
102
}
330
31C
100
AcDbXrecord
1000
DSTYLE
1002
{
1070
   179
 70
     2
1070
   171
 70
     2
1070
   143
 40
25.4
1070
   274
 70
     2
1070
    41
 40
3.0
1070
   141
 40
0.09
1070
    43
 40
0.38
1070
   278
 70
    46
1070
    44
 40
1.5
1070
    42
 40
0.0625
1070
   147
 40
1.5
1070
   272
 70
     4
1070
    73
 70
     1
1070
   172
 70
     0
1070
    74
 70
     1
1070
   283
 70
     1
1070
   340
340
6E
1070
   140
 40
3.0
1070
   284
 70
     0
1070
    78
 70
     0
1002
}
  0
XRECORD
  5
327
102
{ACAD_REACTORS
330
31C
102
}
330
31C
100
AcDbXrecord
  1
{59A1EEFB-7B30-4B9F-A785-7606F4FD8FD0}
  0
XRECORD
  5
31F
102
{ACAD_REACTORS
330
31C
102
}
330
31C
100
AcDbXrecord
  1

  0
XRECORD
  5
324
102
{ACAD_REACTORS
330
31C
102
}
330
31C
100
AcDbXrecord
 90
        4
  0
XRECORD
  5
321
102
{ACAD_REACTORS
330
31C
102
}
330
31C
100
AcDbXrecord
340
1A
  0
XRECORD
  5
323
102
{ACAD_REACTORS
330
31C
102
}
330
31C
100
AcDbXrecord
 90
    10269
  0
XRECORD
  5
322
102
{ACAD_REACTORS
330
31C
102
}
330
31C
100
AcDbXrecord
340
19
  0
XRECORD
  5
329
102
{ACAD_REACTORS
330
31C
102
}
330
31C
100
AcDbXrecord
 40
0.0
  0
XRECORD
  5
32C
102
{ACAD_REACTORS
330
31C
102
}
330
31C
100
AcDbXrecord
340
0
  0
XRECORD
  5
332
102
{ACAD_REACTORS
330
31C
102
}
330
31C
100
AcDbXrecord
 10
0.0
 20
0.0
 30
0.0
  0
XRECORD
  5
32E
102
{ACAD_REACTORS
330
31C
102
}
330
31C
100
AcDbXrecord
 10
0.0
 20
0.0
 30
0.0
  0
XRECORD
  5
331
102
{ACAD_REACTORS
330
31C
102
}
330
31C
100
AcDbXrecord
 10
0.0
 20
0.0
 30
0.0
  0
XRECORD
  5
32F
102
{ACAD_REACTORS
330
31C
102
}
330
31C
100
AcDbXrecord
 10
0.0
 20
0.0
 30
0.0
  0
XRECORD
  5
330
102
{ACAD_REACTORS
330
31C
102
}
330
31C
100
AcDbXrecord
 10
0.0
 20
0.0
 30
0.0
  0
XRECORD
  5
32D
102
{ACAD_REACTORS
330
31C
102
}
330
31C
100
AcDbXrecord
 10
0.0
 20
0.0
 30
0.0
  0
XRECORD
  5
32A
102
{ACAD_REACTORS
330
31C
102
}
330
31C
100
AcDbXrecord
340
0
  0
XRECORD
  5
32B
102
{ACAD_REACTORS
330
31C
102
}
330
31C
100
AcDbXrecord
 70
     0
  0
XRECORD
  5
320
102
{ACAD_REACTORS
330
31C
102
}
330
31C
100
AcDbXrecord
  1

  0
XRECORD
  5
31D
102
{ACAD_REACTORS
330
31C
102
}
330
31C
100
AcDbXrecord
 90
        1
  0
XRECORD
  5
31E
102
{ACAD_REACTORS
330
31C
102
}
330
31C
100
AcDbXrecord
 90
       70
  0
XRECORD
  5
335
102
{ACAD_REACTORS
330
31C
102
}
330
31C
100
AcDbXrecord
340
0
  0
XRECORD
  5
33B
102
{ACAD_REACTORS
330
31C
102
}
330
31C
100
AcDbXrecord
 10
0.0
 20
0.0
 30
0.0
  0
XRECORD
  5
337
102
{ACAD_REACTORS
330
31C
102
}
330
31C
100
AcDbXrecord
 10
0.0
 20
0.0
 30
0.0
  0
XRECORD
  5
33A
102
{ACAD_REACTORS
330
31C
102
}
330
31C
100
AcDbXrecord
 10
0.0
 20
0.0
 30
0.0
  0
XRECORD
  5
338
102
{ACAD_REACTORS
330
31C
102
}
330
31C
100
AcDbXrecord
 10
0.0
 20
0.0
 30
0.0
  0
XRECORD
  5
339
102
{ACAD_REACTORS
330
31C
102
}
330
31C
100
AcDbXrecord
 10
0.0
 20
0.0
 30
0.0
  0
XRECORD
  5
336
102
{ACAD_REACTORS
330
31C
102
}
330
31C
100
AcDbXrecord
 10
0.0
 20
0.0
 30
0.0
  0
XRECORD
  5
333
102
{ACAD_REACTORS
330
31C
102
}
330
31C
100
AcDbXrecord
340
0
  0
XRECORD
  5
334
102
{ACAD_REACTORS
330
31C
102
}
330
31C
100
AcDbXrecord
 70
     0
  0
XRECORD
  5
328
102
{ACAD_REACTORS
330
31C
102
}
330
31C
100
AcDbXrecord
  1
{FAEB1C32-E019-11D5-929B-00C0DF256EC4}
  0
DICTIONARYVAR
  5
346
102
{ACAD_REACTORS
330
33D
102
}
330
33D
100
DictionaryVariables
280
     0
  1
1:1
  0
DICTIONARYVAR
  5
33F
102
{ACAD_REACTORS
330
33D
102
}
330
33D
100
DictionaryVariables
280
     0
  1
Standard
  0
DICTIONARYVAR
  5
33E
102
{ACAD_REACTORS
330
33D
102
}
330
33D
100
DictionaryVariables
280
     0
  1
Standard
  0
DICTIONARYVAR
  5
342
102
{ACAD_REACTORS
330
33D
102
}
330
33D
100
DictionaryVariables
280
     0
  1
2
  0
DICTIONARYVAR
  5
343
102
{ACAD_REACTORS
330
33D
102
}
330
33D
100
DictionaryVariables
280
     0
  1
1
  0
DICTIONARYVAR
  5
347
102
{ACAD_REACTORS
330
33D
102
}
330
33D
100
DictionaryVariables
280
     0
  1
1
  0
DICTIONARY
  5
34A
330
45
100
AcDbDictionary
280
     1
  3
ACAD_XREC_ROUNDTRIP
360
34B
  0
DICTIONARY
  5
348
330
44
100
AcDbDictionary
280
     1
  3
ACAD_XREC_ROUNDTRIP
360
349
  0
DICTIONARY
  5
34C
330
46
100
AcDbDictionary
280
     1
  3
ACAD_XREC_ROUNDTRIP
360
34D
  0
XRECORD
  5
34B
102
{ACAD_REACTORS
330
34A
102
}
330
34A
100
AcDbXrecord
102
MATERIAL
148
0.0
149
0.0
149
0.0
 93
        0
 94
      127
282
     0
 72
     1
 77
     1
171
     1
175
     1
179
     1
273
     0
  0
XRECORD
  5
349
102
{ACAD_REACTORS
330
348
102
}
330
348
100
AcDbXrecord
102
MATERIAL
148
0.0
149
0.0
149
0.0
 93
        0
 94
      127
282
     0
 72
     1
 77
     1
171
     1
175
     1
179
     1
273
     0
  0
XRECORD
  5
34D
102
{ACAD_REACTORS
330
34C
102
}
330
34C
100
AcDbXrecord
102
MATERIAL
148
0.0
149
0.0
149
0.0
 93
        0
 94
      127
282
     0
 72
     1
 77
     1
171
     1
175
     1
179
     1
273
     0
  0
ENDSEC
  0
EOF
