  0
SECTION
  2
HEADER
  9
$ACADVER
  1
AC1014
  9
$ACADMAINTVER
 70
     9
  9
$DWGCODEPAGE
  3
ANSI_932
  9
$INSBASE
 10
0.0
 20
0.0
 30
0.0
  9
$EXTMIN
 10
453.2499999993511
 20
43.37499999999983
 30
0.0
  9
$EXTMAX
 10
841.7500000004272
 20
293.6250000000001
 30
0.0
  9
$LIMMIN
 10
0.0
 20
0.0
  9
$LIMMAX
 10
12.0
 20
9.0
  9
$ORTHOMODE
 70
     0
  9
$REGENMODE
 70
     1
  9
$FILLMODE
 70
     1
  9
$QTEXTMODE
 70
     0
  9
$MIRRTEXT
 70
     1
  9
$DRAGMODE
 70
     2
  9
$LTSCALE
 40
1.0
  9
$OSMODE
 70
    37
  9
$ATTMODE
 70
     1
  9
$TEXTSIZE
 40
0.2
  9
$TRACEWID
 40
0.05
  9
$TEXTSTYLE
  7
STANDARD
  9
$CLAYER
  8
0
  9
$CELTYPE
  6
BYLAYER
  9
$CECOLOR
 62
   256
  9
$CELTSCALE
 40
1.0
  9
$DELOBJ
 70
     1
  9
$DISPSILH
 70
     0
  9
$DIMSCALE
 40
1.0
  9
$DIMASZ
 40
3.0
  9
$DIMEXO
 40
0.0625
  9
$DIMDLI
 40
0.38
  9
$DIMRND
 40
0.0
  9
$DIMDLE
 40
0.0
  9
$DIMEXE
 40
1.5
  9
$DIMTP
 40
0.0
  9
$DIMTM
 40
0.0
  9
$DIMTXT
 40
3.0
  9
$DIMCEN
 40
0.09
  9
$DIMTSZ
 40
0.0
  9
$DIMTOL
 70
     0
  9
$DIMLIM
 70
     0
  9
$DIMTIH
 70
     1
  9
$DIMTOH
 70
     1
  9
$DIMSE1
 70
     0
  9
$DIMSE2
 70
     0
  9
$DIMTAD
 70
     1
  9
$DIMZIN
 70
     0
  9
$DIMBLK
  1

  9
$DIMASO
 70
     1
  9
$DIMSHO
 70
     1
  9
$DIMPOST
  1

  9
$DIMAPOST
  1

  9
$DIMALT
 70
     0
  9
$DIMALTD
 70
     2
  9
$DIMALTF
 40
25.4
  9
$DIMLFAC
 40
1.0
  9
$DIMTOFL
 70
     0
  9
$DIMTVP
 40
0.0
  9
$DIMTIX
 70
     0
  9
$DIMSOXD
 70
     0
  9
$DIMSAH
 70
     0
  9
$DIMBLK1
  1

  9
$DIMBLK2
  1

  9
$DIMSTYLE
  2
STANDARD
  9
$DIMCLRD
 70
     0
  9
$DIMCLRE
 70
     0
  9
$DIMCLRT
 70
     0
  9
$DIMTFAC
 40
1.0
  9
$DIMGAP
 40
1.5
  9
$DIMJUST
 70
     0
  9
$DIMSD1
 70
     0
  9
$DIMSD2
 70
     0
  9
$DIMTOLJ
 70
     1
  9
$DIMTZIN
 70
     0
  9
$DIMALTZ
 70
     0
  9
$DIMALTTZ
 70
     0
  9
$DIMFIT
 70
     3
  9
$DIMUPT
 70
     0
  9
$DIMUNIT
 70
     2
  9
$DIMDEC
 70
     2
  9
$DIMTDEC
 70
     4
  9
$DIMALTU
 70
     2
  9
$DIMALTTD
 70
     2
  9
$DIMTXSTY
  7
ＭＳ_ゴシック
  9
$DIMAUNIT
 70
     0
  9
$LUNITS
 70
     2
  9
$LUPREC
 70
     4
  9
$SKETCHINC
 40
0.1
  9
$FILLETRAD
 40
0.5
  9
$AUNITS
 70
     0
  9
$AUPREC
 70
     0
  9
$MENU
  1
.
  9
$ELEVATION
 40
0.0
  9
$PELEVATION
 40
0.0
  9
$THICKNESS
 40
0.0
  9
$LIMCHECK
 70
     0
  9
$CHAMFERA
 40
0.0
  9
$CHAMFERB
 40
0.0
  9
$CHAMFERC
 40
0.0
  9
$CHAMFERD
 40
0.0
  9
$SKPOLY
 70
     0
  9
$TDCREATE
 40
2459772.609763599
  9
$TDUPDATE
 40
2459772.609763947
  9
$TDINDWG
 40
0.0000000116
  9
$TDUSRTIMER
 40
0.0000000116
  9
$USRTIMER
 70
     1
  9
$ANGBASE
 50
0.0
  9
$ANGDIR
 70
     0
  9
$PDMODE
 70
     0
  9
$PDSIZE
 40
0.0
  9
$PLINEWID
 40
0.0
  9
$COORDS
 70
     1
  9
$SPLFRAME
 70
     0
  9
$SPLINETYPE
 70
     6
  9
$SPLINESEGS
 70
     8
  9
$ATTDIA
 70
     0
  9
$ATTREQ
 70
     1
  9
$HANDLING
 70
     1
  9
$HANDSEED
  5
44F
  9
$SURFTAB1
 70
     6
  9
$SURFTAB2
 70
     6
  9
$SURFTYPE
 70
     6
  9
$SURFU
 70
     6
  9
$SURFV
 70
     6
  9
$UCSNAME
  2

  9
$UCSORG
 10
0.0
 20
0.0
 30
0.0
  9
$UCSXDIR
 10
1.0
 20
0.0
 30
0.0
  9
$UCSYDIR
 10
0.0
 20
1.0
 30
0.0
  9
$PUCSNAME
  2

  9
$PUCSORG
 10
0.0
 20
0.0
 30
0.0
  9
$PUCSXDIR
 10
1.0
 20
0.0
 30
0.0
  9
$PUCSYDIR
 10
0.0
 20
1.0
 30
0.0
  9
$USERI1
 70
     0
  9
$USERI2
 70
     0
  9
$USERI3
 70
     0
  9
$USERI4
 70
     0
  9
$USERI5
 70
     0
  9
$USERR1
 40
0.0
  9
$USERR2
 40
0.0
  9
$USERR3
 40
0.0
  9
$USERR4
 40
0.0
  9
$USERR5
 40
0.0
  9
$WORLDVIEW
 70
     1
  9
$SHADEDGE
 70
     3
  9
$SHADEDIF
 70
    70
  9
$TILEMODE
 70
     1
  9
$MAXACTVP
 70
    64
  9
$PINSBASE
 10
0.0
 20
0.0
 30
0.0
  9
$PLIMCHECK
 70
     0
  9
$PEXTMIN
 10
1.000000000000000E+20
 20
1.000000000000000E+20
 30
1.000000000000000E+20
  9
$PEXTMAX
 10
-1.000000000000000E+20
 20
-1.000000000000000E+20
 30
-1.000000000000000E+20
  9
$PLIMMIN
 10
0.0
 20
0.0
  9
$PLIMMAX
 10
12.0
 20
9.0
  9
$UNITMODE
 70
     0
  9
$VISRETAIN
 70
     1
  9
$PLINEGEN
 70
     0
  9
$PSLTSCALE
 70
     1
  9
$TREEDEPTH
 70
  3020
  9
$PICKSTYLE
 70
     1
  9
$CMLSTYLE
  2
STANDARD
  9
$CMLJUST
 70
     0
  9
$CMLSCALE
 40
1.0
  9
$PROXYGRAPHICS
 70
     1
  9
$MEASUREMENT
 70
     1
  0
ENDSEC
  0
SECTION
  2
CLASSES
  0
CLASS
  1
ACDBDICTIONARYWDFLT
  2
AcDbDictionaryWithDefault
  3
ObjectDBX Classes
 90
        0
280
     0
281
     0
  0
CLASS
  1
VISUALSTYLE
  2
AcDbVisualStyle
  3
ObjectDBX Classes
 90
     4095
280
     0
281
     0
  0
CLASS
  1
MATERIAL
  2
AcDbMaterial
  3
ObjectDBX Classes
 90
     1153
280
     0
281
     0
  0
CLASS
  1
SCALE
  2
AcDbScale
  3
ObjectDBX Classes
 90
     1153
280
     0
281
     0
  0
CLASS
  1
TABLESTYLE
  2
AcDbTableStyle
  3
ObjectDBX Classes
 90
     4095
280
     0
281
     0
  0
CLASS
  1
MLEADERSTYLE
  2
AcDbMLeaderStyle
  3
ACDB_MLEADERSTYLE_CLASS
 90
     4095
280
     0
281
     0
  0
CLASS
  1
SUN
  2
AcDbSun
  3
SCENEOE
 90
     1153
280
     0
281
     0
  0
CLASS
  1
DICTIONARYVAR
  2
AcDbDictionaryVar
  3
ObjectDBX Classes
 90
        0
280
     0
281
     0
  0
CLASS
  1
XRECORD
  2
AcDbXrecord
  3
ObjectDBX Classes
 90
        0
280
     0
281
     0
  0
CLASS
  1
LWPOLYLINE
  2
AcDbPolyline
  3
ObjectDBX Classes
 90
        0
280
     0
281
     1
  0
CLASS
  1
HATCH
  2
AcDbHatch
  3
ObjectDBX Classes
 90
        0
280
     0
281
     1
  0
CLASS
  1
ACDBPLACEHOLDER
  2
AcDbPlaceHolder
  3
ObjectDBX Classes
 90
        0
280
     0
281
     0
  0
CLASS
  1
LAYOUT
  2
AcDbLayout
  3
ObjectDBX Classes
 90
        0
280
     0
281
     0
  0
ENDSEC
  0
SECTION
  2
TABLES
  0
TABLE
  2
VPORT
  5
8
102
{ACAD_XDICTIONARY
360
444
102
}
330
0
100
AcDbSymbolTable
 70
     1
  0
VPORT
  5
29
330
8
100
AcDbSymbolTableRecord
100
AcDbViewportTableRecord
  2
*ACTIVE
 70
     0
 10
0.0
 20
0.0
 11
1.0
 21
1.0
 12
647.4999999998892
 22
168.5
 13
0.0
 23
0.0
 14
0.5
 24
0.5
 15
0.5
 25
0.5
 16
0.0
 26
0.0
 36
1.0
 17
0.0
 27
0.0
 37
0.0
 40
250.2500000000003
 41
1.6
 42
50.0
 43
0.0
 44
0.0
 50
0.0
 51
0.0
 71
     0
 72
   100
 73
     1
 74
     3
 75
     0
 76
     0
 77
     0
 78
     0
  0
ENDTAB
  0
TABLE
  2
LTYPE
  5
5
330
0
100
AcDbSymbolTable
 70
     4
  0
LTYPE
  5
14
330
5
100
AcDbSymbolTableRecord
100
AcDbLinetypeTableRecord
  2
BYBLOCK
 70
     0
  3

 72
    65
 73
     0
 40
0.0
  0
LTYPE
  5
15
330
5
100
AcDbSymbolTableRecord
100
AcDbLinetypeTableRecord
  2
BYLAYER
 70
     0
  3

 72
    65
 73
     0
 40
0.0
  0
LTYPE
  5
16
330
5
100
AcDbSymbolTableRecord
100
AcDbLinetypeTableRecord
  2
CONTINUOUS
 70
     0
  3
Solid line
 72
    65
 73
     0
 40
0.0
  0
LTYPE
  5
208
330
5
100
AcDbSymbolTableRecord
100
AcDbLinetypeTableRecord
  2
DOT
 70
     0
  3

 72
    65
 73
     0
 40
0.0
  0
LTYPE
  5
27E
330
5
100
AcDbSymbolTableRecord
100
AcDbLinetypeTableRecord
  2
________________
 70
     0
  3

 72
    65
 73
     4
 40
6.0
 49
2.99999998499985
 74
     0
 49
-1.499999992499925
 74
     0
 49
0.0000000300002998
 74
     0
 49
-1.499999992499925
 74
     0
  0
LTYPE
  5
393
330
5
100
AcDbSymbolTableRecord
100
AcDbLinetypeTableRecord
  2
CENTER
 70
     0
  3

 72
    65
 73
     0
 40
0.0
  0
ENDTAB
  0
TABLE
  2
LAYER
  5
2
330
0
100
AcDbSymbolTable
 70
     2
  0
LAYER
  5
10
330
2
100
AcDbSymbolTableRecord
100
AcDbLayerTableRecord
  2
0
 70
     0
 62
     7
  6
CONTINUOUS
  0
LAYER
  5
6E
330
2
100
AcDbSymbolTableRecord
100
AcDbLayerTableRecord
  2
1
 70
     0
 62
     7
  6
CONTINUOUS
  0
ENDTAB
  0
TABLE
  2
STYLE
  5
3
330
0
100
AcDbSymbolTable
 70
     2
  0
STYLE
  5
11
330
3
100
AcDbSymbolTableRecord
100
AcDbTextStyleTableRecord
  2
STANDARD
 70
     0
 40
0.0
 41
1.0
 50
0.0
 71
     0
 42
0.2
  3
txt
  4

  0
STYLE
  5
6F
330
3
100
AcDbSymbolTableRecord
100
AcDbTextStyleTableRecord
  2
ＭＳ_ゴシック
 70
     0
 40
0.0
 41
1.0
 50
0.0
 71
     0
 42
0.2
  3
ＭＳ ゴシック.shx
  4

  0
ENDTAB
  0
TABLE
  2
VIEW
  5
6
330
0
100
AcDbSymbolTable
 70
     0
  0
ENDTAB
  0
TABLE
  2
UCS
  5
7
330
0
100
AcDbSymbolTable
 70
     0
  0
ENDTAB
  0
TABLE
  2
APPID
  5
9
330
0
100
AcDbSymbolTable
 70
     2
  0
APPID
  5
12
330
9
100
AcDbSymbolTableRecord
100
AcDbRegAppTableRecord
  2
ACAD
 70
     0
  0
APPID
  5
44E
330
9
100
AcDbSymbolTableRecord
100
AcDbRegAppTableRecord
  2
ACAD_MLEADERVER
 70
     0
  0
ENDTAB
  0
TABLE
  2
DIMSTYLE
  5
A
330
0
100
AcDbSymbolTable
 70
     1
  0
DIMSTYLE
105
27
330
A
100
AcDbSymbolTableRecord
100
AcDbDimStyleTableRecord
  2
STANDARD
 70
     0
  3

  4

  5

  6

  7

 40
1.0
 41
0.18
 42
0.0625
 43
0.38
 44
0.18
 45
0.0
 46
0.0
 47
0.0
 48
0.0
140
0.18
141
0.09
142
0.0
143
25.4
144
1.0
145
0.0
146
1.0
147
0.09
 71
     0
 72
     0
 73
     1
 74
     1
 75
     0
 76
     0
 77
     0
 78
     0
170
     0
171
     2
172
     0
173
     0
174
     0
175
     0
176
     0
177
     0
178
     0
270
     2
271
     4
272
     4
273
     2
274
     2
340
11
275
     0
280
     0
281
     0
282
     0
283
     1
284
     0
285
     0
286
     0
287
     3
288
     0
  0
ENDTAB
  0
TABLE
  2
BLOCK_RECORD
  5
1
330
0
100
AcDbSymbolTable
 70
     0
  0
BLOCK_RECORD
  5
1F
330
1
100
AcDbSymbolTableRecord
100
AcDbBlockTableRecord
  2
*MODEL_SPACE
  0
BLOCK_RECORD
  5
1B
330
1
100
AcDbSymbolTableRecord
100
AcDbBlockTableRecord
  2
*PAPER_SPACE
  0
ENDTAB
  0
ENDSEC
  0
SECTION
  2
BLOCKS
  0
BLOCK
  5
20
330
1F
100
AcDbEntity
  8
0
100
AcDbBlockBegin
  2
*MODEL_SPACE
 70
     0
 10
0.0
 20
0.0
 30
0.0
  3
*MODEL_SPACE
  1

  0
ENDBLK
  5
21
330
1F
100
AcDbEntity
  8
0
100
AcDbBlockEnd
  0
BLOCK
  5
1C
330
1B
100
AcDbEntity
 67
     1
  8
0
100
AcDbBlockBegin
  2
*PAPER_SPACE
 70
     0
 10
0.0
 20
0.0
 30
0.0
  3
*PAPER_SPACE
  1

  0
ENDBLK
  5
1D
330
1B
100
AcDbEntity
 67
     1
  8
0
100
AcDbBlockEnd
  0
ENDSEC
  0
SECTION
  2
ENTITIES
  0
LINE
  5
70
330
1F
100
AcDbEntity
  8
0
  6
CONTINUOUS
 62
     7
100
AcDbLine
 10
580.5000000021048
 20
47.37499999936698
 30
0.0
 11
589.5000000021048
 21
47.37499999993672
 31
0.0
  0
LINE
  5
71
330
1F
100
AcDbEntity
  8
0
  6
CONTINUOUS
 62
     7
100
AcDbLine
 10
798.2499999999839
 20
262.1250000000001
 30
0.0
 11
798.2499999999839
 21
272.1250000000001
 31
0.0
  0
LINE
  5
72
330
1F
100
AcDbEntity
  8
0
  6
CONTINUOUS
 62
     7
100
AcDbLine
 10
819.7500000000475
 20
273.625
 30
0.0
 11
801.7500000000474
 21
273.625
 31
0.0
  0
ARC
  5
73
330
1F
100
AcDbEntity
  8
0
  6
CONTINUOUS
 62
     7
100
AcDbCircle
 10
819.7500000000475
 20
144.625
 30
0.0
 40
0.9999999999998899
100
AcDbArc
 50
270.0
 51
0.0
  0
LINE
  5
74
330
1F
100
AcDbEntity
  8
0
  6
CONTINUOUS
 62
   253
100
AcDbLine
 10
800.7499999999843
 20
155.125
 30
0.0
 11
798.249999999984
 21
155.125
 31
0.0
  0
ARC
  5
75
330
1F
100
AcDbEntity
  8
0
  6
CONTINUOUS
 62
     7
100
AcDbCircle
 10
819.7500000000475
 20
272.625
 30
0.0
 40
0.9999999999998899
100
AcDbArc
 50
0.0
 51
89.9999999999999
  0
LINE
  5
76
330
1F
100
AcDbEntity
  8
0
  6
CONTINUOUS
 62
     7
100
AcDbLine
 10
801.7500000000474
 20
143.625
 30
0.0
 11
819.7500000000475
 21
143.625
 31
0.0
  0
LINE
  5
77
330
1F
100
AcDbEntity
  8
0
  6
CONTINUOUS
 62
     7
100
AcDbLine
 10
801.7325475935468
 20
263.4687768404468
 30
0.0
 11
834.3285358289518
 21
262.8998117493983
 31
0.0
  0
LINE
  5
78
330
1F
100
AcDbEntity
  8
0
  6
CONTINUOUS
 62
     7
100
AcDbLine
 10
820.7500000000474
 20
144.625
 30
0.0
 11
820.7500000000474
 21
154.1131740260778
 31
0.0
  0
LINE
  5
79
330
1F
100
AcDbEntity
  8
0
  6
CONTINUOUS
 62
     7
100
AcDbLine
 10
834.3285358289518
 20
154.3501882506014
 30
0.0
 11
801.7325475935468
 21
153.781223159553
 31
0.0
  0
LINE
  5
7A
330
1F
100
AcDbEntity
  8
0
  6
CONTINUOUS
 62
     7
100
AcDbLine
 10
798.2499999999839
 20
145.125
 30
0.0
 11
798.2499999999839
 21
155.125
 31
0.0
  0
ARC
  5
7B
330
1F
100
AcDbEntity
  8
0
  6
CONTINUOUS
 62
     7
100
AcDbCircle
 10
-589.5000000020414
 20
48.37499999993672
 30
0.0
 40
0.9999999999998899
210
0.0
220
0.0
230
-1.0
100
AcDbArc
 50
179.9999999963729
 51
269.9999999963729
  0
LINE
  5
7C
330
1F
100
AcDbEntity
  8
0
  6
CONTINUOUS
 62
     7
100
AcDbLine
 10
800.7499999999843
 20
155.125
 30
0.0
 11
800.7499999999843
 21
262.1249999999998
 31
0.0
  0
LINE
  5
7D
330
1F
100
AcDbEntity
  8
0
  6
CONTINUOUS
 62
     7
100
AcDbLine
 10
820.7500000000474
 20
263.1368259739222
 30
0.0
 11
820.7500000000474
 21
272.625
 31
0.0
  0
LINE
  5
7E
330
1F
100
AcDbEntity
  8
0
  6
CONTINUOUS
 62
     7
100
AcDbLine
 10
580.5000000012818
 20
60.37499999936699
 30
0.0
 11
580.5000000019149
 21
50.37499999936701
 31
0.0
  0
LINE
  5
7F
330
1F
100
AcDbEntity
  8
0
  6
CONTINUOUS
 62
     7
100
AcDbLine
 10
800.7499999999843
 20
272.1250000000001
 30
0.0
 11
798.249999999984
 21
272.1250000000001
 31
0.0
  0
LINE
  5
80
330
1F
100
AcDbEntity
  8
0
  6
CONTINUOUS
 62
     7
100
AcDbLine
 10
800.7499999999843
 20
262.1250000000001
 30
0.0
 11
800.7499999999843
 21
272.1250000000001
 31
0.0
  0
ARC
  5
81
330
1F
100
AcDbEntity
  8
0
  6
CONTINUOUS
 62
     7
100
AcDbCircle
 10
589.5000000000159
 20
80.37499999993669
 30
0.0
 40
0.9999999999998899
100
AcDbArc
 50
0.000000003627025
 51
90.00000000362702
  0
LINE
  5
82
330
1F
100
AcDbEntity
  8
0
  6
CONTINUOUS
 62
     7
100
AcDbLine
 10
580.5000000019149
 20
50.37499999936701
 30
0.0
 11
580.500000002105
 21
47.37499999936698
 31
0.0
  0
ARC
  5
83
330
1F
100
AcDbEntity
  8
0
  6
CONTINUOUS
 62
     7
100
AcDbCircle
 10
801.7500000000474
 20
144.625
 30
0.0
 40
0.9999999999998899
100
AcDbArc
 50
180.0
 51
270.0
  0
LINE
  5
84
330
1F
100
AcDbEntity
  8
0
  6
CONTINUOUS
 62
     7
100
AcDbLine
 10
798.2499999999839
 20
155.125
 30
0.0
 11
798.2499999999839
 21
262.1249999999998
 31
0.0
  0
LINE
  5
85
330
1F
100
AcDbEntity
  8
0
  6
CONTINUOUS
 62
     7
100
AcDbLine
 10
800.7499999999843
 20
145.125
 30
0.0
 11
800.7499999999843
 21
155.125
 31
0.0
  0
LINE
  5
86
330
1F
100
AcDbEntity
  8
0
  6
CONTINUOUS
 62
     7
100
AcDbLine
 10
580.5000000012818
 20
60.37499999936699
 30
0.0
 11
580.5000000012185
 21
61.37499999936699
 31
0.0
  0
MTEXT
  5
87
330
1F
100
AcDbEntity
  8
0
 62
     7
100
AcDbMText
 10
771.8776034057329
 20
50.5090909090908
 30
0.0
 40
3.0
 41
0.0
 71
     1
 72
     1
  1
{\fＭＳ ゴシック;ＳＭ３６Ｌ－ＮＣＳ}
  0
LWPOLYLINE
  5
88
330
1F
100
AcDbEntity
  8
0
  6
CONTINUOUS
 62
     7
100
AcDbPolyline
 90
       27
 70
     0
 43
0.0
 10
600.2783291706284
 20
186.010382890777
 10
600.2771189749823
 20
186.0146992831014
 10
600.2577242199687
 20
186.0773801791348
 10
600.2351753386246
 20
186.1392124270558
 10
600.2095679595003
 20
186.1999739500304
 10
600.1809977111452
 20
186.259442671224
 10
600.1495602221088
 20
186.3173965138022
 10
600.1153511209413
 20
186.373613400931
 10
600.0784660361921
 20
186.4278712557756
 10
600.039444455605
 20
186.4794537656834
 10
599.9978067092073
 20
186.5291573036201
 10
599.9537149546396
 20
186.5768064502384
 10
599.9073313495422
 20
186.6222257861912
 10
599.8588180515555
 20
186.6652398921312
 10
599.8083372183205
 20
186.7056733487117
 10
599.7580713998225
 20
186.741985965897
 10
599.7059601946519
 20
186.7759256770233
 10
599.6521923890823
 20
186.8073904738592
 10
599.596956769387
 20
186.836278348174
 10
599.5404421218393
 20
186.8624872917366
 10
599.482837232713
 20
186.8859152963164
 10
599.4243308882814
 20
186.9064603536821
 10
599.3689199618468
 20
186.923026329799
 10
599.3127348240504
 20
186.9371045865576
 10
599.2559469574899
 20
186.9486592707422
 10
599.1987278447639
 20
186.9576545291372
 10
599.1412489684704
 20
186.964054508527
  0
LWPOLYLINE
  5
89
330
1F
100
AcDbEntity
  8
0
  6
CONTINUOUS
 62
     7
100
AcDbPolyline
 90
       27
 70
     0
 43
0.0
 10
-600.2783291706284
 20
231.239617109223
 10
-600.2771189749823
 20
231.2353007168984
 10
-600.2577242199687
 20
231.1726198208652
 10
-600.2351753386246
 20
231.1107875729442
 10
-600.2095679595003
 20
231.0500260499696
 10
-600.1809977111452
 20
230.990557328776
 10
-600.1495602221088
 20
230.9326034861976
 10
-600.1153511209413
 20
230.876386599069
 10
-600.0784660361921
 20
230.8221287442242
 10
-600.039444455605
 20
230.7705462343164
 10
-599.9978067092073
 20
230.7208426963799
 10
-599.9537149546396
 20
230.6731935497616
 10
-599.9073313495422
 20
230.6277742138088
 10
-599.8588180515555
 20
230.5847601078686
 10
-599.8083372183205
 20
230.5443266512884
 10
-599.7580713998225
 20
230.5080140341028
 10
-599.7059601946519
 20
230.4740743229766
 10
-599.6521923890823
 20
230.4426095261406
 10
-599.596956769387
 20
230.413721651826
 10
-599.5404421218393
 20
230.3875127082632
 10
-599.482837232713
 20
230.3640847036836
 10
-599.4243308882814
 20
230.3435396463179
 10
-599.3689199618468
 20
230.3269736702008
 10
-599.3127348240504
 20
230.3128954134424
 10
-599.2559469574899
 20
230.3013407292578
 10
-599.1987278447639
 20
230.2923454708628
 10
-599.1412489684704
 20
230.285945491473
210
0.0
220
0.0
230
-1.0
  0
LWPOLYLINE
  5
8A
330
1F
100
AcDbEntity
  8
0
  6
CONTINUOUS
 62
     7
100
AcDbPolyline
 90
       26
 70
     0
 43
0.0
 10
599.1412489684704
 20
180.2338127550428
 10
599.202595196586
 20
180.2407479223624
 10
599.2636758204493
 20
180.2506565073774
 10
599.3242837498481
 20
180.263488118296
 10
599.3842118945703
 20
180.2791923633258
 10
599.443253164404
 20
180.2977188506748
 10
599.5012004691368
 20
180.3190171885512
 10
599.5581377676231
 20
180.3431562360052
 10
599.6139995891787
 20
180.370096990562
 10
599.6686060980893
 20
180.3997266654094
 10
599.7217774586403
 20
180.4319324737356
 10
599.7733338351179
 20
180.4666016287282
 10
599.8230953918064
 20
180.5036213435754
 10
599.8708822929921
 20
180.5428788314652
 10
599.9169371314501
 20
180.584629322018
 10
599.9610503712289
 20
180.6286733988528
 10
600.0030922255793
 20
180.6748448176844
 10
600.0429329077517
 20
180.7229773342272
 10
600.0804426309969
 20
180.7729047041958
 10
600.1154916085655
 20
180.8244606833054
 10
600.1479500537085
 20
180.8774790272702
 10
600.1802073214191
 20
180.9365965285188
 10
600.2094636365862
 20
180.997399216979
 10
600.2356292295902
 20
181.0596436893672
 10
600.258614330811
 20
181.1230865423996
 10
600.2783291706288
 20
181.1874843727926
  0
LWPOLYLINE
  5
8B
330
1F
100
AcDbEntity
  8
0
  6
CONTINUOUS
 62
     7
100
AcDbPolyline
 90
       26
 70
     0
 43
0.0
 10
-599.1412489684704
 20
237.0161872449572
 10
-599.202595196586
 20
237.0092520776376
 10
-599.2636758204493
 20
236.9993434926224
 10
-599.3242837498481
 20
236.986511881704
 10
-599.3842118945703
 20
236.9708076366742
 10
-599.443253164404
 20
236.952281149325
 10
-599.5012004691368
 20
236.9309828114486
 10
-599.5581377676231
 20
236.9068437639948
 10
-599.6139995891787
 20
236.879903009438
 10
-599.6686060980893
 20
236.8502733345906
 10
-599.7217774586403
 20
236.8180675262643
 10
-599.7733338351179
 20
236.7833983712716
 10
-599.8230953918064
 20
236.7463786564244
 10
-599.8708822929921
 20
236.7071211685348
 10
-599.9169371314501
 20
236.665370677982
 10
-599.9610503712289
 20
236.621326601147
 10
-600.0030922255793
 20
236.5751551823156
 10
-600.0429329077517
 20
236.5270226657728
 10
-600.0804426309969
 20
236.477095295804
 10
-600.1154916085655
 20
236.4255393166946
 10
-600.1479500537085
 20
236.3725209727298
 10
-600.1802073214191
 20
236.3134034714812
 10
-600.2094636365862
 20
236.2526007830208
 10
-600.2356292295902
 20
236.1903563106328
 10
-600.258614330811
 20
236.1269134576004
 10
-600.2783291706288
 20
236.0625156272072
210
0.0
220
0.0
230
-1.0
  0
LWPOLYLINE
  5
8C
330
1F
100
AcDbEntity
  8
0
  6
CONTINUOUS
 62
     7
100
AcDbPolyline
 90
       24
 70
     0
 43
0.0
 10
-485.0783313339455
 20
234.3171347091188
 10
-485.1074165090697
 20
234.3740818919617
 10
-485.1393746908246
 20
234.429695563313
 10
-485.1740696599373
 20
234.4837972707442
 10
-485.2113651971357
 20
234.5362085618266
 10
-485.2511250831463
 20
234.5867509841316
 10
-485.2932130986973
 20
234.6352460852306
 10
-485.3374930245155
 20
234.6815154126948
 10
-485.3840682154833
 20
234.7256475100168
 10
-485.4328490836683
 20
234.7676082611185
 10
-485.4836560272084
 20
234.8072799884248
 10
-485.5363094442415
 20
234.8445450143614
 10
-485.5906297329055
 20
234.879285661354
 10
-485.646437291338
 20
234.9113842518279
 10
-485.7035525176769
 20
234.940723108208
 10
-485.7636066599784
 20
234.967970128686
 10
-485.8251001178404
 20
234.9923335186377
 10
-485.8878124857368
 20
235.0137583816896
 10
-485.9515233581415
 20
235.0321898214688
 10
-486.0160123295287
 20
235.0475729416014
 10
-486.081058994372
 20
235.0598528457146
 10
-486.1464429471456
 20
235.0689746374348
 10
-486.1981467690537
 20
235.073944143107
 10
-486.2499999998218
 20
235.0769940860602
210
0.0
220
0.0
230
-1.0
  0
LWPOLYLINE
  5
8D
330
1F
100
AcDbEntity
  8
0
  6
CONTINUOUS
 62
     7
100
AcDbPolyline
 90
       23
 70
     0
 43
0.0
 10
-485.876367232029
 20
232.9116814509922
 10
-485.8460172661358
 20
232.9101912398444
 10
-485.8156199552375
 20
232.9098992067008
 10
-485.7852450763846
 20
232.9107809447678
 10
-485.74371161122
 20
232.9138617150564
 10
-485.7022954844732
 20
232.9190537887786
 10
-485.6611292554398
 20
232.9262817582954
 10
-485.6203454834149
 20
232.935470215968
 10
-485.5800767276947
 20
232.9465437541568
 10
-485.5404555475744
 20
232.959426965223
 10
-485.4952357328848
 20
232.9766230779472
 10
-485.4508519850667
 20
232.9961626105082
 10
-485.4074430210296
 20
233.017928179253
 10
-485.3651475576823
 20
233.0418024005282
 10
-485.3241043119345
 20
233.0676678906806
 10
-485.2844520006949
 20
233.0954072660566
 10
-485.2442082865338
 20
233.1265936361538
 10
-485.2054291885606
 20
233.1597770953836
 10
-485.168191871481
 20
233.194809225858
 10
-485.1325734999998
 20
233.2315416096882
 10
-485.0986512388229
 20
233.2698258289865
 10
-485.0665022526554
 20
233.3095134658638
 10
-485.0362037062027
 20
233.3504561024326
210
0.0
220
0.0
230
-1.0
  0
LWPOLYLINE
  5
8E
330
1F
100
AcDbEntity
  8
0
  6
CONTINUOUS
 62
     7
100
AcDbPolyline
 90
      115
 70
     0
 43
0.0
 10
-486.0266150332326
 20
234.44880733979
 10
-486.0642974752265
 20
234.4631864941288
 10
-486.1026575448715
 20
234.4757125348762
 10
-486.1419577756445
 20
234.486445384996
 10
-486.1817587776296
 20
234.4952466889308
 10
-486.2168303682672
 20
234.5013345217254
 10
-486.2521729427578
 20
234.5059392290306
 10
-486.2876917878598
 20
234.5090587724868
 10
-486.3232921903313
 20
234.510691113734
 10
-486.359904850054
 20
234.5108249997622
 10
-486.3965271263879
 20
234.5094098432786
 10
-486.433064534594
 20
234.5064569329664
 10
-486.4694225899337
 20
234.501977557508
 10
-486.5058499097443
 20
234.4959203045414
 10
-486.5420316524007
 20
234.4883240426144
 10
-486.5778761649688
 20
234.4792128816447
 10
-486.6132917945145
 20
234.4686109315498
 10
-486.6492026104321
 20
234.456172571095
 10
-486.6845933583512
 20
234.4421922967612
 10
-486.7193723170336
 20
234.4267165357204
 10
-486.7534477652409
 20
234.4097917151445
 10
-486.7867669073282
 20
234.391450328136
 10
-486.8193248814223
 20
234.371714395832
 10
-486.8510438616362
 20
234.3506449955312
 10
-486.8818460220838
 20
234.3283032045314
 10
-486.9124939503542
 20
234.3040575145404
 10
-486.9421235621247
 20
234.2785151957686
 10
-486.9706617964282
 20
234.251744232082
 10
-486.9980355922974
 20
234.2238126073468
 10
-487.024488738033
 20
234.1944303282236
 10
-487.049707838439
 20
234.1639209965076
 10
-487.0736330956706
 20
234.1323693274636
 10
-487.0962047118819
 20
234.0998600363566
 10
-487.117969431464
 20
234.0654866288276
 10
-487.1382738285932
 20
234.0301789680294
 10
-487.1570747114793
 20
233.9940387567806
 10
-487.1743288883324
 20
233.9571676978992
 10
-487.1900009640897
 20
233.9196668305993
 10
-487.2041156173614
 20
233.8815139576636
 10
-487.2166408252327
 20
233.8428042800194
 10
-487.2275445647891
 20
233.8036329985938
 10
-487.2370435875744
 20
233.7629466422572
 10
-487.2448172156854
 20
233.7218470632922
 10
-487.2508516417224
 20
233.6804434174624
 10
-487.2551330582866
 20
233.6388448605316
 10
-487.2576637493045
 20
233.5969269988534
 10
-487.2584346671765
 20
233.5548936581178
 10
-487.2574551358295
 20
233.5128546786534
 10
-487.2547344791904
 20
233.4709199007883
 10
-487.2501368835176
 20
233.4279900036464
 10
-487.2437324391043
 20
233.3852532678186
 10
-487.2355450212482
 20
233.3428186308332
 10
-487.2255985052476
 20
233.3007950302182
 10
-487.2138510937522
 20
233.25906615116
 10
-487.2003518135332
 20
233.2178230782812
 10
-487.1851400105562
 20
233.177169426825
 10
-487.1682550307874
 20
233.137208812034
 10
-487.149171085743
 20
233.0968979092007
 10
-487.1283638465666
 20
233.057391806157
 10
-487.1058982818111
 20
233.0187915128164
 10
-487.0818393600293
 20
232.9811980390928
 10
-487.056345115771
 20
232.9448247280756
 10
-487.0293386252446
 20
232.9095078721616
 10
-487.0008990564325
 20
232.8753299887992
 10
-486.9711055773161
 20
232.8423735954366
 10
-486.9391214253724
 20
232.8098253669942
 10
-486.9057659959317
 20
232.7786201260922
 10
-486.8711272775479
 20
232.7488348119736
 10
-486.8352932587758
 20
232.720546363882
 10
-486.7980625877424
 20
232.6936230296934
 10
-486.759692560677
 20
232.6682594716004
 10
-486.7202873931839
 20
232.6445145180514
 10
-486.6799513008679
 20
232.622446997495
 10
-486.6375603790056
 20
232.6015331280356
 10
-486.5942755890331
 20
232.582417923938
 10
-486.5502188322792
 20
232.5651395348426
 10
-486.5055120100723
 20
232.5497361103902
 10
-486.4604504116028
 20
232.5362849043836
 10
-486.4148336610121
 20
232.524697460579
 10
-486.368775125682
 20
232.5149994672774
 10
-486.3223881729944
 20
232.5072166127796
 10
-486.2744256089782
 20
232.5012269191652
 10
-486.2262016572207
 20
232.497267599291
 10
-486.1778434579509
 20
232.4953420669752
 10
-486.1294781513976
 20
232.4954537360371
 10
-486.08113546254
 20
232.497604407217
 10
-486.0328754073175
 20
232.5017776539708
 10
-485.9848220780329
 20
232.5079506842942
 10
-485.93709956699
 20
232.5161007061832
 10
-485.8884535291972
 20
232.5265189301558
 10
-485.8402465560492
 20
232.5389816083346
 10
-485.792601218169
 20
232.5534481337482
 10
-485.745640086179
 20
232.5698778994251
 10
-485.6994155802386
 20
232.5882567906602
 10
-485.6539539625433
 20
232.6085677240124
 10
-485.6093687495144
 20
232.6307543655652
 10
-485.5657734575724
 20
232.654760381402
 10
-485.5220331760113
 20
232.6813144004117
 10
-485.4794160379539
 20
232.7097343965336
 10
-485.4380300084218
 20
232.7399352715696
 10
-485.3979830524371
 20
232.7718319273216
 10
-485.3596147854757
 20
232.805116764936
 10
-485.3226241327839
 20
232.8399924779862
 10
-485.2870956839797
 20
232.8763596525752
 10
-485.2531140286808
 20
232.9141188748066
 10
-485.219846439034
 20
232.9543242226422
 10
-485.1882661501794
 20
232.9959271022212
 10
-485.1584511477962
 20
233.0388186639552
 10
-485.1304794175633
 20
233.082890058255
 10
-485.1043113030511
 20
233.1282297674654
 10
-485.0800394019534
 20
233.1746726549928
 10
-485.0577189017342
 20
233.22209467747
 10
-485.0374049898578
 20
233.2703717915288
 10
-485.0186324197256
 20
233.3208482692482
 10
-485.015615632662
 20
233.329604471598
210
0.0
220
0.0
230
-1.0
  0
LWPOLYLINE
  5
8F
330
1F
100
AcDbEntity
  8
0
  6
CONTINUOUS
 62
     7
100
AcDbPolyline
 90
       35
 70
     0
 43
0.0
 10
485.0362037063476
 20
183.8995438973706
 10
485.0359699862081
 20
183.8423208194672
 10
485.0384546001192
 20
183.7849731517602
 10
485.0436722386185
 20
183.7277101026854
 10
485.0516375922429
 20
183.6707408806784
 10
485.0623653515302
 20
183.6142746941746
 10
485.0758702070175
 20
183.5585207516096
 10
485.0921668492418
 20
183.5036882614192
 10
485.1110293026393
 20
183.4504724032884
 10
485.1326464958419
 20
183.3981048769968
 10
485.1569383727856
 20
183.3467999982958
 10
485.1838248774052
 20
183.2967720829374
 10
485.2132259536361
 20
183.248235446673
 10
485.245061545414
 20
183.201404405254
 10
485.2792515966739
 20
183.156493274432
 10
485.3089968227478
 20
183.1212615011568
 10
485.3404392818375
 20
183.0873191790974
 10
485.3734785808843
 20
183.0547842706998
 10
485.4080143268293
 20
183.0237747384104
 10
485.4439461266136
 20
182.9944085446754
 10
485.4811735871784
 20
182.9668036519408
 10
485.519596315465
 20
182.941078022653
 10
485.5591139184143
 20
182.917349619258
 10
485.5955908637126
 20
182.8977383134202
 10
485.6330325616245
 20
182.8797131039656
 10
485.6713233250116
 20
182.8633459169724
 10
485.7103474667352
 20
182.8487086785194
 10
485.7499892996573
 20
182.8358733146846
 10
485.7901331366392
 20
182.8249117515468
 10
485.8306632905427
 20
182.815895915184
 10
485.8714640742294
 20
182.8088977316752
 10
485.9100489961961
 20
182.804199680797
 10
485.9488575525202
 20
182.8013328081658
 10
485.9877571094497
 20
182.800322129423
 10
486.0266150332327
 20
182.80119266021
  0
LWPOLYLINE
  5
90
330
1F
100
AcDbEntity
  8
0
  6
CONTINUOUS
 62
     7
100
AcDbPolyline
 90
      115
 70
     0
 43
0.0
 10
486.0266150332326
 20
182.80119266021
 10
486.0642974752265
 20
182.7868135058712
 10
486.1026575448715
 20
182.7742874651238
 10
486.1419577756445
 20
182.7635546150038
 10
486.1817587776296
 20
182.7547533110692
 10
486.2168303682672
 20
182.7486654782746
 10
486.2521729427578
 20
182.7440607709692
 10
486.2876917878598
 20
182.740941227513
 10
486.3232921903313
 20
182.739308886266
 10
486.359904850054
 20
182.7391750002378
 10
486.3965271263879
 20
182.7405901567214
 10
486.433064534594
 20
182.7435430670336
 10
486.4694225899337
 20
182.7480224424918
 10
486.5058499097443
 20
182.7540796954586
 10
486.5420316524007
 20
182.7616759573854
 10
486.5778761649688
 20
182.7707871183552
 10
486.6132917945145
 20
182.7813890684502
 10
486.6492026104321
 20
182.793827428905
 10
486.6845933583512
 20
182.8078077032386
 10
486.7193723170336
 20
182.8232834642794
 10
486.7534477652409
 20
182.8402082848556
 10
486.7867669073282
 20
182.858549671864
 10
486.8193248814223
 20
182.8782856041678
 10
486.8510438616362
 20
182.8993550044688
 10
486.8818460220838
 20
182.9216967954684
 10
486.9124939503542
 20
182.9459424854594
 10
486.9421235621247
 20
182.9714848042314
 10
486.9706617964282
 20
182.998255767918
 10
486.9980355922974
 20
183.026187392653
 10
487.024488738033
 20
183.0555696717762
 10
487.049707838439
 20
183.0860790034924
 10
487.0736330956706
 20
183.1176306725364
 10
487.0962047118819
 20
183.1501399636432
 10
487.117969431464
 20
183.1845133711724
 10
487.1382738285932
 20
183.2198210319704
 10
487.1570747114793
 20
183.2559612432192
 10
487.1743288883324
 20
183.2928323021008
 10
487.1900009640897
 20
183.3303331694006
 10
487.2041156173614
 20
183.3684860423364
 10
487.2166408252327
 20
183.4071957199806
 10
487.2275445647891
 20
183.4463670014062
 10
487.2370435875744
 20
183.4870533577426
 10
487.2448172156854
 20
183.5281529367078
 10
487.2508516417224
 20
183.5695565825376
 10
487.2551330582866
 20
183.6111551394684
 10
487.2576637493045
 20
183.6530730011466
 10
487.2584346671765
 20
183.695106341882
 10
487.2574551358295
 20
183.7371453213464
 10
487.2547344791904
 20
183.7790800992114
 10
487.2501368835176
 20
183.8220099963536
 10
487.2437324391043
 20
183.8647467321812
 10
487.2355450212482
 20
183.9071813691668
 10
487.2255985052476
 20
183.9492049697818
 10
487.2138510937522
 20
183.99093384884
 10
487.2003518135332
 20
184.0321769217186
 10
487.1851400105562
 20
184.0728305731748
 10
487.1682550307874
 20
184.112791187966
 10
487.149171085743
 20
184.1531020907992
 10
487.1283638465666
 20
184.192608193843
 10
487.1058982818111
 20
184.2312084871836
 10
487.0818393600293
 20
184.2688019609072
 10
487.056345115771
 20
184.3051752719244
 10
487.0293386252446
 20
184.3404921278384
 10
487.0008990564325
 20
184.3746700112008
 10
486.9711055773161
 20
184.4076264045634
 10
486.9391214253724
 20
184.4401746330056
 10
486.9057659959317
 20
184.4713798739078
 10
486.8711272775479
 20
184.5011651880264
 10
486.8352932587758
 20
184.529453636118
 10
486.7980625877424
 20
184.5563769703064
 10
486.759692560677
 20
184.5817405283996
 10
486.7202873931839
 20
184.6054854819484
 10
486.6799513008679
 20
184.6275530025048
 10
486.6375603790056
 20
184.6484668719642
 10
486.5942755890331
 20
184.667582076062
 10
486.5502188322792
 20
184.6848604651574
 10
486.5055120100723
 20
184.7002638896096
 10
486.4604504116028
 20
184.7137150956164
 10
486.4148336610121
 20
184.725302539421
 10
486.368775125682
 20
184.7350005327226
 10
486.3223881729944
 20
184.7427833872204
 10
486.2744256089782
 20
184.7487730808348
 10
486.2262016572207
 20
184.752732400709
 10
486.1778434579509
 20
184.7546579330246
 10
486.1294781513976
 20
184.7545462639629
 10
486.08113546254
 20
184.752395592783
 10
486.0328754073175
 20
184.7482223460292
 10
485.9848220780329
 20
184.7420493157058
 10
485.93709956699
 20
184.7338992938168
 10
485.8884535291972
 20
184.7234810698442
 10
485.8402465560492
 20
184.7110183916654
 10
485.792601218169
 20
184.6965518662518
 10
485.745640086179
 20
184.680122100575
 10
485.6994155802386
 20
184.6617432093396
 10
485.6539539625433
 20
184.6414322759876
 10
485.6093687495144
 20
184.6192456344348
 10
485.5657734575724
 20
184.5952396185978
 10
485.5220331760113
 20
184.5686855995882
 10
485.4794160379539
 20
184.5402656034662
 10
485.4380300084218
 20
184.5100647284302
 10
485.3979830524371
 20
184.4781680726784
 10
485.3596147854757
 20
184.4448832350638
 10
485.3226241327839
 20
184.4100075220138
 10
485.2870956839797
 20
184.3736403474248
 10
485.2531140286808
 20
184.3358811251934
 10
485.219846439034
 20
184.2956757773578
 10
485.1882661501794
 20
184.2540728977786
 10
485.1584511477962
 20
184.2111813360448
 10
485.1304794175633
 20
184.1671099417448
 10
485.1043113030511
 20
184.1217702325346
 10
485.0800394019534
 20
184.075327345007
 10
485.0577189017342
 20
184.02790532253
 10
485.0374049898578
 20
183.979628208471
 10
485.0186324197256
 20
183.9291517307518
 10
485.015615632662
 20
183.9203955284018
  0
LWPOLYLINE
  5
91
330
1F
100
AcDbEntity
  8
0
  6
CONTINUOUS
 62
     7
100
AcDbPolyline
 90
       33
 70
     0
 43
0.0
 10
816.7500000002797
 20
135.625
 10
816.749397728382
 20
135.6495338371636
 10
816.7475923636149
 20
135.6740085701648
 10
816.7445882552611
 20
135.6983652372276
 10
816.74039264048
 20
135.722545161008
 10
816.7350156268756
 20
135.7464900899516
 10
816.7284701681439
 20
135.7701423386272
 10
816.720772032869
 20
135.793444926696
 10
816.7119397665327
 20
135.8163417161826
 10
816.7019946468386
 20
135.8387775467152
 10
816.6909606324508
 20
135.860698368413
 10
816.6788643052764
 20
135.8820513720966
 10
816.6657348064274
 20
135.9027851165098
 10
816.6516037660163
 20
135.9228496522462
 10
816.6365052269571
 20
135.9421966420818
 10
816.620475562953
 20
135.9607794774234
 10
816.6035533908685
 20
135.9785533905932
 10
816.5857794776985
 20
135.9954755626774
 10
816.5671966423566
 20
136.0115052266814
 10
816.5478496525209
 20
136.0266037657402
 10
816.5277851167842
 20
136.0407348061512
 10
816.5070513723708
 20
136.0538643050002
 10
816.4856983686869
 20
136.0659606321742
 10
816.4637775469891
 20
136.0769946465618
 10
816.4413417164565
 20
136.0869397662556
 10
816.4184449269698
 20
136.0957720325914
 10
816.3951423389009
 20
136.103470167866
 10
816.3714900902253
 20
136.1100156265972
 10
816.3475451612816
 20
136.1153926402016
 10
816.3233652375012
 20
136.1195882549824
 10
816.2990085704382
 20
136.122592363336
 10
816.274533837437
 20
136.1243977281026
 10
816.2500000002734
 20
136.125
  0
LWPOLYLINE
  5
92
330
1F
100
AcDbEntity
  8
0
  6
CONTINUOUS
 62
     7
100
AcDbPolyline
 90
       33
 70
     0
 43
0.0
 10
816.2500000002734
 20
281.1249999999999
 10
816.274533837437
 20
281.1256022718974
 10
816.2990085704382
 20
281.1274076366637
 10
816.3233652375012
 20
281.1304117450176
 10
816.3475451612816
 20
281.1346073597985
 10
816.3714900902253
 20
281.1399843734026
 10
816.3951423389009
 20
281.1465298321338
 10
816.4184449269698
 20
281.1542279674084
 10
816.4413417164565
 20
281.1630602337444
 10
816.4637775469891
 20
281.1730053534383
 10
816.4856983686869
 20
281.1840393678257
 10
816.5070513723708
 20
281.1961356949998
 10
816.5277851167842
 20
281.2092651938486
 10
816.5478496525209
 20
281.2233962342596
 10
816.5671966423566
 20
281.2384947733186
 10
816.5857794776985
 20
281.2545244373225
 10
816.6035533908685
 20
281.2714466094066
 10
816.620475562953
 20
281.2892205225764
 10
816.6365052269571
 20
281.3078033579181
 10
816.6516037660163
 20
281.3271503477538
 10
816.6657348064274
 20
281.3472148834902
 10
816.6788643052764
 20
281.3679486279034
 10
816.6909606324508
 20
281.389301631587
 10
816.7019946468386
 20
281.4112224532848
 10
816.7119397665327
 20
281.4336582838174
 10
816.720772032869
 20
281.4565550733038
 10
816.7284701681439
 20
281.4798576613728
 10
816.7350156268756
 20
281.5035099100485
 10
816.74039264048
 20
281.527454838992
 10
816.7445882552611
 20
281.5516347627723
 10
816.7475923636149
 20
281.5759914298353
 10
816.749397728382
 20
281.6004661628362
 10
816.7500000002798
 20
281.6249999999999
  0
LWPOLYLINE
  5
93
330
1F
100
AcDbEntity
  8
0
  6
CONTINUOUS
 62
     7
100
AcDbPolyline
 90
       23
 70
     0
 43
0.0
 10
485.876367232029
 20
184.3383185490078
 10
485.8460172661358
 20
184.3398087601554
 10
485.8156199552375
 20
184.3401007932992
 10
485.7852450763846
 20
184.339219055232
 10
485.74371161122
 20
184.3361382849436
 10
485.7022954844732
 20
184.3309462112214
 10
485.6611292554398
 20
184.3237182417044
 10
485.6203454834149
 20
184.314529784032
 10
485.5800767276947
 20
184.303456245843
 10
485.5404555475744
 20
184.2905730347768
 10
485.4952357328848
 20
184.2733769220528
 10
485.4508519850667
 20
184.2538373894918
 10
485.4074430210296
 20
184.232071820747
 10
485.3651475576823
 20
184.2081975994718
 10
485.3241043119345
 20
184.1823321093194
 10
485.2844520006949
 20
184.1545927339432
 10
485.2442082865338
 20
184.1234063638462
 10
485.2054291885606
 20
184.0902229046162
 10
485.168191871481
 20
184.055190774142
 10
485.1325734999998
 20
184.0184583903116
 10
485.0986512388229
 20
183.9801741710136
 10
485.0665022526554
 20
183.940486534136
 10
485.0362037062027
 20
183.8995438975674
  0
LWPOLYLINE
  5
94
330
1F
100
AcDbEntity
  8
0
  6
CONTINUOUS
 62
     7
100
AcDbPolyline
 90
       33
 70
     0
 43
0.0
 10
-819.7500000004271
 20
293.625
 10
-819.7990676747546
 20
293.6237954562052
 10
-819.8480171407567
 20
293.6201847266723
 10
-819.8967304748822
 20
293.6141765099648
 10
-819.945090322443
 20
293.6057852804033
 10
-819.99298018033
 20
293.5950312531944
 10
-820.0402846776813
 20
293.5819403357323
 10
-820.0868898538184
 20
293.566544065183
 10
-820.1326834327915
 20
293.5488795325112
 10
-820.1775550938563
 20
293.5289892931234
 10
-820.2213967372518
 20
293.5069212643484
 10
-820.2641027446186
 20
293.4827286100003
 10
-820.3055702334448
 20
293.4564696123024
 10
-820.3456993049172
 20
293.4282075314806
 10
-820.384393284588
 20
293.3980104533628
 10
-820.421558955271
 20
293.365951125355
 10
-820.4571067816102
 20
293.3321067811864
 10
-820.4909511257783
 20
293.2965589548469
 10
-820.5230104537854
 20
293.2593932841636
 10
-820.5532075319029
 20
293.2206993044924
 10
-820.5814696127243
 20
293.1805702330196
 10
-820.6077286104214
 20
293.1391027441932
 10
-820.6319212647691
 20
293.0963967368261
 10
-820.6539892935436
 20
293.0525550934302
 10
-820.6738795329309
 20
293.0076834323651
 10
-820.691544065602
 20
292.9618898533922
 10
-820.7069403361506
 20
292.9152846772545
 10
-820.7200312536124
 20
292.8679801799032
 10
-820.7307852808206
 20
292.8200903220161
 10
-820.7391765103815
 20
292.7717304744554
 10
-820.7451847270884
 20
292.7230171403293
 10
-820.7487954566205
 20
292.6740676743274
 10
-820.7500000004148
 20
292.6249999999999
210
0.0
220
0.0
230
-1.0
  0
LWPOLYLINE
  5
95
330
1F
100
AcDbEntity
  8
0
  6
CONTINUOUS
 62
     7
100
AcDbPolyline
 90
       33
 70
     0
 43
0.0
 10
-800.7500000004148
 20
292.625
 10
-800.7512045442104
 20
292.6740676743274
 10
-800.7548152737438
 20
292.7230171403293
 10
-800.7608234904517
 20
292.7717304744554
 10
-800.769214720014
 20
292.8200903220161
 10
-800.7799687472234
 20
292.8679801799032
 10
-800.7930596646861
 20
292.9152846772545
 10
-800.8084559352362
 20
292.9618898533922
 10
-800.8261204679084
 20
293.0076834323651
 10
-800.8460107072967
 20
293.0525550934302
 10
-800.8680787360724
 20
293.0963967368261
 10
-800.892271390421
 20
293.1391027441932
 10
-800.9185303881192
 20
293.1805702330196
 10
-800.9467924689417
 20
293.2206993044924
 10
-800.9769895470602
 20
293.2593932841636
 10
-801.0090488750683
 20
293.2965589548469
 10
-801.042893219237
 20
293.3321067811866
 10
-801.0784410455772
 20
293.365951125355
 10
-801.1156067162608
 20
293.3980104533628
 10
-801.1543006959325
 20
293.4282075314806
 10
-801.1944297674056
 20
293.4564696123024
 10
-801.2358972562323
 20
293.4827286100003
 10
-801.2786032635998
 20
293.5069212643484
 10
-801.3224449069958
 20
293.5289892931234
 10
-801.3673165680613
 20
293.5488795325112
 10
-801.4131101470343
 20
293.566544065183
 10
-801.4597153231722
 20
293.5819403357323
 10
-801.5070198205236
 20
293.5950312531946
 10
-801.5549096784107
 20
293.6057852804033
 10
-801.6032695259715
 20
293.6141765099648
 10
-801.6519828600976
 20
293.6201847266723
 10
-801.7009323260997
 20
293.6237954562052
 10
-801.7500000004271
 20
293.625
210
0.0
220
0.0
230
-1.0
  0
LWPOLYLINE
  5
96
330
1F
100
AcDbEntity
  8
0
  6
CONTINUOUS
 62
     7
100
AcDbPolyline
 90
       35
 70
     0
 43
0.0
 10
-485.0362037063476
 20
233.3504561026294
 10
-485.0359699862081
 20
233.4076791805328
 10
-485.0384546001192
 20
233.4650268482398
 10
-485.0436722386185
 20
233.5222898973144
 10
-485.0516375922429
 20
233.5792591193214
 10
-485.0623653515302
 20
233.6357253058254
 10
-485.0758702070175
 20
233.6914792483902
 10
-485.0921668492418
 20
233.7463117385806
 10
-485.1110293026393
 20
233.7995275967116
 10
-485.1326464958419
 20
233.8518951230032
 10
-485.1569383727856
 20
233.903200001704
 10
-485.1838248774052
 20
233.9532279170624
 10
-485.2132259536361
 20
234.001764553327
 10
-485.245061545414
 20
234.048595594746
 10
-485.2792515966739
 20
234.093506725568
 10
-485.3089968227478
 20
234.1287384988431
 10
-485.3404392818375
 20
234.1626808209026
 10
-485.3734785808843
 20
234.1952157293
 10
-485.4080143268293
 20
234.2262252615894
 10
-485.4439461266136
 20
234.2555914553246
 10
-485.4811735871784
 20
234.283196348059
 10
-485.519596315465
 20
234.308921977347
 10
-485.5591139184143
 20
234.3326503807418
 10
-485.5955908637126
 20
234.3522616865796
 10
-485.6330325616245
 20
234.3702868960344
 10
-485.6713233250116
 20
234.3866540830274
 10
-485.7103474667352
 20
234.4012913214806
 10
-485.7499892996573
 20
234.4141266853152
 10
-485.7901331366392
 20
234.4250882484532
 10
-485.8306632905427
 20
234.4341040848158
 10
-485.8714640742294
 20
234.4411022683248
 10
-485.9100489961961
 20
234.4458003192028
 10
-485.9488575525202
 20
234.4486671918339
 10
-485.9877571094497
 20
234.449677870577
 10
-486.0266150332327
 20
234.44880733979
210
0.0
220
0.0
230
-1.0
  0
LWPOLYLINE
  5
97
330
1F
100
AcDbEntity
  8
0
  6
CONTINUOUS
 62
     7
100
AcDbPolyline
 90
       33
 70
     0
 43
0.0
 10
-801.7500000004273
 20
123.625
 10
-801.7009323260997
 20
123.6262045437948
 10
-801.6519828600976
 20
123.6298152733278
 10
-801.6032695259715
 20
123.6358234900352
 10
-801.5549096784107
 20
123.6442147195967
 10
-801.5070198205236
 20
123.6549687468054
 10
-801.4597153231722
 20
123.6680596642678
 10
-801.4131101470343
 20
123.683455934817
 10
-801.3673165680613
 20
123.7011204674887
 10
-801.3224449069958
 20
123.7210107068765
 10
-801.2786032635998
 20
123.7430787356516
 10
-801.2358972562323
 20
123.7672713899997
 10
-801.1944297674056
 20
123.7935303876974
 10
-801.1543006959325
 20
123.8217924685193
 10
-801.1156067162608
 20
123.8519895466372
 10
-801.0784410455772
 20
123.884048874645
 10
-801.042893219237
 20
123.9178932188134
 10
-801.0090488750683
 20
123.953441045153
 10
-800.9769895470602
 20
123.9906067158363
 10
-800.9467924689417
 20
124.0293006955075
 10
-800.9185303881192
 20
124.0694297669803
 10
-800.892271390421
 20
124.1108972558067
 10
-800.8680787360724
 20
124.1536032631739
 10
-800.8460107072967
 20
124.1974449065697
 10
-800.8261204679084
 20
124.2423165676349
 10
-800.8084559352362
 20
124.2881101466078
 10
-800.7930596646861
 20
124.3347153227455
 10
-800.7799687472234
 20
124.3820198200967
 10
-800.769214720014
 20
124.4299096779838
 10
-800.7608234904517
 20
124.4782695255446
 10
-800.7548152737438
 20
124.5269828596704
 10
-800.7512045442104
 20
124.5759323256725
 10
-800.7500000004148
 20
124.625
210
0.0
220
0.0
230
-1.0
  0
LWPOLYLINE
  5
98
330
1F
100
AcDbEntity
  8
0
  6
CONTINUOUS
 62
     7
100
AcDbPolyline
 90
       24
 70
     0
 43
0.0
 10
485.0783313339455
 20
182.9328652908812
 10
485.1074165090697
 20
182.8759181080384
 10
485.1393746908246
 20
182.820304436687
 10
485.1740696599373
 20
182.7662027292558
 10
485.2113651971357
 20
182.7137914381734
 10
485.2511250831463
 20
182.6632490158684
 10
485.2932130986973
 20
182.6147539147694
 10
485.3374930245155
 20
182.568484587305
 10
485.3840682154833
 20
182.524352489983
 10
485.4328490836683
 20
182.4823917388816
 10
485.4836560272084
 20
182.4427200115752
 10
485.5363094442415
 20
182.4054549856384
 10
485.5906297329055
 20
182.3707143386458
 10
485.646437291338
 20
182.3386157481722
 10
485.7035525176769
 20
182.3092768917918
 10
485.7636066599784
 20
182.282029871314
 10
485.8251001178404
 20
182.2576664813622
 10
485.8878124857368
 20
182.2362416183102
 10
485.9515233581415
 20
182.2178101785312
 10
486.0160123295287
 20
182.2024270583984
 10
486.081058994372
 20
182.1901471542854
 10
486.1464429471456
 20
182.1810253625652
 10
486.1981467690537
 20
182.176055856893
 10
486.2499999998217
 20
182.1730059139398
  0
LWPOLYLINE
  5
99
330
1F
100
AcDbEntity
  8
0
  6
CONTINUOUS
 62
     7
100
AcDbPolyline
 90
       33
 70
     0
 43
0.0
 10
804.7500000002797
 20
281.625
 10
804.7506022721766
 20
281.6004661628362
 10
804.752407636943
 20
281.5759914298353
 10
804.7554117452962
 20
281.5516347627723
 10
804.7596073600769
 20
281.527454838992
 10
804.7649843736808
 20
281.5035099100485
 10
804.7715298324116
 20
281.4798576613728
 10
804.779227967686
 20
281.4565550733038
 10
804.7880602340216
 20
281.4336582838174
 10
804.7980053537151
 20
281.4112224532848
 10
804.8090393681024
 20
281.389301631587
 10
804.8211356952763
 20
281.3679486279034
 10
804.8342651941249
 20
281.3472148834902
 10
804.8483962345356
 20
281.3271503477538
 10
804.8634947735942
 20
281.3078033579181
 10
804.8795244375979
 20
281.2892205225764
 10
804.8964466096819
 20
281.2714466094066
 10
804.9142205228515
 20
281.2545244373225
 10
804.932803358193
 20
281.2384947733186
 10
804.9521503480283
 20
281.2233962342596
 10
804.9722148837648
 20
281.2092651938486
 10
804.9929486281777
 20
281.1961356949998
 10
805.0143016318611
 20
281.1840393678257
 10
805.0362224535587
 20
281.1730053534383
 10
805.0586582840915
 20
281.1630602337444
 10
805.0815550735776
 20
281.1542279674084
 10
805.1048576616464
 20
281.1465298321338
 10
805.128509910322
 20
281.1399843734026
 10
805.1524548392655
 20
281.1346073597985
 10
805.176634763046
 20
281.1304117450176
 10
805.2009914301086
 20
281.1274076366637
 10
805.2254661631099
 20
281.1256022718974
 10
805.2500000002735
 20
281.125
  0
LWPOLYLINE
  5
9A
330
1F
100
AcDbEntity
  8
0
  6
CONTINUOUS
 62
     7
100
AcDbPolyline
 90
       33
 70
     0
 43
0.0
 10
805.2500000002735
 20
136.125
 10
805.2254661631099
 20
136.1243977281026
 10
805.2009914301086
 20
136.122592363336
 10
805.176634763046
 20
136.1195882549824
 10
805.1524548392655
 20
136.1153926402016
 10
805.128509910322
 20
136.1100156265972
 10
805.1048576616464
 20
136.103470167866
 10
805.0815550735776
 20
136.0957720325914
 10
805.0586582840915
 20
136.0869397662556
 10
805.0362224535587
 20
136.0769946465618
 10
805.0143016318611
 20
136.0659606321742
 10
804.9929486281777
 20
136.0538643050002
 10
804.9722148837648
 20
136.0407348061512
 10
804.9521503480283
 20
136.0266037657402
 10
804.932803358193
 20
136.0115052266814
 10
804.9142205228515
 20
135.9954755626774
 10
804.8964466096819
 20
135.9785533905932
 10
804.8795244375979
 20
135.9607794774234
 10
804.8634947735942
 20
135.9421966420818
 10
804.8483962345356
 20
135.9228496522462
 10
804.8342651941249
 20
135.9027851165098
 10
804.8211356952763
 20
135.8820513720966
 10
804.8090393681024
 20
135.860698368413
 10
804.7980053537151
 20
135.8387775467152
 10
804.7880602340216
 20
135.8163417161826
 10
804.779227967686
 20
135.793444926696
 10
804.7715298324116
 20
135.7701423386272
 10
804.7649843736808
 20
135.7464900899516
 10
804.7596073600769
 20
135.722545161008
 10
804.7554117452962
 20
135.6983652372276
 10
804.752407636943
 20
135.6740085701648
 10
804.7506022721766
 20
135.6495338371636
 10
804.7500000002797
 20
135.625
  0
LWPOLYLINE
  5
9B
330
1F
100
AcDbEntity
  8
0
  6
CONTINUOUS
 62
     7
100
AcDbPolyline
 90
       33
 70
     0
 43
0.0
 10
-820.7500000004148
 20
124.625
 10
-820.7487954566205
 20
124.5759323256725
 10
-820.7451847270884
 20
124.5269828596704
 10
-820.7391765103815
 20
124.4782695255446
 10
-820.7307852808206
 20
124.4299096779838
 10
-820.7200312536124
 20
124.3820198200967
 10
-820.7069403361506
 20
124.3347153227455
 10
-820.691544065602
 20
124.2881101466077
 10
-820.6738795329309
 20
124.2423165676349
 10
-820.6539892935436
 20
124.1974449065697
 10
-820.6319212647691
 20
124.1536032631739
 10
-820.6077286104214
 20
124.1108972558067
 10
-820.5814696127243
 20
124.0694297669803
 10
-820.5532075319029
 20
124.0293006955075
 10
-820.5230104537854
 20
123.9906067158363
 10
-820.4909511257781
 20
123.9534410451529
 10
-820.4571067816102
 20
123.9178932188134
 10
-820.421558955271
 20
123.884048874645
 10
-820.384393284588
 20
123.8519895466372
 10
-820.3456993049172
 20
123.8217924685193
 10
-820.3055702334448
 20
123.7935303876974
 10
-820.2641027446186
 20
123.7672713899997
 10
-820.2213967372518
 20
123.7430787356516
 10
-820.1775550938561
 20
123.7210107068765
 10
-820.1326834327915
 20
123.7011204674887
 10
-820.0868898538184
 20
123.683455934817
 10
-820.0402846776813
 20
123.6680596642677
 10
-819.99298018033
 20
123.6549687468054
 10
-819.945090322443
 20
123.6442147195967
 10
-819.8967304748822
 20
123.6358234900352
 10
-819.8480171407567
 20
123.6298152733278
 10
-819.7990676747546
 20
123.6262045437948
 10
-819.7500000004271
 20
123.625
210
0.0
220
0.0
230
-1.0
  0
LINE
  5
9C
330
1F
100
AcDbEntity
  8
1
  6
CONTINUOUS
 62
     7
100
AcDbLine
 10
624.1537392907146
 20
172.8749999982502
 30
0.0
 11
614.9999999999656
 21
163.7212607075
 31
0.0
  0
LINE
  5
9D
330
1F
100
AcDbEntity
  8
1
  6
CONTINUOUS
 62
     7
100
AcDbLine
 10
626.999999999966
 20
247.53809954345
 30
0.0
 11
623.8369004587149
 21
244.3750000022
 31
0.0
  0
LINE
  5
9E
330
1F
100
AcDbEntity
  8
1
  6
CONTINUOUS
 62
     7
100
AcDbLine
 10
673.0000000000151
 20
257.77137998
 30
0.0
 11
661.0000000000151
 21
245.77137998
 31
0.0
  0
LINE
  5
9F
330
1F
100
AcDbEntity
  8
1
  6
CONTINUOUS
 62
     7
100
AcDbLine
 10
673.0000000000151
 20
253.52873929295
 30
0.0
 11
663.8462607094153
 21
244.3750000022
 31
0.0
  0
LINE
  5
A0
330
1F
100
AcDbEntity
  8
1
  6
CONTINUOUS
 62
     7
100
AcDbLine
 10
626.999999999966
 20
249.6594198870498
 30
0.0
 11
621.715580115116
 21
244.3750000022
 31
0.0
  0
LINE
  5
A1
330
1F
100
AcDbEntity
  8
1
  6
CONTINUOUS
 62
     7
100
AcDbLine
 10
614.9999999999656
 20
172.8749999982502
 30
0.0
 11
626.9999999999656
 21
172.8749999982502
 31
0.0
  0
ARC
  5
A2
330
1F
100
AcDbEntity
  8
1
  6
CONTINUOUS
 62
     7
100
AcDbCircle
 10
609.2499931997652
 20
163.6250000211498
 30
0.0
 40
1.00000000005096
100
AcDbArc
 50
179.7889722868999
 51
269.9999999994
  0
LINE
  5
A3
330
1F
100
AcDbEntity
  8
1
  6
CONTINUOUS
 62
     7
100
AcDbLine
 10
670.1109792631153
 20
259.1249999301501
 30
0.0
 11
661.0000000000156
 21
250.01402066705
 31
0.0
  0
LINE
  5
A4
330
1F
100
AcDbEntity
  8
1
  6
CONTINUOUS
 62
     7
100
AcDbLine
 10
626.999999999966
 20
253.9020605742498
 30
0.0
 11
617.472939428066
 21
244.3750000022
 31
0.0
  0
LINE
  5
A5
330
1F
100
AcDbEntity
  8
1
  6
CONTINUOUS
 62
     7
100
AcDbLine
 10
619.4950172585658
 20
259.1249998939999
 30
0.0
 11
614.9999999999663
 21
254.62998263555
 31
0.0
  0
LINE
  5
A6
330
1F
100
AcDbEntity
  8
1
  6
CONTINUOUS
 62
     7
100
AcDbLine
 10
599.0000246536154
 20
172.87492202285
 30
0.0
 11
602.2499999479152
 21
172.87500000035
 31
0.0
  0
LINE
  5
A7
330
1F
100
AcDbEntity
  8
1
  6
CONTINUOUS
 62
     7
100
AcDbLine
 10
614.9999999999656
 20
259.1249997250998
 30
0.0
 11
614.9999999999656
 21
244.3750000022
 31
0.0
  0
LINE
  5
A8
330
1F
100
AcDbEntity
  8
1
  6
CONTINUOUS
 62
     7
100
AcDbLine
 10
601.2499999996139
 20
167.4250030560498
 30
0.0
 11
599.4999999995651
 21
167.4250030560498
 31
0.0
  0
LINE
  5
A9
330
1F
100
AcDbEntity
  8
1
  6
CONTINUOUS
 62
     7
100
AcDbLine
 10
626.999999999966
 20
158.750697959
 30
0.0
 11
626.3743023022165
 21
158.12500026125
 31
0.0
  0
ARC
  5
AA
330
1F
100
AcDbEntity
  8
1
  6
CONTINUOUS
 62
     7
100
AcDbCircle
 10
602.2499999479161
 20
166.8750001702998
 30
0.0
 40
6.000000000000227
100
AcDbArc
 50
0.0000000004999947
 51
89.99999999929997
  0
LINE
  5
AB
330
1F
100
AcDbEntity
  8
1
  6
CONTINUOUS
 62
     7
100
AcDbLine
 10
626.999999999966
 20
160.8720183026
 30
0.0
 11
624.2529819109157
 21
158.1250002133998
 31
0.0
  0
LINE
  5
AC
330
1F
100
AcDbEntity
  8
1
  6
CONTINUOUS
 62
     7
100
AcDbLine
 10
614.9999999999656
 20
158.1250002753498
 30
0.0
 11
614.9999999999656
 21
172.87499999825
 31
0.0
  0
LINE
  5
AD
330
1F
100
AcDbEntity
  8
1
  6
CONTINUOUS
 62
     7
100
AcDbLine
 10
626.999999999966
 20
165.11465898965
 30
0.0
 11
620.0103411283153
 21
158.1250001178502
 31
0.0
  0
ARC
  5
AE
330
1F
100
AcDbEntity
  8
1
  6
CONTINUOUS
 62
     7
100
AcDbCircle
 10
599.0000006603652
 20
173.8749220226
 30
0.0
 40
1.00000000005096
100
AcDbArc
 50
180.0000000342
 51
270.001374713
  0
LINE
  5
AF
330
1F
100
AcDbEntity
  8
1
  6
CONTINUOUS
 62
     7
100
AcDbLine
 10
626.999999999966
 20
251.78074023065
 30
0.0
 11
619.5942597716648
 21
244.3750000022
 31
0.0
  0
LINE
  5
B0
330
1F
100
AcDbEntity
  8
1
  6
CONTINUOUS
 62
     7
100
AcDbLine
 10
625.8589781458151
 20
259.1249997507497
 30
0.0
 11
614.9999999999652
 21
248.2660216047498
 31
0.0
  0
LINE
  5
B1
330
1F
100
AcDbEntity
  8
1
  6
CONTINUOUS
 62
     7
100
AcDbLine
 10
626.999999999966
 20
172.8749999982502
 30
0.0
 11
626.999999999966
 21
158.12500027535
 31
0.0
  0
LINE
  5
B2
330
1F
100
AcDbEntity
  8
1
  6
CONTINUOUS
 62
     7
100
AcDbLine
 10
619.9110986036667
 20
172.8749999982502
 30
0.0
 11
614.9999999999665
 21
167.9639013945502
 31
0.0
  0
LINE
  5
B3
330
1F
100
AcDbEntity
  8
1
  6
CONTINUOUS
 62
     7
100
AcDbLine
 10
626.999999999966
 20
256.0233809177
 30
0.0
 11
615.3516190844655
 21
244.3750000022
 31
0.0
  0
LINE
  5
B4
330
1F
100
AcDbEntity
  8
1
  6
CONTINUOUS
 62
     7
100
AcDbLine
 10
665.8683384805153
 20
259.1249998345998
 30
0.0
 11
661.0000000000161
 21
254.2566613542498
 31
0.0
  0
LINE
  5
B5
330
1F
100
AcDbEntity
  8
1
  6
CONTINUOUS
 62
     7
100
AcDbLine
 10
608.2500000038644
 20
163.6286831411002
 30
0.0
 11
608.2500000038644
 21
166.8750001703002
 31
0.0
  0
LINE
  5
B6
330
1F
100
AcDbEntity
  8
1
  6
CONTINUOUS
 62
     7
100
AcDbLine
 10
626.999999999966
 20
167.2359793332502
 30
0.0
 11
617.8890207368664
 21
158.1250000701502
 31
0.0
  0
LINE
  5
B7
330
1F
100
AcDbEntity
  8
1
  6
CONTINUOUS
 62
     7
100
AcDbLine
 10
617.3736969628161
 20
259.1249999418498
 30
0.0
 11
614.999999999966
 21
256.75130297915
 31
0.0
  0
LINE
  5
B8
330
1F
100
AcDbEntity
  8
1
  6
CONTINUOUS
 62
     7
100
AcDbLine
 10
615.6684579164641
 20
172.8749999982502
 30
0.0
 11
614.9999999999646
 21
172.20654208175
 31
0.0
  0
LINE
  5
B9
330
1F
100
AcDbEntity
  8
1
  6
CONTINUOUS
 62
     7
100
AcDbLine
 10
673.0000000000151
 20
249.2860986057502
 30
0.0
 11
668.0889013964654
 21
244.3750000022002
 31
0.0
  0
LINE
  5
BA
330
1F
100
AcDbEntity
  8
1
  6
CONTINUOUS
 62
     7
100
AcDbLine
 10
617.7897782600636
 20
172.8749999982502
 30
0.0
 11
614.9999999999652
 21
170.08522173815
 31
0.0
  0
LINE
  5
BB
330
1F
100
AcDbEntity
  8
1
  6
CONTINUOUS
 62
     7
100
AcDbLine
 10
626.999999999966
 20
169.35729967685
 30
0.0
 11
615.7677003455655
 21
158.1250000223
 31
0.0
  0
LINE
  5
BC
330
1F
100
AcDbEntity
  8
1
  6
CONTINUOUS
 62
     7
100
AcDbLine
 10
615.2523766669135
 20
259.1249999895501
 30
0.0
 11
614.9999999999646
 21
258.8726233226001
 31
0.0
  0
LINE
  5
BD
330
1F
100
AcDbEntity
  8
1
  6
CONTINUOUS
 62
     7
100
AcDbLine
 10
623.7376578500653
 20
259.1249997984498
 30
0.0
 11
614.9999999999646
 21
250.38734194835
 31
0.0
  0
LINE
  5
BE
330
1F
100
AcDbEntity
  8
1
  6
CONTINUOUS
 62
     7
100
AcDbLine
 10
599.4999999995665
 20
166.3250030560998
 30
0.0
 11
599.4999999995665
 21
167.4250030560498
 31
0.0
  0
LINE
  5
BF
330
1F
100
AcDbEntity
  8
1
  6
CONTINUOUS
 62
     7
100
AcDbLine
 10
626.999999999966
 20
258.1447012612998
 30
0.0
 11
614.999999999966
 21
246.1447012613
 31
0.0
  0
LINE
  5
C0
330
1F
100
AcDbEntity
  8
1
  6
CONTINUOUS
 62
     7
100
AcDbLine
 10
601.7499999995665
 20
167.925003056
 30
0.0
 11
601.7499999995665
 21
168.8750030560998
 31
0.0
  0
LINE
  5
C1
330
1F
100
AcDbEntity
  8
1
  6
CONTINUOUS
 62
     7
100
AcDbLine
 10
661.6256976977661
 20
259.1249997392
 30
0.0
 11
661.0000000000151
 21
258.4993020412999
 31
0.0
  0
LINE
  5
C2
330
1F
100
AcDbEntity
  8
1
  6
CONTINUOUS
 62
     7
100
AcDbLine
 10
622.0324189471152
 20
172.8749999982502
 30
0.0
 11
614.9999999999651
 21
165.84258105095
 31
0.0
  0
LINE
  5
C3
330
1F
100
AcDbEntity
  8
1
  6
CONTINUOUS
 62
     7
100
AcDbLine
 10
626.999999999966
 20
245.41677919985
 30
0.0
 11
625.9582208023155
 21
244.3750000022
 31
0.0
  0
LINE
  5
C4
330
1F
100
AcDbEntity
  8
1
  6
CONTINUOUS
 62
     7
100
AcDbLine
 10
621.6163375543156
 20
259.1249998462998
 30
0.0
 11
614.9999999999656
 21
252.5086622919496
 31
0.0
  0
LINE
  5
C5
330
1F
100
AcDbEntity
  8
1
  6
CONTINUOUS
 62
     7
100
AcDbLine
 10
603.2499999995648
 20
167.4250030560498
 30
0.0
 11
604.9999999996149
 21
167.4250030560498
 31
0.0
  0
LINE
  5
C6
330
1F
100
AcDbEntity
  8
1
  6
CONTINUOUS
 62
     7
100
AcDbLine
 10
685.2500000003649
 20
249.3249969447498
 30
0.0
 11
685.2500000003649
 21
248.3749969447998
 31
0.0
  0
LINE
  5
C7
330
1F
100
AcDbEntity
  8
1
  6
CONTINUOUS
 62
     7
100
AcDbLine
 10
673.0000000000151
 20
255.6500596364
 30
0.0
 11
661.724940365815
 21
244.3750000022002
 31
0.0
  0
CIRCLE
  5
C8
330
1F
100
AcDbEntity
  8
1
  6
CONTINUOUS
 62
     7
100
AcDbCircle
 10
602.2499999996667
 20
166.87500305615
 30
0.0
 40
4.000000000051074
  0
LINE
  5
C9
330
1F
100
AcDbEntity
  8
1
  6
CONTINUOUS
 62
     7
100
AcDbLine
 10
663.7470180892153
 20
259.1249997868999
 30
0.0
 11
661.0000000000141
 21
256.3779816977
 31
0.0
  0
LINE
  5
CA
330
1F
100
AcDbEntity
  8
1
  6
CONTINUOUS
 62
     7
100
AcDbLine
 10
626.999999999966
 20
171.4786200204498
 30
0.0
 11
614.999999999966
 21
159.4786200202998
 31
0.0
  0
LINE
  5
CB
330
1F
100
AcDbEntity
  8
1
  6
CONTINUOUS
 62
     7
100
AcDbLine
 10
688.500000000416
 20
250.9249969448
 30
0.0
 11
688.500000000416
 21
249.8249969446998
 31
0.0
  0
LINE
  5
CC
330
1F
100
AcDbEntity
  8
1
  6
CONTINUOUS
 62
     7
100
AcDbLine
 10
614.9999999999656
 20
244.3750000022
 30
0.0
 11
626.9999999999656
 21
244.3750000022
 31
0.0
  0
LINE
  5
CD
330
1F
100
AcDbEntity
  8
1
  6
CONTINUOUS
 62
     7
100
AcDbLine
 10
626.2750596343159
 20
172.8749999982502
 30
0.0
 11
614.9999999999652
 21
161.5999403639
 31
0.0
  0
LINE
  5
CE
330
1F
100
AcDbEntity
  8
1
  6
CONTINUOUS
 62
     7
100
AcDbLine
 10
667.9896588718152
 20
259.1249998824499
 30
0.0
 11
661.0000000000153
 21
252.1353410106501
 31
0.0
  0
LINE
  5
CF
330
1F
100
AcDbEntity
  8
1
  6
CONTINUOUS
 62
     7
100
AcDbLine
 10
673.0000000000151
 20
251.40741894935
 30
0.0
 11
665.9675810528663
 21
244.3750000022
 31
0.0
  0
LINE
  5
D0
330
1F
100
AcDbEntity
  8
1
  6
CONTINUOUS
 62
     7
100
AcDbLine
 10
672.2322996544152
 20
259.1249999779998
 30
0.0
 11
661.0000000000147
 21
247.89270032345
 31
0.0
  0
LINE
  5
D1
330
1F
100
AcDbEntity
  8
1
  6
CONTINUOUS
 62
     7
100
AcDbLine
 10
626.999999999966
 20
244.3750000022
 30
0.0
 11
626.999999999966
 21
259.1249997250998
 31
0.0
  0
LINE
  5
D2
330
1F
100
AcDbEntity
  8
1
  6
CONTINUOUS
 62
     7
100
AcDbLine
 10
686.2500000004159
 20
249.3249969447498
 30
0.0
 11
686.2500000004159
 21
248.3749969447998
 31
0.0
  0
LINE
  5
D3
330
1F
100
AcDbEntity
  8
1
  6
CONTINUOUS
 62
     7
100
AcDbLine
 10
626.999999999966
 20
162.9933386462002
 30
0.0
 11
622.131661519616
 21
158.1250001657002
 31
0.0
  0
LINE
  5
D4
330
1F
100
AcDbEntity
  8
1
  6
CONTINUOUS
 62
     7
100
AcDbLine
 10
603.5999999996656
 20
249.8249969447
 30
0.0
 11
603.5999999996656
 21
250.9249969448
 31
0.0
  0
LINE
  5
D5
330
1F
100
AcDbEntity
  8
1
  6
CONTINUOUS
 62
     7
100
AcDbLine
 10
601.7499999995665
 20
251.4249969447499
 30
0.0
 11
601.7499999995665
 21
252.3749969446998
 31
0.0
  0
LINE
  5
D6
330
1F
100
AcDbEntity
  8
1
  6
CONTINUOUS
 62
     7
100
AcDbLine
 10
679.7499999961145
 20
253.6213168596503
 30
0.0
 11
679.7499999962652
 21
250.37499983045
 31
0.0
  0
ARC
  5
D7
330
1F
100
AcDbEntity
  8
1
  6
CONTINUOUS
 62
     7
100
AcDbCircle
 10
688.9999993396154
 20
243.3750779783002
 30
0.0
 40
1.00000000005096
100
AcDbArc
 50
0.0000000342000135
 51
90.00137471300002
  0
LINE
  5
D8
330
1F
100
AcDbEntity
  8
1
  6
CONTINUOUS
 62
     7
100
AcDbLine
 10
601.2499999996139
 20
250.9249969448
 30
0.0
 11
599.4999999995651
 21
250.9249969448
 31
0.0
  0
LINE
  5
D9
330
1F
100
AcDbEntity
  8
1
  6
CONTINUOUS
 62
     7
100
AcDbLine
 10
603.2499999995648
 20
250.9249969448
 30
0.0
 11
604.9999999996149
 21
250.9249969448
 31
0.0
  0
LINE
  5
DA
330
1F
100
AcDbEntity
  8
1
  6
CONTINUOUS
 62
     7
100
AcDbLine
 10
601.2499999996139
 20
249.8249969447
 30
0.0
 11
599.4999999995651
 21
249.8249969447
 31
0.0
  0
LINE
  5
DB
330
1F
100
AcDbEntity
  8
1
  6
CONTINUOUS
 62
     7
100
AcDbLine
 10
601.7499999995665
 20
168.8750030560998
 30
0.0
 11
602.7499999996157
 21
168.8750030560998
 31
0.0
  0
LINE
  5
DC
330
1F
100
AcDbEntity
  8
1
  6
CONTINUOUS
 62
     7
100
AcDbLine
 10
603.2499999995648
 20
166.3250030560998
 30
0.0
 11
604.9999999996149
 21
166.3250030560998
 31
0.0
  0
ARC
  5
DD
330
1F
100
AcDbEntity
  8
1
  6
CONTINUOUS
 62
     7
100
AcDbCircle
 10
599.0000000035147
 20
253.6249999352
 30
0.0
 40
1.00000000005096
100
AcDbArc
 50
89.99999999980002
 51
180.0
  0
LINE
  5
DE
330
1F
100
AcDbEntity
  8
1
  6
CONTINUOUS
 62
     7
100
AcDbLine
 10
601.7499999995665
 20
249.3249969447498
 30
0.0
 11
601.7499999995665
 21
248.3749969447998
 31
0.0
  0
LINE
  5
DF
330
1F
100
AcDbEntity
  8
1
  6
CONTINUOUS
 62
     7
100
AcDbLine
 10
602.7499999996139
 20
251.4249969447499
 30
0.0
 11
602.7499999996139
 21
252.3749969446998
 31
0.0
  0
CIRCLE
  5
E0
330
1F
100
AcDbEntity
  8
1
  6
CONTINUOUS
 62
     7
100
AcDbCircle
 10
685.750000000465
 20
250.3749969447502
 30
0.0
 40
3.649999999950637
  0
CIRCLE
  5
E1
330
1F
100
AcDbEntity
  8
1
  6
CONTINUOUS
 62
     7
100
AcDbCircle
 10
602.2499999996667
 20
250.3749969447502
 30
0.0
 40
4.000000000051074
  0
LINE
  5
E2
330
1F
100
AcDbEntity
  8
1
  6
CONTINUOUS
 62
     7
100
AcDbLine
 10
602.7499999996139
 20
167.925003056
 30
0.0
 11
602.7499999996139
 21
168.8750030560998
 31
0.0
  0
ARC
  5
E3
330
1F
100
AcDbEntity
  8
1
  6
CONTINUOUS
 62
     7
100
AcDbCircle
 10
609.2499931997652
 20
253.6249999795999
 30
0.0
 40
1.00000000005096
100
AcDbArc
 50
90.00000000059998
 51
180.2110277131
  0
CIRCLE
  5
E4
330
1F
100
AcDbEntity
  8
1
  6
CONTINUOUS
 62
     7
100
AcDbCircle
 10
602.2499999996667
 20
250.3749969447502
 30
0.0
 40
3.649999999950637
  0
ARC
  5
E5
330
1F
100
AcDbEntity
  8
1
  6
CONTINUOUS
 62
     7
100
AcDbCircle
 10
599.0000006603652
 20
243.3750779783002
 30
0.0
 40
1.00000000005096
100
AcDbArc
 50
89.99862528699997
 51
180.0
  0
LINE
  5
E6
330
1F
100
AcDbEntity
  8
1
  6
CONTINUOUS
 62
     7
100
AcDbLine
 10
602.7499999996139
 20
164.87500305605
 30
0.0
 11
601.7499999995648
 21
164.87500305605
 31
0.0
  0
LINE
  5
E7
330
1F
100
AcDbEntity
  8
1
  6
CONTINUOUS
 62
     7
100
AcDbLine
 10
687.1000000004636
 20
250.9249969448
 30
0.0
 11
687.1000000004636
 21
249.8249969446998
 31
0.0
  0
LINE
  5
E8
330
1F
100
AcDbEntity
  8
1
  6
CONTINUOUS
 62
     7
100
AcDbLine
 10
601.7499999995665
 20
248.3749969447998
 30
0.0
 11
602.7499999996157
 21
248.3749969447998
 31
0.0
  0
ARC
  5
E9
330
1F
100
AcDbEntity
  8
1
  6
CONTINUOUS
 62
     7
100
AcDbCircle
 10
685.7500000522157
 20
250.3749998304498
 30
0.0
 40
5.999999999998451
100
AcDbArc
 50
180.0000000005
 51
269.9999999993
  0
ARC
  5
EA
330
1F
100
AcDbEntity
  8
1
  6
CONTINUOUS
 62
     7
100
AcDbCircle
 10
601.2499999996139
 20
167.925003056
 30
0.0
 40
0.4999999999490967
100
AcDbArc
 50
270.0
 51
0.0
  0
LINE
  5
EB
330
1F
100
AcDbEntity
  8
1
  6
CONTINUOUS
 62
     7
100
AcDbLine
 10
602.7499999996139
 20
165.825003056
 30
0.0
 11
602.7499999996139
 21
164.8750030560498
 31
0.0
  0
ARC
  5
EC
330
1F
100
AcDbEntity
  8
1
  6
CONTINUOUS
 62
     7
100
AcDbCircle
 10
601.2499999996139
 20
249.3249969447498
 30
0.0
 40
0.4999999999490967
100
AcDbArc
 50
0.0
 51
90.0
  0
LINE
  5
ED
330
1F
100
AcDbEntity
  8
1
  6
CONTINUOUS
 62
     7
100
AcDbLine
 10
600.8999999996662
 20
166.3250030560998
 30
0.0
 11
600.8999999996662
 21
167.4250030560498
 31
0.0
  0
ARC
  5
EE
330
1F
100
AcDbEntity
  8
1
  6
CONTINUOUS
 62
     7
100
AcDbCircle
 10
603.2499999995648
 20
251.4249969447499
 30
0.0
 40
0.4999999999508731
100
AcDbArc
 50
180.0
 51
270.0
  0
ARC
  5
EF
330
1F
100
AcDbEntity
  8
1
  6
CONTINUOUS
 62
     7
100
AcDbCircle
 10
603.2499999995648
 20
249.3249969447498
 30
0.0
 40
0.4999999999508731
100
AcDbArc
 50
90.0
 51
180.0
  0
ARC
  5
F0
330
1F
100
AcDbEntity
  8
1
  6
CONTINUOUS
 62
     7
100
AcDbCircle
 10
603.2499999995648
 20
165.825003056
 30
0.0
 40
0.4999999999508731
100
AcDbArc
 50
90.0
 51
180.0
  0
LINE
  5
F1
330
1F
100
AcDbEntity
  8
1
  6
CONTINUOUS
 62
     7
100
AcDbLine
 10
600.8999999996662
 20
250.9249969448
 30
0.0
 11
600.8999999996662
 21
249.8249969446998
 31
0.0
  0
CIRCLE
  5
F2
330
1F
100
AcDbEntity
  8
1
  6
CONTINUOUS
 62
     7
100
AcDbCircle
 10
602.2499999996667
 20
166.8750030560002
 30
0.0
 40
3.649999999950637
  0
ARC
  5
F3
330
1F
100
AcDbEntity
  8
1
  6
CONTINUOUS
 62
     7
100
AcDbCircle
 10
602.2499999479161
 20
250.3749998304498
 30
0.0
 40
6.000000000000227
100
AcDbArc
 50
270.0000000007
 51
359.9999999995
  0
ARC
  5
F4
330
1F
100
AcDbEntity
  8
1
  6
CONTINUOUS
 62
     7
100
AcDbCircle
 10
601.2499999996139
 20
251.4249969447499
 30
0.0
 40
0.4999999999490967
100
AcDbArc
 50
270.0
 51
0.0
  0
LINE
  5
F5
330
1F
100
AcDbEntity
  8
1
  6
CONTINUOUS
 62
     7
100
AcDbLine
 10
601.2499999996139
 20
166.3250030560998
 30
0.0
 11
599.4999999995651
 21
166.3250030560998
 31
0.0
  0
LINE
  5
F6
330
1F
100
AcDbEntity
  8
1
  6
CONTINUOUS
 62
     7
100
AcDbLine
 10
603.5999999996656
 20
167.4250030560498
 30
0.0
 11
603.5999999996656
 21
166.3250030560998
 31
0.0
  0
ARC
  5
F7
330
1F
100
AcDbEntity
  8
1
  6
CONTINUOUS
 62
     7
100
AcDbCircle
 10
601.2499999996139
 20
165.825003056
 30
0.0
 40
0.4999999999490967
100
AcDbArc
 50
0.0
 51
90.0
  0
LINE
  5
F8
330
1F
100
AcDbEntity
  8
1
  6
CONTINUOUS
 62
     7
100
AcDbLine
 10
604.999999999614
 20
167.4250030560498
 30
0.0
 11
604.999999999614
 21
166.3250030560998
 31
0.0
  0
LINE
  5
F9
330
1F
100
AcDbEntity
  8
1
  6
CONTINUOUS
 62
     7
100
AcDbLine
 10
599.4999999995665
 20
250.9249969448
 30
0.0
 11
599.4999999995665
 21
249.8249969446998
 31
0.0
  0
LINE
  5
FA
330
1F
100
AcDbEntity
  8
1
  6
CONTINUOUS
 62
     7
100
AcDbLine
 10
599.0000246536154
 20
244.3750779778998
 30
0.0
 11
602.2499999479152
 21
244.3750000004
 31
0.0
  0
ARC
  5
FB
330
1F
100
AcDbEntity
  8
1
  6
CONTINUOUS
 62
     7
100
AcDbCircle
 10
599.0000000035147
 20
163.6250000657002
 30
0.0
 40
1.00000000005096
100
AcDbArc
 50
180.0
 51
270.0000000002
  0
LINE
  5
FC
330
1F
100
AcDbEntity
  8
1
  6
CONTINUOUS
 62
     7
100
AcDbLine
 10
684.4000000004646
 20
249.8249969447
 30
0.0
 11
684.4000000004646
 21
250.9249969448
 31
0.0
  0
ARC
  5
FD
330
1F
100
AcDbEntity
  8
1
  6
CONTINUOUS
 62
     7
100
AcDbCircle
 10
603.2499999995648
 20
167.925003056
 30
0.0
 40
0.4999999999508731
100
AcDbArc
 50
180.0
 51
270.0
  0
LINE
  5
FE
330
1F
100
AcDbEntity
  8
1
  6
CONTINUOUS
 62
     7
100
AcDbLine
 10
608.2500000038644
 20
253.6213168596503
 30
0.0
 11
608.2500000038644
 21
250.37499983045
 31
0.0
  0
LINE
  5
FF
330
1F
100
AcDbEntity
  8
1
  6
CONTINUOUS
 62
     7
100
AcDbLine
 10
603.2499999995648
 20
249.8249969447
 30
0.0
 11
604.9999999996149
 21
249.8249969447
 31
0.0
  0
LINE
  5
100
330
1F
100
AcDbEntity
  8
1
  6
CONTINUOUS
 62
     7
100
AcDbLine
 10
688.9999753463653
 20
244.3750779778998
 30
0.0
 11
685.7500000520655
 21
244.3750000004
 31
0.0
  0
LINE
  5
101
330
1F
100
AcDbEntity
  8
1
  6
CONTINUOUS
 62
     7
100
AcDbLine
 10
602.7499999996139
 20
252.3749969447
 30
0.0
 11
601.7499999995648
 21
252.3749969447
 31
0.0
  0
CIRCLE
  5
102
330
1F
100
AcDbEntity
  8
1
  6
CONTINUOUS
 62
     7
100
AcDbCircle
 10
685.750000000465
 20
250.3749969447502
 30
0.0
 40
4.000000000051074
  0
ARC
  5
103
330
1F
100
AcDbEntity
  8
1
  6
CONTINUOUS
 62
     7
100
AcDbCircle
 10
688.9999999966152
 20
253.6249999352
 30
0.0
 40
1.00000000005096
100
AcDbArc
 50
0.0
 51
90.00000000019998
  0
LINE
  5
104
330
1F
100
AcDbEntity
  8
1
  6
CONTINUOUS
 62
     7
100
AcDbLine
 10
601.7499999995665
 20
165.825003056
 30
0.0
 11
601.7499999995665
 21
164.8750030560498
 31
0.0
  0
ARC
  5
105
330
1F
100
AcDbEntity
  8
1
  6
CONTINUOUS
 62
     7
100
AcDbCircle
 10
678.7500068002155
 20
253.6249999795999
 30
0.0
 40
1.00000000005096
100
AcDbArc
 50
359.7889722869
 51
89.9999999994
  0
LINE
  5
106
330
1F
100
AcDbEntity
  8
1
  6
CONTINUOUS
 62
     7
100
AcDbLine
 10
604.999999999614
 20
249.8249969447
 30
0.0
 11
604.999999999614
 21
250.9249969448
 31
0.0
  0
LINE
  5
107
330
1F
100
AcDbEntity
  8
1
  6
CONTINUOUS
 62
     7
100
AcDbLine
 10
602.7499999996139
 20
249.3249969447498
 30
0.0
 11
602.7499999996139
 21
248.3749969447998
 31
0.0
  0
LINE
  5
108
330
1F
100
AcDbEntity
  8
1
  6
CONTINUOUS
 62
     7
100
AcDbLine
 10
600.0000091928656
 20
205.62485833805
 30
0.0
 11
600.0000091928656
 21
209.62485834305
 31
0.0
  0
ARC
  5
109
330
1F
100
AcDbEntity
  8
1
  6
CONTINUOUS
 62
     7
100
AcDbCircle
 10
608.0000092198156
 20
196.9250805357498
 30
0.0
 40
1.000000000049184
100
AcDbArc
 50
14.47414592889999
 51
44.35200635709998
  0
LINE
  5
10A
330
1F
100
AcDbEntity
  8
1
  6
CONTINUOUS
 62
     7
100
AcDbLine
 10
684.7500000004159
 20
167.4250030560498
 30
0.0
 11
683.0000000003644
 21
167.4250030560498
 31
0.0
  0
LINE
  5
10B
330
1F
100
AcDbEntity
  8
1
  6
CONTINUOUS
 62
     7
100
AcDbLine
 10
630.0763937381655
 20
199.9235551726998
 30
0.0
 11
630.0763937381655
 21
199.3235551727
 31
0.0
  0
LINE
  5
10C
330
1F
100
AcDbEntity
  8
1
  6
CONTINUOUS
 62
     7
100
AcDbLine
 10
609.2500092115154
 20
197.1750212404998
 30
0.0
 11
608.9682665365159
 21
197.1750204866
 31
0.0
  0
CIRCLE
  5
10D
330
1F
100
AcDbEntity
  8
1
  6
CONTINUOUS
 62
     7
100
AcDbCircle
 10
685.750000000465
 20
166.8750030560002
 30
0.0
 40
3.649999999950637
  0
LINE
  5
10E
330
1F
100
AcDbEntity
  8
1
  6
CONTINUOUS
 62
     7
100
AcDbLine
 10
630.0763937425157
 20
207.926309216
 30
0.0
 11
630.0763937425157
 21
207.3263092160001
 31
0.0
  0
LINE
  5
10F
330
1F
100
AcDbEntity
  8
1
  6
CONTINUOUS
 62
     7
100
AcDbLine
 10
629.626393742515
 20
205.1263092159498
 30
0.0
 11
629.626393742515
 21
207.3263092160001
 31
0.0
  0
LINE
  5
110
330
1F
100
AcDbEntity
  8
1
  6
CONTINUOUS
 62
     7
100
AcDbLine
 10
629.9263937425144
 20
207.926309216
 30
0.0
 11
630.0763937425153
 21
207.926309216
 31
0.0
  0
LINE
  5
111
330
1F
100
AcDbEntity
  8
1
  6
CONTINUOUS
 62
     7
100
AcDbLine
 10
685.2500000003649
 20
167.925003056
 30
0.0
 11
685.2500000003649
 21
168.8750030560998
 31
0.0
  0
LINE
  5
112
330
1F
100
AcDbEntity
  8
1
  6
CONTINUOUS
 62
     7
100
AcDbLine
 10
630.0763937425157
 20
207.3263092160001
 30
0.0
 11
629.9263937425147
 21
207.3263092160001
 31
0.0
  0
LINE
  5
113
330
1F
100
AcDbEntity
  8
1
  6
CONTINUOUS
 62
     7
100
AcDbLine
 10
661.0000000000147
 20
172.8749999982502
 30
0.0
 11
661.0000000000147
 21
158.12500027535
 31
0.0
  0
LINE
  5
114
330
1F
100
AcDbEntity
  8
1
  6
CONTINUOUS
 62
     7
100
AcDbLine
 10
629.626393742515
 20
207.3263092160001
 30
0.0
 11
629.476393742514
 21
207.3263092160001
 31
0.0
  0
ELLIPSE
  5
115
330
1F
100
AcDbEntity
  8
1
  6
CONTINUOUS
 62
     7
100
AcDbEllipse
 10
627.4935375937156
 20
207.626309216
 30
0.0
 11
0.0
 21
1.999999999950042
 31
0.0
210
0.0
220
0.0
230
1.0
 40
0.1218693434998274
 41
0.0
 42
3.141592653600002
  0
LINE
  5
116
330
1F
100
AcDbEntity
  8
1
  6
CONTINUOUS
 62
     7
100
AcDbLine
 10
627.4935375937156
 20
201.6240581559501
 30
0.0
 11
629.4786298964667
 21
203.2740581559497
 31
0.0
  0
LINE
  5
117
330
1F
100
AcDbEntity
  8
1
  6
CONTINUOUS
 62
     7
100
AcDbLine
 10
686.2500000004159
 20
168.8750030560998
 30
0.0
 11
685.250000000364
 21
168.8750030560998
 31
0.0
  0
LINE
  5
118
330
1F
100
AcDbEntity
  8
1
  6
CONTINUOUS
 62
     7
100
AcDbLine
 10
629.9263937425144
 20
210.1263092160498
 30
0.0
 11
629.9263937425144
 21
207.9263092159998
 31
0.0
  0
LINE
  5
119
330
1F
100
AcDbEntity
  8
1
  6
CONTINUOUS
 62
     7
100
AcDbLine
 10
629.9263937381659
 20
199.3235551727
 30
0.0
 11
629.9263937381659
 21
197.1235551726498
 31
0.0
  0
LINE
  5
11A
330
1F
100
AcDbEntity
  8
1
  6
CONTINUOUS
 62
     7
100
AcDbLine
 10
630.0763937381655
 20
199.3235551727
 30
0.0
 11
629.926393738315
 21
199.3235551727
 31
0.0
  0
LINE
  5
11B
330
1F
100
AcDbEntity
  8
1
  6
CONTINUOUS
 62
     7
100
AcDbLine
 10
600.0000091928656
 20
197.62475348615
 30
0.0
 11
600.0000091928656
 21
201.6247534911498
 31
0.0
  0
LINE
  5
11C
330
1F
100
AcDbEntity
  8
1
  6
CONTINUOUS
 62
     7
100
AcDbLine
 10
627.4935375937156
 20
205.62630921605
 30
0.0
 11
629.4786298964667
 21
203.9763092160498
 31
0.0
  0
LINE
  5
11D
330
1F
100
AcDbEntity
  8
1
  6
CONTINUOUS
 62
     7
100
AcDbLine
 10
629.6263937381648
 20
202.12355517275
 30
0.0
 11
629.9263937381667
 21
202.12355517275
 31
0.0
  0
LINE
  5
11E
330
1F
100
AcDbEntity
  8
1
  6
CONTINUOUS
 62
     7
100
AcDbLine
 10
629.9263937425144
 20
207.3263092160001
 30
0.0
 11
629.9263937425144
 21
205.12630921595
 31
0.0
  0
LINE
  5
11F
330
1F
100
AcDbEntity
  8
1
  6
CONTINUOUS
 62
     7
100
AcDbLine
 10
607.0317463531163
 20
197.17502153735
 30
0.0
 11
606.7500092114667
 21
197.1750212301498
 31
0.0
  0
LINE
  5
120
330
1F
100
AcDbEntity
  8
1
  6
CONTINUOUS
 62
     7
100
AcDbLine
 10
627.4935375937156
 20
209.62630921595
 30
0.0
 11
629.4786298964667
 21
211.27630921595
 31
0.0
  0
ELLIPSE
  5
121
330
1F
100
AcDbEntity
  8
1
  6
CONTINUOUS
 62
     7
100
AcDbEllipse
 10
629.4786298964653
 20
199.624058156
 30
0.0
 11
0.0
 21
-3.649999999949971
 31
0.0
210
0.0
220
0.0
230
1.0
 40
0.121869343400024
 41
3.141592653600002
 42
6.283185307179586
  0
ELLIPSE
  5
122
330
1F
100
AcDbEntity
  8
1
  6
CONTINUOUS
 62
     7
100
AcDbEllipse
 10
629.7763937425146
 20
199.624058156
 30
0.0
 11
0.0
 21
-3.649999999949971
 31
0.0
210
0.0
220
0.0
230
1.0
 40
0.121869343400024
 41
0.0
 42
6.283185307179586
  0
LINE
  5
123
330
1F
100
AcDbEntity
  8
1
  6
CONTINUOUS
 62
     7
100
AcDbLine
 10
629.9263937383132
 20
199.9235551726998
 30
0.0
 11
630.0763937381639
 21
199.9235551726998
 31
0.0
  0
ELLIPSE
  5
124
330
1F
100
AcDbEntity
  8
1
  6
CONTINUOUS
 62
     7
100
AcDbEllipse
 10
629.7763937425146
 20
207.626309216
 30
0.0
 11
0.0
 21
-3.649999999949971
 31
0.0
210
0.0
220
0.0
230
1.0
 40
0.121869343400024
 41
0.0
 42
6.283185307179586
  0
LINE
  5
125
330
1F
100
AcDbEntity
  8
1
  6
CONTINUOUS
 62
     7
100
AcDbLine
 10
629.9263937381659
 20
202.12355517275
 30
0.0
 11
629.9263937381659
 21
199.9235551727
 31
0.0
  0
CIRCLE
  5
126
330
1F
100
AcDbEntity
  8
1
  6
CONTINUOUS
 62
     7
100
AcDbCircle
 10
685.750000000465
 20
166.87500305615
 30
0.0
 40
4.000000000051074
  0
LINE
  5
127
330
1F
100
AcDbEntity
  8
1
  6
CONTINUOUS
 62
     7
100
AcDbLine
 10
688.500000000416
 20
166.3250030560998
 30
0.0
 11
688.500000000416
 21
167.4250030560498
 31
0.0
  0
LINE
  5
128
330
1F
100
AcDbEntity
  8
1
  6
CONTINUOUS
 62
     7
100
AcDbLine
 10
686.750000000365
 20
167.4250030560498
 30
0.0
 11
688.5000000004164
 21
167.4250030560498
 31
0.0
  0
ARC
  5
129
330
1F
100
AcDbEntity
  8
1
  6
CONTINUOUS
 62
     7
100
AcDbCircle
 10
686.750000000365
 20
167.925003056
 30
0.0
 40
0.4999999999508731
100
AcDbArc
 50
180.0
 51
270.0
  0
LINE
  5
12A
330
1F
100
AcDbEntity
  8
1
  6
CONTINUOUS
 62
     7
100
AcDbLine
 10
629.4763937381668
 20
199.3235551727
 30
0.0
 11
629.4763937381668
 21
199.9235551726998
 31
0.0
  0
LINE
  5
12B
330
1F
100
AcDbEntity
  8
1
  6
CONTINUOUS
 62
     7
100
AcDbLine
 10
629.6263937381648
 20
199.3235551727
 30
0.0
 11
629.4763937381664
 21
199.3235551727
 31
0.0
  0
LINE
  5
12C
330
1F
100
AcDbEntity
  8
1
  6
CONTINUOUS
 62
     7
100
AcDbLine
 10
673.0000000000151
 20
162.6200173647498
 30
0.0
 11
668.5049827415663
 21
158.1250001062998
 31
0.0
  0
LINE
  5
12D
330
1F
100
AcDbEntity
  8
1
  6
CONTINUOUS
 62
     7
100
AcDbLine
 10
629.9263937381659
 20
197.12355517265
 30
0.0
 11
629.6263937381639
 21
197.12355517265
 31
0.0
  0
LINE
  5
12E
330
1F
100
AcDbEntity
  8
1
  6
CONTINUOUS
 62
     7
100
AcDbLine
 10
606.5895419267653
 20
197.6242935215001
 30
0.0
 11
606.7500092116157
 21
197.1750667249998
 31
0.0
  0
LINE
  5
12F
330
1F
100
AcDbEntity
  8
1
  6
CONTINUOUS
 62
     7
100
AcDbLine
 10
629.4763937381668
 20
199.9235551726998
 30
0.0
 11
629.6263937381652
 21
199.9235551726998
 31
0.0
  0
ARC
  5
130
330
1F
100
AcDbEntity
  8
1
  6
CONTINUOUS
 62
     7
100
AcDbCircle
 10
684.7500000004159
 20
167.925003056
 30
0.0
 40
0.4999999999508731
100
AcDbArc
 50
270.0
 51
0.0
  0
LINE
  5
131
330
1F
100
AcDbEntity
  8
1
  6
CONTINUOUS
 62
     7
100
AcDbLine
 10
686.750000000365
 20
166.3250030560998
 30
0.0
 11
688.5000000004164
 21
166.3250030560998
 31
0.0
  0
LINE
  5
132
330
1F
100
AcDbEntity
  8
1
  6
CONTINUOUS
 62
     7
100
AcDbLine
 10
627.4935375937156
 20
197.6240581558998
 30
0.0
 11
629.4786298964667
 21
195.9740581558998
 31
0.0
  0
LINE
  5
133
330
1F
100
AcDbEntity
  8
1
  6
CONTINUOUS
 62
     7
100
AcDbLine
 10
629.4786298964653
 20
195.9740581559001
 30
0.0
 11
629.7763937425148
 21
195.9740581559001
 31
0.0
  0
ARC
  5
134
330
1F
100
AcDbEntity
  8
1
  6
CONTINUOUS
 62
     7
100
AcDbCircle
 10
684.7500000004159
 20
165.825003056
 30
0.0
 40
0.4999999999508731
100
AcDbArc
 50
0.0
 51
90.0
  0
LINE
  5
135
330
1F
100
AcDbEntity
  8
1
  6
CONTINUOUS
 62
     7
100
AcDbLine
 10
609.2500092115154
 20
197.1750830134997
 30
0.0
 11
609.4104501371644
 21
197.6240966156
 31
0.0
  0
LINE
  5
136
330
1F
100
AcDbEntity
  8
1
  6
CONTINUOUS
 62
     7
100
AcDbLine
 10
629.9263937425144
 20
205.1263092159498
 30
0.0
 11
629.6263937425149
 21
205.1263092159498
 31
0.0
  0
ELLIPSE
  5
137
330
1F
100
AcDbEntity
  8
1
  6
CONTINUOUS
 62
     7
100
AcDbEllipse
 10
627.4935375937156
 20
199.624058156
 30
0.0
 11
0.0
 21
1.99999999994982
 31
0.0
210
0.0
220
0.0
230
1.0
 40
0.121869343499841
 41
0.0
 42
3.141592653600002
  0
LINE
  5
138
330
1F
100
AcDbEntity
  8
1
  6
CONTINUOUS
 62
     7
100
AcDbLine
 10
629.7763937425146
 20
203.27405815595
 30
0.0
 11
629.4786298964652
 21
203.27405815595
 31
0.0
  0
LINE
  5
139
330
1F
100
AcDbEntity
  8
1
  6
CONTINUOUS
 62
     7
100
AcDbLine
 10
629.4763937425154
 20
207.3263092160001
 30
0.0
 11
629.4763937425154
 21
207.926309216
 31
0.0
  0
LINE
  5
13A
330
1F
100
AcDbEntity
  8
1
  6
CONTINUOUS
 62
     7
100
AcDbLine
 10
629.6263937381648
 20
202.12355517275
 30
0.0
 11
629.6263937381648
 21
199.9235551727
 31
0.0
  0
LINE
  5
13B
330
1F
100
AcDbEntity
  8
1
  6
CONTINUOUS
 62
     7
100
AcDbLine
 10
629.4763937425154
 20
207.926309216
 30
0.0
 11
629.6263937425164
 21
207.926309216
 31
0.0
  0
LINE
  5
13C
330
1F
100
AcDbEntity
  8
1
  6
CONTINUOUS
 62
     7
100
AcDbLine
 10
629.626393742515
 20
210.1263092160498
 30
0.0
 11
629.626393742515
 21
207.9263092159998
 31
0.0
  0
LINE
  5
13D
330
1F
100
AcDbEntity
  8
1
  6
CONTINUOUS
 62
     7
100
AcDbLine
 10
629.6263937381648
 20
197.12355517265
 30
0.0
 11
629.6263937381648
 21
199.3235551727
 31
0.0
  0
LINE
  5
13E
330
1F
100
AcDbEntity
  8
1
  6
CONTINUOUS
 62
     7
100
AcDbLine
 10
685.2500000003649
 20
164.87500305605
 30
0.0
 11
686.2500000004168
 21
164.87500305605
 31
0.0
  0
LINE
  5
13F
330
1F
100
AcDbEntity
  8
1
  6
CONTINUOUS
 62
     7
100
AcDbLine
 10
686.2500000004159
 20
167.925003056
 30
0.0
 11
686.2500000004159
 21
168.8750030560998
 31
0.0
  0
LINE
  5
140
330
1F
100
AcDbEntity
  8
1
  6
CONTINUOUS
 62
     7
100
AcDbLine
 10
627.4929743182147
 20
205.62677740805
 30
0.0
 11
600.0000091928651
 21
205.6248583380498
 31
0.0
  0
LINE
  5
141
330
1F
100
AcDbEntity
  8
1
  6
CONTINUOUS
 62
     7
100
AcDbLine
 10
684.4000000004646
 20
167.4250030560498
 30
0.0
 11
684.4000000004646
 21
166.3250030560998
 31
0.0
  0
LINE
  5
142
330
1F
100
AcDbEntity
  8
1
  6
CONTINUOUS
 62
     7
100
AcDbLine
 10
673.0000000000151
 20
164.7413377083502
 30
0.0
 11
666.3836624456651
 21
158.1250001540002
 31
0.0
  0
LINE
  5
143
330
1F
100
AcDbEntity
  8
1
  6
CONTINUOUS
 62
     7
100
AcDbLine
 10
684.7500000004159
 20
166.3250030560998
 30
0.0
 11
683.0000000003644
 21
166.3250030560998
 31
0.0
  0
LINE
  5
144
330
1F
100
AcDbEntity
  8
1
  6
CONTINUOUS
 62
     7
100
AcDbLine
 10
600.0000091928656
 20
197.62475348615
 30
0.0
 11
627.495010032415
 21
197.62283427155
 31
0.0
  0
LINE
  5
145
330
1F
100
AcDbEntity
  8
1
  6
CONTINUOUS
 62
     7
100
AcDbLine
 10
600.0000091928656
 20
209.62485834305
 30
0.0
 11
627.4941009728649
 21
209.6267774942
 31
0.0
  0
LINE
  5
146
330
1F
100
AcDbEntity
  8
1
  6
CONTINUOUS
 62
     7
100
AcDbLine
 10
629.626393742515
 20
210.1263092160498
 30
0.0
 11
629.9263937425145
 21
210.1263092160498
 31
0.0
  0
LINE
  5
147
330
1F
100
AcDbEntity
  8
1
  6
CONTINUOUS
 62
     7
100
AcDbLine
 10
683.0000000003648
 20
167.4250030560498
 30
0.0
 11
683.0000000003648
 21
166.3250030560998
 31
0.0
  0
LINE
  5
148
330
1F
100
AcDbEntity
  8
1
  6
CONTINUOUS
 62
     7
100
AcDbLine
 10
673.0000000000151
 20
172.8749999982502
 30
0.0
 11
661.0000000000151
 21
172.8749999982502
 31
0.0
  0
LINE
  5
149
330
1F
100
AcDbEntity
  8
1
  6
CONTINUOUS
 62
     7
100
AcDbLine
 10
686.2500000004159
 20
248.3749969447998
 30
0.0
 11
685.250000000364
 21
248.3749969447998
 31
0.0
  0
LINE
  5
14A
330
1F
100
AcDbEntity
  8
1
  6
CONTINUOUS
 62
     7
100
AcDbLine
 10
673.0000000000151
 20
158.3773766776998
 30
0.0
 11
672.7476233330649
 21
158.12500001075
 31
0.0
  0
LINE
  5
14B
330
1F
100
AcDbEntity
  8
1
  6
CONTINUOUS
 62
     7
100
AcDbLine
 10
687.1000000004636
 20
166.3250030560998
 30
0.0
 11
687.1000000004636
 21
167.4250030560498
 31
0.0
  0
LINE
  5
14C
330
1F
100
AcDbEntity
  8
1
  6
CONTINUOUS
 62
     7
100
AcDbLine
 10
686.750000000365
 20
250.9249969448
 30
0.0
 11
688.5000000004164
 21
250.9249969448
 31
0.0
  0
LINE
  5
14D
330
1F
100
AcDbEntity
  8
1
  6
CONTINUOUS
 62
     7
100
AcDbLine
 10
686.2500000004159
 20
251.4249969447499
 30
0.0
 11
686.2500000004159
 21
252.3749969446998
 31
0.0
  0
ARC
  5
14E
330
1F
100
AcDbEntity
  8
1
  6
CONTINUOUS
 62
     7
100
AcDbCircle
 10
686.750000000365
 20
249.3249969447498
 30
0.0
 40
0.4999999999508731
100
AcDbArc
 50
90.0
 51
180.0
  0
LINE
  5
14F
330
1F
100
AcDbEntity
  8
1
  6
CONTINUOUS
 62
     7
100
AcDbLine
 10
685.2500000003649
 20
165.825003056
 30
0.0
 11
685.2500000003649
 21
164.8750030560498
 31
0.0
  0
ARC
  5
150
330
1F
100
AcDbEntity
  8
1
  6
CONTINUOUS
 62
     7
100
AcDbCircle
 10
686.750000000365
 20
251.4249969447499
 30
0.0
 40
0.4999999999508731
100
AcDbArc
 50
180.0
 51
270.0
  0
LINE
  5
151
330
1F
100
AcDbEntity
  8
1
  6
CONTINUOUS
 62
     7
100
AcDbLine
 10
662.041779197815
 20
172.8749999982502
 30
0.0
 11
661.0000000000152
 21
171.83322080045
 31
0.0
  0
LINE
  5
152
330
1F
100
AcDbEntity
  8
1
  6
CONTINUOUS
 62
     7
100
AcDbLine
 10
673.0000000000151
 20
158.1250002753498
 30
0.0
 11
673.0000000000151
 21
172.87499999825
 31
0.0
  0
LINE
  5
153
330
1F
100
AcDbEntity
  8
1
  6
CONTINUOUS
 62
     7
100
AcDbLine
 10
668.405740228466
 20
172.8749999982502
 30
0.0
 11
661.0000000000156
 21
165.4692597696502
 31
0.0
  0
LINE
  5
154
330
1F
100
AcDbEntity
  8
1
  6
CONTINUOUS
 62
     7
100
AcDbLine
 10
673.0000000000151
 20
168.9839783955498
 30
0.0
 11
662.1410218541652
 21
158.12500024955
 31
0.0
  0
LINE
  5
155
330
1F
100
AcDbEntity
  8
1
  6
CONTINUOUS
 62
     7
100
AcDbLine
 10
684.7500000004159
 20
250.9249969448
 30
0.0
 11
683.0000000003644
 21
250.9249969448
 31
0.0
  0
LINE
  5
156
330
1F
100
AcDbEntity
  8
1
  6
CONTINUOUS
 62
     7
100
AcDbLine
 10
664.1630995414145
 20
172.8749999982502
 30
0.0
 11
661.0000000000157
 21
169.71190045685
 31
0.0
  0
LINE
  5
157
330
1F
100
AcDbEntity
  8
1
  6
CONTINUOUS
 62
     7
100
AcDbLine
 10
673.0000000000151
 20
244.3750000022
 30
0.0
 11
661.0000000000151
 21
244.3750000022
 31
0.0
  0
ARC
  5
158
330
1F
100
AcDbEntity
  8
1
  6
CONTINUOUS
 62
     7
100
AcDbCircle
 10
686.750000000365
 20
165.825003056
 30
0.0
 40
0.4999999999508731
100
AcDbArc
 50
90.0
 51
180.0
  0
LINE
  5
159
330
1F
100
AcDbEntity
  8
1
  6
CONTINUOUS
 62
     7
100
AcDbLine
 10
673.0000000000151
 20
247.1647782621498
 30
0.0
 11
670.2102217400643
 21
244.3750000022
 31
0.0
  0
ARC
  5
15A
330
1F
100
AcDbEntity
  8
1
  6
CONTINUOUS
 62
     7
100
AcDbCircle
 10
684.7500000004159
 20
251.4249969447499
 30
0.0
 40
0.4999999999508731
100
AcDbArc
 50
270.0
 51
0.0
  0
LINE
  5
15B
330
1F
100
AcDbEntity
  8
1
  6
CONTINUOUS
 62
     7
100
AcDbLine
 10
686.750000000365
 20
249.8249969447
 30
0.0
 11
688.5000000004164
 21
249.8249969447
 31
0.0
  0
LINE
  5
15C
330
1F
100
AcDbEntity
  8
1
  6
CONTINUOUS
 62
     7
100
AcDbLine
 10
661.0000000000147
 20
244.3750000022
 30
0.0
 11
661.0000000000147
 21
259.1249997250998
 31
0.0
  0
LINE
  5
15D
330
1F
100
AcDbEntity
  8
1
  6
CONTINUOUS
 62
     7
100
AcDbLine
 10
672.6483809155156
 20
172.8749999982502
 30
0.0
 11
661.0000000000151
 21
161.2266190826
 31
0.0
  0
LINE
  5
15E
330
1F
100
AcDbEntity
  8
1
  6
CONTINUOUS
 62
     7
100
AcDbLine
 10
673.0000000000151
 20
160.4986970213
 30
0.0
 11
670.6263030373141
 21
158.12500005845
 31
0.0
  0
LINE
  5
15F
330
1F
100
AcDbEntity
  8
1
  6
CONTINUOUS
 62
     7
100
AcDbLine
 10
685.2500000003649
 20
251.4249969447499
 30
0.0
 11
685.2500000003649
 21
252.3749969446998
 31
0.0
  0
LINE
  5
160
330
1F
100
AcDbEntity
  8
1
  6
CONTINUOUS
 62
     7
100
AcDbLine
 10
683.0000000003648
 20
249.8249969447
 30
0.0
 11
683.0000000003648
 21
250.9249969448
 31
0.0
  0
LINE
  5
161
330
1F
100
AcDbEntity
  8
1
  6
CONTINUOUS
 62
     7
100
AcDbLine
 10
666.2844198848647
 20
172.8749999982502
 30
0.0
 11
661.0000000000146
 21
167.59058011325
 31
0.0
  0
LINE
  5
162
330
1F
100
AcDbEntity
  8
1
  6
CONTINUOUS
 62
     7
100
AcDbLine
 10
673.0000000000151
 20
171.1052987391498
 30
0.0
 11
661.0000000000151
 21
159.1052987389998
 31
0.0
  0
LINE
  5
163
330
1F
100
AcDbEntity
  8
1
  6
CONTINUOUS
 62
     7
100
AcDbLine
 10
673.0000000000151
 20
245.04345791855
 30
0.0
 11
672.3315420835155
 21
244.3750000022002
 31
0.0
  0
LINE
  5
164
330
1F
100
AcDbEntity
  8
1
  6
CONTINUOUS
 62
     7
100
AcDbLine
 10
685.2500000003649
 20
252.3749969447
 30
0.0
 11
686.2500000004168
 21
252.3749969447
 31
0.0
  0
LINE
  5
165
330
1F
100
AcDbEntity
  8
1
  6
CONTINUOUS
 62
     7
100
AcDbLine
 10
673.0000000000151
 20
259.1249997250998
 30
0.0
 11
673.0000000000151
 21
244.3750000022
 31
0.0
  0
ARC
  5
166
330
1F
100
AcDbEntity
  8
1
  6
CONTINUOUS
 62
     7
100
AcDbCircle
 10
684.7500000004159
 20
249.3249969447498
 30
0.0
 40
0.4999999999508731
100
AcDbArc
 50
0.0
 51
90.0
  0
LINE
  5
167
330
1F
100
AcDbEntity
  8
1
  6
CONTINUOUS
 62
     7
100
AcDbLine
 10
670.5270605720636
 20
172.8749999982502
 30
0.0
 11
661.0000000000142
 21
163.3479394262
 31
0.0
  0
LINE
  5
168
330
1F
100
AcDbEntity
  8
1
  6
CONTINUOUS
 62
     7
100
AcDbLine
 10
686.2500000004159
 20
165.825003056
 30
0.0
 11
686.2500000004159
 21
164.8750030560498
 31
0.0
  0
LINE
  5
169
330
1F
100
AcDbEntity
  8
1
  6
CONTINUOUS
 62
     7
100
AcDbLine
 10
684.7500000004159
 20
249.8249969447
 30
0.0
 11
683.0000000003644
 21
249.8249969447
 31
0.0
  0
LINE
  5
16A
330
1F
100
AcDbEntity
  8
1
  6
CONTINUOUS
 62
     7
100
AcDbLine
 10
673.0000000000151
 20
166.8626580519498
 30
0.0
 11
664.2623421499156
 21
158.12500020185
 31
0.0
  0
ELLIPSE
  5
16B
330
1F
100
AcDbEntity
  8
0
  6
CONTINUOUS
 62
     7
100
AcDbEllipse
 10
805.2500000006171
 20
285.6156416525224
 30
0.0
 11
0.0
 21
0.5093583474776731
 31
0.0
210
0.0
220
0.0
230
-1.0
 40
0.9816271834474287
 41
4.71238898038469
 42
6.283185307179586
  0
ELLIPSE
  5
16C
330
1F
100
AcDbEntity
  8
0
  6
CONTINUOUS
 62
     7
100
AcDbEllipse
 10
816.2500000003392
 20
130.7808431562254
 30
0.0
 11
0.4999999999999449
 21
-1.628419621368948E-10
 31
0.0
210
0.0
220
0.0
230
1.0
 40
0.9816271834477945
 41
4.712388980716312
 42
6.283185307511266
  0
LINE
  5
16D
330
1F
100
AcDbEntity
  8
0
  6
CONTINUOUS
 62
     7
100
AcDbLine
 10
816.7500000003391
 20
130.7808431562254
 30
0.0
 11
816.7500000002796
 21
135.625
 31
0.0
  0
LINE
  5
16E
330
1F
100
AcDbEntity
  8
0
  6
CONTINUOUS
 62
     7
100
AcDbLine
 10
800.7500000004148
 20
292.625
 30
0.0
 11
800.7500000001688
 21
272.6250000000001
 31
0.0
  0
LINE
  5
16F
330
1F
100
AcDbEntity
  8
0
  6
CONTINUOUS
 62
     7
100
AcDbLine
 10
820.7500000001688
 20
144.625
 30
0.0
 11
820.7500000004148
 21
124.625
 31
0.0
  0
LINE
  5
170
330
1F
100
AcDbEntity
  8
0
  6
CONTINUOUS
 62
     7
100
AcDbLine
 10
816.2500000003452
 20
286.9599704354983
 30
0.0
 11
805.2500000003452
 21
286.9599704354983
 31
0.0
  0
LINE
  5
171
330
1F
100
AcDbEntity
  8
0
  6
CONTINUOUS
 62
     7
100
AcDbLine
 10
819.7500000004271
 20
293.625
 30
0.0
 11
801.7500000004271
 21
293.625
 31
0.0
  0
LINE
  5
172
330
1F
100
AcDbEntity
  8
0
  6
CONTINUOUS
 62
     7
100
AcDbLine
 10
819.7500000004271
 20
123.625
 30
0.0
 11
801.7500000004271
 21
123.625
 31
0.0
  0
LINE
  5
173
330
1F
100
AcDbEntity
  8
0
  6
CONTINUOUS
 62
     7
100
AcDbLine
 10
816.2500000002734
 20
136.125
 30
0.0
 11
805.2500000002735
 21
136.125
 31
0.0
  0
ELLIPSE
  5
174
330
1F
100
AcDbEntity
  8
0
  6
CONTINUOUS
 62
     7
100
AcDbEllipse
 10
816.2500000006172
 20
285.6156416525224
 30
0.0
 11
0.0
 21
0.5093583474776731
 31
0.0
210
0.0
220
0.0
230
-1.0
 40
0.9816271834474287
 41
0.0
 42
1.570796326794897
  0
LINE
  5
175
330
1F
100
AcDbEntity
  8
0
  6
CONTINUOUS
 62
     7
100
AcDbLine
 10
816.2500000006172
 20
131.125
 30
0.0
 11
805.2500000006171
 21
131.125
 31
0.0
  0
LINE
  5
176
330
1F
100
AcDbEntity
  8
0
  6
CONTINUOUS
 62
     7
100
AcDbLine
 10
800.7500000000474
 20
272.625
 30
0.0
 11
800.7500000000474
 21
272.125
 31
0.0
  0
ELLIPSE
  5
177
330
1F
100
AcDbEntity
  8
0
  6
CONTINUOUS
 62
     7
100
AcDbEllipse
 10
805.2500000003392
 20
130.7808431562254
 30
0.0
 11
0.4999999999999449
 21
-1.628419621368948E-10
 31
0.0
210
0.0
220
0.0
230
1.0
 40
0.9816271834477945
 41
3.141592653921582
 42
4.712388980716479
  0
ARC
  5
178
330
1F
100
AcDbEntity
  8
0
  6
CONTINUOUS
 62
     7
100
AcDbCircle
 10
801.7500000000474
 20
272.625
 30
0.0
 40
0.9999999999998899
100
AcDbArc
 50
90.0
 51
180.0
  0
LINE
  5
179
330
1F
100
AcDbEntity
  8
0
  6
CONTINUOUS
 62
     7
100
AcDbLine
 10
805.2500000002735
 20
281.1249999999999
 30
0.0
 11
816.2500000002734
 21
281.1249999999999
 31
0.0
  0
ARC
  5
17A
330
1F
100
AcDbEntity
  8
0
  6
CONTINUOUS
 62
     7
100
AcDbCircle
 10
-801.7499999999842
 20
152.7813754643966
 30
0.0
 40
0.9999999999998899
210
0.0
220
0.0
230
-1.0
100
AcDbArc
 50
0.0
 51
88.99999999999976
  0
LINE
  5
17B
330
1F
100
AcDbEntity
  8
0
  6
CONTINUOUS
 62
     7
100
AcDbLine
 10
820.7500000001688
 20
272.625
 30
0.0
 11
820.7500000004148
 21
292.6249999999999
 31
0.0
  0
LINE
  5
17C
330
1F
100
AcDbEntity
  8
0
  6
CONTINUOUS
 62
     7
100
AcDbLine
 10
816.7500000002797
 20
281.625
 30
0.0
 11
816.7500000003392
 21
286.4691568437747
 31
0.0
  0
LINE
  5
17D
330
1F
100
AcDbEntity
  8
0
  6
CONTINUOUS
 62
     7
100
AcDbLine
 10
816.2500000006172
 20
286.1249999999999
 30
0.0
 11
805.2500000006171
 21
286.1249999999999
 31
0.0
  0
ELLIPSE
  5
17E
330
1F
100
AcDbEntity
  8
0
  6
CONTINUOUS
 62
     7
100
AcDbEllipse
 10
805.2500000003392
 20
286.4691568437746
 30
0.0
 11
-0.500000000000167
 21
-1.627586954100480E-10
 31
0.0
210
0.0
220
0.0
230
1.0
 40
0.981627183447192
 41
4.712388980052845
 42
6.283185306847741
  0
LINE
  5
17F
330
1F
100
AcDbEntity
  8
0
  6
CONTINUOUS
 62
     7
100
AcDbLine
 10
800.7500000000158
 20
145.125
 30
0.0
 11
800.7500000000474
 21
144.625
 31
0.0
  0
LINE
  5
180
330
1F
100
AcDbEntity
  8
0
  6
CONTINUOUS
 62
     7
100
AcDbLine
 10
805.2500000003453
 20
130.2900295645016
 30
0.0
 11
816.2500000003453
 21
130.2900295645016
 31
0.0
  0
ELLIPSE
  5
181
330
1F
100
AcDbEntity
  8
0
  6
CONTINUOUS
 62
     7
100
AcDbEllipse
 10
816.2500000006172
 20
131.6343583474776
 30
0.0
 11
0.0
 21
-0.5093583474776175
 31
0.0
210
0.0
220
0.0
230
-1.0
 40
0.9816271834475357
 41
4.71238898038469
 42
6.283185307179586
  0
ELLIPSE
  5
182
330
1F
100
AcDbEntity
  8
0
  6
CONTINUOUS
 62
     7
100
AcDbEllipse
 10
805.2500000006171
 20
131.6343583474776
 30
0.0
 11
0.0
 21
-0.5093583474776175
 31
0.0
210
0.0
220
0.0
230
-1.0
 40
0.9816271834475357
 41
0.0
 42
1.570796326794897
  0
LINE
  5
183
330
1F
100
AcDbEntity
  8
0
  6
CONTINUOUS
 62
     7
100
AcDbLine
 10
804.7500000003391
 20
286.4691568437746
 30
0.0
 11
804.7500000002796
 21
281.6249999999999
 31
0.0
  0
LINE
  5
184
330
1F
100
AcDbEntity
  8
0
  6
CONTINUOUS
 62
     7
100
AcDbLine
 10
800.7500000001688
 20
144.625
 30
0.0
 11
800.7500000004148
 21
124.625
 31
0.0
  0
ELLIPSE
  5
185
330
1F
100
AcDbEntity
  8
0
  6
CONTINUOUS
 62
     7
100
AcDbEllipse
 10
816.2500000003392
 20
286.4691568437746
 30
0.0
 11
-0.4999999999999449
 21
-1.628697177125105E-10
 31
0.0
210
0.0
220
0.0
230
1.0
 40
0.981627183447628
 41
3.141592653257947
 42
4.712388980052955
  0
LINE
  5
186
330
1F
100
AcDbEntity
  8
0
  6
CONTINUOUS
 62
     7
100
AcDbLine
 10
804.7500000002797
 20
135.625
 30
0.0
 11
804.7500000003392
 21
130.7808431562254
 31
0.0
  0
ARC
  5
187
330
1F
100
AcDbEntity
  8
0
  6
CONTINUOUS
 62
     7
100
AcDbCircle
 10
-476.749999999351
 20
274.1250000000001
 30
0.0
 40
0.4999999999999449
210
0.0
220
0.0
230
-1.0
100
AcDbArc
 50
270.0000000000002
 51
0.0
  0
LINE
  5
188
330
1F
100
AcDbEntity
  8
0
  6
CONTINUOUS
 62
     7
100
AcDbLine
 10
495.7499999993511
 20
272.625
 30
0.0
 11
476.7499999993511
 21
272.625
 31
0.0
  0
ARC
  5
189
330
1F
100
AcDbEntity
  8
0
  6
CONTINUOUS
 62
     7
100
AcDbCircle
 10
491.7499999993511
 20
226.625
 30
0.0
 40
1.499999999999835
100
AcDbArc
 50
269.9999999999996
 51
90.0
  0
LINE
  5
18A
330
1F
100
AcDbEntity
  8
0
  6
CONTINUOUS
 62
     7
100
AcDbLine
 10
495.2499999993511
 20
293.625
 30
0.0
 11
477.2499999993511
 21
293.625
 31
0.0
  0
LINE
  5
18B
330
1F
100
AcDbEntity
  8
0
  6
CONTINUOUS
 62
     7
100
AcDbLine
 10
485.2499999993509
 20
223.125
 30
0.0
 11
479.2499999993509
 21
223.125
 31
0.0
  0
ARC
  5
18C
330
1F
100
AcDbEntity
  8
0
  6
CONTINUOUS
 62
     7
100
AcDbCircle
 10
-462.749999999984
 20
258.4004971211946
 30
0.0
 40
4.499999999999948
210
0.0
220
0.0
230
-1.0
100
AcDbArc
 50
0.0
 51
89.00000000000001
  0
LINE
  5
18D
330
1F
100
AcDbEntity
  8
0
  6
CONTINUOUS
 62
     7
100
AcDbLine
 10
492.249999999351
 20
285.6156416525224
 30
0.0
 11
492.249999999351
 21
281.6249999999999
 31
0.0
  0
LINE
  5
18E
330
1F
100
AcDbEntity
  8
0
  6
CONTINUOUS
 62
     7
100
AcDbLine
 10
479.2499999993511
 20
205.125
 30
0.0
 11
485.2499999993511
 21
205.125
 31
0.0
  0
LINE
  5
18F
330
1F
100
AcDbEntity
  8
0
  6
CONTINUOUS
 62
     7
100
AcDbLine
 10
491.7499999993511
 20
228.125
 30
0.0
 11
480.7499999993511
 21
228.125
 31
0.0
  0
LINE
  5
190
330
1F
100
AcDbEntity
  8
0
  6
CONTINUOUS
 62
     7
100
AcDbLine
 10
478.249999999351
 20
238.1236295347547
 30
0.0
 11
478.249999999351
 21
269.6263704652454
 31
0.0
  0
LINE
  5
191
330
1F
100
AcDbEntity
  8
0
  6
CONTINUOUS
 62
     7
100
AcDbLine
 10
478.249999999351
 20
179.1263704652454
 30
0.0
 11
478.249999999351
 21
147.6236295347546
 31
0.0
  0
LINE
  5
192
330
1F
100
AcDbEntity
  8
0
  6
CONTINUOUS
 62
     7
100
AcDbLine
 10
475.2499999993511
 20
203.625
 30
0.0
 11
465.2499999993512
 21
203.625
 31
0.0
  0
LINE
  5
193
330
1F
100
AcDbEntity
  8
0
  6
CONTINUOUS
 62
     7
100
AcDbLine
 10
485.0156156326619
 20
233.329604471598
 30
0.0
 11
485.0783313339454
 21
234.3171347091188
 31
0.0
  0
ELLIPSE
  5
194
330
1F
100
AcDbEntity
  8
0
  6
CONTINUOUS
 62
     7
100
AcDbEllipse
 10
479.2513723453488
 20
179.123627654002
 30
0.0
 11
-0.7090462434349299
 21
0.7090462434350966
 31
0.0
210
0.0
220
0.0
230
1.0
 40
0.9972646886342308
 41
5.499156671652536
 42
7.067213942706635
  0
LINE
  5
195
330
1F
100
AcDbEntity
  8
0
  6
CONTINUOUS
 62
     7
100
AcDbLine
 10
462.6714641710163
 20
262.8998117493986
 30
0.0
 11
476.2499999993511
 21
263.1368259739122
 31
0.0
  0
LINE
  5
196
330
1F
100
AcDbEntity
  8
0
  6
CONTINUOUS
 62
     7
100
AcDbLine
 10
486.249999999351
 20
204.125
 30
0.0
 11
486.249999999351
 21
195.125
 31
0.0
  0
ARC
  5
197
330
1F
100
AcDbEntity
  8
0
  6
CONTINUOUS
 62
     7
100
AcDbCircle
 10
-462.749999999984
 20
158.8495028788052
 30
0.0
 40
4.499999999999948
210
0.0
220
0.0
230
-1.0
100
AcDbArc
 50
271.0
 51
0.0
  0
ARC
  5
198
330
1F
100
AcDbEntity
  8
0
  6
CONTINUOUS
 62
     7
100
AcDbCircle
 10
480.749999999351
 20
281.625
 30
0.0
 40
0.4999999999999449
100
AcDbArc
 50
180.0
 51
270.0
  0
ARC
  5
199
330
1F
100
AcDbEntity
  8
0
  6
CONTINUOUS
 62
     7
100
AcDbCircle
 10
487.7499999993511
 20
210.625
 30
0.0
 40
0.4999999999999449
100
AcDbArc
 50
269.9999999999996
 51
0.0
  0
ELLIPSE
  5
19A
330
1F
100
AcDbEntity
  8
0
  6
CONTINUOUS
 62
     7
100
AcDbEllipse
 10
493.2486276533532
 20
147.6263723459978
 30
0.0
 11
0.7090462434349298
 21
-0.7090462434350685
 31
0.0
210
0.0
220
0.0
230
1.0
 40
0.997264688634231
 41
5.499156671652528
 42
7.067213942706658
  0
ARC
  5
19B
330
1F
100
AcDbEntity
  8
0
  6
CONTINUOUS
 62
     7
100
AcDbCircle
 10
479.2499999993511
 20
204.125
 30
0.0
 40
0.9999999999998899
100
AcDbArc
 50
90.0
 51
180.0
  0
ARC
  5
19C
330
1F
100
AcDbEntity
  8
0
  6
CONTINUOUS
 62
     7
100
AcDbCircle
 10
480.749999999351
 20
233.625
 30
0.0
 40
1.500000000000057
100
AcDbArc
 50
90.00000000000068
 51
269.9999999999991
  0
LINE
  5
19D
330
1F
100
AcDbEntity
  8
0
  6
CONTINUOUS
 62
     7
100
AcDbLine
 10
493.2513704645964
 20
237.125
 30
0.0
 11
479.2486295341056
 21
237.125
 31
0.0
  0
ARC
  5
19E
330
1F
100
AcDbEntity
  8
0
  6
CONTINUOUS
 62
     7
100
AcDbCircle
 10
486.2499999998217
 20
183.5989336317848
 30
0.0
 40
0.8284271247460673
100
AcDbArc
 50
116.8088013465076
 51
254.356588394749
  0
LINE
  5
19F
330
1F
100
AcDbEntity
  8
0
  6
CONTINUOUS
 62
     7
100
AcDbLine
 10
496.2499999999841
 20
272.1250000000001
 30
0.0
 11
498.7499999999841
 21
272.1250000000001
 31
0.0
  0
ARC
  5
1A0
330
1F
100
AcDbEntity
  8
0
  6
CONTINUOUS
 62
     7
100
AcDbCircle
 10
485.2499999993509
 20
195.125
 30
0.0
 40
1.000000000000112
100
AcDbArc
 50
270.0
 51
0.0
  0
ELLIPSE
  5
1A1
330
1F
100
AcDbEntity
  8
0
  6
CONTINUOUS
 62
     7
100
AcDbEllipse
 10
479.2513723453488
 20
238.1263723459979
 30
0.0
 11
-0.7090462434349299
 21
-0.709046243435041
 31
0.0
210
0.0
220
0.0
230
1.0
 40
0.9972646886343092
 41
5.499156671652532
 42
7.067213942706635
  0
ARC
  5
1A2
330
1F
100
AcDbEntity
  8
0
  6
CONTINUOUS
 62
     7
100
AcDbCircle
 10
-465.2499999993511
 20
206.625
 30
0.0
 40
3.000000000000114
210
0.0
220
0.0
230
-1.0
100
AcDbArc
 50
269.9999999999994
 51
359.9999999999998
  0
ELLIPSE
  5
1A3
330
1F
100
AcDbEntity
  8
0
  6
CONTINUOUS
 62
     7
100
AcDbEllipse
 10
493.2486276533532
 20
238.126372345998
 30
0.0
 11
0.7090462434349299
 21
-0.7090462434350966
 31
0.0
210
0.0
220
0.0
230
1.0
 40
0.9972646886342308
 41
5.499156671652528
 42
7.067213942706635
  0
ARC
  5
1A4
330
1F
100
AcDbEntity
  8
0
  6
CONTINUOUS
 62
     7
100
AcDbCircle
 10
-480.749999999351
 20
183.625
 30
0.0
 40
1.499999999999835
210
0.0
220
0.0
230
-1.0
100
AcDbArc
 50
270.0000000000007
 51
89.9999999999991
  0
ARC
  5
1A5
330
1F
100
AcDbEntity
  8
0
  6
CONTINUOUS
 62
     7
100
AcDbCircle
 10
485.2499999993509
 20
204.125
 30
0.0
 40
1.000000000000112
100
AcDbArc
 50
0.0
 51
90.0
  0
LINE
  5
1A6
330
1F
100
AcDbEntity
  8
0
  6
CONTINUOUS
 62
     7
100
AcDbLine
 10
476.249999999351
 20
202.625
 30
0.0
 11
476.249999999351
 21
145.125
 31
0.0
  0
LINE
  5
1A7
330
1F
100
AcDbEntity
  8
0
  6
CONTINUOUS
 62
     7
100
AcDbLine
 10
480.749999999351
 20
185.125
 30
0.0
 11
491.749999999351
 21
185.125
 31
0.0
  0
LINE
  5
1A8
330
1F
100
AcDbEntity
  8
0
  6
CONTINUOUS
 62
     7
100
AcDbLine
 10
491.7499999993511
 20
235.125
 30
0.0
 11
480.7499999993511
 21
235.125
 31
0.0
  0
ARC
  5
1A9
330
1F
100
AcDbEntity
  8
0
  6
CONTINUOUS
 62
     7
100
AcDbCircle
 10
479.2499999993511
 20
195.125
 30
0.0
 40
0.9999999999998899
100
AcDbArc
 50
180.0
 51
270.0
  0
ARC
  5
1AA
330
1F
100
AcDbEntity
  8
0
  6
CONTINUOUS
 62
     7
100
AcDbCircle
 10
-491.7499999993511
 20
183.625
 30
0.0
 40
1.500000000000057
210
0.0
220
0.0
230
-1.0
100
AcDbArc
 50
89.99999999999962
 51
270.0
  0
ELLIPSE
  5
1AB
330
1F
100
AcDbEntity
  8
0
  6
CONTINUOUS
 62
     7
100
AcDbEllipse
 10
493.2486276533532
 20
269.6236276540021
 30
0.0
 11
0.7090462434349299
 21
0.709046243435041
 31
0.0
210
0.0
220
0.0
230
1.0
 40
0.9972646886343092
 41
5.499156671652521
 42
7.067213942706646
  0
LINE
  5
1AC
330
1F
100
AcDbEntity
  8
0
  6
CONTINUOUS
 62
     7
100
AcDbLine
 10
485.2499999993509
 20
194.125
 30
0.0
 11
479.2499999993509
 21
194.125
 31
0.0
  0
ARC
  5
1AD
330
1F
100
AcDbEntity
  8
0
  6
CONTINUOUS
 62
     7
100
AcDbCircle
 10
-476.749999999351
 20
145.125
 30
0.0
 40
0.4999999999999449
210
0.0
220
0.0
230
-1.0
100
AcDbArc
 50
270.0
 51
0.0
  0
LINE
  5
1AE
330
1F
100
AcDbEntity
  8
0
  6
CONTINUOUS
 62
     7
100
AcDbLine
 10
476.249999999351
 20
272.1250000000001
 30
0.0
 11
476.249999999351
 21
214.6250000000001
 31
0.0
  0
LINE
  5
1AF
330
1F
100
AcDbEntity
  8
0
  6
CONTINUOUS
 62
     7
100
AcDbLine
 10
494.249999999351
 20
147.6236295347546
 30
0.0
 11
494.249999999351
 21
179.1263704652454
 31
0.0
  0
LINE
  5
1B0
330
1F
100
AcDbEntity
  8
0
  6
CONTINUOUS
 62
     7
100
AcDbLine
 10
496.249999999351
 20
145.125
 30
0.0
 11
496.249999999351
 21
272.1250000000001
 31
0.0
  0
LINE
  5
1B1
330
1F
100
AcDbEntity
  8
0
  6
CONTINUOUS
 62
     7
100
AcDbLine
 10
495.7499999993511
 20
273.625
 30
0.0
 11
476.7499999993511
 21
273.625
 31
0.0
  0
LINE
  5
1B2
330
1F
100
AcDbEntity
  8
0
  6
CONTINUOUS
 62
     7
100
AcDbLine
 10
493.2513704645964
 20
180.125
 30
0.0
 11
479.2486295341056
 21
180.125
 31
0.0
  0
LINE
  5
1B3
330
1F
100
AcDbEntity
  8
0
  6
CONTINUOUS
 62
     7
100
AcDbLine
 10
491.7499999993511
 20
182.125
 30
0.0
 11
480.7499999993511
 21
182.125
 31
0.0
  0
LINE
  5
1B4
330
1F
100
AcDbEntity
  8
0
  6
CONTINUOUS
 62
     7
100
AcDbLine
 10
491.7499999993511
 20
281.1249999999999
 30
0.0
 11
480.7499999993511
 21
281.1249999999999
 31
0.0
  0
ARC
  5
1B5
330
1F
100
AcDbEntity
  8
0
  6
CONTINUOUS
 62
     7
100
AcDbCircle
 10
-477.2499999993509
 20
292.625
 30
0.0
 40
0.9999999999998899
210
0.0
220
0.0
230
-1.0
100
AcDbArc
 50
0.0
 51
90.0
  0
LINE
  5
1B6
330
1F
100
AcDbEntity
  8
0
  6
CONTINUOUS
 62
     7
100
AcDbLine
 10
479.2486295341056
 20
146.625
 30
0.0
 11
493.2513704645964
 21
146.625
 31
0.0
  0
ELLIPSE
  5
1B7
330
1F
100
AcDbEntity
  8
0
  6
CONTINUOUS
 62
     7
100
AcDbEllipse
 10
493.2486276533532
 20
179.123627654002
 30
0.0
 11
0.7090462434349299
 21
0.709046243435041
 31
0.0
210
0.0
220
0.0
230
1.0
 40
0.9972646886343092
 41
5.499156671652532
 42
7.067213942706644
  0
LINE
  5
1B8
330
1F
100
AcDbEntity
  8
0
  6
CONTINUOUS
 62
     7
100
AcDbLine
 10
495.7499999993511
 20
144.625
 30
0.0
 11
476.7499999993511
 21
144.625
 31
0.0
  0
ARC
  5
1B9
330
1F
100
AcDbEntity
  8
0
  6
CONTINUOUS
 62
     7
100
AcDbCircle
 10
-489.7499999993511
 20
218.125
 30
0.0
 40
1.499999999999613
210
0.0
220
0.0
230
-1.0
100
AcDbArc
 50
0.0000000000001325
 51
180.0
  0
LINE
  5
1BA
330
1F
100
AcDbEntity
  8
0
  6
CONTINUOUS
 62
     7
100
AcDbLine
 10
462.249999999351
 20
208.625
 30
0.0
 11
462.249999999351
 21
210.625
 31
0.0
  0
LINE
  5
1BB
330
1F
100
AcDbEntity
  8
0
  6
CONTINUOUS
 62
     7
100
AcDbLine
 10
462.249999999351
 20
206.625
 30
0.0
 11
462.249999999351
 21
208.625
 31
0.0
  0
ELLIPSE
  5
1BC
330
1F
100
AcDbEntity
  8
0
  6
CONTINUOUS
 62
     7
100
AcDbEllipse
 10
479.2513723453488
 20
147.6263723459978
 30
0.0
 11
-0.7090462434349298
 21
-0.7090462434350685
 31
0.0
210
0.0
220
0.0
230
1.0
 40
0.9972646886343093
 41
5.499156671652513
 42
7.067213942706635
  0
LINE
  5
1BD
330
1F
100
AcDbEntity
  8
0
  6
CONTINUOUS
 62
     7
100
AcDbLine
 10
480.749999999351
 20
232.125
 30
0.0
 11
491.749999999351
 21
232.125
 31
0.0
  0
ELLIPSE
  5
1BE
330
1F
100
AcDbEntity
  8
0
  6
CONTINUOUS
 62
     7
100
AcDbEllipse
 10
479.2513723453488
 20
269.6236276540021
 30
0.0
 11
-0.7090462434349299
 21
0.709046243435041
 31
0.0
210
0.0
220
0.0
230
1.0
 40
0.9972646886342309
 41
5.499156671652532
 42
7.067213942706658
  0
ARC
  5
1BF
330
1F
100
AcDbEntity
  8
0
  6
CONTINUOUS
 62
     7
100
AcDbCircle
 10
475.2499999993511
 20
202.625
 30
0.0
 40
0.9999999999998899
100
AcDbArc
 50
359.9999999999997
 51
90.0
  0
LINE
  5
1C0
330
1F
100
AcDbEntity
  8
0
  6
CONTINUOUS
 62
     7
100
AcDbLine
 10
486.249999999351
 20
213.125
 30
0.0
 11
486.249999999351
 21
222.125
 31
0.0
  0
ARC
  5
1C1
330
1F
100
AcDbEntity
  8
0
  6
CONTINUOUS
 62
     7
100
AcDbCircle
 10
491.7499999993511
 20
233.625
 30
0.0
 40
1.499999999999835
100
AcDbArc
 50
269.9999999999996
 51
90.0
  0
ARC
  5
1C2
330
1F
100
AcDbEntity
  8
0
  6
CONTINUOUS
 62
     7
100
AcDbCircle
 10
-495.7499999993511
 20
272.1250000000001
 30
0.0
 40
0.4999999999999449
210
0.0
220
0.0
230
-1.0
100
AcDbArc
 50
90.0
 51
180.0
  0
ARC
  5
1C3
330
1F
100
AcDbEntity
  8
0
  6
CONTINUOUS
 62
     7
100
AcDbCircle
 10
-480.749999999351
 20
190.625
 30
0.0
 40
1.499999999999835
210
0.0
220
0.0
230
-1.0
100
AcDbArc
 50
270.0000000000007
 51
89.9999999999991
  0
ARC
  5
1C4
330
1F
100
AcDbEntity
  8
0
  6
CONTINUOUS
 62
     7
100
AcDbCircle
 10
-465.2499999993511
 20
210.625
 30
0.0
 40
3.000000000000114
210
0.0
220
0.0
230
-1.0
100
AcDbArc
 50
0.0000000000000994
 51
89.99999999999991
  0
ARC
  5
1C5
330
1F
100
AcDbEntity
  8
0
  6
CONTINUOUS
 62
     7
100
AcDbCircle
 10
-495.7499999993511
 20
145.125
 30
0.0
 40
0.4999999999999449
210
0.0
220
0.0
230
-1.0
100
AcDbArc
 50
180.0
 51
270.0
  0
ARC
  5
1C6
330
1F
100
AcDbEntity
  8
0
  6
CONTINUOUS
 62
     7
100
AcDbCircle
 10
475.2499999993511
 20
214.625
 30
0.0
 40
0.9999999999998899
100
AcDbArc
 50
270.0
 51
359.9999999999998
  0
ARC
  5
1C7
330
1F
100
AcDbEntity
  8
1
  6
CONTINUOUS
 62
     7
100
AcDbCircle
 10
666.9999999934157
 20
166.87500000425
 30
0.0
 40
5.500000000049354
100
AcDbArc
 50
111.9864029972
 51
180.0
  0
ARC
  5
1C8
330
1F
100
AcDbEntity
  8
0
  6
CONTINUOUS
 62
     7
100
AcDbCircle
 10
-477.2499999993509
 20
124.625
 30
0.0
 40
0.9999999999998899
210
0.0
220
0.0
230
-1.0
100
AcDbArc
 50
270.0
 51
0.0
  0
ARC
  5
1C9
330
1F
100
AcDbEntity
  8
1
  6
CONTINUOUS
 62
     7
100
AcDbCircle
 10
666.9999999934157
 20
166.87500000425
 30
0.0
 40
5.500000000049354
100
AcDbArc
 50
0.0
 51
68.0135970028
  0
ARC
  5
1CA
330
1F
100
AcDbEntity
  8
0
  6
CONTINUOUS
 62
     7
100
AcDbCircle
 10
491.7499999993511
 20
281.625
 30
0.0
 40
0.4999999999999449
100
AcDbArc
 50
270.0
 51
0.0
  0
ELLIPSE
  5
1CB
330
1F
100
AcDbEntity
  8
0
  6
CONTINUOUS
 62
     7
100
AcDbEllipse
 10
491.7499999993511
 20
285.6156416525224
 30
0.0
 11
0.0
 21
0.5093583474776731
 31
0.0
210
0.0
220
0.0
230
1.0
 40
0.9816271834474287
 41
4.71238898038469
 42
6.283185307179586
  0
ARC
  5
1CC
330
1F
100
AcDbEntity
  8
0
  6
CONTINUOUS
 62
     7
100
AcDbCircle
 10
-495.7499999993511
 20
274.1250000000001
 30
0.0
 40
0.4999999999999449
210
0.0
220
0.0
230
-1.0
100
AcDbArc
 50
180.0
 51
270.0
  0
LINE
  5
1CD
330
1F
100
AcDbEntity
  8
0
  6
CONTINUOUS
 62
     7
100
AcDbLine
 10
478.249999999351
 20
195.125
 30
0.0
 11
478.249999999351
 21
204.125
 31
0.0
  0
LINE
  5
1CE
330
1F
100
AcDbEntity
  8
1
  6
CONTINUOUS
 62
     7
100
AcDbLine
 10
695.4999999992646
 20
207.1250000003
 30
0.0
 11
700.4999999998156
 21
207.1250000003
 31
0.0
  0
ARC
  5
1CF
330
1F
100
AcDbEntity
  8
1
  6
CONTINUOUS
 62
     7
100
AcDbCircle
 10
700.499999999816
 20
206.125000004
 30
0.0
 40
1.00000000005096
100
AcDbArc
 50
359.9999999999
 51
90.00000000070004
  0
LINE
  5
1D0
330
1F
100
AcDbEntity
  8
0
  6
CONTINUOUS
 62
     7
100
AcDbLine
 10
479.2486295341056
 20
270.625
 30
0.0
 11
493.2513704645964
 21
270.625
 31
0.0
  0
ARC
  5
1D1
330
1F
100
AcDbEntity
  8
1
  6
CONTINUOUS
 62
     7
100
AcDbCircle
 10
666.9999999934157
 20
250.3749999964998
 30
0.0
 40
5.500000000049354
100
AcDbArc
 50
291.9864029972
 51
0.0
  0
CIRCLE
  5
1D2
330
1F
100
AcDbEntity
  8
1
  6
CONTINUOUS
 62
     7
100
AcDbCircle
 10
620.9999999992144
 20
166.87500000425
 30
0.0
 40
4.000000000049297
  0
LINE
  5
1D3
330
1F
100
AcDbEntity
  8
0
  6
CONTINUOUS
 62
     7
100
AcDbLine
 10
476.249999999351
 20
292.625
 30
0.0
 11
476.249999999351
 21
274.1250000000001
 31
0.0
  0
ARC
  5
1D4
330
1F
100
AcDbEntity
  8
1
  6
CONTINUOUS
 62
     7
100
AcDbCircle
 10
695.4999999992646
 20
208.1250000001996
 30
0.0
 40
1.00000000005096
100
AcDbArc
 50
180.0
 51
270.0
  0
CIRCLE
  5
1D5
330
1F
100
AcDbEntity
  8
1
  6
CONTINUOUS
 62
     7
100
AcDbCircle
 10
666.9999999934157
 20
166.87500000425
 30
0.0
 40
2.20000000004994
  0
ARC
  5
1D6
330
1F
100
AcDbEntity
  8
1
  6
CONTINUOUS
 62
     7
100
AcDbCircle
 10
620.9999999992144
 20
166.87500000425
 30
0.0
 40
5.500000000049354
100
AcDbArc
 50
0.0
 51
68.0135970028
  0
ARC
  5
1D7
330
1F
100
AcDbEntity
  8
1
  6
CONTINUOUS
 62
     7
100
AcDbCircle
 10
666.9999999934157
 20
250.3749999964998
 30
0.0
 40
5.500000000049354
100
AcDbArc
 50
180.0
 51
248.0135970028
  0
LINE
  5
1D8
330
1F
100
AcDbEntity
  8
1
  6
CONTINUOUS
 62
     7
100
AcDbLine
 10
597.999999996266
 20
253.62500086505
 30
0.0
 11
597.999999996266
 21
163.62500005145
 31
0.0
  0
LINE
  5
1D9
330
1F
100
AcDbEntity
  8
1
  6
CONTINUOUS
 62
     7
100
AcDbLine
 10
664.9408739651657
 20
245.2749999965
 30
0.0
 11
669.0591260216654
 21
245.2749999965
 31
0.0
  0
LINE
  5
1DA
330
1F
100
AcDbEntity
  8
0
  6
CONTINUOUS
 62
     7
100
AcDbLine
 10
495.2499999993511
 20
123.625
 30
0.0
 11
477.2499999993511
 21
123.625
 31
0.0
  0
LINE
  5
1DB
330
1F
100
AcDbEntity
  8
1
  6
CONTINUOUS
 62
     7
100
AcDbLine
 10
695.4999999992646
 20
210.12500000015
 30
0.0
 11
700.4999999986152
 21
210.12500000015
 31
0.0
  0
LINE
  5
1DC
330
1F
100
AcDbEntity
  8
1
  6
CONTINUOUS
 62
     7
100
AcDbLine
 10
623.0591260274645
 20
171.9750000042502
 30
0.0
 11
618.940873970965
 21
171.9750000042502
 31
0.0
  0
LINE
  5
1DD
330
1F
100
AcDbEntity
  8
1
  6
CONTINUOUS
 62
     7
100
AcDbLine
 10
661.4999721862142
 20
163.6249907654
 30
0.0
 11
661.4999999933643
 21
166.8750000042498
 31
0.0
  0
LINE
  5
1DE
330
1F
100
AcDbEntity
  8
1
  6
CONTINUOUS
 62
     7
100
AcDbLine
 10
598.9999999985657
 20
162.6250000514
 30
0.0
 11
688.9999999966147
 21
162.6250000514
 31
0.0
  0
LINE
  5
1DF
330
1F
100
AcDbEntity
  8
1
  6
CONTINUOUS
 62
     7
100
AcDbLine
 10
661.4999721862142
 20
253.6250085086
 30
0.0
 11
661.4999999933642
 21
250.3749999965
 31
0.0
  0
LINE
  5
1E0
330
1F
100
AcDbEntity
  8
1
  6
CONTINUOUS
 62
     7
100
AcDbLine
 10
672.5000157107645
 20
163.6249951986502
 30
0.0
 11
672.499999993465
 21
166.8750000042502
 31
0.0
  0
LINE
  5
1E1
330
1F
100
AcDbEntity
  8
1
  6
CONTINUOUS
 62
     7
100
AcDbLine
 10
679.7499999961145
 20
163.6286831411002
 30
0.0
 11
679.7499999962652
 21
166.8750001703002
 31
0.0
  0
LINE
  5
1E2
330
1F
100
AcDbEntity
  8
1
  6
CONTINUOUS
 62
     7
100
AcDbLine
 10
672.5000157107645
 20
253.62500482325
 30
0.0
 11
672.499999993465
 21
250.3749999965
 31
0.0
  0
LINE
  5
1E3
330
1F
100
AcDbEntity
  8
1
  6
CONTINUOUS
 62
     7
100
AcDbLine
 10
688.9999999964642
 20
254.6249999513001
 30
0.0
 11
598.9999999973654
 21
254.6249999513001
 31
0.0
  0
ARC
  5
1E4
330
1F
100
AcDbEntity
  8
1
  6
CONTINUOUS
 62
     7
100
AcDbCircle
 10
685.7500000522157
 20
166.8750001702998
 30
0.0
 40
5.999999999998451
100
AcDbArc
 50
90.00000000070004
 51
180.0
  0
LINE
  5
1E5
330
1F
100
AcDbEntity
  8
1
  6
CONTINUOUS
 62
     7
100
AcDbLine
 10
664.9408739651657
 20
171.9750000042502
 30
0.0
 11
669.0591260216654
 21
171.9750000042502
 31
0.0
  0
LINE
  5
1E6
330
1F
100
AcDbEntity
  8
1
  6
CONTINUOUS
 62
     7
100
AcDbLine
 10
623.0591260274645
 20
245.2749999965
 30
0.0
 11
618.940873970965
 21
245.2749999965
 31
0.0
  0
LINE
  5
1E7
330
1F
100
AcDbEntity
  8
1
  6
CONTINUOUS
 62
     7
100
AcDbLine
 10
615.4999842812651
 20
253.6251249541999
 30
0.0
 11
615.4999999991655
 21
250.3749999964999
 31
0.0
  0
ARC
  5
1E8
330
1F
100
AcDbEntity
  8
1
  6
CONTINUOUS
 62
     7
100
AcDbCircle
 10
678.7500068002155
 20
163.6250000211498
 30
0.0
 40
1.00000000005096
100
AcDbArc
 50
270.0000000006
 51
0.2110277131000658
  0
ARC
  5
1E9
330
1F
100
AcDbEntity
  8
1
  6
CONTINUOUS
 62
     7
100
AcDbCircle
 10
620.9999999992144
 20
250.3749999964998
 30
0.0
 40
5.500000000049354
100
AcDbArc
 50
180.0
 51
248.0135970028
  0
ARC
  5
1EA
330
1F
100
AcDbEntity
  8
1
  6
CONTINUOUS
 62
     7
100
AcDbCircle
 10
673.5000157108155
 20
163.6250000348002
 30
0.0
 40
1.00000000005096
100
AcDbArc
 50
180.000277089
 51
270.0000000006
  0
CIRCLE
  5
1EB
330
1F
100
AcDbEntity
  8
1
  6
CONTINUOUS
 62
     7
100
AcDbCircle
 10
666.9999999934157
 20
250.3749999964998
 30
0.0
 40
4.000000000051074
  0
ARC
  5
1EC
330
1F
100
AcDbEntity
  8
1
  6
CONTINUOUS
 62
     7
100
AcDbCircle
 10
688.9999993396154
 20
173.8749220226
 30
0.0
 40
1.00000000005096
100
AcDbArc
 50
269.998625287
 51
359.9999999658
  0
ARC
  5
1ED
330
1F
100
AcDbEntity
  8
1
  6
CONTINUOUS
 62
     7
100
AcDbCircle
 10
660.4999721863161
 20
163.6249993214002
 30
0.0
 40
1.00000000005096
100
AcDbArc
 50
270.0000000826
 51
359.999509776
  0
ARC
  5
1EE
330
1F
100
AcDbEntity
  8
1
  6
CONTINUOUS
 62
     7
100
AcDbCircle
 10
620.9999999992144
 20
250.3749999964998
 30
0.0
 40
5.500000000049354
100
AcDbArc
 50
291.9864029972
 51
0.0
  0
LINE
  5
1EF
330
1F
100
AcDbEntity
  8
1
  6
CONTINUOUS
 62
     7
100
AcDbLine
 10
694.4999999992154
 20
209.12500000055
 30
0.0
 11
694.4999999992154
 21
208.1250000001998
 31
0.0
  0
CIRCLE
  5
1F0
330
1F
100
AcDbEntity
  8
1
  6
CONTINUOUS
 62
     7
100
AcDbCircle
 10
666.9999999934157
 20
250.3749999964998
 30
0.0
 40
2.20000000004994
  0
ARC
  5
1F1
330
1F
100
AcDbEntity
  8
0
  6
CONTINUOUS
 62
     7
100
AcDbCircle
 10
-476.749999999351
 20
143.125
 30
0.0
 40
0.4999999999999449
210
0.0
220
0.0
230
-1.0
100
AcDbArc
 50
0.0
 51
89.99999999999982
  0
LINE
  5
1F2
330
1F
100
AcDbEntity
  8
0
  6
CONTINUOUS
 62
     7
100
AcDbLine
 10
476.249999999351
 20
143.125
 30
0.0
 11
476.249999999351
 21
124.625
 31
0.0
  0
ARC
  5
1F3
330
1F
100
AcDbEntity
  8
1
  6
CONTINUOUS
 62
     7
100
AcDbCircle
 10
695.4999999992646
 20
209.12500000055
 30
0.0
 40
1.00000000005096
100
AcDbArc
 50
90.0
 51
180.0
  0
LINE
  5
1F4
330
1F
100
AcDbEntity
  8
1
  6
CONTINUOUS
 62
     7
100
AcDbLine
 10
689.999999996366
 20
253.6249999512497
 30
0.0
 11
689.999999996366
 21
163.6250000656998
 31
0.0
  0
LINE
  5
1F5
330
1F
100
AcDbEntity
  8
1
  6
CONTINUOUS
 62
     7
100
AcDbLine
 10
615.4999842817164
 20
163.6249634992998
 30
0.0
 11
615.4999999991664
 21
166.8750000042498
 31
0.0
  0
LINE
  5
1F6
330
1F
100
AcDbEntity
  8
1
  6
CONTINUOUS
 62
     7
100
AcDbLine
 10
688.9999753463653
 20
172.87492202285
 30
0.0
 11
685.7500000520655
 21
172.87500000035
 31
0.0
  0
ARC
  5
1F7
330
1F
100
AcDbEntity
  8
1
  6
CONTINUOUS
 62
     7
100
AcDbCircle
 10
700.4999999986152
 20
211.1249998546998
 30
0.0
 40
1.00000000005096
100
AcDbArc
 50
270.0000000013
 51
0.0
  0
LINE
  5
1F8
330
1F
100
AcDbEntity
  8
1
  6
CONTINUOUS
 62
     7
100
AcDbLine
 10
626.5000278064159
 20
253.62501874595
 30
0.0
 11
626.4999999992662
 21
250.3749999965
 31
0.0
  0
ARC
  5
1F9
330
1F
100
AcDbEntity
  8
0
  6
CONTINUOUS
 62
     7
100
AcDbCircle
 10
-476.749999999351
 20
272.1250000000001
 30
0.0
 40
0.4999999999999449
210
0.0
220
0.0
230
-1.0
100
AcDbArc
 50
0.0
 51
90.0
  0
CIRCLE
  5
1FA
330
1F
100
AcDbEntity
  8
1
  6
CONTINUOUS
 62
     7
100
AcDbCircle
 10
666.9999999934157
 20
166.87500000425
 30
0.0
 40
4.000000000051074
  0
LINE
  5
1FB
330
1F
100
AcDbEntity
  8
0
  6
CONTINUOUS
 62
     7
100
AcDbLine
 10
496.249999999351
 20
274.1250000000001
 30
0.0
 11
496.249999999351
 21
292.625
 31
0.0
  0
ARC
  5
1FC
330
1F
100
AcDbEntity
  8
1
  6
CONTINUOUS
 62
     7
100
AcDbCircle
 10
620.9999999992144
 20
166.87500000425
 30
0.0
 40
5.500000000049354
100
AcDbArc
 50
111.9864029972
 51
180.0
  0
LINE
  5
1FD
330
1F
100
AcDbEntity
  8
0
  6
CONTINUOUS
 62
     7
100
AcDbLine
 10
480.249999999351
 20
281.625
 30
0.0
 11
480.249999999351
 21
285.6156416525225
 31
0.0
  0
CIRCLE
  5
1FE
330
1F
100
AcDbEntity
  8
1
  6
CONTINUOUS
 62
     7
100
AcDbCircle
 10
620.9999999992144
 20
166.87500000425
 30
0.0
 40
2.20000000004994
  0
CIRCLE
  5
1FF
330
1F
100
AcDbEntity
  8
1
  6
CONTINUOUS
 62
     7
100
AcDbCircle
 10
620.9999999992144
 20
250.3749999964998
 30
0.0
 40
4.000000000049297
  0
LINE
  5
200
330
1F
100
AcDbEntity
  8
0
  6
CONTINUOUS
 62
     7
100
AcDbLine
 10
465.2499999993511
 20
213.625
 30
0.0
 11
475.2499999993511
 21
213.625
 31
0.0
  0
LINE
  5
201
330
1F
100
AcDbEntity
  8
1
  6
CONTINUOUS
 62
     7
100
AcDbLine
 10
626.5000278064159
 20
163.6249911105498
 30
0.0
 11
626.499999999266
 21
166.8750000042498
 31
0.0
  0
LINE
  5
202
330
1F
100
AcDbEntity
  8
0
  6
CONTINUOUS
 62
     7
100
AcDbLine
 10
480.749999999351
 20
286.1249999999999
 30
0.0
 11
491.749999999351
 21
286.1249999999999
 31
0.0
  0
ELLIPSE
  5
203
330
1F
100
AcDbEntity
  8
0
  6
CONTINUOUS
 62
     7
100
AcDbEllipse
 10
480.749999999351
 20
285.6156416525224
 30
0.0
 11
0.0
 21
0.5093583474776731
 31
0.0
210
0.0
220
0.0
230
1.0
 40
0.9816271834474287
 41
0.0
 42
1.570796326794897
  0
ARC
  5
204
330
1F
100
AcDbEntity
  8
0
  6
CONTINUOUS
 62
     7
100
AcDbCircle
 10
-495.2499999993511
 20
292.625
 30
0.0
 40
1.000000000000112
210
0.0
220
0.0
230
-1.0
100
AcDbArc
 50
90.0
 51
180.0
  0
LINE
  5
205
330
1F
100
AcDbEntity
  8
0
  6
CONTINUOUS
 62
     7
100
AcDbLine
 10
494.249999999351
 20
269.6263704652454
 30
0.0
 11
494.249999999351
 21
238.1236295347547
 31
0.0
  0
LINE
  5
206
330
1F
100
AcDbEntity
  8
0
  6
CONTINUOUS
 62
     7
100
AcDbLine
 10
479.2499999993511
 20
212.125
 30
0.0
 11
485.2499999993511
 21
212.125
 31
0.0
  0
LINE
  5
207
330
1F
100
AcDbEntity
  8
0
  6
DOT
 62
     7
100
AcDbLine
 10
595.7901551201554
 20
182.0989336317848
 30
0.0
 11
596.5947278151039
 21
182.0989336317848
 31
0.0
  0
LINE
  5
209
330
1F
100
AcDbEntity
  8
0
  6
CONTINUOUS
 62
     7
100
AcDbLine
 10
458.249999999984
 20
158.8495028788052
 30
0.0
 11
458.249999999984
 21
258.4004971211946
 31
0.0
  0
SPLINE
  5
20A
330
1F
100
AcDbEntity
  8
0
  6
CONTINUOUS
 62
     7
100
AcDbSpline
210
0.0
220
0.0
230
1.0
 70
     8
 71
     3
 72
    16
 73
    12
 74
     0
 42
0.000000001
 43
0.0001
 40
0.0048292324252465
 40
0.0048292324252465
 40
0.0048292324252465
 40
0.0048292324252465
 40
0.0050149741856808
 40
0.0054821510399344
 40
0.0059774666385152
 40
0.0065010556103468
 40
0.0070530318968205
 40
0.0076334927227286
 40
0.0082425216712835
 40
0.0088801910920031
 40
0.0093210248648272
 40
0.0093210248648272
 40
0.0093210248648272
 40
0.0093210248648272
 10
485.0362037063522
 20
233.3504561026148
 30
0.0
 10
485.0054874518754
 20
233.4442779488802
 30
0.0
 10
484.9365827742546
 20
233.785373991117
 30
0.0
 10
485.0671697860556
 20
234.3936468755498
 30
0.0
 10
485.619578039
 20
234.958065500634
 30
0.0
 10
486.4175226190772
 20
235.147388846074
 30
0.0
 10
487.2220448757745
 20
234.8716129102542
 30
0.0
 10
487.7741457839053
 20
234.1852135191702
 30
0.0
 10
487.8780049733422
 20
233.2798322084416
 30
0.0
 10
487.5174545289542
 20
232.5314102321766
 30
0.0
 10
487.109781174289
 20
232.2187337720142
 30
0.0
 10
486.9266609935497
 20
232.1248371405536
 30
0.0
  0
LINE
  5
20B
330
1F
100
AcDbEntity
  8
0
  6
CONTINUOUS
 62
     7
100
AcDbLine
 10
498.749999999984
 20
155.125
 30
0.0
 11
498.749999999984
 21
145.125
 31
0.0
  0
ARC
  5
20C
330
1F
100
AcDbEntity
  8
0
  6
CONTINUOUS
 62
   253
100
AcDbCircle
 10
-486.2499999998217
 20
183.5989336317848
 30
0.0
 40
1.347759065022602
210
0.0
220
0.0
230
-1.0
100
AcDbArc
 50
313.3176598448842
 51
330.3827045797997
  0
ARC
  5
20D
330
1F
100
AcDbEntity
  8
0
  6
CONTINUOUS
 62
     7
100
AcDbCircle
 10
485.2499999993509
 20
222.125
 30
0.0
 40
1.000000000000112
100
AcDbArc
 50
0.0
 51
90.0
  0
LINE
  5
20E
330
1F
100
AcDbEntity
  8
0
  6
DOT
 62
     7
100
AcDbLine
 10
595.7857851106098
 20
232.277978521583
 30
0.0
 11
596.1362594836243
 21
231.6865189361692
 31
0.0
  0
LINE
  5
20F
330
1F
100
AcDbEntity
  8
0
  6
DOT
 62
     7
100
AcDbLine
 10
596.1362594836244
 20
185.5634810638306
 30
0.0
 11
595.7857851106099
 21
184.972021478417
 31
0.0
  0
LINE
  5
210
330
1F
100
AcDbEntity
  8
0
  6
CONTINUOUS
 62
     7
100
AcDbLine
 10
486.735043273316
 20
182.2336402838426
 30
0.0
 11
486.2499999998216
 21
182.1730059139398
 31
0.0
  0
LINE
  5
211
330
1F
100
AcDbEntity
  8
0
  6
DOT
 62
     7
100
AcDbLine
 10
594.3802085998724
 20
182.0989336317848
 30
0.0
 11
595.1846680921867
 21
182.0989336317848
 31
0.0
  0
ARC
  5
212
330
1F
100
AcDbEntity
  8
0
  6
CONTINUOUS
 62
     7
100
AcDbCircle
 10
-489.7499999993511
 20
199.125
 30
0.0
 40
1.500000000000057
210
0.0
220
0.0
230
-1.0
100
AcDbArc
 50
180.0000000000002
 51
0.0
  0
LINE
  5
213
330
1F
100
AcDbEntity
  8
0
  6
DOT
 62
     7
100
AcDbLine
 10
598.0048890325597
 20
235.1510663682151
 30
0.0
 11
597.2002503939256
 21
235.1510663682151
 31
0.0
  0
LINE
  5
214
330
1F
100
AcDbEntity
  8
0
  6
CONTINUOUS
 62
   253
100
AcDbLine
 10
496.2499999999841
 20
262.1250000000001
 30
0.0
 11
498.7499999999841
 21
262.1250000000001
 31
0.0
  0
ARC
  5
215
330
1F
100
AcDbEntity
  8
0
  6
CONTINUOUS
 62
     7
100
AcDbCircle
 10
479.2499999993511
 20
222.125
 30
0.0
 40
0.9999999999998899
100
AcDbArc
 50
90.0
 51
180.0
  0
LINE
  5
216
330
1F
100
AcDbEntity
  8
0
  6
CONTINUOUS
 62
     7
100
AcDbLine
 10
480.749999999351
 20
192.125
 30
0.0
 11
491.749999999351
 21
192.125
 31
0.0
  0
LINE
  5
217
330
1F
100
AcDbEntity
  8
0
  6
CONTINUOUS
 62
   253
100
AcDbLine
 10
496.2499999999841
 20
155.125
 30
0.0
 11
498.7499999999841
 21
155.125
 31
0.0
  0
LINE
  5
218
330
1F
100
AcDbEntity
  8
0
  6
DOT
 62
     7
100
AcDbLine
 10
596.5665257084844
 20
182.0989799037868
 30
0.0
 11
596.8396511921467
 21
181.6372014548558
 31
0.0
  0
LINE
  5
219
330
1F
100
AcDbEntity
  8
0
  6
CONTINUOUS
 62
     7
100
AcDbLine
 10
580.499999999984
 20
274.1250000000001
 30
0.0
 11
580.499999999984
 21
273.6250000000001
 31
0.0
  0
LINE
  5
21A
330
1F
100
AcDbEntity
  8
0
  6
DOT
 62
     7
100
AcDbLine
 10
597.905412048947
 20
185.0987643472147
 30
0.0
 11
597.6307563106536
 21
185.5633493847938
 31
0.0
  0
ARC
  5
21B
330
1F
100
AcDbEntity
  8
0
  6
CONTINUOUS
 62
     7
100
AcDbCircle
 10
479.2499999993511
 20
213.125
 30
0.0
 40
0.9999999999998899
100
AcDbArc
 50
180.0
 51
270.0
  0
LINE
  5
21C
330
1F
100
AcDbEntity
  8
0
  6
DOT
 62
     7
100
AcDbLine
 10
595.430541796696
 20
235.6145680819828
 30
0.0
 11
595.1564847684381
 21
235.1510186346228
 31
0.0
  0
LINE
  5
21D
330
1F
100
AcDbEntity
  8
0
  6
CONTINUOUS
 62
     7
100
AcDbLine
 10
498.749999999984
 20
262.1250000000001
 30
0.0
 11
498.749999999984
 21
155.1250000000001
 31
0.0
  0
LINE
  5
21E
330
1F
100
AcDbEntity
  8
0
  6
CONTINUOUS
 62
     7
100
AcDbLine
 10
580.499999999984
 20
145.125
 30
0.0
 11
580.499999999984
 21
144.625
 31
0.0
  0
ARC
  5
21F
330
1F
100
AcDbEntity
  8
0
  6
CONTINUOUS
 62
     7
100
AcDbCircle
 10
-486.2515387877242
 20
183.5990841773352
 30
0.0
 40
1.998457329020376
210
0.0
220
0.0
230
-1.0
100
AcDbArc
 50
130.2058782095782
 51
227.5395942803125
  0
LINE
  5
220
330
1F
100
AcDbEntity
  8
0
  6
CONTINUOUS
 62
     7
100
AcDbLine
 10
487.7499999993511
 20
207.125
 30
0.0
 11
466.7499999993511
 21
207.125
 31
0.0
  0
LINE
  5
221
330
1F
100
AcDbEntity
  8
0
  6
CONTINUOUS
 62
     7
100
AcDbLine
 10
583.9999999999841
 20
272.625
 30
0.0
 11
580.4999999999841
 21
272.625
 31
0.0
  0
ARC
  5
222
330
1F
100
AcDbEntity
  8
0
  6
CONTINUOUS
 62
     7
100
AcDbCircle
 10
-486.2499999998217
 20
233.6510663682151
 30
0.0
 40
0.8284271247462893
210
0.0
220
0.0
230
-1.0
100
AcDbArc
 50
296.8088013465076
 51
74.356588394749
  0
LINE
  5
223
330
1F
100
AcDbEntity
  8
0
  6
CONTINUOUS
 62
     7
100
AcDbLine
 10
488.249999999351
 20
210.625
 30
0.0
 11
488.249999999351
 21
218.125
 31
0.0
  0
ARC
  5
224
330
1F
100
AcDbEntity
  8
0
  6
CONTINUOUS
 62
     7
100
AcDbCircle
 10
487.7499999993511
 20
206.625
 30
0.0
 40
0.4999999999999449
100
AcDbArc
 50
0.0000000000011927
 51
90.00000000000001
  0
LINE
  5
225
330
1F
100
AcDbEntity
  8
0
  6
DOT
 62
     7
100
AcDbLine
 10
595.1846680921868
 20
235.1510663682151
 30
0.0
 11
594.3802085998725
 21
235.1510663682151
 31
0.0
  0
ARC
  5
226
330
1F
100
AcDbEntity
  8
0
  6
CONTINUOUS
 62
     7
100
AcDbCircle
 10
486.2331208431523
 20
183.491670414605
 30
0.0
 40
1.842303722856098
100
AcDbArc
 50
117.5465052712344
 51
227.9068698309423
  0
ARC
  5
227
330
1F
100
AcDbEntity
  8
0
  6
CONTINUOUS
 62
   253
100
AcDbCircle
 10
486.2499999998217
 20
233.6510663682151
 30
0.0
 40
1.347759065022602
100
AcDbArc
 50
133.3176598448842
 51
150.3827045797997
  0
LINE
  5
228
330
1F
100
AcDbEntity
  8
0
  6
CONTINUOUS
 62
     7
100
AcDbLine
 10
491.7499999993511
 20
189.125
 30
0.0
 11
480.7499999993511
 21
189.125
 31
0.0
  0
ARC
  5
229
330
1F
100
AcDbEntity
  8
0
  6
CONTINUOUS
 62
     7
100
AcDbCircle
 10
-491.7499999993511
 20
190.625
 30
0.0
 40
1.500000000000057
210
0.0
220
0.0
230
-1.0
100
AcDbArc
 50
89.99999999999962
 51
270.0
  0
LINE
  5
22A
330
1F
100
AcDbEntity
  8
0
  6
DOT
 62
     7
100
AcDbLine
 10
594.4514355253734
 20
185.0989336317848
 30
0.0
 11
593.6467556338621
 21
185.0989336317848
 31
0.0
  0
LINE
  5
22B
330
1F
100
AcDbEntity
  8
0
  6
DOT
 62
     7
100
AcDbLine
 10
596.5947278151039
 20
235.1510663682151
 30
0.0
 11
595.7901551201554
 21
235.1510663682151
 31
0.0
  0
LINE
  5
22C
330
1F
100
AcDbEntity
  8
0
  6
CONTINUOUS
 62
     7
100
AcDbLine
 10
485.0156156326619
 20
183.9203955284018
 30
0.0
 11
485.0783313339454
 21
182.9328652908812
 31
0.0
  0
LINE
  5
22D
330
1F
100
AcDbEntity
  8
0
  6
CONTINUOUS
 62
     7
100
AcDbLine
 10
466.749999999351
 20
210.1250000000014
 30
0.0
 11
487.7499999993509
 21
210.125
 31
0.0
  0
ARC
  5
22E
330
1F
100
AcDbEntity
  8
0
  6
CONTINUOUS
 62
     7
100
AcDbCircle
 10
486.2515387877242
 20
233.6509158226646
 30
0.0
 40
1.998457329020153
100
AcDbArc
 50
310.2058782095782
 51
47.53959428031249
  0
LINE
  5
22F
330
1F
100
AcDbEntity
  8
0
  6
DOT
 62
     7
100
AcDbLine
 10
598.021833778652
 20
185.0989336317848
 30
0.0
 11
597.8769400496442
 21
185.0989336317848
 31
0.0
  0
LINE
  5
230
330
1F
100
AcDbEntity
  8
0
  6
CONTINUOUS
 62
     7
100
AcDbLine
 10
488.249999999351
 20
199.125
 30
0.0
 11
488.249999999351
 21
206.625
 31
0.0
  0
LINE
  5
231
330
1F
100
AcDbEntity
  8
0
  6
CONTINUOUS
 62
     7
100
AcDbLine
 10
498.749999999984
 20
272.1250000000001
 30
0.0
 11
498.749999999984
 21
262.1250000000001
 31
0.0
  0
LINE
  5
232
330
1F
100
AcDbEntity
  8
0
  6
CONTINUOUS
 62
     7
100
AcDbLine
 10
496.2499999999841
 20
145.125
 30
0.0
 11
498.7499999999841
 21
145.125
 31
0.0
  0
LINE
  5
233
330
1F
100
AcDbEntity
  8
0
  6
CONTINUOUS
 62
     7
100
AcDbLine
 10
480.749999999351
 20
225.125
 30
0.0
 11
491.749999999351
 21
225.125
 31
0.0
  0
LINE
  5
234
330
1F
100
AcDbEntity
  8
0
  6
CONTINUOUS
 62
     7
100
AcDbLine
 10
476.249999999351
 20
154.1131740260878
 30
0.0
 11
462.6714641710163
 21
154.3501882506014
 31
0.0
  0
LINE
  5
235
330
1F
100
AcDbEntity
  8
0
  6
CONTINUOUS
 62
     7
100
AcDbLine
 10
486.7350432733175
 20
235.016359716157
 30
0.0
 11
486.2499999998217
 21
235.0769940860602
 31
0.0
  0
ARC
  5
236
330
1F
100
AcDbEntity
  8
0
  6
CONTINUOUS
 62
     7
100
AcDbCircle
 10
485.2499999993509
 20
213.125
 30
0.0
 40
1.000000000000112
100
AcDbArc
 50
270.0
 51
0.0
  0
LINE
  5
237
330
1F
100
AcDbEntity
  8
0
  6
DOT
 62
     7
100
AcDbLine
 10
597.6307563106537
 20
231.6866506152062
 30
0.0
 11
597.9054120489471
 21
232.1512356527854
 31
0.0
  0
ARC
  5
238
330
1F
100
AcDbEntity
  8
0
  6
CONTINUOUS
 62
     7
100
AcDbCircle
 10
480.749999999351
 20
226.625
 30
0.0
 40
1.500000000000057
100
AcDbArc
 50
90.00000000000068
 51
269.9999999999991
  0
LINE
  5
239
330
1F
100
AcDbEntity
  8
0
  6
DOT
 62
     7
100
AcDbLine
 10
594.8105523790767
 20
231.6868476323664
 30
0.0
 11
595.0851717291977
 21
232.151135260916
 31
0.0
  0
ARC
  5
23A
330
1F
100
AcDbEntity
  8
0
  6
CONTINUOUS
 62
     7
100
AcDbCircle
 10
-486.2331208431523
 20
233.758329585395
 30
0.0
 40
1.84230372285632
210
0.0
220
0.0
230
-1.0
100
AcDbArc
 50
297.5465052712352
 51
47.90686983094161
  0
LINE
  5
23B
330
1F
100
AcDbEntity
  8
0
  6
CONTINUOUS
 62
     7
100
AcDbLine
 10
491.2499999993511
 20
218.125
 30
0.0
 11
491.2499999993511
 21
199.125
 31
0.0
  0
ARC
  5
23C
330
1F
100
AcDbEntity
  8
0
  6
CONTINUOUS
 62
     7
100
AcDbCircle
 10
-466.749999999351
 20
208.625
 30
0.0
 40
1.500000000001389
210
0.0
220
0.0
230
-1.0
100
AcDbArc
 50
269.9999999999996
 51
90.0
  0
SPLINE
  5
23D
330
1F
100
AcDbEntity
  8
0
  6
CONTINUOUS
 62
     7
100
AcDbSpline
210
0.0
220
0.0
230
1.0
 70
     8
 71
     3
 72
    16
 73
    12
 74
     0
 42
0.000000001
 43
0.0001
 40
0.0048292324252465
 40
0.0048292324252465
 40
0.0048292324252465
 40
0.0048292324252465
 40
0.0050149741856808
 40
0.0054821510399344
 40
0.0059774666385152
 40
0.0065010556103468
 40
0.0070530318968205
 40
0.0076334927227286
 40
0.0082425216712835
 40
0.0088801910920031
 40
0.0093210248648272
 40
0.0093210248648272
 40
0.0093210248648272
 40
0.0093210248648272
 10
485.0362037063522
 20
183.8995438973852
 30
0.0
 10
485.0054874518754
 20
183.8057220511198
 30
0.0
 10
484.9365827742546
 20
183.4646260088828
 30
0.0
 10
485.0671697860556
 20
182.8563531244502
 30
0.0
 10
485.619578039
 20
182.2919344993658
 30
0.0
 10
486.4175226190772
 20
182.1026111539258
 30
0.0
 10
487.2220448757745
 20
182.3783870897458
 30
0.0
 10
487.7741457839053
 20
183.0647864808298
 30
0.0
 10
487.8780049733422
 20
183.9701677915584
 30
0.0
 10
487.5174545289542
 20
184.7185897678234
 30
0.0
 10
487.109781174289
 20
185.0312662279858
 30
0.0
 10
486.9266609935497
 20
185.1251628594464
 30
0.0
  0
LINE
  5
23E
330
1F
100
AcDbEntity
  8
0
  6
CONTINUOUS
 62
     7
100
AcDbLine
 10
478.249999999351
 20
222.125
 30
0.0
 11
478.249999999351
 21
213.125
 31
0.0
  0
SPLINE
  5
23F
330
1F
100
AcDbEntity
  8
0
  6
CONTINUOUS
 62
     7
100
AcDbSpline
210
0.0
220
0.0
230
1.0
 70
    24
 71
     1
 72
     4
 73
     2
 74
     0
 42
0.000000001
 43
0.0001
 40
0.7999553054831503
 40
0.7999553054831503
 40
0.8166837361836273
 40
0.8166837361836273
 10
486.2499999998217
 20
235.0769940860602
 30
0.0
 10
486.2499999998217
 20
235.125
 30
0.0
  0
SPLINE
  5
240
330
1F
100
AcDbEntity
  8
0
  6
CONTINUOUS
 62
     7
100
AcDbSpline
210
0.0
220
0.0
230
1.0
 70
    24
 71
     1
 72
     4
 73
     2
 74
     0
 42
0.000000001
 43
0.0001
 40
0.7999553054831503
 40
0.7999553054831503
 40
0.8166837361836273
 40
0.8166837361836273
 10
486.2499999998217
 20
182.1730059139398
 30
0.0
 10
486.2499999998217
 20
182.125
 30
0.0
  0
LINE
  5
241
330
1F
100
AcDbEntity
  8
0
  6
CONTINUOUS
 62
     7
100
AcDbLine
 10
585.9297538651551
 20
65.8749999997107
 30
0.0
 11
585.9297538644589
 21
76.8749999997107
 31
0.0
  0
LINE
  5
242
330
1F
100
AcDbEntity
  8
0
  6
CONTINUOUS
 62
   253
100
AcDbLine
 10
655.2000000000157
 20
64.37499999999999
 30
0.0
 11
650.2000000000157
 21
64.37499999999999
 31
0.0
  0
LINE
  5
243
330
1F
100
AcDbEntity
  8
0
  6
CONTINUOUS
 62
     7
100
AcDbLine
 10
583.5000000011552
 20
62.37499999955687
 30
0.0
 11
583.5000000000158
 21
80.37499999955688
 31
0.0
  0
LINE
  5
244
330
1F
100
AcDbEntity
  8
0
  6
CONTINUOUS
 62
   253
100
AcDbLine
 10
584.7955505073971
 20
76.8749999996389
 30
0.0
 11
585.9297538644588
 21
76.8749999997107
 31
0.0
  0
LINE
  5
245
330
1F
100
AcDbEntity
  8
0
  6
CONTINUOUS
 62
     7
100
AcDbLine
 10
583.6943803090903
 20
81.37499999956918
 30
0.0
 11
580.4999999999526
 21
81.37499999936695
 31
0.0
  0
ARC
  5
246
330
1F
100
AcDbEntity
  8
0
  6
CONTINUOUS
 62
     7
100
AcDbCircle
 10
-589.5000000011552
 20
62.3749999999367
 30
0.0
 40
0.9999999999998899
210
0.0
220
0.0
230
-1.0
100
AcDbArc
 50
179.9999999963729
 51
269.9999999963729
  0
LINE
  5
247
330
1F
100
AcDbEntity
  8
0
  6
CONTINUOUS
 62
     7
100
AcDbLine
 10
701.5254971212106
 20
43.37500000000001
 30
0.0
 11
595.0000000000157
 21
43.37500000000001
 31
0.0
  0
ELLIPSE
  5
248
330
1F
100
AcDbEntity
  8
0
  6
CONTINUOUS
 62
     7
100
AcDbEllipse
 10
584.8909550050854
 20
76.87499999964494
 30
0.0
 11
-3.153033389935445E-11
 21
0.5000000000000004
 31
0.0
210
0.0
220
0.0
230
1.0
 40
0.190808995376379
 41
0.0
 42
1.570796326794841
  0
LINE
  5
249
330
1F
100
AcDbEntity
  8
0
  6
CONTINUOUS
 62
     7
100
AcDbLine
 10
587.3876061839096
 20
62.37499999980297
 30
0.0
 11
587.3876061827701
 21
80.374999999803
 31
0.0
  0
LINE
  5
24A
330
1F
100
AcDbEntity
  8
0
  6
CONTINUOUS
 62
     7
100
AcDbLine
 10
589.4999999999524
 20
81.37499999993669
 30
0.0
 11
587.5819864918445
 21
81.37499999981529
 31
0.0
  0
LINE
  5
24B
330
1F
100
AcDbEntity
  8
0
  6
CONTINUOUS
 62
   253
100
AcDbLine
 10
688.2000000000158
 20
64.37499999999999
 30
0.0
 11
683.2000000000158
 21
64.37499999999999
 31
0.0
  0
LINE
  5
24C
330
1F
100
AcDbEntity
  8
0
  6
CONTINUOUS
 62
     7
100
AcDbLine
 10
580.5000000000158
 20
80.37499999936698
 30
0.0
 11
580.5000000011552
 21
62.37499999936696
 31
0.0
  0
LINE
  5
24D
330
1F
100
AcDbEntity
  8
0
  6
CONTINUOUS
 62
     7
100
AcDbLine
 10
587.5819864918445
 20
81.37499999981529
 30
0.0
 11
587.3876061827701
 21
80.374999999803
 31
0.0
  0
LINE
  5
24E
330
1F
100
AcDbEntity
  8
0
  6
CONTINUOUS
 62
     7
100
AcDbLine
 10
590.5000000000158
 20
47.875
 30
0.0
 11
590.5000000005854
 21
62.37500000000001
 31
0.0
  0
ARC
  5
24F
330
1F
100
AcDbEntity
  8
0
  6
CONTINUOUS
 62
     7
100
AcDbCircle
 10
701.5254971212106
 20
47.875
 30
0.0
 40
4.499999999999948
100
AcDbArc
 50
270.0
 51
358.9999999999999
  0
LINE
  5
250
330
1F
100
AcDbEntity
  8
0
  6
CONTINUOUS
 62
   253
100
AcDbLine
 10
585.9297538651551
 20
65.8749999997107
 30
0.0
 11
584.7955505080935
 21
65.87499999963889
 31
0.0
  0
LINE
  5
251
330
1F
100
AcDbEntity
  8
0
  6
CONTINUOUS
 62
     7
100
AcDbLine
 10
706.5937768404626
 20
80.3924524064373
 30
0.0
 11
706.0248117494143
 21
47.79646417103224
 31
0.0
  0
ARC
  5
252
330
1F
100
AcDbEntity
  8
0
  6
CONTINUOUS
 62
     7
100
AcDbCircle
 10
801.7499999999842
 20
264.4686245356033
 30
0.0
 40
1.000000000000112
100
AcDbArc
 50
180.0
 51
268.9999999999998
  0
LINE
  5
253
330
1F
100
AcDbEntity
  8
0
  6
CONTINUOUS
 62
   253
100
AcDbLine
 10
606.2000000000156
 20
64.37499999999999
 30
0.0
 11
606.2000000000156
 21
69.37499999999999
 31
0.0
  0
LINE
  5
254
330
1F
100
AcDbEntity
  8
0
  6
CONTINUOUS
 62
   253
100
AcDbLine
 10
606.2000000000156
 20
59.37499999999998
 30
0.0
 11
606.2000000000156
 21
64.37499999999999
 31
0.0
  0
LINE
  5
255
330
1F
100
AcDbEntity
  8
0
  6
CONTINUOUS
 62
   253
100
AcDbLine
 10
655.2000000000157
 20
64.37499999999999
 30
0.0
 11
655.2000000000157
 21
69.37499999999999
 31
0.0
  0
ARC
  5
256
330
1F
100
AcDbEntity
  8
0
  6
CONTINUOUS
 62
     7
100
AcDbCircle
 10
834.249999999984
 20
258.4004971211946
 30
0.0
 40
4.500000000000171
100
AcDbArc
 50
0.0
 51
89.00000000000001
  0
LINE
  5
257
330
1F
100
AcDbEntity
  8
0
  6
CONTINUOUS
 62
     7
100
AcDbLine
 10
590.5000000011553
 20
62.37500000000001
 30
0.0
 11
590.5000000000159
 21
80.375
 31
0.0
  0
LINE
  5
258
330
1F
100
AcDbEntity
  8
0
  6
CONTINUOUS
 62
   253
100
AcDbLine
 10
611.200000000016
 20
64.37499999999999
 30
0.0
 11
606.2000000000157
 21
64.37499999999999
 31
0.0
  0
LINE
  5
259
330
1F
100
AcDbEntity
  8
0
  6
CONTINUOUS
 62
     7
100
AcDbLine
 10
583.5000000000159
 20
80.37499999955688
 30
0.0
 11
583.6943803090902
 21
81.37499999956918
 31
0.0
  0
LINE
  5
25A
330
1F
100
AcDbEntity
  8
0
  6
CONTINUOUS
 62
     7
100
AcDbLine
 10
587.3876061839096
 20
62.37499999980297
 30
0.0
 11
587.5819864931107
 21
61.37499999981527
 31
0.0
  0
LINE
  5
25B
330
1F
100
AcDbEntity
  8
0
  6
CONTINUOUS
 62
   253
100
AcDbLine
 10
683.2000000000157
 20
64.37499999999999
 30
0.0
 11
678.2000000000157
 21
64.37499999999999
 31
0.0
  0
LINE
  5
25C
330
1F
100
AcDbEntity
  8
0
  6
CONTINUOUS
 62
     7
100
AcDbLine
 10
587.5819864931107
 20
61.37499999981527
 30
0.0
 11
583.6943803103562
 21
61.37499999956919
 31
0.0
  0
LINE
  5
25D
330
1F
100
AcDbEntity
  8
0
  6
CONTINUOUS
 62
     7
100
AcDbLine
 10
838.7499999999841
 20
258.4004971211946
 30
0.0
 11
838.7499999999841
 21
158.8495028788052
 31
0.0
  0
ARC
  5
25E
330
1F
100
AcDbEntity
  8
0
  6
CONTINUOUS
 62
     7
100
AcDbCircle
 10
834.249999999984
 20
158.8495028788052
 30
0.0
 40
4.500000000000171
100
AcDbArc
 50
271.0
 51
0.0
  0
LINE
  5
25F
330
1F
100
AcDbEntity
  8
0
  6
CONTINUOUS
 62
     7
100
AcDbLine
 10
800.7499999999843
 20
145.125
 30
0.0
 11
798.249999999984
 21
145.125
 31
0.0
  0
LINE
  5
260
330
1F
100
AcDbEntity
  8
0
  6
CONTINUOUS
 62
   253
100
AcDbLine
 10
800.7499999999843
 20
262.1250000000001
 30
0.0
 11
798.249999999984
 21
262.1250000000001
 31
0.0
  0
LINE
  5
261
330
1F
100
AcDbEntity
  8
0
  6
CONTINUOUS
 62
     7
100
AcDbLine
 10
587.5819864931107
 20
61.37499999981527
 30
0.0
 11
589.5000000012185
 21
61.3749999999367
 31
0.0
  0
LINE
  5
262
330
1F
100
AcDbEntity
  8
0
  6
CONTINUOUS
 62
     7
100
AcDbLine
 10
580.5000000012184
 20
61.37499999936696
 30
0.0
 11
583.6943803103561
 21
61.37499999956919
 31
0.0
  0
LINE
  5
263
330
1F
100
AcDbEntity
  8
0
  6
CONTINUOUS
 62
     7
100
AcDbLine
 10
496.2499999995727
 20
145.125
 30
0.0
 11
496.2499999995727
 21
144.125
 31
0.0
  0
LINE
  5
264
330
1F
100
AcDbEntity
  8
0
  6
CONTINUOUS
 62
     7
100
AcDbLine
 10
476.2499999995726
 20
272.1250000000001
 30
0.0
 11
476.2499999995726
 21
273.1250000000001
 31
0.0
  0
ARC
  5
265
330
1F
100
AcDbEntity
  8
1
  6
CONTINUOUS
 62
     7
100
AcDbCircle
 10
660.4999721863161
 20
253.6249999526
 30
0.0
 40
1.00000000005096
100
AcDbArc
 50
0.000490224000032
 51
90.0
  0
ELLIPSE
  5
266
330
1F
100
AcDbEntity
  8
0
  6
CONTINUOUS
 62
     7
100
AcDbEllipse
 10
480.749999999351
 20
131.6343583474776
 30
0.0
 11
0.0
 21
-0.5093583474776175
 31
0.0
210
0.0
220
0.0
230
1.0
 40
0.9816271834475357
 41
4.71238898038469
 42
6.283185307179586
  0
ARC
  5
267
330
1F
100
AcDbEntity
  8
1
  6
CONTINUOUS
 62
     7
100
AcDbCircle
 10
614.4999842816654
 20
163.6249683353
 30
0.0
 40
1.000000000049184
100
AcDbArc
 50
270.4562764817
 51
359.9997229106999
  0
LINE
  5
268
330
1F
100
AcDbEntity
  8
1
  6
CONTINUOUS
 62
     7
100
AcDbLine
 10
658.5213700885157
 20
200.97397758365
 30
0.0
 11
658.223606242465
 21
200.97397758365
 31
0.0
  0
LINE
  5
269
330
1F
100
AcDbEntity
  8
1
  6
CONTINUOUS
 62
     7
100
AcDbLine
 10
658.5236062424657
 20
212.9262286436
 30
0.0
 11
658.373606242466
 21
212.9262286436
 31
0.0
  0
ARC
  5
26A
330
1F
100
AcDbEntity
  8
1
  6
CONTINUOUS
 62
     7
100
AcDbCircle
 10
627.500027806465
 20
253.6250101897998
 30
0.0
 40
1.00000000005096
100
AcDbArc
 50
90.25867187429999
 51
179.9995097762001
  0
ELLIPSE
  5
26B
330
1F
100
AcDbEntity
  8
1
  6
CONTINUOUS
 62
     7
100
AcDbEllipse
 10
660.5064623912655
 20
204.6239775835998
 30
0.0
 11
0.0
 21
-1.999999999950042
 31
0.0
210
0.0
220
0.0
230
1.0
 40
0.1218693434998274
 41
0.0
 42
3.141592653600002
  0
LINE
  5
26C
330
1F
100
AcDbEntity
  8
1
  6
CONTINUOUS
 62
     7
100
AcDbLine
 10
658.0736062466643
 20
207.1234746003498
 30
0.0
 11
658.0736062466643
 21
204.9234746003
 31
0.0
  0
LINE
  5
26D
330
1F
100
AcDbEntity
  8
1
  6
CONTINUOUS
 62
     7
100
AcDbLine
 10
658.073606242465
 20
212.3262286436
 30
0.0
 11
658.073606242465
 21
210.1262286436998
 31
0.0
  0
LINE
  5
26E
330
1F
100
AcDbEntity
  8
1
  6
CONTINUOUS
 62
     7
100
AcDbLine
 10
658.0736062466643
 20
202.1234746004
 30
0.0
 11
658.3736062466636
 21
202.1234746004
 31
0.0
  0
LINE
  5
26F
330
1F
100
AcDbEntity
  8
1
  6
CONTINUOUS
 62
     7
100
AcDbLine
 10
658.5236062424657
 20
212.3262286436
 30
0.0
 11
658.5236062424657
 21
212.9262286436
 31
0.0
  0
LINE
  5
270
330
1F
100
AcDbEntity
  8
1
  6
CONTINUOUS
 62
     7
100
AcDbLine
 10
657.9236062424653
 20
212.3262286436
 30
0.0
 11
658.0736062424648
 21
212.3262286436
 31
0.0
  0
LINE
  5
271
330
1F
100
AcDbEntity
  8
1
  6
CONTINUOUS
 62
     7
100
AcDbLine
 10
687.9999907921155
 20
214.6247777707998
 30
0.0
 11
660.5058990119661
 21
214.6266969219498
 31
0.0
  0
LINE
  5
272
330
1F
100
AcDbEntity
  8
1
  6
CONTINUOUS
 62
     7
100
AcDbLine
 10
660.5064623912655
 20
202.62397758365
 30
0.0
 11
658.5213700885171
 21
200.97397758365
 31
0.0
  0
LINE
  5
273
330
1F
100
AcDbEntity
  8
1
  6
CONTINUOUS
 62
     7
100
AcDbLine
 10
658.3736062424643
 20
215.1262286436499
 30
0.0
 11
658.3736062424643
 21
212.9262286435998
 31
0.0
  0
LINE
  5
274
330
1F
100
AcDbEntity
  8
1
  6
CONTINUOUS
 62
     7
100
AcDbLine
 10
660.5064623912655
 20
210.62622864365
 30
0.0
 11
658.5213700885171
 21
208.97622864365
 31
0.0
  0
LINE
  5
275
330
1F
100
AcDbEntity
  8
1
  6
CONTINUOUS
 62
     7
100
AcDbLine
 10
660.5064623912655
 20
214.6262286437
 30
0.0
 11
658.5213700885171
 21
216.2762286437
 31
0.0
  0
ELLIPSE
  5
276
330
1F
100
AcDbEntity
  8
1
  6
CONTINUOUS
 62
     7
100
AcDbEllipse
 10
658.2236062424664
 20
204.6239775835998
 30
0.0
 11
0.0
 21
3.649999999949971
 31
0.0
210
0.0
220
0.0
230
1.0
 40
0.121869343400024
 41
0.0
 42
6.283185307179586
  0
LINE
  5
277
330
1F
100
AcDbEntity
  8
1
  6
CONTINUOUS
 62
     7
100
AcDbLine
 10
687.9999907921155
 20
202.62467291375
 30
0.0
 11
660.5049899524156
 21
202.6227536992998
 31
0.0
  0
ELLIPSE
  5
278
330
1F
100
AcDbEntity
  8
1
  6
CONTINUOUS
 62
     7
100
AcDbEllipse
 10
660.5064623912655
 20
212.6262286436
 30
0.0
 11
0.0
 21
-1.999999999950042
 31
0.0
210
0.0
220
0.0
230
1.0
 40
0.1218693434998274
 41
0.0
 42
3.141592653600002
  0
LINE
  5
279
330
1F
100
AcDbEntity
  8
1
  6
CONTINUOUS
 62
     7
100
AcDbLine
 10
658.2236062424664
 20
208.97622864365
 30
0.0
 11
658.5213700885173
 21
208.97622864365
 31
0.0
  0
ELLIPSE
  5
27A
330
1F
100
AcDbEntity
  8
1
  6
CONTINUOUS
 62
     7
100
AcDbEllipse
 10
658.2236062424664
 20
212.6262286436
 30
0.0
 11
0.0
 21
3.649999999949971
 31
0.0
210
0.0
220
0.0
230
1.0
 40
0.121869343400024
 41
0.0
 42
6.283185307179586
  0
LINE
  5
27B
330
1F
100
AcDbEntity
  8
1
  6
CONTINUOUS
 62
     7
100
AcDbLine
 10
658.2236062424664
 20
208.27397758355
 30
0.0
 11
658.5213700885173
 21
208.27397758355
 31
0.0
  0
LINE
  5
27C
330
1F
100
AcDbEntity
  8
1
  6
CONTINUOUS
 62
     7
100
AcDbLine
 10
658.3736062466636
 20
204.3234746003
 30
0.0
 11
658.5236062466646
 21
204.3234746003
 31
0.0
  0
LINE
  5
27D
330
1F
100
AcDbEntity
  8
1
  6
________________
 62
     7
100
AcDbLine
 10
620.9999999999658
 20
156.1249999999998
 30
0.0
 11
620.9999999999658
 21
261.1249999999998
 31
0.0
  0
LINE
  5
27F
330
1F
100
AcDbEntity
  8
1
  6
CONTINUOUS
 62
     7
100
AcDbLine
 10
660.5079345730145
 20
206.62275391235
 30
0.0
 11
687.999990792115
 21
206.62467291875
 31
0.0
  0
LINE
  5
280
330
1F
100
AcDbEntity
  8
1
  6
CONTINUOUS
 62
     7
100
AcDbLine
 10
658.523606246665
 20
204.3234746003
 30
0.0
 11
658.523606246665
 21
204.9234746002998
 31
0.0
  0
LINE
  5
281
330
1F
100
AcDbEntity
  8
1
  6
CONTINUOUS
 62
     7
100
AcDbLine
 10
658.073606242465
 20
212.9262286436
 30
0.0
 11
657.9236062424654
 21
212.9262286436
 31
0.0
  0
LINE
  5
282
330
1F
100
AcDbEntity
  8
1
  6
________________
 62
     7
100
AcDbLine
 10
667.0000000000167
 20
156.1249999999998
 30
0.0
 11
667.0000000000167
 21
261.1249999999998
 31
0.0
  0
LINE
  5
283
330
1F
100
AcDbEntity
  8
1
  6
CONTINUOUS
 62
     7
100
AcDbLine
 10
658.0736062466643
 20
204.3234746003
 30
0.0
 11
658.0736062466643
 21
202.1234746004
 31
0.0
  0
LINE
  5
284
330
1F
100
AcDbEntity
  8
1
  6
CONTINUOUS
 62
     7
100
AcDbLine
 10
658.3736062466636
 20
207.1234746003498
 30
0.0
 11
658.0736062466643
 21
207.1234746003498
 31
0.0
  0
LINE
  5
285
330
1F
100
AcDbEntity
  8
1
  6
CONTINUOUS
 62
     7
100
AcDbLine
 10
658.3736062466636
 20
207.1234746003498
 30
0.0
 11
658.3736062466636
 21
204.9234746003
 31
0.0
  0
LINE
  5
286
330
1F
100
AcDbEntity
  8
1
  6
CONTINUOUS
 62
     7
100
AcDbLine
 10
658.3736062424643
 20
210.1262286436998
 30
0.0
 11
658.3736062424643
 21
212.3262286436
 31
0.0
  0
LINE
  5
287
330
1F
100
AcDbEntity
  8
1
  6
CONTINUOUS
 62
     7
100
AcDbLine
 10
658.073606242465
 20
210.1262286436998
 30
0.0
 11
658.3736062424656
 21
210.1262286436998
 31
0.0
  0
ARC
  5
288
330
1F
100
AcDbEntity
  8
0
  6
CONTINUOUS
 62
     7
100
AcDbCircle
 10
-495.7499999993511
 20
143.125
 30
0.0
 40
0.4999999999999449
210
0.0
220
0.0
230
-1.0
100
AcDbArc
 50
90.0
 51
180.0
  0
ARC
  5
289
330
1F
100
AcDbEntity
  8
0
  6
CONTINUOUS
 62
     7
100
AcDbCircle
 10
480.749999999351
 20
135.625
 30
0.0
 40
0.4999999999999449
100
AcDbArc
 50
90.0
 51
180.0
  0
ARC
  5
28A
330
1F
100
AcDbEntity
  8
1
  6
CONTINUOUS
 62
     7
100
AcDbCircle
 10
614.499984281216
 20
253.6251201180498
 30
0.0
 40
1.00000000005096
100
AcDbArc
 50
0.0002770892000399
 51
89.11177153359995
  0
LINE
  5
28B
330
1F
100
AcDbEntity
  8
0
  6
CONTINUOUS
 62
     7
100
AcDbLine
 10
496.249999999351
 20
124.625
 30
0.0
 11
496.249999999351
 21
143.125
 31
0.0
  0
ARC
  5
28C
330
1F
100
AcDbEntity
  8
0
  6
CONTINUOUS
 62
     7
100
AcDbCircle
 10
491.7499999993511
 20
135.625
 30
0.0
 40
0.4999999999999449
100
AcDbArc
 50
0.0
 51
90.0
  0
ELLIPSE
  5
28D
330
1F
100
AcDbEntity
  8
1
  6
CONTINUOUS
 62
     7
100
AcDbEllipse
 10
658.5213700885157
 20
204.6239775835998
 30
0.0
 11
0.0
 21
3.649999999949971
 31
0.0
210
0.0
220
0.0
230
1.0
 40
0.121869343400024
 41
3.141592653600002
 42
6.283185307179586
  0
ELLIPSE
  5
28E
330
1F
100
AcDbEntity
  8
1
  6
CONTINUOUS
 62
     7
100
AcDbEllipse
 10
658.5213700885157
 20
212.6262286436
 30
0.0
 11
0.0
 21
3.649999999949971
 31
0.0
210
0.0
220
0.0
230
1.0
 40
0.121869343400024
 41
3.141592653600002
 42
6.283185307179586
  0
CIRCLE
  5
28F
330
1F
100
AcDbEntity
  8
1
  6
CONTINUOUS
 62
     7
100
AcDbCircle
 10
620.9999999992144
 20
250.3749999964998
 30
0.0
 40
2.20000000004994
  0
LINE
  5
290
330
1F
100
AcDbEntity
  8
1
  6
CONTINUOUS
 62
     7
100
AcDbLine
 10
658.3736062424643
 20
215.1262286436499
 30
0.0
 11
658.0736062424636
 21
215.1262286436499
 31
0.0
  0
LINE
  5
291
330
1F
100
AcDbEntity
  8
1
  6
CONTINUOUS
 62
     7
100
AcDbLine
 10
660.5070256666154
 20
210.62669683565
 30
0.0
 11
687.9999907921155
 21
210.6247777657998
 31
0.0
  0
ARC
  5
292
330
1F
100
AcDbEntity
  8
1
  6
CONTINUOUS
 62
     7
100
AcDbCircle
 10
627.500027806616
 20
163.6249996667
 30
0.0
 40
1.00000000005096
100
AcDbArc
 50
180.0004902238
 51
270.0000000851
  0
LINE
  5
293
330
1F
100
AcDbEntity
  8
1
  6
CONTINUOUS
 62
     7
100
AcDbLine
 10
658.5213700885157
 20
216.2762286437
 30
0.0
 11
658.223606242465
 21
216.2762286437
 31
0.0
  0
ARC
  5
294
330
1F
100
AcDbEntity
  8
1
  6
CONTINUOUS
 62
     7
100
AcDbCircle
 10
688.9999999966152
 20
163.6250000657002
 30
0.0
 40
1.00000000005096
100
AcDbArc
 50
269.9999999998
 51
0.0
  0
LINE
  5
295
330
1F
100
AcDbEntity
  8
1
  6
CONTINUOUS
 62
     7
100
AcDbLine
 10
658.3736062466636
 20
202.1234746004
 30
0.0
 11
658.3736062466636
 21
204.3234746003
 31
0.0
  0
LINE
  5
296
330
1F
100
AcDbEntity
  8
1
  6
CONTINUOUS
 62
     7
100
AcDbLine
 10
658.3736062424643
 20
212.3262286436
 30
0.0
 11
658.523606242464
 21
212.3262286436
 31
0.0
  0
LINE
  5
297
330
1F
100
AcDbEntity
  8
0
  6
CONTINUOUS
 62
     7
100
AcDbLine
 10
496.2499999995727
 20
274.1250000000001
 30
0.0
 11
496.2499999995727
 21
273.1250000000001
 31
0.0
  0
ELLIPSE
  5
298
330
1F
100
AcDbEntity
  8
0
  6
CONTINUOUS
 62
     7
100
AcDbEllipse
 10
491.7499999993511
 20
131.6343583474776
 30
0.0
 11
0.0
 21
-0.5093583474776175
 31
0.0
210
0.0
220
0.0
230
1.0
 40
0.9816271834475357
 41
0.0
 42
1.570796326794897
  0
ARC
  5
299
330
1F
100
AcDbEntity
  8
1
  6
CONTINUOUS
 62
     7
100
AcDbCircle
 10
673.5000157108155
 20
253.6249999870998
 30
0.0
 40
1.00000000005096
100
AcDbArc
 50
89.9999999994
 51
179.9997229109999
  0
LINE
  5
29A
330
1F
100
AcDbEntity
  8
1
  6
CONTINUOUS
 62
     7
100
AcDbLine
 10
658.073606242465
 20
215.1262286436499
 30
0.0
 11
658.073606242465
 21
212.9262286435998
 31
0.0
  0
LINE
  5
29B
330
1F
100
AcDbEntity
  8
0
  6
CONTINUOUS
 62
     7
100
AcDbLine
 10
480.249999999351
 20
135.625
 30
0.0
 11
480.249999999351
 21
131.6343583474776
 31
0.0
  0
ARC
  5
29C
330
1F
100
AcDbEntity
  8
0
  6
CONTINUOUS
 62
     7
100
AcDbCircle
 10
-495.2499999993511
 20
124.625
 30
0.0
 40
1.000000000000112
210
0.0
220
0.0
230
-1.0
100
AcDbArc
 50
180.0000000000008
 51
270.0
  0
LINE
  5
29D
330
1F
100
AcDbEntity
  8
0
  6
CONTINUOUS
 62
     7
100
AcDbLine
 10
495.7499999993511
 20
143.625
 30
0.0
 11
476.7499999993511
 21
143.625
 31
0.0
  0
LINE
  5
29E
330
1F
100
AcDbEntity
  8
0
  6
CONTINUOUS
 62
     7
100
AcDbLine
 10
476.2499999995726
 20
143.125
 30
0.0
 11
476.2499999995726
 21
144.125
 31
0.0
  0
LINE
  5
29F
330
1F
100
AcDbEntity
  8
0
  6
CONTINUOUS
 62
     7
100
AcDbLine
 10
491.7499999993511
 20
136.125
 30
0.0
 11
480.7499999993511
 21
136.125
 31
0.0
  0
LINE
  5
2A0
330
1F
100
AcDbEntity
  8
0
  6
CONTINUOUS
 62
     7
100
AcDbLine
 10
496.2499999995727
 20
144.125
 30
0.0
 11
496.2499999995727
 21
143.125
 31
0.0
  0
LINE
  5
2A1
330
1F
100
AcDbEntity
  8
0
  6
CONTINUOUS
 62
     7
100
AcDbLine
 10
496.2499999995727
 20
273.1250000000001
 30
0.0
 11
496.2499999995727
 21
272.1250000000001
 31
0.0
  0
LINE
  5
2A2
330
1F
100
AcDbEntity
  8
1
  6
CONTINUOUS
 62
     7
100
AcDbLine
 10
660.5064623912655
 20
206.6239775835498
 30
0.0
 11
658.5213700885172
 21
208.2739775835499
 31
0.0
  0
LINE
  5
2A3
330
1F
100
AcDbEntity
  8
1
  6
CONTINUOUS
 62
     7
100
AcDbLine
 10
657.9236062424653
 20
212.9262286436
 30
0.0
 11
657.9236062424653
 21
212.3262286436
 31
0.0
  0
LINE
  5
2A4
330
1F
100
AcDbEntity
  8
0
  6
CONTINUOUS
 62
     7
100
AcDbLine
 10
592.5000000000158
 20
81.375
 30
0.0
 11
706.5000000000156
 21
81.375
 31
0.0
  0
LINE
  5
2A5
330
1F
100
AcDbEntity
  8
0
  6
CONTINUOUS
 62
     7
100
AcDbLine
 10
476.2499999995726
 20
144.125
 30
0.0
 11
476.2499999995726
 21
145.125
 31
0.0
  0
LINE
  5
2A6
330
1F
100
AcDbEntity
  8
0
  6
CONTINUOUS
 62
     7
100
AcDbLine
 10
706.5000000000159
 20
83.875
 30
0.0
 11
716.5000000000159
 21
83.875
 31
0.0
  0
LINE
  5
2A7
330
1F
100
AcDbEntity
  8
0
  6
CONTINUOUS
 62
     7
100
AcDbLine
 10
476.2499999995726
 20
273.1250000000001
 30
0.0
 11
476.2499999995726
 21
274.1250000000001
 31
0.0
  0
LINE
  5
2A8
330
1F
100
AcDbEntity
  8
0
  6
CONTINUOUS
 62
     7
100
AcDbLine
 10
589.5000000000159
 20
81.375
 30
0.0
 11
592.5000000000159
 21
81.375
 31
0.0
  0
LINE
  5
2A9
330
1F
100
AcDbEntity
  8
0
  6
CONTINUOUS
 62
   253
100
AcDbLine
 10
634.2000000000158
 20
64.37499999999999
 30
0.0
 11
634.2000000000158
 21
69.37499999999999
 31
0.0
  0
LINE
  5
2AA
330
1F
100
AcDbEntity
  8
0
  6
CONTINUOUS
 62
     7
100
AcDbLine
 10
706.5000000000159
 20
81.375
 30
0.0
 11
716.5000000000159
 21
81.375
 31
0.0
  0
LINE
  5
2AB
330
1F
100
AcDbEntity
  8
0
  6
CONTINUOUS
 62
     7
100
AcDbLine
 10
592.5000000000158
 20
83.875
 30
0.0
 11
706.5000000000156
 21
83.875
 31
0.0
  0
LINE
  5
2AC
330
1F
100
AcDbEntity
  8
0
  6
CONTINUOUS
 62
   253
100
AcDbLine
 10
606.2000000000156
 20
64.37499999999999
 30
0.0
 11
601.2000000000157
 21
64.37499999999999
 31
0.0
  0
LINE
  5
2AD
330
1F
100
AcDbEntity
  8
0
  6
CONTINUOUS
 62
   253
100
AcDbLine
 10
683.2000000000157
 20
64.37499999999999
 30
0.0
 11
683.2000000000157
 21
69.37499999999999
 31
0.0
  0
LINE
  5
2AE
330
1F
100
AcDbEntity
  8
0
  6
CONTINUOUS
 62
     7
100
AcDbLine
 10
585.8325637106178
 20
65.37499999970456
 30
0.0
 11
585.9297538651551
 21
65.8749999997107
 31
0.0
  0
LINE
  5
2AF
330
1F
100
AcDbEntity
  8
0
  6
CONTINUOUS
 62
     7
100
AcDbLine
 10
584.8909550058135
 20
65.37499999964494
 30
0.0
 11
585.8325637106178
 21
65.37499999970456
 31
0.0
  0
LINE
  5
2B0
330
1F
100
AcDbEntity
  8
0
  6
CONTINUOUS
 62
   253
100
AcDbLine
 10
592.5000000000158
 20
81.375
 30
0.0
 11
592.5000000000158
 21
83.875
 31
0.0
  0
LINE
  5
2B1
330
1F
100
AcDbEntity
  8
0
  6
CONTINUOUS
 62
     7
100
AcDbLine
 10
492.249999999351
 20
131.6343583474776
 30
0.0
 11
492.249999999351
 21
135.625
 31
0.0
  0
LINE
  5
2B2
330
1F
100
AcDbEntity
  8
0
  6
CONTINUOUS
 62
     7
100
AcDbLine
 10
584.7955505073971
 20
76.8749999996389
 30
0.0
 11
584.7955505080934
 21
65.87499999963889
 31
0.0
  0
LINE
  5
2B3
330
1F
100
AcDbEntity
  8
0
  6
CONTINUOUS
 62
   253
100
AcDbLine
 10
660.2000000000158
 20
64.37499999999999
 30
0.0
 11
655.2000000000158
 21
64.37499999999999
 31
0.0
  0
LINE
  5
2B4
330
1F
100
AcDbEntity
  8
0
  6
CONTINUOUS
 62
     7
100
AcDbLine
 10
585.8325637098583
 20
77.37499999970454
 30
0.0
 11
584.8909550050538
 21
77.37499999964494
 31
0.0
  0
LINE
  5
2B5
330
1F
100
AcDbEntity
  8
0
  6
CONTINUOUS
 62
     7
100
AcDbLine
 10
582.5000000000158
 20
81.375
 30
0.0
 11
582.5000000000158
 21
83.875
 31
0.0
  0
LINE
  5
2B6
330
1F
100
AcDbEntity
  8
0
  6
CONTINUOUS
 62
   253
100
AcDbLine
 10
639.2000000000157
 20
64.37499999999999
 30
0.0
 11
634.2000000000157
 21
64.37499999999999
 31
0.0
  0
LINE
  5
2B7
330
1F
100
AcDbEntity
  8
0
  6
CONTINUOUS
 62
     7
100
AcDbLine
 10
587.5819864918445
 20
81.37499999981529
 30
0.0
 11
583.6943803090901
 21
81.37499999956918
 31
0.0
  0
LINE
  5
2B8
330
1F
100
AcDbEntity
  8
0
  6
CONTINUOUS
 62
     7
100
AcDbLine
 10
583.6943803103562
 20
61.37499999956919
 30
0.0
 11
583.5000000011552
 21
62.37499999955687
 31
0.0
  0
LINE
  5
2B9
330
1F
100
AcDbEntity
  8
0
  6
CONTINUOUS
 62
     7
100
AcDbLine
 10
716.5000000000159
 20
81.375
 30
0.0
 11
716.5000000000159
 21
83.875
 31
0.0
  0
LINE
  5
2BA
330
1F
100
AcDbEntity
  8
0
  6
CONTINUOUS
 62
   253
100
AcDbLine
 10
634.2000000000158
 20
64.37499999999999
 30
0.0
 11
629.2000000000158
 21
64.37499999999999
 31
0.0
  0
ELLIPSE
  5
2BB
330
1F
100
AcDbEntity
  8
0
  6
CONTINUOUS
 62
     7
100
AcDbEllipse
 10
584.890955005782
 20
65.87499999964494
 30
0.0
 11
-3.175237850427948E-11
 21
0.5000000000000004
 31
0.0
210
0.0
220
0.0
230
1.0
 40
0.1908089953768231
 41
1.570796326794841
 42
3.141592653589897
  0
LINE
  5
2BC
330
1F
100
AcDbEntity
  8
0
  6
CONTINUOUS
 62
     7
100
AcDbLine
 10
480.749999999351
 20
131.125
 30
0.0
 11
491.749999999351
 21
131.125
 31
0.0
  0
ARC
  5
2BD
330
1F
100
AcDbEntity
  8
0
  6
CONTINUOUS
 62
     7
100
AcDbCircle
 10
595.0000000000157
 20
47.875
 30
0.0
 40
4.500000000000171
100
AcDbArc
 50
180.0
 51
270.0
  0
LINE
  5
2BE
330
1F
100
AcDbEntity
  8
0
  6
CONTINUOUS
 62
     7
100
AcDbLine
 10
580.5000000011553
 20
62.37499999936696
 30
0.0
 11
580.5000000012185
 21
61.37499999936696
 31
0.0
  0
LINE
  5
2BF
330
1F
100
AcDbEntity
  8
0
  6
CONTINUOUS
 62
     7
100
AcDbLine
 10
582.5000000000158
 20
83.875
 30
0.0
 11
592.5000000000158
 21
83.875
 31
0.0
  0
LINE
  5
2C0
330
1F
100
AcDbEntity
  8
0
  6
CONTINUOUS
 62
   253
100
AcDbLine
 10
683.2000000000157
 20
59.37499999999998
 30
0.0
 11
683.2000000000157
 21
64.37499999999999
 31
0.0
  0
LINE
  5
2C1
330
1F
100
AcDbEntity
  8
0
  6
CONTINUOUS
 62
   253
100
AcDbLine
 10
634.2000000000158
 20
59.37499999999998
 30
0.0
 11
634.2000000000158
 21
64.37499999999999
 31
0.0
  0
LINE
  5
2C2
330
1F
100
AcDbEntity
  8
0
  6
CONTINUOUS
 62
   253
100
AcDbLine
 10
655.2000000000157
 20
59.37499999999998
 30
0.0
 11
655.2000000000157
 21
64.37499999999999
 31
0.0
  0
LINE
  5
2C3
330
1F
100
AcDbEntity
  8
0
  6
CONTINUOUS
 62
     7
100
AcDbLine
 10
585.9297538644588
 20
76.8749999997107
 30
0.0
 11
585.8325637098582
 21
77.37499999970454
 31
0.0
  0
LINE
  5
2C4
330
1F
100
AcDbEntity
  8
0
  6
CONTINUOUS
 62
     7
100
AcDbLine
 10
580.4999999999525
 20
81.37499999936698
 30
0.0
 11
580.5000000000159
 21
80.37499999936698
 31
0.0
  0
LINE
  5
2C5
330
1F
100
AcDbEntity
  8
0
  6
CONTINUOUS
 62
   253
100
AcDbLine
 10
706.5000000000159
 20
81.375
 30
0.0
 11
706.5000000000159
 21
83.875
 31
0.0
  0
ARC
  5
2C6
330
1F
100
AcDbEntity
  8
0
  6
CONTINUOUS
 62
     7
100
AcDbCircle
 10
707.5936245356191
 20
80.375
 30
0.0
 40
0.9999999999998899
100
AcDbArc
 50
90.0
 51
178.9999999999998
  0
POINT
  5
2C7
330
1F
100
AcDbEntity
  8
0
 62
     7
100
AcDbPoint
 10
593.5000000000157
 20
158.8490458946734
 30
0.0
  0
POINT
  5
2C8
330
1F
100
AcDbEntity
  8
0
 62
     7
100
AcDbPoint
 10
593.5000000000157
 20
208.625
 30
0.0
  0
POINT
  5
2C9
330
1F
100
AcDbEntity
  8
0
 62
     7
100
AcDbPoint
 10
593.5000000000157
 20
258.4009541053264
 30
0.0
  0
LINE
  5
2CA
330
1F
100
AcDbEntity
  8
0
  6
DOT
 62
     7
100
AcDbLine
 10
596.4670160361187
 20
232.1510663682162
 30
0.0
 11
595.8195637891731
 21
235.1016624153826
 31
0.0
  0
LINE
  5
2CB
330
1F
100
AcDbEntity
  8
0
  6
DOT
 62
     7
100
AcDbLine
 10
596.4670049387744
 20
232.1510663682151
 30
0.0
 11
597.2715234600969
 21
232.1510663682151
 31
0.0
  0
LINE
  5
2CC
330
1F
100
AcDbEntity
  8
0
  6
CONTINUOUS
 62
     7
100
AcDbLine
 10
580.499999999984
 20
272.625
 30
0.0
 11
580.499999999984
 21
272.125
 31
0.0
  0
LINE
  5
2CD
330
1F
100
AcDbEntity
  8
0
  6
DOT
 62
     7
100
AcDbLine
 10
596.8396511921466
 20
235.6127985451442
 30
0.0
 11
596.5665257084843
 21
235.1510200962132
 31
0.0
  0
LINE
  5
2CE
330
1F
100
AcDbEntity
  8
0
  6
DOT
 62
     7
100
AcDbLine
 10
597.1939155763844
 20
232.2810396755552
 30
0.0
 11
597.5445741043864
 21
231.6894567744932
 31
0.0
  0
LINE
  5
2CF
330
1F
100
AcDbEntity
  8
0
  6
DOT
 62
     7
100
AcDbLine
 10
597.2002503939256
 20
182.0989336317848
 30
0.0
 11
598.0048890325597
 21
182.0989336317848
 31
0.0
  0
SPLINE
  5
2D0
330
1F
100
AcDbEntity
  8
0
  6
DOT
 62
     7
100
AcDbSpline
210
0.0
220
0.0
230
1.0
 70
     8
 71
     3
 72
     9
 73
     5
 74
     0
 42
0.000000001
 43
0.0001
 40
0.0425990103551592
 40
0.0425990103551592
 40
0.0425990103551592
 40
0.0425990103551592
 40
0.0428599220771758
 40
0.043169925106794
 40
0.043169925106794
 40
0.043169925106794
 40
0.043169925106794
 10
596.2207223320701
 20
231.686948536328
 30
0.0
 10
596.2078538807349
 20
231.6653031427756
 30
0.0
 10
596.179695741111
 20
231.6389868934866
 30
0.0
 10
596.1515376014872
 20
231.6610263927954
 30
0.0
 10
596.1362479131989
 20
231.6865382395966
 30
0.0
  0
LINE
  5
2D1
330
1F
100
AcDbEntity
  8
0
  6
DOT
 62
     7
100
AcDbLine
 10
594.4118044357607
 20
235.098005025339
 30
0.0
 11
594.1072731485119
 21
235.612412523779
 31
0.0
  0
LINE
  5
2D2
330
1F
100
AcDbEntity
  8
0
  6
DOT
 62
     7
100
AcDbLine
 10
593.6467556338621
 20
232.1510663682151
 30
0.0
 11
594.4514355253734
 21
232.1510663682151
 31
0.0
  0
LINE
  5
2D3
330
1F
100
AcDbEntity
  8
0
  6
DOT
 62
     7
100
AcDbLine
 10
594.7237689368753
 20
185.559551609903
 30
0.0
 11
594.3740121947178
 21
184.9692202542346
 31
0.0
  0
LINE
  5
2D4
330
1F
100
AcDbEntity
  8
0
  6
DOT
 62
     7
100
AcDbLine
 10
597.9764133420834
 20
182.0992687450542
 30
0.0
 11
598.0216074790761
 21
182.0234391175434
 31
0.0
  0
LINE
  5
2D5
330
1F
100
AcDbEntity
  8
0
  6
CONTINUOUS
 62
     7
100
AcDbLine
 10
580.499999999984
 20
144.625
 30
0.0
 11
583.999999999984
 21
144.625
 31
0.0
  0
LINE
  5
2D6
330
1F
100
AcDbEntity
  8
0
  6
CONTINUOUS
 62
     7
100
AcDbLine
 10
598.021833778652
 20
180.0989336317848
 30
0.0
 11
599.0218337786522
 21
180.1864222953108
 31
0.0
  0
LINE
  5
2D7
330
1F
100
AcDbEntity
  8
0
  6
DOT
 62
     7
100
AcDbLine
 10
595.0569099696514
 20
232.1510663682151
 30
0.0
 11
595.8615138573376
 21
232.1510663682151
 31
0.0
  0
LINE
  5
2D8
330
1F
100
AcDbEntity
  8
0
  6
DOT
 62
     7
100
AcDbLine
 10
593.5000000000159
 20
182.0989336317848
 30
0.0
 11
593.7747519849064
 21
182.0989336317848
 31
0.0
  0
LINE
  5
2D9
330
1F
100
AcDbEntity
  8
0
  6
CONTINUOUS
 62
     7
100
AcDbLine
 10
580.499999999984
 20
273.625
 30
0.0
 11
583.999999999984
 21
273.625
 31
0.0
  0
LINE
  5
2DA
330
1F
100
AcDbEntity
  8
0
  6
CONTINUOUS
 62
     7
100
AcDbLine
 10
583.6943803091513
 20
292.6250000000118
 30
0.0
 11
583.5000000000159
 21
293.6249999999999
 31
0.0
  0
LINE
  5
2DB
330
1F
100
AcDbEntity
  8
0
  6
CONTINUOUS
 62
     7
100
AcDbLine
 10
590.5000000000158
 20
144.625
 30
0.0
 11
590.5000000000158
 21
145.3270410288672
 31
0.0
  0
LINE
  5
2DC
330
1F
100
AcDbEntity
  8
0
  6
DOT
 62
     7
100
AcDbLine
 10
593.6467535507848
 20
232.151066368218
 30
0.0
 11
593.5000011559397
 21
232.4609744733078
 31
0.0
  0
LINE
  5
2DD
330
1F
100
AcDbEntity
  8
0
  6
CONTINUOUS
 62
     7
100
AcDbLine
 10
589.5000000000159
 20
273.625
 30
0.0
 11
587.3876061827702
 21
273.625
 31
0.0
  0
LINE
  5
2DE
330
1F
100
AcDbEntity
  8
0
  6
DOT
 62
     7
100
AcDbLine
 10
596.9268463233834
 20
181.6365480688674
 30
0.0
 11
597.2316771120261
 21
182.1517361363032
 31
0.0
  0
LINE
  5
2DF
330
1F
100
AcDbEntity
  8
0
  6
DOT
 62
     7
100
AcDbLine
 10
597.8769385708121
 20
232.1510663682178
 30
0.0
 11
597.2296190722982
 21
235.1017135044336
 31
0.0
  0
LINE
  5
2E0
330
1F
100
AcDbEntity
  8
0
  6
DOT
 62
     7
100
AcDbLine
 10
597.2715234600969
 20
185.0989336317848
 30
0.0
 11
596.4670049387744
 21
185.0989336317848
 31
0.0
  0
LINE
  5
2E1
330
1F
100
AcDbEntity
  8
0
  6
CONTINUOUS
 62
     7
100
AcDbLine
 10
587.3876061827702
 20
143.625
 30
0.0
 11
589.5000000000159
 21
143.625
 31
0.0
  0
LINE
  5
2E2
330
1F
100
AcDbEntity
  8
0
  6
DOT
 62
     7
100
AcDbLine
 10
593.774753948314
 20
235.1510663682124
 30
0.0
 11
594.4151818553814
 21
232.2127729367
 31
0.0
  0
LINE
  5
2E3
330
1F
100
AcDbEntity
  8
0
  6
DOT
 62
     7
100
AcDbLine
 10
597.2316771120261
 20
235.0982638636968
 30
0.0
 11
596.9268463233834
 21
235.6134519311326
 31
0.0
  0
LINE
  5
2E4
330
1F
100
AcDbEntity
  8
0
  6
CONTINUOUS
 62
     7
100
AcDbLine
 10
590.5000000000158
 20
271.9229589711326
 30
0.0
 11
590.5000000000158
 21
272.6250000000001
 31
0.0
  0
LINE
  5
2E5
330
1F
100
AcDbEntity
  8
0
  6
CONTINUOUS
 62
     7
100
AcDbLine
 10
583.5000000000159
 20
123.625
 30
0.0
 11
583.6943803091513
 21
124.6249999999881
 31
0.0
  0
LINE
  5
2E6
330
1F
100
AcDbEntity
  8
0
  6
DOT
 62
     7
100
AcDbLine
 10
594.3740121947178
 20
232.2807797457654
 30
0.0
 11
594.7237689368753
 21
231.690448390097
 31
0.0
  0
LINE
  5
2E7
330
1F
100
AcDbEntity
  8
0
  6
CONTINUOUS
 62
     7
100
AcDbLine
 10
583.5000000000159
 20
293.625
 30
0.0
 11
580.5000000000159
 21
293.625
 31
0.0
  0
LINE
  5
2E8
330
1F
100
AcDbEntity
  8
0
  6
CONTINUOUS
 62
     7
100
AcDbLine
 10
599.0218337786523
 20
187.011444968259
 30
0.0
 11
598.0218337786521
 21
187.0989336317848
 31
0.0
  0
LINE
  5
2E9
330
1F
100
AcDbEntity
  8
0
  6
DOT
 62
     7
100
AcDbLine
 10
594.0209911956074
 20
235.6156527383648
 30
0.0
 11
593.7462928946877
 21
235.151016680864
 31
0.0
  0
LINE
  5
2EA
330
1F
100
AcDbEntity
  8
0
  6
DOT
 62
     7
100
AcDbLine
 10
595.1564847684381
 20
182.0989813653772
 30
0.0
 11
595.430541796696
 21
181.6354319180172
 31
0.0
  0
LINE
  5
2EB
330
1F
100
AcDbEntity
  8
0
  6
CONTINUOUS
 62
     7
100
AcDbLine
 10
580.5000000000158
 20
293.625
 30
0.0
 11
580.5000000000158
 21
292.625
 31
0.0
  0
LINE
  5
2EC
330
1F
100
AcDbEntity
  8
0
  6
DOT
 62
     7
100
AcDbLine
 10
598.021607479076
 20
235.2265608824566
 30
0.0
 11
597.9764133420833
 21
235.1507312549456
 31
0.0
  0
LINE
  5
2ED
330
1F
100
AcDbEntity
  8
0
  6
DOT
 62
     7
100
AcDbLine
 10
596.220712301386
 20
231.6869316661524
 30
0.0
 11
596.4952562336878
 21
232.1512397186058
 31
0.0
  0
LINE
  5
2EE
330
1F
100
AcDbEntity
  8
0
  6
DOT
 62
     7
100
AcDbLine
 10
593.7462928946877
 20
182.0989833191358
 30
0.0
 11
594.0209911956074
 21
181.6343472616352
 31
0.0
  0
LINE
  5
2EF
330
1F
100
AcDbEntity
  8
0
  6
DOT
 62
     7
100
AcDbLine
 10
594.1072731485119
 20
181.637587476221
 30
0.0
 11
594.4118044357607
 21
182.151994974661
 31
0.0
  0
LINE
  5
2F0
330
1F
100
AcDbEntity
  8
0
  6
DOT
 62
     7
100
AcDbLine
 10
595.8615138573377
 20
185.0989336317848
 30
0.0
 11
595.0569099696515
 21
185.0989336317848
 31
0.0
  0
LINE
  5
2F1
330
1F
100
AcDbEntity
  8
0
  6
CONTINUOUS
 62
     7
100
AcDbLine
 10
599.0218337786523
 20
237.0635777046892
 30
0.0
 11
598.0218337786521
 21
237.1510663682151
 31
0.0
  0
LINE
  5
2F2
330
1F
100
AcDbEntity
  8
0
  6
DOT
 62
     7
100
AcDbLine
 10
597.5445741043864
 20
185.5605432255068
 30
0.0
 11
597.1939155763844
 21
184.9689603244449
 31
0.0
  0
SPLINE
  5
2F3
330
1F
100
AcDbEntity
  8
0
  6
DOT
 62
     7
100
AcDbSpline
210
0.0
220
0.0
230
1.0
 70
     8
 71
     3
 72
     9
 73
     5
 74
     0
 42
0.000000001
 43
0.0001
 40
0.052116987412925
 40
0.052116987412925
 40
0.052116987412925
 40
0.052116987412925
 40
0.052192354977246
 40
0.0526996292626329
 40
0.0526996292626329
 40
0.0526996292626329
 40
0.0526996292626329
 10
597.6307686100364
 20
231.6866712801194
 30
0.0
 10
597.6270513993791
 20
231.6804248742546
 30
0.0
 10
597.5983148664592
 20
231.6384621729962
 30
0.0
 10
597.5695783335398
 20
231.6463822825955
 30
0.0
 10
597.5445590112773
 20
231.6894827708202
 30
0.0
  0
LINE
  5
2F4
330
1F
100
AcDbEntity
  8
0
  6
DOT
 62
     7
100
AcDbLine
 10
595.8216575080926
 20
235.0981540346473
 30
0.0
 11
595.516952787193
 21
235.6129566351552
 31
0.0
  0
LINE
  5
2F5
330
1F
100
AcDbEntity
  8
0
  6
DOT
 62
     7
100
AcDbLine
 10
595.0569083710682
 20
232.1510663682174
 30
0.0
 11
594.4098303607421
 21
235.1013123758052
 31
0.0
  0
LINE
  5
2F6
330
1F
100
AcDbEntity
  8
0
  6
CONTINUOUS
 62
     7
100
AcDbLine
 10
580.5000000000158
 20
123.625
 30
0.0
 11
583.5000000000158
 21
123.625
 31
0.0
  0
LINE
  5
2F7
330
1F
100
AcDbEntity
  8
0
  6
DOT
 62
     7
100
AcDbLine
 10
595.0851717291978
 20
185.098864739084
 30
0.0
 11
594.8105523790769
 21
185.5631523676336
 31
0.0
  0
LINE
  5
2F8
330
1F
100
AcDbEntity
  8
0
  6
DOT
 62
     7
100
AcDbLine
 10
597.8769400496442
 20
232.1510663682151
 30
0.0
 11
598.021833778652
 21
232.1510663682151
 31
0.0
  0
LINE
  5
2F9
330
1F
100
AcDbEntity
  8
0
  6
CONTINUOUS
 62
     7
100
AcDbLine
 10
600.5134028190408
 20
232.351066368215
 30
0.0
 11
600.5134028190408
 21
233.1510663682151
 31
0.0
  0
SPLINE
  5
2FA
330
1F
100
AcDbEntity
  8
0
  6
DOT
 62
     7
100
AcDbSpline
210
0.0
220
0.0
230
1.0
 70
     8
 71
     3
 72
     9
 73
     5
 74
     0
 42
0.000000001
 43
0.0001
 40
0.028303137831991
 40
0.028303137831991
 40
0.028303137831991
 40
0.028303137831991
 40
0.028853418207322
 40
0.0288864212898067
 40
0.0288864212898067
 40
0.0288864212898067
 40
0.0288864212898067
 10
594.1072882669505
 20
235.6123864124928
 30
0.0
 10
594.0801478373216
 20
235.6592689905086
 30
0.0
 10
594.0513796595887
 20
235.6637068040176
 30
0.0
 10
594.0226114818558
 20
235.6183637470102
 30
0.0
 10
594.0209837337516
 20
235.6156402545492
 30
0.0
  0
LINE
  5
2FB
330
1F
100
AcDbEntity
  8
0
  6
DOT
 62
     7
100
AcDbLine
 10
593.5000000000159
 20
231.8554371968102
 30
0.0
 11
593.6752584093579
 21
232.1511338365392
 31
0.0
  0
LINE
  5
2FC
330
1F
100
AcDbEntity
  8
0
  6
DOT
 62
     7
100
AcDbLine
 10
597.5445590112773
 20
231.6894827708202
 30
0.0
 11
596.9268606417068
 21
235.613427201883
 31
0.0
  0
LINE
  5
2FD
330
1F
100
AcDbEntity
  8
0
  6
DOT
 62
     7
100
AcDbLine
 10
596.5947275658754
 20
235.1510663682126
 30
0.0
 11
597.2377905961868
 21
232.207979173946
 31
0.0
  0
SPLINE
  5
2FE
330
1F
100
AcDbEntity
  8
0
  6
DOT
 62
     7
100
AcDbSpline
210
0.0
220
0.0
230
1.0
 70
     8
 71
     3
 72
     9
 73
     5
 74
     0
 42
0.000000001
 43
0.0001
 40
0.0330527597591805
 40
0.0330527597591805
 40
0.0330527597591805
 40
0.0330527597591805
 40
0.0334984546364657
 40
0.0336394599485281
 40
0.0336394599485281
 40
0.0336394599485281
 40
0.0336394599485281
 10
594.810563453689
 20
231.6868660777664
 30
0.0
 10
594.7885812951474
 20
231.6502488437768
 30
0.0
 10
594.7596446004803
 20
231.6388200301742
 30
0.0
 10
594.7307079058135
 20
231.6781809748684
 30
0.0
 10
594.7237533696881
 20
231.6904759066086
 30
0.0
  0
LINE
  5
2FF
330
1F
100
AcDbEntity
  8
0
  6
DOT
 62
     7
100
AcDbLine
 10
595.1846661738465
 20
235.1510663682148
 30
0.0
 11
595.8302647876204
 21
232.2036493814158
 31
0.0
  0
LINE
  5
300
330
1F
100
AcDbEntity
  8
0
  6
CONTINUOUS
 62
     7
100
AcDbLine
 10
598.021833778652
 20
230.1510663682151
 30
0.0
 11
599.0218337786522
 21
230.238555031741
 31
0.0
  0
LINE
  5
301
330
1F
100
AcDbEntity
  8
0
  6
CONTINUOUS
 62
     7
100
AcDbLine
 10
583.6943803090903
 20
292.625
 30
0.0
 11
587.5819864918448
 21
272.6250000000001
 31
0.0
  0
LINE
  5
302
330
1F
100
AcDbEntity
  8
0
  6
DOT
 62
     7
100
AcDbLine
 10
596.4952562336878
 20
185.0987602813942
 30
0.0
 11
596.220712301386
 21
185.5630683338474
 31
0.0
  0
LINE
  5
303
330
1F
100
AcDbEntity
  8
0
  6
CONTINUOUS
 62
     7
100
AcDbLine
 10
580.5000000000158
 20
124.625
 30
0.0
 11
580.5000000000158
 21
123.625
 31
0.0
  0
LINE
  5
304
330
1F
100
AcDbEntity
  8
0
  6
DOT
 62
     7
100
AcDbLine
 10
595.5169527871931
 20
181.6370433648448
 30
0.0
 11
595.8216575080927
 21
182.1518459653526
 31
0.0
  0
LINE
  5
305
330
1F
100
AcDbEntity
  8
0
  6
DOT
 62
     7
100
AcDbLine
 10
593.6752584093579
 20
185.0988661634606
 30
0.0
 11
593.5000000000159
 21
185.3945628031896
 31
0.0
  0
ELLIPSE
  5
306
330
1F
100
AcDbEntity
  8
0
  6
CONTINUOUS
 62
     7
100
AcDbEllipse
 10
702.154336442758
 20
259.0293364427422
 30
0.0
 11
1.060983283754479
 21
1.060983283754368
 31
0.0
210
0.0
220
0.0
230
-1.0
 40
0.9996954598819779
 41
5.497939437029719
 42
7.068431177329455
  0
LINE
  5
307
330
1F
100
AcDbEntity
  8
0
  6
CONTINUOUS
 62
     7
100
AcDbLine
 10
703.0257256480769
 20
258.4009541053264
 30
0.0
 11
703.0257256480769
 21
246.1202864289675
 31
0.0
  0
LINE
  5
308
330
1F
100
AcDbEntity
  8
0
  6
CONTINUOUS
 62
     7
100
AcDbLine
 10
703.0257256480769
 20
171.1297135710322
 30
0.0
 11
703.0257256480769
 21
158.8490458946734
 31
0.0
  0
LINE
  5
309
330
1F
100
AcDbEntity
  8
0
  6
CONTINUOUS
 62
     7
100
AcDbLine
 10
703.6545649348238
 20
179.1202864289676
 30
0.0
 11
703.6545649348238
 21
238.1297135710322
 31
0.0
  0
ELLIPSE
  5
30A
330
1F
100
AcDbEntity
  8
0
  6
CONTINUOUS
 62
     7
100
AcDbEllipse
 10
702.154336442758
 20
158.2206635572576
 30
0.0
 11
1.060983283754479
 21
-1.060983283754368
 31
0.0
210
0.0
220
0.0
230
-1.0
 40
0.9996954598818079
 41
5.497939437029718
 42
7.068431177329453
  0
LINE
  5
30B
330
1F
100
AcDbEntity
  8
0
  6
CONTINUOUS
 62
     7
100
AcDbLine
 10
703.6545649348238
 20
246.1202864289676
 30
0.0
 11
703.6545649348238
 21
259.0297933920734
 31
0.0
  0
LINE
  5
30C
330
1F
100
AcDbEntity
  8
0
  6
CONTINUOUS
 62
   253
100
AcDbLine
 10
703.6545649348238
 20
171.1297135710322
 30
0.0
 11
703.0257256480768
 21
171.1297135710322
 31
0.0
  0
LINE
  5
30D
330
1F
100
AcDbEntity
  8
0
  6
CONTINUOUS
 62
     7
100
AcDbLine
 10
703.6545649348238
 20
158.2202066079264
 30
0.0
 11
703.6545649348238
 21
171.1297135710322
 31
0.0
  0
ARC
  5
30E
330
1F
100
AcDbEntity
  8
0
  6
CONTINUOUS
 62
     7
100
AcDbCircle
 10
592.5000000000158
 20
262.1250000000001
 30
0.0
 40
10.00000000000001
100
AcDbArc
 50
89.99999999999991
 51
180.0
  0
LINE
  5
30F
330
1F
100
AcDbEntity
  8
0
  6
CONTINUOUS
 62
     7
100
AcDbLine
 10
703.0257256480769
 20
238.1297135710322
 30
0.0
 11
703.0257256480769
 21
179.1202864289676
 31
0.0
  0
ELLIPSE
  5
310
330
1F
100
AcDbEntity
  8
0
  6
CONTINUOUS
 62
   253
100
AcDbEllipse
 10
701.5259541053422
 20
158.8490458946734
 30
0.0
 11
1.060660171779748
 21
1.060660171779804
 31
0.0
210
0.0
220
0.0
230
1.0
 40
0.9996954598819318
 41
3.927143110234805
 42
5.497634850534554
  0
LINE
  5
311
330
1F
100
AcDbEntity
  8
0
  6
CONTINUOUS
 62
   253
100
AcDbLine
 10
703.0257256480769
 20
246.1202864289676
 30
0.0
 11
703.6545649348241
 21
246.1202864289676
 31
0.0
  0
LINE
  5
312
330
1F
100
AcDbEntity
  8
0
  6
CONTINUOUS
 62
   253
100
AcDbLine
 10
703.0257256480769
 20
179.1202864289676
 30
0.0
 11
703.6545649348241
 21
179.1202864289676
 31
0.0
  0
LINE
  5
313
330
1F
100
AcDbEntity
  8
0
  6
CONTINUOUS
 62
   253
100
AcDbLine
 10
703.6545649348238
 20
238.1297135710322
 30
0.0
 11
703.0257256480768
 21
238.1297135710322
 31
0.0
  0
LINE
  5
314
330
1F
100
AcDbEntity
  8
0
  6
CONTINUOUS
 62
     7
100
AcDbLine
 10
582.5000000000158
 20
262.1250000000001
 30
0.0
 11
582.5000000000158
 21
155.1250000000001
 31
0.0
  0
LINE
  5
315
330
1F
100
AcDbEntity
  8
0
  6
CONTINUOUS
 62
   253
100
AcDbLine
 10
599.1412489684704
 20
230.285945491473
 30
0.0
 11
599.1412489684704
 21
237.0161872449572
 31
0.0
  0
LINE
  5
316
330
1F
100
AcDbEntity
  8
0
  6
CONTINUOUS
 62
     7
100
AcDbLine
 10
600.5134028190408
 20
183.0989336317848
 30
0.0
 11
600.5134028190408
 21
182.2989336317848
 31
0.0
  0
LINE
  5
317
330
1F
100
AcDbEntity
  8
0
  6
CONTINUOUS
 62
   253
100
AcDbLine
 10
600.2783291706288
 20
236.0625156272072
 30
0.0
 11
600.278329170628
 21
231.239617109223
 31
0.0
  0
LINE
  5
318
330
1F
100
AcDbEntity
  8
0
  6
DOT
 62
     7
100
AcDbLine
 10
596.5947275658754
 20
182.0989336317874
 30
0.0
 11
597.2377905961868
 21
185.042020826054
 31
0.0
  0
LINE
  5
319
330
1F
100
AcDbEntity
  8
0
  6
CONTINUOUS
 62
     7
100
AcDbLine
 10
598.021833778652
 20
187.0989336317848
 30
0.0
 11
598.021833778652
 21
180.0989336317848
 31
0.0
  0
LINE
  5
31A
330
1F
100
AcDbEntity
  8
0
  6
CONTINUOUS
 62
   253
100
AcDbLine
 10
600.2783291706288
 20
181.1874843727928
 30
0.0
 11
600.278329170628
 21
186.010382890777
 31
0.0
  0
LINE
  5
31B
330
1F
100
AcDbEntity
  8
0
  6
CONTINUOUS
 62
     7
100
AcDbLine
 10
598.021833778652
 20
230.1510663682151
 30
0.0
 11
598.021833778652
 21
237.1510663682151
 31
0.0
  0
LINE
  5
31C
330
1F
100
AcDbEntity
  8
0
  6
CONTINUOUS
 62
   253
100
AcDbLine
 10
701.5259541053422
 20
245.8407881781272
 30
0.0
 11
703.0257256480769
 21
246.1202864289676
 31
0.0
  0
ARC
  5
31D
330
1F
100
AcDbEntity
  8
0
  6
CONTINUOUS
 62
     7
100
AcDbCircle
 10
706.5000000000159
 20
262.1250000000001
 30
0.0
 40
10.00000000000001
100
AcDbArc
 50
359.9999999999998
 51
90.0
  0
LINE
  5
31E
330
1F
100
AcDbEntity
  8
0
  6
CONTINUOUS
 62
   253
100
AcDbLine
 10
595.0000000000157
 20
259.900725648061
 30
0.0
 11
701.5259541053421
 21
259.900725648061
 31
0.0
  0
ELLIPSE
  5
31F
330
1F
100
AcDbEntity
  8
0
  6
CONTINUOUS
 62
   253
100
AcDbEllipse
 10
702.6590169557631
 20
240.525
 30
0.0
 11
2.400365587305497
 21
0.0
 31
0.0
210
0.0
220
0.0
230
-1.0
 40
0.9998476951563472
 41
2.062397005918057
 42
3.141592653589793
  0
LINE
  5
320
330
1F
100
AcDbEntity
  8
0
  6
CONTINUOUS
 62
     7
100
AcDbLine
 10
599.0218337786523
 20
230.2753836785116
 30
0.0
 11
599.0218337786523
 21
230.238555031741
 31
0.0
  0
LINE
  5
321
330
1F
100
AcDbEntity
  8
0
  6
CONTINUOUS
 62
     7
100
AcDbLine
 10
592.5000000000158
 20
145.125
 30
0.0
 11
706.5000000000156
 21
145.125
 31
0.0
  0
LINE
  5
322
330
1F
100
AcDbEntity
  8
0
  6
CONTINUOUS
 62
     7
100
AcDbLine
 10
716.5000000000159
 20
155.125
 30
0.0
 11
716.5000000000159
 21
262.1249999999998
 31
0.0
  0
ELLIPSE
  5
323
330
1F
100
AcDbEntity
  8
0
  6
CONTINUOUS
 62
     7
100
AcDbEllipse
 10
703.1544887708021
 20
179.1202864289676
 30
0.0
 11
0.5000761640219231
 21
0.0
 31
0.0
210
0.0
220
0.0
230
-1.0
 40
0.9998476951563425
 41
0.0
 42
1.508112498867978
  0
ELLIPSE
  5
324
330
1F
100
AcDbEntity
  8
0
  6
CONTINUOUS
 62
   253
100
AcDbEllipse
 10
702.6590169557631
 20
173.525
 30
0.0
 11
2.400365587305497
 21
0.0
 31
0.0
210
0.0
220
0.0
230
-1.0
 40
0.9998476951563472
 41
2.062397005918057
 42
3.141592653589793
  0
LINE
  5
325
330
1F
100
AcDbEntity
  8
0
  6
CONTINUOUS
 62
     7
100
AcDbLine
 10
600.5134028190408
 20
184.0989336317848
 30
0.0
 11
600.3677738660039
 21
184.0989336317848
 31
0.0
  0
ELLIPSE
  5
326
330
1F
100
AcDbEntity
  8
0
  6
CONTINUOUS
 62
     7
100
AcDbEllipse
 10
595.0000000000157
 20
158.2206635572576
 30
0.0
 11
0.0
 21
-1.500228492065853
 31
0.0
210
0.0
220
0.0
230
-1.0
 40
0.999847695156287
 41
0.0
 42
1.570796326794901
  0
ARC
  5
327
330
1F
100
AcDbEntity
  8
0
  6
CONTINUOUS
 62
     7
100
AcDbCircle
 10
706.5000000000159
 20
155.125
 30
0.0
 40
10.00000000000001
100
AcDbArc
 50
270.0
 51
359.9999999999998
  0
LINE
  5
328
330
1F
100
AcDbEntity
  8
0
  6
CONTINUOUS
 62
     7
100
AcDbLine
 10
599.0218337786523
 20
186.9746163214884
 30
0.0
 11
599.0218337786523
 21
187.011444968259
 31
0.0
  0
LINE
  5
329
330
1F
100
AcDbEntity
  8
0
  6
CONTINUOUS
 62
     7
100
AcDbLine
 10
599.1412489684704
 20
186.964054508527
 30
0.0
 11
599.0218337786522
 21
186.9746163214884
 31
0.0
  0
LINE
  5
32A
330
1F
100
AcDbEntity
  8
0
  6
DOT
 62
     7
100
AcDbLine
 10
596.1362479131989
 20
185.5634617604032
 30
0.0
 11
595.5169589391282
 21
181.6370539781504
 31
0.0
  0
ARC
  5
32B
330
1F
100
AcDbEntity
  8
0
  6
CONTINUOUS
 62
     7
100
AcDbCircle
 10
592.5000000000158
 20
155.125
 30
0.0
 40
10.00000000000001
100
AcDbArc
 50
180.0
 51
270.0
  0
LINE
  5
32C
330
1F
100
AcDbEntity
  8
0
  6
CONTINUOUS
 62
     7
100
AcDbLine
 10
595.0000000000157
 20
156.7204350651918
 30
0.0
 11
702.1547933920891
 21
156.7204350651918
 31
0.0
  0
ELLIPSE
  5
32D
330
1F
100
AcDbEntity
  8
0
  6
CONTINUOUS
 62
   253
100
AcDbEllipse
 10
595.0000000000157
 20
158.8490458946734
 30
0.0
 11
1.500000000000057
 21
0.0
 31
0.0
210
0.0
220
0.0
230
1.0
 40
0.9998476951563556
 41
3.141592653589793
 42
4.71238898038469
  0
LINE
  5
32E
330
1F
100
AcDbEntity
  8
0
  6
CONTINUOUS
 62
   253
100
AcDbLine
 10
703.0257256480769
 20
171.1297135710322
 30
0.0
 11
701.5259541053423
 21
171.4092118218726
 31
0.0
  0
LINE
  5
32F
330
1F
100
AcDbEntity
  8
0
  6
CONTINUOUS
 62
     7
100
AcDbLine
 10
702.1547933920895
 20
260.5295649348081
 30
0.0
 11
595.0000000000159
 21
260.5295649348081
 31
0.0
  0
LINE
  5
330
330
1F
100
AcDbEntity
  8
0
  6
CONTINUOUS
 62
   253
100
AcDbLine
 10
701.5259541053422
 20
157.349274351939
 30
0.0
 11
595.0000000000158
 21
157.349274351939
 31
0.0
  0
ELLIPSE
  5
331
330
1F
100
AcDbEntity
  8
0
  6
CONTINUOUS
 62
   253
100
AcDbEllipse
 10
595.0000000000157
 20
258.4009541053264
 30
0.0
 11
-1.499999999999835
 21
0.0
 31
0.0
210
0.0
220
0.0
230
1.0
 40
0.9998476951564482
 41
4.71238898038469
 42
6.283185307179586
  0
LINE
  5
332
330
1F
100
AcDbEntity
  8
0
  6
CONTINUOUS
 62
   253
100
AcDbLine
 10
703.0257256480769
 20
238.1297135710322
 30
0.0
 11
701.5259541053423
 21
238.4092118218726
 31
0.0
  0
LINE
  5
333
330
1F
100
AcDbEntity
  8
0
  6
CONTINUOUS
 62
     7
100
AcDbLine
 10
706.5000000000159
 20
272.1250000000001
 30
0.0
 11
592.5000000000159
 21
272.1250000000001
 31
0.0
  0
LINE
  5
334
330
1F
100
AcDbEntity
  8
0
  6
CONTINUOUS
 62
     7
100
AcDbLine
 10
593.5000000000159
 20
259.0293364427422
 30
0.0
 11
593.5000000000159
 21
158.2206635572576
 31
0.0
  0
ELLIPSE
  5
335
330
1F
100
AcDbEntity
  8
0
  6
CONTINUOUS
 62
   253
100
AcDbEllipse
 10
701.5259541053422
 20
258.4009541053264
 30
0.0
 11
-1.060660171779748
 21
1.060660171779859
 31
0.0
210
0.0
220
0.0
230
1.0
 40
0.9996954598818796
 41
3.927143110234804
 42
5.497634850534535
  0
ARC
  5
336
330
1F
100
AcDbEntity
  8
0
  6
CONTINUOUS
 62
     7
100
AcDbCircle
 10
-591.6218337786521
 20
183.5989336317848
 30
0.0
 40
8.986100377805784
210
0.0
220
0.0
230
-1.0
100
AcDbArc
 50
164.4337007783942
 51
171.681953253804
  0
LINE
  5
337
330
1F
100
AcDbEntity
  8
0
  6
CONTINUOUS
 62
   253
100
AcDbLine
 10
700.2586513684579
 20
173.525
 30
0.0
 11
700.2586513684579
 21
176.725
 31
0.0
  0
LINE
  5
338
330
1F
100
AcDbEntity
  8
0
  6
CONTINUOUS
 62
     7
100
AcDbLine
 10
599.0218337786523
 20
180.1864222953108
 30
0.0
 11
599.0218337786523
 21
180.2232509420814
 31
0.0
  0
ELLIPSE
  5
339
330
1F
100
AcDbEntity
  8
0
  6
CONTINUOUS
 62
     7
100
AcDbEllipse
 10
703.1544887708021
 20
171.1297135710322
 30
0.0
 11
0.5000761640219231
 21
0.0
 31
0.0
210
0.0
220
0.0
230
-1.0
 40
0.9998476951564536
 41
4.77507280831162
 42
6.283185307179586
  0
LINE
  5
33A
330
1F
100
AcDbEntity
  8
0
  6
CONTINUOUS
 62
     7
100
AcDbLine
 10
600.5134028190408
 20
184.8989336317848
 30
0.0
 11
600.5134028190408
 21
184.0989336317848
 31
0.0
  0
ELLIPSE
  5
33B
330
1F
100
AcDbEntity
  8
0
  6
CONTINUOUS
 62
     7
100
AcDbEllipse
 10
703.3048543581073
 20
176.725
 30
0.0
 11
1.900289423283352
 21
0.0
 31
0.0
210
0.0
220
0.0
230
1.0
 40
0.9998476951564068
 41
1.633480154721828
 42
3.141592653589793
  0
LINE
  5
33C
330
1F
100
AcDbEntity
  8
0
  6
CONTINUOUS
 62
   253
100
AcDbLine
 10
599.1412489684704
 20
186.964054508527
 30
0.0
 11
599.1412489684704
 21
180.2338127550428
 31
0.0
  0
LINE
  5
33D
330
1F
100
AcDbEntity
  8
0
  6
CONTINUOUS
 62
     7
100
AcDbLine
 10
599.0218337786523
 20
180.2232509420814
 30
0.0
 11
599.1412489684706
 21
180.2338127550428
 31
0.0
  0
SPLINE
  5
33E
330
1F
100
AcDbEntity
  8
0
  6
DOT
 62
     7
100
AcDbSpline
210
0.0
220
0.0
230
1.0
 70
     8
 71
     3
 72
     9
 73
     5
 74
     0
 42
0.000000001
 43
0.0001
 40
0.028303137831991
 40
0.028303137831991
 40
0.028303137831991
 40
0.028303137831991
 40
0.028853418207322
 40
0.0288864212898067
 40
0.0288864212898067
 40
0.0288864212898067
 40
0.0288864212898067
 10
594.1072882669505
 20
181.637613587507
 30
0.0
 10
594.0801478373216
 20
181.5907310094914
 30
0.0
 10
594.0513796595887
 20
181.5862931959822
 30
0.0
 10
594.0226114818558
 20
181.6316362529896
 30
0.0
 10
594.0209837337516
 20
181.6343597454508
 30
0.0
  0
LINE
  5
33F
330
1F
100
AcDbEntity
  8
0
  6
CONTINUOUS
 62
     7
100
AcDbLine
 10
701.404564934824
 20
240.525
 30
0.0
 11
701.404564934824
 21
243.7250000000001
 31
0.0
  0
ELLIPSE
  5
340
330
1F
100
AcDbEntity
  8
0
  6
CONTINUOUS
 62
     7
100
AcDbEllipse
 10
703.1544887708021
 20
246.1202864289676
 30
0.0
 11
0.5000761640219231
 21
0.0
 31
0.0
210
0.0
220
0.0
230
-1.0
 40
0.9998476951563425
 41
0.0
 42
1.508112498867952
  0
ELLIPSE
  5
341
330
1F
100
AcDbEntity
  8
0
  6
CONTINUOUS
 62
     7
100
AcDbEllipse
 10
595.0000000000157
 20
259.0293364427422
 30
0.0
 11
0.0
 21
1.50022849206588
 31
0.0
210
0.0
220
0.0
230
-1.0
 40
0.9998476951564166
 41
4.71238898038469
 42
6.283185307179586
  0
ELLIPSE
  5
342
330
1F
100
AcDbEntity
  8
0
  6
CONTINUOUS
 62
     7
100
AcDbEllipse
 10
703.3048543581073
 20
240.525
 30
0.0
 11
1.900289423283352
 21
0.0
 31
0.0
210
0.0
220
0.0
230
1.0
 40
0.9998476951564068
 41
3.141592653589793
 42
4.649705152457766
  0
LINE
  5
343
330
1F
100
AcDbEntity
  8
0
  6
CONTINUOUS
 62
   253
100
AcDbLine
 10
701.5259541053422
 20
178.8407881781272
 30
0.0
 11
703.0257256480769
 21
179.1202864289676
 31
0.0
  0
ELLIPSE
  5
344
330
1F
100
AcDbEntity
  8
0
  6
CONTINUOUS
 62
     7
100
AcDbEllipse
 10
703.3048543581073
 20
243.7250000000001
 30
0.0
 11
1.900289423283352
 21
0.0
 31
0.0
210
0.0
220
0.0
230
1.0
 40
0.9998476951564068
 41
1.63348015472182
 42
3.141592653589793
  0
LINE
  5
345
330
1F
100
AcDbEntity
  8
0
  6
CONTINUOUS
 62
     7
100
AcDbLine
 10
600.3677738660039
 20
183.0989336317848
 30
0.0
 11
600.5134028190408
 21
183.0989336317848
 31
0.0
  0
LINE
  5
346
330
1F
100
AcDbEntity
  8
0
  6
DOT
 62
     7
100
AcDbLine
 10
595.1846661738465
 20
182.098933631785
 30
0.0
 11
595.8302647876204
 21
185.0463506185839
 31
0.0
  0
ELLIPSE
  5
347
330
1F
100
AcDbEntity
  8
0
  6
CONTINUOUS
 62
   253
100
AcDbEllipse
 10
702.6590169557631
 20
243.7250000000001
 30
0.0
 11
2.400365587305497
 21
0.0
 31
0.0
210
0.0
220
0.0
230
-1.0
 40
0.9998476951563472
 41
3.141592653589793
 42
4.220788301261527
  0
ARC
  5
348
330
1F
100
AcDbEntity
  8
0
  6
CONTINUOUS
 62
     7
100
AcDbCircle
 10
-591.6218337786521
 20
183.5989336317848
 30
0.0
 40
8.986100377805784
210
0.0
220
0.0
230
-1.0
100
AcDbArc
 50
188.3180467461959
 51
195.5662992216056
  0
ELLIPSE
  5
349
330
1F
100
AcDbEntity
  8
0
  6
CONTINUOUS
 62
     7
100
AcDbEllipse
 10
703.3048543581073
 20
173.525
 30
0.0
 11
1.900289423283352
 21
0.0
 31
0.0
210
0.0
220
0.0
230
1.0
 40
0.9998476951564068
 41
3.141592653589795
 42
4.649705152457758
  0
LINE
  5
34A
330
1F
100
AcDbEntity
  8
0
  6
DOT
 62
     7
100
AcDbLine
 10
596.4670160361187
 20
185.0989336317838
 30
0.0
 11
595.8195637891731
 21
182.1483375846174
 31
0.0
  0
ELLIPSE
  5
34B
330
1F
100
AcDbEntity
  8
0
  6
CONTINUOUS
 62
     7
100
AcDbEllipse
 10
703.1544887708021
 20
238.1297135710322
 30
0.0
 11
0.5000761640219231
 21
0.0
 31
0.0
210
0.0
220
0.0
230
-1.0
 40
0.9998476951563425
 41
4.775072808311632
 42
6.283185307179586
  0
LINE
  5
34C
330
1F
100
AcDbEntity
  8
0
  6
CONTINUOUS
 62
     7
100
AcDbLine
 10
701.404564934824
 20
176.725
 30
0.0
 11
701.404564934824
 21
173.525
 31
0.0
  0
LINE
  5
34D
330
1F
100
AcDbEntity
  8
0
  6
DOT
 62
     7
100
AcDbLine
 10
597.8769385708121
 20
185.098933631782
 30
0.0
 11
597.2296190722982
 21
182.1482864955664
 31
0.0
  0
LINE
  5
34E
330
1F
100
AcDbEntity
  8
0
  6
CONTINUOUS
 62
     7
100
AcDbLine
 10
600.3677738660039
 20
184.0989336317848
 30
0.0
 11
600.3677738660039
 21
183.0989336317848
 31
0.0
  0
LINE
  5
34F
330
1F
100
AcDbEntity
  8
0
  6
DOT
 62
     7
100
AcDbLine
 10
595.0569083710682
 20
185.0989336317826
 30
0.0
 11
594.4098303607421
 21
182.1486876241948
 31
0.0
  0
LINE
  5
350
330
1F
100
AcDbEntity
  8
0
  6
CONTINUOUS
 62
     7
100
AcDbLine
 10
599.0218337786523
 20
237.0267490579186
 30
0.0
 11
599.1412489684706
 21
237.0161872449572
 31
0.0
  0
LINE
  5
351
330
1F
100
AcDbEntity
  8
0
  6
CONTINUOUS
 62
     7
100
AcDbLine
 10
580.499999999984
 20
143.625
 30
0.0
 11
580.499999999984
 21
143.125
 31
0.0
  0
LINE
  5
352
330
1F
100
AcDbEntity
  8
0
  6
CONTINUOUS
 62
     7
100
AcDbLine
 10
600.3677738660039
 20
234.1510663682151
 30
0.0
 11
600.5134028190408
 21
234.1510663682151
 31
0.0
  0
LINE
  5
353
330
1F
100
AcDbEntity
  8
0
  6
CONTINUOUS
 62
     7
100
AcDbLine
 10
580.4999999999525
 20
145.125
 30
0.0
 11
580.4999999999525
 21
272.1250000000001
 31
0.0
  0
LINE
  5
354
330
1F
100
AcDbEntity
  8
0
  6
DOT
 62
     7
100
AcDbLine
 10
596.1362479131989
 20
231.6865382395966
 30
0.0
 11
595.5169589391282
 21
235.6129460218494
 31
0.0
  0
LINE
  5
355
330
1F
100
AcDbEntity
  8
0
  6
DOT
 62
     7
100
AcDbLine
 10
597.5445590112773
 20
185.5605172291796
 30
0.0
 11
596.9268606417068
 21
181.636572798117
 31
0.0
  0
ARC
  5
356
330
1F
100
AcDbEntity
  8
0
  6
CONTINUOUS
 62
     7
100
AcDbCircle
 10
-583.9999999999841
 20
273.1250000000001
 30
0.0
 40
0.4999999999999449
210
0.0
220
0.0
230
-1.0
100
AcDbArc
 50
90.0
 51
180.0
  0
ARC
  5
357
330
1F
100
AcDbEntity
  8
0
  6
CONTINUOUS
 62
     7
100
AcDbCircle
 10
591.6218337786521
 20
233.6510663682151
 30
0.0
 40
8.986100377805561
100
AcDbArc
 50
8.318046746195945
 51
15.5662992216056
  0
LINE
  5
358
330
1F
100
AcDbEntity
  8
0
  6
CONTINUOUS
 62
   253
100
AcDbLine
 10
700.2586513684579
 20
240.525
 30
0.0
 11
700.2586513684579
 21
243.7250000000001
 31
0.0
  0
SPLINE
  5
359
330
1F
100
AcDbEntity
  8
0
  6
DOT
 62
     7
100
AcDbSpline
210
0.0
220
0.0
230
1.0
 70
     8
 71
     3
 72
     9
 73
     5
 74
     0
 42
0.000000001
 43
0.0001
 40
0.0330527597591805
 40
0.0330527597591805
 40
0.0330527597591805
 40
0.0330527597591805
 40
0.0334984546364657
 40
0.0336394599485281
 40
0.0336394599485281
 40
0.0336394599485281
 40
0.0336394599485281
 10
594.810563453689
 20
185.5631339222336
 30
0.0
 10
594.7885812951474
 20
185.5997511562232
 30
0.0
 10
594.7596446004803
 20
185.6111799698258
 30
0.0
 10
594.7307079058135
 20
185.5718190251316
 30
0.0
 10
594.7237533696881
 20
185.5595240933914
 30
0.0
  0
ARC
  5
35A
330
1F
100
AcDbEntity
  8
0
  6
CONTINUOUS
 62
     7
100
AcDbCircle
 10
591.6218337786521
 20
233.6510663682151
 30
0.0
 40
8.986100377805561
100
AcDbArc
 50
344.4337007783942
 51
351.681953253804
  0
LINE
  5
35B
330
1F
100
AcDbEntity
  8
0
  6
CONTINUOUS
 62
     7
100
AcDbLine
 10
600.5134028190408
 20
234.1510663682151
 30
0.0
 11
600.5134028190408
 21
234.951066368215
 31
0.0
  0
ARC
  5
35C
330
1F
100
AcDbEntity
  8
0
  6
CONTINUOUS
 62
     7
100
AcDbCircle
 10
-583.9999999999841
 20
144.125
 30
0.0
 40
0.4999999999999449
210
0.0
220
0.0
230
-1.0
100
AcDbArc
 50
90.0
 51
180.0
  0
LINE
  5
35D
330
1F
100
AcDbEntity
  8
0
  6
DOT
 62
     7
100
AcDbLine
 10
594.7237533696881
 20
185.5595240933914
 30
0.0
 11
594.1072882669505
 21
181.637613587507
 31
0.0
  0
ARC
  5
35E
330
1F
100
AcDbEntity
  8
0
  6
CONTINUOUS
 62
     7
100
AcDbCircle
 10
-589.5000000000159
 20
144.625
 30
0.0
 40
1.000000000000112
210
0.0
220
0.0
230
-1.0
100
AcDbArc
 50
180.0
 51
270.0
  0
LINE
  5
35F
330
1F
100
AcDbEntity
  8
0
  6
DOT
 62
     7
100
AcDbLine
 10
594.7237533696881
 20
231.6904759066086
 30
0.0
 11
594.1072882669505
 21
235.6123864124928
 31
0.0
  0
ARC
  5
360
330
1F
100
AcDbEntity
  8
0
  6
CONTINUOUS
 62
     7
100
AcDbCircle
 10
-583.9999999999841
 20
144.125
 30
0.0
 40
0.4999999999999449
210
0.0
220
0.0
230
-1.0
100
AcDbArc
 50
180.0
 51
270.0
  0
LINE
  5
361
330
1F
100
AcDbEntity
  8
0
  6
CONTINUOUS
 62
     7
100
AcDbLine
 10
599.1412489684704
 20
230.285945491473
 30
0.0
 11
599.0218337786522
 21
230.2753836785116
 31
0.0
  0
SPLINE
  5
362
330
1F
100
AcDbEntity
  8
0
  6
DOT
 62
     7
100
AcDbSpline
210
0.0
220
0.0
230
1.0
 70
     8
 71
     3
 72
     9
 73
     5
 74
     0
 42
0.000000001
 43
0.0001
 40
0.0378294362658793
 40
0.0378294362658793
 40
0.0378294362658793
 40
0.0378294362658793
 40
0.0381916339767292
 40
0.0384135869388601
 40
0.0384135869388601
 40
0.0384135869388601
 40
0.0384135869388601
 10
595.5169589391282
 20
235.6129460218494
 30
0.0
 10
595.4990949521068
 20
235.6437670497892
 30
0.0
 10
595.470284002374
 20
235.6637476161094
 30
0.0
 10
595.4414730526412
 20
235.6331469704118
 30
0.0
 10
595.4305260899297
 20
235.6145413913776
 30
0.0
  0
LINE
  5
363
330
1F
100
AcDbEntity
  8
0
  6
CONTINUOUS
 62
     7
100
AcDbLine
 10
580.4999999999525
 20
274.1250000000001
 30
0.0
 11
580.4999999999525
 21
292.625
 31
0.0
  0
LINE
  5
364
330
1F
100
AcDbEntity
  8
0
  6
CONTINUOUS
 62
     7
100
AcDbLine
 10
587.5819864918445
 20
144.625
 30
0.0
 11
583.6943803090901
 21
124.625
 31
0.0
  0
LINE
  5
365
330
1F
100
AcDbEntity
  8
0
  6
CONTINUOUS
 62
     7
100
AcDbLine
 10
580.4999999999525
 20
124.625
 30
0.0
 11
580.4999999999525
 21
143.125
 31
0.0
  0
LINE
  5
366
330
1F
100
AcDbEntity
  8
0
  6
CONTINUOUS
 62
     7
100
AcDbLine
 10
583.9999999999841
 20
143.625
 30
0.0
 11
580.4999999999841
 21
143.625
 31
0.0
  0
ARC
  5
367
330
1F
100
AcDbEntity
  8
0
  6
CONTINUOUS
 62
     7
100
AcDbCircle
 10
-589.5000000000159
 20
272.625
 30
0.0
 40
1.000000000000112
210
0.0
220
0.0
230
-1.0
100
AcDbArc
 50
90.0
 51
180.0
  0
ARC
  5
368
330
1F
100
AcDbEntity
  8
0
  6
CONTINUOUS
 62
     7
100
AcDbCircle
 10
-583.9999999999841
 20
273.1250000000001
 30
0.0
 40
0.4999999999999449
210
0.0
220
0.0
230
-1.0
100
AcDbArc
 50
180.0
 51
270.0
  0
LINE
  5
369
330
1F
100
AcDbEntity
  8
0
  6
CONTINUOUS
 62
     7
100
AcDbLine
 10
599.0218337786523
 20
237.0635777046892
 30
0.0
 11
599.0218337786523
 21
237.0267490579186
 31
0.0
  0
SPLINE
  5
36A
330
1F
100
AcDbEntity
  8
0
  6
DOT
 62
     7
100
AcDbSpline
210
0.0
220
0.0
230
1.0
 70
     8
 71
     3
 72
     9
 73
     5
 74
     0
 42
0.000000001
 43
0.0001
 40
0.0473528707970633
 40
0.0473528707970633
 40
0.0473528707970633
 40
0.0473528707970633
 40
0.0475285472470567
 40
0.047942313991538
 40
0.047942313991538
 40
0.047942313991538
 40
0.047942313991538
 10
596.9268606417066
 20
181.636572798117
 30
0.0
 10
596.9181960871592
 20
181.6216057842326
 30
0.0
 10
596.8891241044811
 20
181.5861106668366
 30
0.0
 10
596.8600521218026
 20
181.602011475255
 30
0.0
 10
596.8396446936721
 20
181.6372126633944
 30
0.0
  0
LINE
  5
36B
330
1F
100
AcDbEntity
  8
0
  6
DOT
 62
     7
100
AcDbLine
 10
593.774753948314
 20
182.0989336317876
 30
0.0
 11
594.4151818553814
 21
185.0372270633
 31
0.0
  0
SPLINE
  5
36C
330
1F
100
AcDbEntity
  8
0
  6
DOT
 62
     7
100
AcDbSpline
210
0.0
220
0.0
230
1.0
 70
     8
 71
     3
 72
     9
 73
     5
 74
     0
 42
0.000000001
 43
0.0001
 40
0.0425990103551592
 40
0.0425990103551592
 40
0.0425990103551592
 40
0.0425990103551592
 40
0.0428599220771758
 40
0.043169925106794
 40
0.043169925106794
 40
0.043169925106794
 40
0.043169925106794
 10
596.2207223320701
 20
185.5630514636721
 30
0.0
 10
596.2078538807349
 20
185.5846968572244
 30
0.0
 10
596.179695741111
 20
185.6110131065134
 30
0.0
 10
596.1515376014872
 20
185.5889736072046
 30
0.0
 10
596.1362479131989
 20
185.5634617604032
 30
0.0
  0
SPLINE
  5
36D
330
1F
100
AcDbEntity
  8
0
  6
DOT
 62
     7
100
AcDbSpline
210
0.0
220
0.0
230
1.0
 70
     8
 71
     3
 72
     9
 73
     5
 74
     0
 42
0.000000001
 43
0.0001
 40
0.0378294362658793
 40
0.0378294362658793
 40
0.0378294362658793
 40
0.0378294362658793
 40
0.0381916339767292
 40
0.0384135869388601
 40
0.0384135869388601
 40
0.0384135869388601
 40
0.0384135869388601
 10
595.5169589391282
 20
181.6370539781504
 30
0.0
 10
595.4990949521068
 20
181.6062329502108
 30
0.0
 10
595.470284002374
 20
181.5862523838906
 30
0.0
 10
595.4414730526412
 20
181.616853029588
 30
0.0
 10
595.4305260899297
 20
181.6354586086222
 30
0.0
  0
LINE
  5
36E
330
1F
100
AcDbEntity
  8
0
  6
CONTINUOUS
 62
     7
100
AcDbLine
 10
600.5134028190408
 20
233.1510663682151
 30
0.0
 11
600.3677738660039
 21
233.1510663682151
 31
0.0
  0
SPLINE
  5
36F
330
1F
100
AcDbEntity
  8
0
  6
DOT
 62
     7
100
AcDbSpline
210
0.0
220
0.0
230
1.0
 70
     8
 71
     3
 72
     9
 73
     5
 74
     0
 42
0.000000001
 43
0.0001
 40
0.0473528707970633
 40
0.0473528707970633
 40
0.0473528707970633
 40
0.0473528707970633
 40
0.0475285472470567
 40
0.047942313991538
 40
0.047942313991538
 40
0.047942313991538
 40
0.047942313991538
 10
596.9268606417066
 20
235.613427201883
 30
0.0
 10
596.9181960871592
 20
235.6283942157672
 30
0.0
 10
596.8891241044811
 20
235.6638893331634
 30
0.0
 10
596.8600521218026
 20
235.647988524745
 30
0.0
 10
596.8396446936721
 20
235.6127873366056
 30
0.0
  0
ELLIPSE
  5
370
330
1F
100
AcDbEntity
  8
0
  6
CONTINUOUS
 62
   253
100
AcDbEllipse
 10
702.6590169557631
 20
176.725
 30
0.0
 11
2.400365587305497
 21
0.0
 31
0.0
210
0.0
220
0.0
230
-1.0
 40
0.9998476951563472
 41
3.141592653589793
 42
4.220788301261527
  0
LINE
  5
371
330
1F
100
AcDbEntity
  8
0
  6
CONTINUOUS
 62
     7
100
AcDbLine
 10
600.3677738660039
 20
233.1510663682151
 30
0.0
 11
600.3677738660039
 21
234.1510663682151
 31
0.0
  0
SPLINE
  5
372
330
1F
100
AcDbEntity
  8
0
  6
DOT
 62
     7
100
AcDbSpline
210
0.0
220
0.0
230
1.0
 70
     8
 71
     3
 72
     9
 73
     5
 74
     0
 42
0.000000001
 43
0.0001
 40
0.052116987412925
 40
0.052116987412925
 40
0.052116987412925
 40
0.052116987412925
 40
0.052192354977246
 40
0.0526996292626329
 40
0.0526996292626329
 40
0.0526996292626329
 40
0.0526996292626329
 10
597.6307686100364
 20
185.5633287198806
 30
0.0
 10
597.6270513993791
 20
185.5695751257452
 30
0.0
 10
597.5983148664592
 20
185.6115378270038
 30
0.0
 10
597.5695783335398
 20
185.6036177174046
 30
0.0
 10
597.5445590112773
 20
185.5605172291796
 30
0.0
  0
LINE
  5
373
330
1F
100
AcDbEntity
  8
0
  6
DOT
 62
     7
100
AcDbLine
 10
593.6467535507848
 20
185.0989336317818
 30
0.0
 11
593.5000011559397
 21
184.7890255266922
 31
0.0
  0
LINE
  5
374
330
1F
100
AcDbEntity
  8
1
  6
CONTINUOUS
 62
     7
100
AcDbLine
 10
681.4108241008148
 20
210.6252377041998
 30
0.0
 11
681.2499907732148
 21
210.1749861722
 31
0.0
  0
LINE
  5
375
330
1F
100
AcDbEntity
  8
1
  6
CONTINUOUS
 62
     7
100
AcDbLine
 10
688.9999907734152
 20
215.1249999828497
 30
0.0
 11
682.4999939851156
 21
215.124999983
 31
0.0
  0
ARC
  5
376
330
1F
100
AcDbEntity
  8
1
  6
CONTINUOUS
 62
     7
100
AcDbCircle
 10
679.9999907651656
 20
215.32499998295
 30
0.0
 40
1.00000000005096
100
AcDbArc
 50
315.5959644116
 51
345.5259790097
  0
ARC
  5
377
330
1F
100
AcDbEntity
  8
1
  6
CONTINUOUS
 62
     7
100
AcDbCircle
 10
679.9999907651656
 20
207.3249999633501
 30
0.0
 40
1.00000000005096
100
AcDbArc
 50
315.5059114997
 51
345.5259790097
  0
LINE
  5
378
330
1F
100
AcDbEntity
  8
1
  6
CONTINUOUS
 62
     7
100
AcDbLine
 10
677.4999953774643
 20
217.1249999829498
 30
0.0
 11
682.4999928109139
 21
217.1249999739498
 31
0.0
  0
ARC
  5
379
330
1F
100
AcDbEntity
  8
1
  6
CONTINUOUS
 62
     7
100
AcDbCircle
 10
679.9999907651656
 20
207.3249999633501
 30
0.0
 40
1.00000000005096
100
AcDbArc
 50
194.4741459288
 51
224.5020872451
  0
LINE
  5
37A
330
1F
100
AcDbEntity
  8
1
  6
CONTINUOUS
 62
     7
100
AcDbLine
 10
680.9682536317156
 20
207.07505896175
 30
0.0
 11
681.249990773516
 21
207.0750592689498
 31
0.0
  0
LINE
  5
37B
330
1F
100
AcDbEntity
  8
1
  6
CONTINUOUS
 62
     7
100
AcDbLine
 10
678.7499907734657
 20
207.07505925875
 30
0.0
 11
679.0317334484665
 21
207.07506001265
 31
0.0
  0
LINE
  5
37C
330
1F
100
AcDbEntity
  8
1
  6
CONTINUOUS
 62
     7
100
AcDbLine
 10
682.4999939851155
 20
202.1750459786
 30
0.0
 11
682.4999928109147
 21
200.12499996335
 31
0.0
  0
LINE
  5
37D
330
1F
100
AcDbEntity
  8
1
  6
CONTINUOUS
 62
     7
100
AcDbLine
 10
678.7499907734657
 20
202.1749406681
 30
0.0
 11
679.0317334484665
 21
202.1749399142002
 31
0.0
  0
LINE
  5
37E
330
1F
100
AcDbEntity
  8
1
  6
CONTINUOUS
 62
     7
100
AcDbLine
 10
677.4999953774643
 20
200.12499996335
 30
0.0
 11
682.4999928109139
 21
200.1249999724998
 31
0.0
  0
LINE
  5
37F
330
1F
100
AcDbEntity
  8
1
  6
CONTINUOUS
 62
     7
100
AcDbLine
 10
680.9682536317156
 20
202.17494096495
 30
0.0
 11
681.249990773516
 21
202.1749406579
 31
0.0
  0
LINE
  5
380
330
1F
100
AcDbEntity
  8
1
  6
CONTINUOUS
 62
     7
100
AcDbLine
 10
680.9682536317156
 20
210.1749409845502
 30
0.0
 11
681.249990773516
 21
210.1749406775
 31
0.0
  0
LINE
  5
381
330
1F
100
AcDbEntity
  8
1
  6
CONTINUOUS
 62
     7
100
AcDbLine
 10
682.4999939851155
 20
215.0750002694
 30
0.0
 11
682.4999928109148
 21
217.12499998295
 31
0.0
  0
LINE
  5
382
330
1F
100
AcDbEntity
  8
1
  6
CONTINUOUS
 62
     7
100
AcDbLine
 10
678.7499907734657
 20
210.1750024606998
 30
0.0
 11
678.589042955366
 21
210.6254346707
 31
0.0
  0
LINE
  5
383
330
1F
100
AcDbEntity
  8
1
  6
CONTINUOUS
 62
     7
100
AcDbLine
 10
677.4999262522146
 20
210.62551069355
 30
0.0
 11
677.4999931657146
 21
206.6239399956498
 31
0.0
  0
LINE
  5
384
330
1F
100
AcDbEntity
  8
1
  6
CONTINUOUS
 62
     7
100
AcDbLine
 10
678.7499907734657
 20
215.0749975053498
 30
0.0
 11
678.5893535918652
 21
214.6254346549998
 31
0.0
  0
LINE
  5
385
330
1F
100
AcDbEntity
  8
0
  6
DOT
 62
     7
100
AcDbLine
 10
593.7463222704338
 20
235.1510663682151
 30
0.0
 11
593.5000000000158
 21
235.1510663682151
 31
0.0
  0
LINE
  5
386
330
1F
100
AcDbEntity
  8
1
  6
CONTINUOUS
 62
     7
100
AcDbLine
 10
680.9682536317156
 20
215.07505898135
 30
0.0
 11
681.249990773516
 21
215.0750592885498
 31
0.0
  0
LINE
  5
387
330
1F
100
AcDbEntity
  8
1
  6
CONTINUOUS
 62
     7
100
AcDbLine
 10
678.7499913638646
 20
217.1249999829498
 30
0.0
 11
678.7499907734649
 21
215.0749889820498
 31
0.0
  0
LINE
  5
388
330
1F
100
AcDbEntity
  8
1
  6
CONTINUOUS
 62
     7
100
AcDbLine
 10
688.9999907735644
 20
207.1249999827498
 30
0.0
 11
682.4999939851156
 21
207.1249999830496
 31
0.0
  0
LINE
  5
389
330
1F
100
AcDbEntity
  8
1
  6
CONTINUOUS
 62
     7
100
AcDbLine
 10
688.9999907734152
 20
210.1249999829001
 30
0.0
 11
682.4999939843655
 21
210.1249999830498
 31
0.0
  0
ARC
  5
38A
330
1F
100
AcDbEntity
  8
1
  6
CONTINUOUS
 62
     7
100
AcDbCircle
 10
681.9999940718651
 20
210.1749999787998
 30
0.0
 40
0.4999999999490967
100
AcDbArc
 50
0.0000000004999947
 51
64.20580017719999
  0
LINE
  5
38B
330
1F
100
AcDbEntity
  8
1
  6
CONTINUOUS
 62
     7
100
AcDbLine
 10
678.7499907734657
 20
215.0750592783498
 30
0.0
 11
679.0317334484665
 21
215.07506003225
 31
0.0
  0
ARC
  5
38C
330
1F
100
AcDbEntity
  8
1
  6
CONTINUOUS
 62
     7
100
AcDbCircle
 10
681.9999940718651
 20
207.0749999674998
 30
0.0
 40
0.4999999999490967
100
AcDbArc
 50
295.6491539253
 51
359.9999999995
  0
LINE
  5
38D
330
1F
100
AcDbEntity
  8
1
  6
CONTINUOUS
 62
     7
100
AcDbLine
 10
678.7499907734657
 20
210.1749406876999
 30
0.0
 11
679.0317334484665
 21
210.1749399338
 31
0.0
  0
ARC
  5
38E
330
1F
100
AcDbEntity
  8
1
  6
CONTINUOUS
 62
     7
100
AcDbCircle
 10
679.9999907651656
 20
201.9249999633498
 30
0.0
 40
1.00000000005096
100
AcDbArc
 50
135.6479936429
 51
165.5258540711001
  0
ARC
  5
38F
330
1F
100
AcDbEntity
  8
1
  6
CONTINUOUS
 62
     7
100
AcDbCircle
 10
679.9999907651656
 20
201.9249999633498
 30
0.0
 40
1.00000000005096
100
AcDbArc
 50
14.47402099039999
 51
44.36000511239997
  0
ARC
  5
390
330
1F
100
AcDbEntity
  8
1
  6
CONTINUOUS
 62
     7
100
AcDbCircle
 10
679.9999907651656
 20
209.92499998295
 30
0.0
 40
1.00000000005096
100
AcDbArc
 50
135.5420171249
 51
165.5258540712
  0
ARC
  5
391
330
1F
100
AcDbEntity
  8
1
  6
CONTINUOUS
 62
     7
100
AcDbCircle
 10
679.9999907651656
 20
215.32499998295
 30
0.0
 40
1.00000000005096
100
AcDbArc
 50
194.4741459288
 51
224.3960368328
  0
LINE
  5
392
330
1F
100
AcDbEntity
  8
0
  6
CENTER
 62
     1
100
AcDbLine
 10
841.7500000004272
 20
208.625
 30
0.0
 11
794.7500000004272
 21
208.625
 31
0.0
  0
LINE
  5
394
330
1F
100
AcDbEntity
  8
0
  6
CENTER
 62
     1
100
AcDbLine
 10
504.249999999351
 20
208.625
 30
0.0
 11
453.2499999993511
 21
208.625
 31
0.0
  0
LINE
  5
395
330
1F
100
AcDbEntity
  8
1
  6
CONTINUOUS
 62
     7
100
AcDbLine
 10
593.5000000000157
 20
255.125
 30
0.0
 11
593.5000000000157
 21
162.1250000000001
 31
0.0
  0
LINE
  5
396
330
1F
100
AcDbEntity
  8
1
  6
CONTINUOUS
 62
     7
100
AcDbLine
 10
688.9999907498643
 20
202.124999864
 30
0.0
 11
688.999990773564
 21
207.1249998443
 31
0.0
  0
LINE
  5
397
330
1F
100
AcDbEntity
  8
1
  6
________________
 62
     7
100
AcDbLine
 10
644.0000000000649
 20
156.1249999999998
 30
0.0
 11
644.0000000000649
 21
261.1249999999998
 31
0.0
  0
LINE
  5
398
330
1F
100
AcDbEntity
  8
1
  6
CONTINUOUS
 62
     7
100
AcDbLine
 10
678.7499913638646
 20
200.12499996335
 30
0.0
 11
678.7499907734649
 21
202.1750109644
 31
0.0
  0
ARC
  5
399
330
1F
100
AcDbEntity
  8
1
  6
CONTINUOUS
 62
     7
100
AcDbCircle
 10
690.5000000000649
 20
255.125
 30
0.0
 40
4.000000000051074
100
AcDbArc
 50
0.0
 51
90.0
  0
ARC
  5
39A
330
1F
100
AcDbEntity
  8
1
  6
CONTINUOUS
 62
     7
100
AcDbCircle
 10
597.5000000000649
 20
255.125
 30
0.0
 40
4.000000000049297
100
AcDbArc
 50
90.0
 51
180.0
  0
LINE
  5
39B
330
1F
100
AcDbEntity
  8
1
  6
CONTINUOUS
 62
     7
100
AcDbLine
 10
688.9999907734152
 20
210.1249998894498
 30
0.0
 11
688.9999907566154
 21
215.1249999209
 31
0.0
  0
LINE
  5
39C
330
1F
100
AcDbEntity
  8
1
  6
CONTINUOUS
 62
     7
100
AcDbLine
 10
681.410654261664
 20
214.62523772165
 30
0.0
 11
681.2499907732148
 21
215.0750137937
 31
0.0
  0
LINE
  5
39D
330
1F
100
AcDbEntity
  8
1
  6
CONTINUOUS
 62
     7
100
AcDbLine
 10
681.2499907733658
 20
202.1750592681499
 30
0.0
 11
681.2500117325654
 21
200.1249999633498
 31
0.0
  0
LINE
  5
39E
330
1F
100
AcDbEntity
  8
1
  6
CONTINUOUS
 62
     7
100
AcDbLine
 10
681.4110202958643
 20
206.6242129940001
 30
0.0
 11
681.2499907732149
 21
207.0750137741
 31
0.0
  0
LINE
  5
39F
330
1F
100
AcDbEntity
  8
1
  6
CONTINUOUS
 62
     7
100
AcDbLine
 10
681.4104580582141
 20
202.6242129491
 30
0.0
 11
681.2499907732143
 21
202.1749861526002
 31
0.0
  0
ARC
  5
3A0
330
1F
100
AcDbEntity
  8
1
  6
CONTINUOUS
 62
     7
100
AcDbCircle
 10
679.9999907651656
 20
209.92499998295
 30
0.0
 40
1.00000000005096
100
AcDbArc
 50
14.4740209903
 51
44.44998413029998
  0
LINE
  5
3A1
330
1F
100
AcDbEntity
  8
1
  6
CONTINUOUS
 62
     7
100
AcDbLine
 10
682.4999939851155
 20
210.1749999787998
 30
0.0
 11
682.4999939851155
 21
207.0749467465998
 31
0.0
  0
LINE
  5
3A2
330
1F
100
AcDbEntity
  8
1
  6
CONTINUOUS
 62
     7
100
AcDbLine
 10
677.4999940022655
 20
202.62393998975
 30
0.0
 11
677.4999953774654
 21
200.12499996335
 31
0.0
  0
LINE
  5
3A3
330
1F
100
AcDbEntity
  8
1
  6
CONTINUOUS
 62
     7
100
AcDbLine
 10
678.7499907734657
 20
202.1750024411
 30
0.0
 11
678.5895498478154
 21
202.6240160431998
 31
0.0
  0
LINE
  5
3A4
330
1F
100
AcDbEntity
  8
1
  6
CONTINUOUS
 62
     7
100
AcDbLine
 10
688.9999907735644
 20
202.1249999828
 30
0.0
 11
682.4999939843655
 21
202.12499998295
 31
0.0
  0
LINE
  5
3A5
330
1F
100
AcDbEntity
  8
1
  6
CONTINUOUS
 62
     7
100
AcDbLine
 10
677.4999940019652
 20
214.6255106947998
 30
0.0
 11
677.4999953774651
 21
217.1249999829498
 31
0.0
  0
LINE
  5
3A6
330
1F
100
AcDbEntity
  8
1
  6
CONTINUOUS
 62
     7
100
AcDbLine
 10
681.249990801116
 20
207.0749178939498
 30
0.0
 11
681.2499907732156
 21
210.1749861722
 31
0.0
  0
LINE
  5
3A7
330
1F
100
AcDbEntity
  8
1
  6
CONTINUOUS
 62
     7
100
AcDbLine
 10
681.2499907733658
 20
215.0749406782998
 30
0.0
 11
681.2500117325654
 21
217.1249999829498
 31
0.0
  0
LINE
  5
3A8
330
1F
100
AcDbEntity
  8
1
  6
CONTINUOUS
 62
     7
100
AcDbLine
 10
678.7499907734657
 20
210.1750024606998
 30
0.0
 11
678.7499907734657
 21
207.07495651955
 31
0.0
  0
LINE
  5
3A9
330
1F
100
AcDbEntity
  8
1
  6
CONTINUOUS
 62
     7
100
AcDbLine
 10
678.7499907734657
 20
207.07499748575
 30
0.0
 11
678.5888466860665
 21
206.62401600005
 31
0.0
  0
LINE
  5
3AA
330
1F
100
AcDbEntity
  8
1
  6
CONTINUOUS
 62
     7
100
AcDbLine
 10
703.0000000000163
 20
184.6250000001498
 30
0.0
 11
701.999999999966
 21
184.6250000001498
 31
0.0
  0
LINE
  5
3AB
330
1F
100
AcDbEntity
  8
1
  6
CONTINUOUS
 62
     7
100
AcDbLine
 10
701.4999999986644
 20
211.1249998546998
 30
0.0
 11
701.4999999986644
 21
232.6250000005998
 31
0.0
  0
LINE
  5
3AC
330
1F
100
AcDbEntity
  8
1
  6
CONTINUOUS
 62
     7
100
AcDbLine
 10
700.356267194647
 20
239.8475351262232
 30
0.0
 11
694.4999999999654
 21
239.8475351288
 31
0.0
  0
LINE
  5
3AD
330
1F
100
AcDbEntity
  8
1
  6
CONTINUOUS
 62
     7
100
AcDbLine
 10
701.5002075880163
 20
158.1250007580498
 30
0.0
 11
597.5000000000663
 21
158.1250000000998
 31
0.0
  0
CIRCLE
  5
3AE
330
1F
100
AcDbEntity
  8
1
  6
CONTINUOUS
 62
     7
100
AcDbCircle
 10
644.0000000000649
 20
178.6249999999998
 30
0.0
 40
1.99999999995093
  0
ARC
  5
3AF
330
1F
100
AcDbEntity
  8
1
  6
CONTINUOUS
 62
     7
100
AcDbCircle
 10
695.5000000147153
 20
182.62500000035
 30
0.0
 40
1.00000000005096
100
AcDbArc
 50
90.0
 51
180.0000000016
  0
ARC
  5
3B0
330
1F
100
AcDbEntity
  8
1
  6
CONTINUOUS
 62
     7
100
AcDbCircle
 10
681.9999939850154
 20
202.1749999633998
 30
0.0
 40
0.4999999999508731
100
AcDbArc
 50
359.9999671833
 51
63.96667307480004
  0
ARC
  5
3B1
330
1F
100
AcDbEntity
  8
1
  6
CONTINUOUS
 62
     7
100
AcDbCircle
 10
642.2500000000157
 20
213.8749999999998
 30
0.0
 40
0.7500000000000284
100
AcDbArc
 50
0.0
 51
180.0000007454
  0
LINE
  5
3B2
330
1F
100
AcDbEntity
  8
1
  6
CONTINUOUS
 62
     7
100
AcDbLine
 10
701.4999999986644
 20
206.125000004
 30
0.0
 11
701.4999999986644
 21
184.6250000003
 31
0.0
  0
LINE
  5
3B3
330
1F
100
AcDbEntity
  8
1
  6
CONTINUOUS
 62
     7
100
AcDbLine
 10
701.9999999999653
 20
232.6249999999998
 30
0.0
 11
701.9999999999653
 21
230.6250000000498
 31
0.0
  0
CIRCLE
  5
3B4
330
1F
100
AcDbEntity
  8
1
  6
CONTINUOUS
 62
     7
100
AcDbCircle
 10
668.9999999999658
 20
238.62499996865
 30
0.0
 40
1.999999999949154
  0
LINE
  5
3B5
330
1F
100
AcDbEntity
  8
1
  6
CONTINUOUS
 62
     7
100
AcDbLine
 10
597.5000000000649
 20
259.12500000005
 30
0.0
 11
701.5002152302152
 21
259.12500000005
 31
0.0
  0
LINE
  5
3B6
330
1F
100
AcDbEntity
  8
1
  6
CONTINUOUS
 62
     7
100
AcDbLine
 10
701.9999999999653
 20
234.6250000001
 30
0.0
 11
703.0000000000158
 21
234.6250000001
 31
0.0
  0
CIRCLE
  5
3B7
330
1F
100
AcDbEntity
  8
1
  6
CONTINUOUS
 62
     7
100
AcDbCircle
 10
619.0000000000149
 20
178.6250000315
 30
0.0
 40
1.999999999949154
  0
LINE
  5
3B8
330
1F
100
AcDbEntity
  8
1
  6
________________
 62
     7
100
AcDbLine
 10
696.5000000000651
 20
166.8749999997502
 30
0.0
 11
591.5000000000647
 21
166.8749999201002
 31
0.0
  0
LINE
  5
3B9
330
1F
100
AcDbEntity
  8
1
  6
CONTINUOUS
 62
     7
100
AcDbLine
 10
695.5000000147153
 20
183.6250000004002
 30
0.0
 11
700.4999999986155
 21
183.6250000004002
 31
0.0
  0
ARC
  5
3BA
330
1F
100
AcDbEntity
  8
1
  6
CONTINUOUS
 62
     7
100
AcDbCircle
 10
645.749999999965
 20
213.8749999999998
 30
0.0
 40
0.7499999999982521
100
AcDbArc
 50
359.9999992546
 51
180.0
  0
LINE
  5
3BB
330
1F
100
AcDbEntity
  8
1
  6
CONTINUOUS
 62
     7
100
AcDbLine
 10
703.0000000000163
 20
188.62500000005
 30
0.0
 11
701.999999999966
 21
188.62500000005
 31
0.0
  0
LINE
  5
3BC
330
1F
100
AcDbEntity
  8
1
  6
CONTINUOUS
 62
     7
100
AcDbLine
 10
701.9999999999653
 20
186.6250000001002
 30
0.0
 11
703.0000000000158
 21
186.6250000001002
 31
0.0
  0
LINE
  5
3BD
330
1F
100
AcDbEntity
  8
1
  6
________________
 62
     7
100
AcDbLine
 10
685.7500000000139
 20
261.1250000000001
 30
0.0
 11
685.750000107865
 21
156.12499999985
 31
0.0
  0
LINE
  5
3BE
330
1F
100
AcDbEntity
  8
1
  6
CONTINUOUS
 62
     7
100
AcDbLine
 10
701.9999999999653
 20
207.8749999999998
 30
0.0
 11
694.4999999999656
 21
207.8749999999998
 31
0.0
  0
LINE
  5
3BF
330
1F
100
AcDbEntity
  8
1
  6
CONTINUOUS
 62
     7
100
AcDbLine
 10
703.0000000000163
 20
234.6250000001
 30
0.0
 11
703.0000000000163
 21
232.625
 31
0.0
  0
LINE
  5
3C0
330
1F
100
AcDbEntity
  8
1
  6
CONTINUOUS
 62
     7
100
AcDbLine
 10
703.0000000000163
 20
230.62500000005
 30
0.0
 11
703.0000000000163
 21
228.6250000001
 31
0.0
  0
LINE
  5
3C1
330
1F
100
AcDbEntity
  8
1
  6
CONTINUOUS
 62
     7
100
AcDbLine
 10
701.5001253775148
 20
158.12508296855
 30
0.0
 11
698.0000000000648
 21
161.6252083808002
 31
0.0
  0
LINE
  5
3C2
330
1F
100
AcDbEntity
  8
1
  6
CONTINUOUS
 62
     7
100
AcDbLine
 10
701.5002152345646
 20
259.1250000044001
 30
0.0
 11
698.000006884314
 21
255.62479161935
 31
0.0
  0
LINE
  5
3C3
330
1F
100
AcDbEntity
  8
1
  6
CONTINUOUS
 62
     7
100
AcDbLine
 10
703.0000000000163
 20
232.6249999999998
 30
0.0
 11
701.999999999966
 21
232.6249999999998
 31
0.0
  0
LINE
  5
3C4
330
1F
100
AcDbEntity
  8
1
  6
________________
 62
     7
100
AcDbLine
 10
602.2499999999668
 20
261.1250000000001
 30
0.0
 11
602.2499998919667
 21
156.12499999985
 31
0.0
  0
LINE
  5
3C5
330
1F
100
AcDbEntity
  8
1
  6
________________
 62
     7
100
AcDbLine
 10
591.5000000000647
 20
208.6249999999998
 30
0.0
 11
703.9999998289152
 21
208.6249999999998
 31
0.0
  0
LINE
  5
3C6
330
1F
100
AcDbEntity
  8
1
  6
CONTINUOUS
 62
     7
100
AcDbLine
 10
641.5000000000157
 20
213.87499999025
 30
0.0
 11
641.5000000000157
 21
203.37500000015
 31
0.0
  0
CIRCLE
  5
3C7
330
1F
100
AcDbEntity
  8
1
  6
CONTINUOUS
 62
     7
100
AcDbCircle
 10
653.999999231215
 20
208.6249999990999
 30
0.0
 40
1.99999999995093
  0
ARC
  5
3C8
330
1F
100
AcDbEntity
  8
1
  6
CONTINUOUS
 62
     7
100
AcDbCircle
 10
695.4999999610161
 20
234.62500000025
 30
0.0
 40
1.00000000005096
100
AcDbArc
 50
180.0
 51
270.0
  0
LINE
  5
3C9
330
1F
100
AcDbEntity
  8
1
  6
CONTINUOUS
 62
     7
100
AcDbLine
 10
643.0000000000158
 20
213.8749999999998
 30
0.0
 11
643.0000000000158
 21
203.3749999945998
 31
0.0
  0
LINE
  5
3CA
330
1F
100
AcDbEntity
  8
1
  6
CONTINUOUS
 62
     7
100
AcDbLine
 10
702.0000000030442
 20
178.9291316327472
 30
0.0
 11
701.9999999999658
 21
182.62500000005
 31
0.0
  0
ARC
  5
3CB
330
1F
100
AcDbEntity
  8
1
  6
CONTINUOUS
 62
     7
100
AcDbCircle
 10
597.5000000000649
 20
162.1249999999998
 30
0.0
 40
4.000000000049297
100
AcDbArc
 50
180.0
 51
270.0
  0
LINE
  5
3CC
330
1F
100
AcDbEntity
  8
1
  6
CONTINUOUS
 62
     7
100
AcDbLine
 10
700.3562671946912
 20
177.402464873927
 30
0.0
 11
694.4999999999654
 21
177.4024648713502
 31
0.0
  0
ARC
  5
3CD
330
1F
100
AcDbEntity
  8
1
  6
CONTINUOUS
 62
     7
100
AcDbCircle
 10
700.4999999986152
 20
184.6250000003002
 30
0.0
 40
1.00000000005096
100
AcDbArc
 50
270.0
 51
0.0
  0
LINE
  5
3CE
330
1F
100
AcDbEntity
  8
1
  6
CONTINUOUS
 62
     7
100
AcDbLine
 10
695.500000000016
 20
207.8749999999998
 30
0.0
 11
695.500000000016
 21
209.3749999999998
 31
0.0
  0
LINE
  5
3CF
330
1F
100
AcDbEntity
  8
1
  6
CONTINUOUS
 62
     7
100
AcDbLine
 10
698.0000068843149
 20
255.6247916193498
 30
0.0
 11
694.4686338559155
 21
255.6247916193498
 31
0.0
  0
LINE
  5
3D0
330
1F
100
AcDbEntity
  8
1
  6
CONTINUOUS
 62
     7
100
AcDbLine
 10
703.0000000000163
 20
228.6250000001
 30
0.0
 11
701.999999999966
 21
228.6250000001
 31
0.0
  0
LINE
  5
3D1
330
1F
100
AcDbEntity
  8
1
  6
________________
 62
     7
100
AcDbLine
 10
696.5000000000651
 20
250.3750000000998
 30
0.0
 11
591.5000000000647
 21
250.37500023335
 31
0.0
  0
LINE
  5
3D2
330
1F
100
AcDbEntity
  8
1
  6
CONTINUOUS
 62
     7
100
AcDbLine
 10
694.499999999965
 20
255.125
 30
0.0
 11
694.499999999965
 21
234.6250000002501
 31
0.0
  0
LINE
  5
3D3
330
1F
100
AcDbEntity
  8
1
  6
CONTINUOUS
 62
     7
100
AcDbLine
 10
646.499999999965
 20
213.87499999025
 30
0.0
 11
646.499999999965
 21
203.37500000015
 31
0.0
  0
LINE
  5
3D4
330
1F
100
AcDbEntity
  8
1
  6
CONTINUOUS
 62
     7
100
AcDbLine
 10
702.0000000001163
 20
188.62500000005
 30
0.0
 11
701.9999996578154
 21
228.62500000055
 31
0.0
  0
LINE
  5
3D5
330
1F
100
AcDbEntity
  8
1
  6
CONTINUOUS
 62
     7
100
AcDbLine
 10
694.499999999965
 20
182.62500000035
 30
0.0
 11
694.499999999965
 21
162.1249999999998
 31
0.0
  0
CIRCLE
  5
3D6
330
1F
100
AcDbEntity
  8
1
  6
CONTINUOUS
 62
     7
100
AcDbCircle
 10
644.0000000000649
 20
238.6249999999998
 30
0.0
 40
1.99999999995093
  0
LINE
  5
3D7
330
1F
100
AcDbEntity
  8
1
  6
CONTINUOUS
 62
     7
100
AcDbLine
 10
703.0000000000163
 20
186.6250000001002
 30
0.0
 11
703.0000000000163
 21
188.6250000000502
 31
0.0
  0
LINE
  5
3D8
330
1F
100
AcDbEntity
  8
1
  6
CONTINUOUS
 62
     7
100
AcDbLine
 10
701.9999999999653
 20
182.62500000005
 30
0.0
 11
703.0000000000158
 21
182.62500000005
 31
0.0
  0
LINE
  5
3D9
330
1F
100
AcDbEntity
  8
1
  6
CONTINUOUS
 62
     7
100
AcDbLine
 10
644.9999999999667
 20
213.8749999999998
 30
0.0
 11
644.9999999999667
 21
203.3749999945998
 31
0.0
  0
LINE
  5
3DA
330
1F
100
AcDbEntity
  8
1
  6
CONTINUOUS
 62
     7
100
AcDbLine
 10
695.4999999610161
 20
233.6250000003498
 30
0.0
 11
700.4999999986162
 21
233.6250000003498
 31
0.0
  0
ARC
  5
3DB
330
1F
100
AcDbEntity
  8
1
  6
CONTINUOUS
 62
     7
100
AcDbCircle
 10
642.2500000000157
 20
203.3750000001498
 30
0.0
 40
0.7500000000000284
100
AcDbArc
 50
180.0
 51
359.9999995867
  0
LINE
  5
3DC
330
1F
100
AcDbEntity
  8
1
  6
CONTINUOUS
 62
     7
100
AcDbLine
 10
702.0000000030442
 20
238.3208683672528
 30
0.0
 11
701.9999999999658
 21
234.6250000001
 31
0.0
  0
LINE
  5
3DD
330
1F
100
AcDbEntity
  8
1
  6
CONTINUOUS
 62
     7
100
AcDbLine
 10
698.0000000000653
 20
161.6252083808002
 30
0.0
 11
694.4686269716672
 21
161.6252083808002
 31
0.0
  0
LINE
  5
3DE
330
1F
100
AcDbEntity
  8
1
  6
CONTINUOUS
 62
     7
100
AcDbLine
 10
701.9999999999653
 20
230.62500000005
 30
0.0
 11
703.0000000000158
 21
230.62500000005
 31
0.0
  0
LINE
  5
3DF
330
1F
100
AcDbEntity
  8
1
  6
CONTINUOUS
 62
     7
100
AcDbLine
 10
703.0000000000163
 20
182.62500000005
 30
0.0
 11
703.0000000000163
 21
184.62500000015
 31
0.0
  0
ARC
  5
3E0
330
1F
100
AcDbEntity
  8
1
  6
CONTINUOUS
 62
     7
100
AcDbCircle
 10
681.9999939850154
 20
215.0749999830498
 30
0.0
 40
0.4999999999508731
100
AcDbArc
 50
295.8895703837
 51
0.0000328167000134
  0
ARC
  5
3E1
330
1F
100
AcDbEntity
  8
1
  6
CONTINUOUS
 62
     7
100
AcDbCircle
 10
700.4999999986152
 20
232.6250000006
 30
0.0
 40
1.00000000005096
100
AcDbArc
 50
0.0
 51
90.0
  0
LINE
  5
3E2
330
1F
100
AcDbEntity
  8
1
  6
CONTINUOUS
 62
     7
100
AcDbLine
 10
694.499999999965
 20
209.3749999999998
 30
0.0
 11
701.999999999965
 21
209.3749999999998
 31
0.0
  0
ARC
  5
3E3
330
1F
100
AcDbEntity
  8
1
  6
CONTINUOUS
 62
     7
100
AcDbCircle
 10
690.5000000000649
 20
162.1249999999998
 30
0.0
 40
4.000000000051074
100
AcDbArc
 50
270.0000000002
 51
0.0
  0
CIRCLE
  5
3E4
330
1F
100
AcDbEntity
  8
1
  6
CONTINUOUS
 62
     7
100
AcDbCircle
 10
634.0000000000155
 20
208.6249999990999
 30
0.0
 40
1.99999999995093
  0
ARC
  5
3E5
330
1F
100
AcDbEntity
  8
1
  6
CONTINUOUS
 62
     7
100
AcDbCircle
 10
645.749999999965
 20
203.3750000001498
 30
0.0
 40
0.7499999999982521
100
AcDbArc
 50
180.0000004133
 51
0.0
  0
LINE
  5
3E6
330
1F
100
AcDbEntity
  8
1
  6
CONTINUOUS
 62
     7
100
AcDbLine
 10
701.9999999999653
 20
184.6250000001498
 30
0.0
 11
701.9999999999653
 21
186.6250000000998
 31
0.0
  0
LINE
  5
3E7
330
1F
100
AcDbEntity
  8
1
  6
CONTINUOUS
 62
     7
100
AcDbLine
 10
605.5000059998656
 20
205.1750805512
 30
0.0
 11
605.5000059998656
 21
202.075027319
 31
0.0
  0
LINE
  5
3E8
330
1F
100
AcDbEntity
  8
1
  6
CONTINUOUS
 62
     7
100
AcDbLine
 10
606.7500092114661
 20
210.0750212506998
 30
0.0
 11
606.7499882522651
 21
212.1250805553498
 31
0.0
  0
LINE
  5
3E9
330
1F
100
AcDbEntity
  8
1
  6
CONTINUOUS
 62
     7
100
AcDbLine
 10
599.000009211415
 20
205.12508046185
 30
0.0
 11
599.0000092283653
 21
210.1250804933
 31
0.0
  0
LINE
  5
3EA
330
1F
100
AcDbEntity
  8
1
  6
CONTINUOUS
 62
     7
100
AcDbLine
 10
599.0000092351169
 20
197.1250804364001
 30
0.0
 11
599.0000092114158
 21
202.1250804166998
 31
0.0
  0
ARC
  5
3EB
330
1F
100
AcDbEntity
  8
1
  6
CONTINUOUS
 62
     7
100
AcDbCircle
 10
606.0000059129651
 20
202.0750805399
 30
0.0
 40
0.4999999999508731
100
AcDbArc
 50
180.0000000004
 51
244.3508460746
  0
LINE
  5
3EC
330
1F
100
AcDbEntity
  8
1
  6
CONTINUOUS
 62
     7
100
AcDbLine
 10
687.9999907921155
 20
202.62467291375
 30
0.0
 11
687.9999907921155
 21
206.62467291875
 31
0.0
  0
ARC
  5
3ED
330
1F
100
AcDbEntity
  8
1
  6
CONTINUOUS
 62
     7
100
AcDbCircle
 10
608.0000092198156
 20
196.9250805357498
 30
0.0
 40
1.000000000049184
100
AcDbArc
 50
135.6399948876
 51
165.5259790096
  0
ARC
  5
3EE
330
1F
100
AcDbEntity
  8
1
  6
CONTINUOUS
 62
     7
100
AcDbCircle
 10
608.0000092198156
 20
202.3250805357499
 30
0.0
 40
1.000000000049184
100
AcDbArc
 50
315.497912755
 51
345.5258540712
  0
LINE
  5
3EF
330
1F
100
AcDbEntity
  8
1
  6
CONTINUOUS
 62
     7
100
AcDbLine
 10
657.9236062466647
 20
204.3234746003
 30
0.0
 11
658.0736062466657
 21
204.3234746003
 31
0.0
  0
LINE
  5
3F0
330
1F
100
AcDbEntity
  8
1
  6
CONTINUOUS
 62
     7
100
AcDbLine
 10
609.2500086209656
 20
195.12508053575
 30
0.0
 11
609.2500092115158
 21
197.17509153665
 31
0.0
  0
LINE
  5
3F1
330
1F
100
AcDbEntity
  8
1
  6
CONTINUOUS
 62
     7
100
AcDbLine
 10
605.5000059998656
 20
197.1751265508498
 30
0.0
 11
605.500007174064
 21
195.1250805357498
 31
0.0
  0
LINE
  5
3F2
330
1F
100
AcDbEntity
  8
1
  6
CONTINUOUS
 62
     7
100
AcDbLine
 10
609.2500092115154
 20
202.0750780579998
 30
0.0
 11
609.4111532987654
 21
201.6240965724498
 31
0.0
  0
LINE
  5
3F3
330
1F
100
AcDbEntity
  8
1
  6
CONTINUOUS
 62
     7
100
AcDbLine
 10
610.5000059827157
 20
197.62402056215
 30
0.0
 11
610.5000046073667
 21
195.12508053575
 31
0.0
  0
LINE
  5
3F4
330
1F
100
AcDbEntity
  8
1
  6
CONTINUOUS
 62
     7
100
AcDbLine
 10
658.0736062466643
 20
204.9234746002998
 30
0.0
 11
657.9236062466633
 21
204.9234746002998
 31
0.0
  0
LINE
  5
3F5
330
1F
100
AcDbEntity
  8
1
  6
CONTINUOUS
 62
     7
100
AcDbLine
 10
607.0317463531163
 20
202.0751395341498
 30
0.0
 11
606.7500092114667
 21
202.0751398413498
 31
0.0
  0
LINE
  5
3F6
330
1F
100
AcDbEntity
  8
1
  6
CONTINUOUS
 62
     7
100
AcDbLine
 10
610.5000046073661
 20
195.12508053575
 30
0.0
 11
605.5000071740644
 21
195.12508054475
 31
0.0
  0
LINE
  5
3F7
330
1F
100
AcDbEntity
  8
1
  6
CONTINUOUS
 62
     7
100
AcDbLine
 10
629.4786298964653
 20
211.27630921595
 30
0.0
 11
629.7763937425148
 21
211.27630921595
 31
0.0
  0
LINE
  5
3F8
330
1F
100
AcDbEntity
  8
1
  6
CONTINUOUS
 62
     7
100
AcDbLine
 10
658.523606246665
 20
204.9234746002998
 30
0.0
 11
658.373606246664
 21
204.9234746002998
 31
0.0
  0
LINE
  5
3F9
330
1F
100
AcDbEntity
  8
1
  6
CONTINUOUS
 62
     7
100
AcDbLine
 10
599.000009211415
 20
210.1250805552502
 30
0.0
 11
605.500005999716
 21
210.1250805554002
 31
0.0
  0
LINE
  5
3FA
330
1F
100
AcDbEntity
  8
1
  6
CONTINUOUS
 62
     7
100
AcDbLine
 10
609.2500092115154
 20
205.1750830331
 30
0.0
 11
609.4109570296164
 21
205.6255152431
 31
0.0
  0
LINE
  5
3FB
330
1F
100
AcDbEntity
  8
1
  6
CONTINUOUS
 62
     7
100
AcDbLine
 10
607.0317463531163
 20
210.0751395537498
 30
0.0
 11
606.7500092114667
 21
210.07513986095
 31
0.0
  0
LINE
  5
3FC
330
1F
100
AcDbEntity
  8
1
  6
CONTINUOUS
 62
     7
100
AcDbLine
 10
606.5893457233153
 20
209.62531829405
 30
0.0
 11
606.7500092116164
 21
210.0750943661
 31
0.0
  0
LINE
  5
3FD
330
1F
100
AcDbEntity
  8
1
  6
CONTINUOUS
 62
     7
100
AcDbLine
 10
606.5889796889659
 20
201.6242935663998
 30
0.0
 11
606.7500092116165
 21
202.0750943464998
 31
0.0
  0
LINE
  5
3FE
330
1F
100
AcDbEntity
  8
1
  6
CONTINUOUS
 62
     7
100
AcDbLine
 10
609.2500092115154
 20
205.1750212601
 30
0.0
 11
608.9682665365159
 21
205.1750205061998
 31
0.0
  0
LINE
  5
3FF
330
1F
100
AcDbEntity
  8
1
  6
CONTINUOUS
 62
     7
100
AcDbLine
 10
606.7500092114661
 20
197.1751398404
 30
0.0
 11
606.7499882522651
 21
195.12508053575
 31
0.0
  0
LINE
  5
400
330
1F
100
AcDbEntity
  8
1
  6
CONTINUOUS
 62
     7
100
AcDbLine
 10
610.5000046073661
 20
212.1250805553498
 30
0.0
 11
605.5000071740644
 21
212.1250805463498
 31
0.0
  0
LINE
  5
401
330
1F
100
AcDbEntity
  8
1
  6
CONTINUOUS
 62
     7
100
AcDbLine
 10
609.2500092115154
 20
210.0751398505998
 30
0.0
 11
608.9682665365159
 21
210.0751406044998
 31
0.0
  0
ARC
  5
402
330
1F
100
AcDbEntity
  8
1
  6
CONTINUOUS
 62
     7
100
AcDbCircle
 10
608.0000092198156
 20
202.3250805357499
 30
0.0
 40
1.000000000049184
100
AcDbArc
 50
194.4740209903
 51
224.4940885003
  0
LINE
  5
403
330
1F
100
AcDbEntity
  8
1
  6
CONTINUOUS
 62
     7
100
AcDbLine
 10
609.2500092115154
 20
202.0751398309998
 30
0.0
 11
608.9682665365159
 21
202.0751405848999
 31
0.0
  0
ELLIPSE
  5
404
330
1F
100
AcDbEntity
  8
1
  6
CONTINUOUS
 62
     7
100
AcDbEllipse
 10
629.4786298964653
 20
207.626309216
 30
0.0
 11
0.0
 21
-3.649999999949971
 31
0.0
210
0.0
220
0.0
230
1.0
 40
0.121869343400024
 41
3.141592653600002
 42
6.283185307179586
  0
ARC
  5
405
330
1F
100
AcDbEntity
  8
1
  6
CONTINUOUS
 62
     7
100
AcDbCircle
 10
606.0000059998147
 20
197.1750805358
 30
0.0
 40
0.4999999999490967
100
AcDbArc
 50
116.0333269255
 51
180.0000328166
  0
LINE
  5
406
330
1F
100
AcDbEntity
  8
1
  6
CONTINUOUS
 62
     7
100
AcDbLine
 10
627.4920654118141
 20
201.6228344847498
 30
0.0
 11
600.0000091928654
 21
201.6247534911498
 31
0.0
  0
ARC
  5
407
330
1F
100
AcDbEntity
  8
1
  6
CONTINUOUS
 62
     7
100
AcDbCircle
 10
606.0000059998147
 20
210.0750805553
 30
0.0
 40
0.4999999999490967
100
AcDbArc
 50
179.9999671833
 51
244.1104296160999
  0
LINE
  5
408
330
1F
100
AcDbEntity
  8
1
  6
CONTINUOUS
 62
     7
100
AcDbLine
 10
599.000009211415
 20
205.12508055515
 30
0.0
 11
605.5000060004647
 21
205.1250805552999
 31
0.0
  0
LINE
  5
409
330
1F
100
AcDbEntity
  8
1
  6
CONTINUOUS
 62
     7
100
AcDbLine
 10
599.000009211415
 20
202.12508055515
 30
0.0
 11
605.500005999716
 21
202.1250805552998
 31
0.0
  0
LINE
  5
40A
330
1F
100
AcDbEntity
  8
1
  6
CONTINUOUS
 62
     7
100
AcDbLine
 10
609.2500086209656
 20
212.1250805553498
 30
0.0
 11
609.2500092115158
 21
210.0750695544498
 31
0.0
  0
LINE
  5
40B
330
1F
100
AcDbEntity
  8
1
  6
CONTINUOUS
 62
     7
100
AcDbLine
 10
629.7763937425146
 20
203.9763092160498
 30
0.0
 11
629.4786298964652
 21
203.9763092160498
 31
0.0
  0
LINE
  5
40C
330
1F
100
AcDbEntity
  8
1
  6
CONTINUOUS
 62
     7
100
AcDbLine
 10
607.0317463531163
 20
205.17502155695
 30
0.0
 11
606.7500092114667
 21
205.1750212497502
 31
0.0
  0
ARC
  5
40D
330
1F
100
AcDbEntity
  8
1
  6
CONTINUOUS
 62
     7
100
AcDbCircle
 10
608.0000092198156
 20
210.32508055535
 30
0.0
 40
1.000000000049184
100
AcDbArc
 50
315.6039631672
 51
345.5258540712
  0
LINE
  5
40E
330
1F
100
AcDbEntity
  8
1
  6
CONTINUOUS
 62
     7
100
AcDbLine
 10
610.5000737327648
 20
205.6255912658
 30
0.0
 11
610.5000068192649
 21
201.62402056805
 31
0.0
  0
ARC
  5
40F
330
1F
100
AcDbEntity
  8
1
  6
CONTINUOUS
 62
     7
100
AcDbCircle
 10
608.0000092198156
 20
204.92508055535
 30
0.0
 40
1.000000000049184
100
AcDbArc
 50
135.5500158696
 51
165.5259790097
  0
LINE
  5
410
330
1F
100
AcDbEntity
  8
1
  6
CONTINUOUS
 62
     7
100
AcDbLine
 10
606.7500091837159
 20
202.0749984663502
 30
0.0
 11
606.7500092116162
 21
205.1750667445998
 31
0.0
  0
LINE
  5
411
330
1F
100
AcDbEntity
  8
1
  6
CONTINUOUS
 62
     7
100
AcDbLine
 10
610.5000059828667
 20
209.6255912672
 30
0.0
 11
610.5000046073669
 21
212.12508055535
 31
0.0
  0
LINE
  5
412
330
1F
100
AcDbEntity
  8
1
  6
CONTINUOUS
 62
     7
100
AcDbLine
 10
599.000009211415
 20
197.1250805551998
 30
0.0
 11
605.5000060004647
 21
197.1250805553499
 31
0.0
  0
ARC
  5
413
330
1F
100
AcDbEntity
  8
1
  6
CONTINUOUS
 62
     7
100
AcDbCircle
 10
608.0000092198156
 20
210.32508055535
 30
0.0
 40
1.000000000049184
100
AcDbArc
 50
194.4740209903
 51
224.4040355884
  0
LINE
  5
414
330
1F
100
AcDbEntity
  8
1
  6
CONTINUOUS
 62
     7
100
AcDbLine
 10
605.5000059998656
 20
210.0750808417998
 30
0.0
 11
605.500007174064
 21
212.1250805553498
 31
0.0
  0
LINE
  5
415
330
1F
100
AcDbEntity
  8
1
  6
CONTINUOUS
 62
     7
100
AcDbLine
 10
606.5891758841645
 20
205.6253182765998
 30
0.0
 11
606.7500092116154
 21
205.1750667445996
 31
0.0
  0
LINE
  5
416
330
1F
100
AcDbEntity
  8
1
  6
CONTINUOUS
 62
     7
100
AcDbLine
 10
657.9236062466647
 20
204.9234746002998
 30
0.0
 11
657.9236062466647
 21
204.3234746003
 31
0.0
  0
LINE
  5
417
330
1F
100
AcDbEntity
  8
1
  6
CONTINUOUS
 62
     7
100
AcDbLine
 10
687.9999907921155
 20
210.6247777657998
 30
0.0
 11
687.9999907921155
 21
214.6247777708
 31
0.0
  0
ARC
  5
418
330
1F
100
AcDbEntity
  8
1
  6
CONTINUOUS
 62
     7
100
AcDbCircle
 10
606.0000059129651
 20
205.1750805512
 30
0.0
 40
0.4999999999508731
100
AcDbArc
 50
115.7941998231
 51
180.0
  0
LINE
  5
419
330
1F
100
AcDbEntity
  8
1
  6
CONTINUOUS
 62
     7
100
AcDbLine
 10
609.2500092115154
 20
210.0750780775996
 30
0.0
 11
609.4106463931146
 21
209.6255152272498
 31
0.0
  0
LINE
  5
41A
330
1F
100
AcDbEntity
  8
1
  6
CONTINUOUS
 62
     7
100
AcDbLine
 10
609.2500092115154
 20
205.1750830331
 30
0.0
 11
609.2500092115154
 21
202.0750370919498
 31
0.0
  0
ARC
  5
41B
330
1F
100
AcDbEntity
  8
1
  6
CONTINUOUS
 62
     7
100
AcDbCircle
 10
608.0000092198156
 20
204.92508055535
 30
0.0
 40
1.000000000049184
100
AcDbArc
 50
14.47414592889999
 51
44.45798287510002
  0
ENDSEC
  0
SECTION
  2
OBJECTS
  0
DICTIONARY
  5
C
330
0
100
AcDbDictionary
  3
ACAD_GROUP
350
D
  3
ACAD_LAYOUT
350
1A
  3
ACAD_MATERIAL
350
43
  3
ACAD_MLEADERSTYLE
350
6B
  3
ACAD_MLINESTYLE
350
17
  3
ACAD_PLOTSETTINGS
350
19
  3
ACAD_SCALELIST
350
47
  3
ACAD_VISUALSTYLE
350
2A
  3
ACDBHEADERROUNDTRIPXREC
350
41C
  3
ACDBVARIABLEDICTIONARY
350
43D
  0
DICTIONARY
  5
444
330
8
100
AcDbDictionary
280
     1
  3
ACAD_XREC_ROUNDTRIP
360
445
  0
DICTIONARY
  5
D
102
{ACAD_REACTORS
330
C
102
}
330
C
100
AcDbDictionary
  0
DICTIONARY
  5
1A
102
{ACAD_REACTORS
330
C
102
}
330
C
100
AcDbDictionary
  0
DICTIONARY
  5
43
102
{ACAD_REACTORS
330
C
102
}
330
C
100
AcDbDictionary
  3
BYBLOCK
350
45
  3
BYLAYER
350
44
  3
GLOBAL
350
46
  0
DICTIONARY
  5
6B
102
{ACAD_REACTORS
330
C
102
}
330
C
100
AcDbDictionary
  3
STANDARD
350
6C
  0
DICTIONARY
  5
17
102
{ACAD_REACTORS
330
C
102
}
330
C
100
AcDbDictionary
  3
STANDARD
350
18
  0
DICTIONARY
  5
19
102
{ACAD_REACTORS
330
C
102
}
330
C
100
AcDbDictionary
  0
DICTIONARY
  5
47
102
{ACAD_REACTORS
330
C
102
}
330
C
100
AcDbDictionary
  3
A0
350
48
  3
A1
350
49
  3
A2
350
4A
  3
A3
350
4B
  3
A4
350
4C
  3
A5
350
4D
  3
A6
350
4E
  3
A7
350
4F
  3
A8
350
50
  3
A9
350
51
  3
B0
350
52
  3
B1
350
53
  3
B2
350
54
  3
B3
350
55
  3
B4
350
56
  3
B5
350
57
  3
B6
350
58
  3
B7
350
59
  3
B8
350
5A
  3
B9
350
5B
  3
C0
350
5C
  3
C1
350
5D
  3
C2
350
5E
  3
C3
350
5F
  3
C4
350
60
  3
C5
350
61
  3
C6
350
62
  3
C7
350
63
  3
C8
350
64
  3
C9
350
65
  3
D0
350
66
  3
D1
350
67
  3
D2
350
68
  0
DICTIONARY
  5
2A
102
{ACAD_REACTORS
330
C
102
}
330
C
100
AcDbDictionary
  3
2DWIREFRAME
350
2F
  3
BASIC
350
32
  3
BRIGHTEN
350
36
  3
COLORCHANGE
350
3A
  3
CONCEPTUAL
350
34
  3
DIM
350
35
  3
EDGECOLOROFF
350
3D
  3
FACEPATTERN
350
39
  3
FLAT
350
2B
  3
FLATWITHEDGES
350
2C
  3
GOURAUD
350
2D
  3
GOURAUDWITHEDGES
350
2E
  3
HIDDEN
350
31
  3
JITTEROFF
350
3B
  3
LINEPATTERN
350
38
  3
OVERHANGOFF
350
3C
  3
REALISTIC
350
33
  3
SHADED
350
42
  3
SHADED_WITH_EDGES
350
41
  3
SHADES_OF_GRAY
350
3E
  3
SKETCHY
350
3F
  3
THICKEN
350
37
  3
WIREFRAME
350
30
  3
X-RAY
350
40
  0
DICTIONARY
  5
41C
102
{ACAD_REACTORS
330
C
102
}
330
C
100
AcDbDictionary
  3
CEPSNID
350
426
  3
CEPSNTYPE
350
425
  3
DIMSTYLEDATA
350
43C
  3
FINGERPRINTGUID
350
427
  3
HYPERLINKBASE
350
41F
  3
INSUNITS
350
424
  3
LAYOUTDICT
350
421
  3
LWETCUNION
350
423
  3
PLOTSETDICT
350
422
  3
PSVPSCALE
350
429
  3
PUCSBASE
350
42C
  3
PUCSORGBACK
350
432
  3
PUCSORGBOTTOM
350
42E
  3
PUCSORGFRONT
350
431
  3
PUCSORGLEFT
350
42F
  3
PUCSORGRIGHT
350
430
  3
PUCSORGTOP
350
42D
  3
PUCSORTHOREF
350
42A
  3
PUCSORTHOVIEW
350
42B
  3
STYLESHEET
350
420
  3
TSTACKALIGN
350
41D
  3
TSTACKSIZE
350
41E
  3
UCSBASE
350
435
  3
UCSORGBACK
350
43B
  3
UCSORGBOTTOM
350
437
  3
UCSORGFRONT
350
43A
  3
UCSORGLEFT
350
438
  3
UCSORGRIGHT
350
439
  3
UCSORGTOP
350
436
  3
UCSORTHOREF
350
433
  3
UCSORTHOVIEW
350
434
  3
VERSIONGUID
350
428
  0
DICTIONARY
  5
43D
102
{ACAD_REACTORS
330
C
102
}
330
C
100
AcDbDictionary
  3
CANNOSCALE
350
446
  3
CMLEADERSTYLE
350
43F
  3
CTABLESTYLE
350
43E
  3
DIMASSOC
350
442
  3
HIDETEXT
350
443
  3
MSLTSCALE
350
447
  0
XRECORD
  5
445
102
{ACAD_REACTORS
330
444
102
}
330
444
100
AcDbXrecord
102
VTR_0.000_0.000_1.000_1.000_VISUALSTYLE
340
2F
102
VTR_0.000_0.000_1.000_1.000_GRIDDISPLAY
 70
     3
102
VTR_0.000_0.000_1.000_1.000_GRIDMAJOR
 70
     5
102
VTR_0.000_0.000_1.000_1.000_DEFAULTLIGHTING
280
     1
102
VTR_0.000_0.000_1.000_1.000_DEFAULTLIGHTINGTYPE
 70
     1
102
VTR_0.000_0.000_1.000_1.000_BRIGHTNESS
141
0.0
102
VTR_0.000_0.000_1.000_1.000_CONTRAST
142
0.0
  0
MATERIAL
  5
45
102
{ACAD_REACTORS
330
43
102
}
102
{ACAD_XDICTIONARY
360
44A
102
}
330
43
100
AcDbMaterial
  1
BYBLOCK
  0
MATERIAL
  5
44
102
{ACAD_REACTORS
330
43
102
}
102
{ACAD_XDICTIONARY
360
448
102
}
330
43
100
AcDbMaterial
  1
BYLAYER
  0
MATERIAL
  5
46
102
{ACAD_REACTORS
330
43
102
}
102
{ACAD_XDICTIONARY
360
44C
102
}
330
43
100
AcDbMaterial
  1
GLOBAL
  0
ACAD_PROXY_OBJECT
  5
6C
102
{ACAD_REACTORS
330
6B
102
}
330
6B
100
AcDbProxyObject
 90
      499
 91
      505
 93
      610
310
40901902A4063FBFFFFFE056BD1B81E855B9FC0AD7A3703D0AD73F4214DD185B99185C9900AD7A3703D0AC73F90141901A02B5E8DC0F42B1CFC02B5E8DC0F42B1CFE5764000000000000300FC0
340
14
340
0
340
11
340
0
 94
        0
1001
ACAD_MLEADERVER
1070
     2
  0
MLINESTYLE
  5
18
102
{ACAD_REACTORS
330
17
102
}
330
17
100
AcDbMlineStyle
  2
Standard
 70
     0
  3

 62
   256
 51
90.0
 52
90.0
 71
     2
 49
0.5
 62
   256
  6
BYLAYER
 49
-0.5
 62
   256
  6
BYLAYER
  0
ACAD_PROXY_OBJECT
  5
48
102
{ACAD_REACTORS
330
47
102
}
330
47
100
AcDbProxyObject
 90
      499
 91
      503
 93
       41
310
903313A31580
  0
ACAD_PROXY_OBJECT
  5
49
102
{ACAD_REACTORS
330
47
102
}
330
47
100
AcDbProxyObject
 90
      499
 91
      503
 93
      105
310
903313A324000000000000004000
  0
ACAD_PROXY_OBJECT
  5
4A
102
{ACAD_REACTORS
330
47
102
}
330
47
100
AcDbProxyObject
 90
      499
 91
      503
 93
      105
310
903313A344000000000000104000
  0
ACAD_PROXY_OBJECT
  5
4B
102
{ACAD_REACTORS
330
47
102
}
330
47
100
AcDbProxyObject
 90
      499
 91
      503
 93
      105
310
903313A354000000000000144000
  0
ACAD_PROXY_OBJECT
  5
4C
102
{ACAD_REACTORS
330
47
102
}
330
47
100
AcDbProxyObject
 90
      499
 91
      503
 93
      105
310
903313A384000000000000204000
  0
ACAD_PROXY_OBJECT
  5
4D
102
{ACAD_REACTORS
330
47
102
}
330
47
100
AcDbProxyObject
 90
      499
 91
      503
 93
      113
310
904313A31304000000000000244000
  0
ACAD_PROXY_OBJECT
  5
4E
102
{ACAD_REACTORS
330
47
102
}
330
47
100
AcDbProxyObject
 90
      499
 91
      503
 93
      113
310
904313A31364000000000000304000
  0
ACAD_PROXY_OBJECT
  5
4F
102
{ACAD_REACTORS
330
47
102
}
330
47
100
AcDbProxyObject
 90
      499
 91
      503
 93
      113
310
904313A32304000000000000344000
  0
ACAD_PROXY_OBJECT
  5
50
102
{ACAD_REACTORS
330
47
102
}
330
47
100
AcDbProxyObject
 90
      499
 91
      503
 93
      113
310
904313A333040000000000003E4000
  0
ACAD_PROXY_OBJECT
  5
51
102
{ACAD_REACTORS
330
47
102
}
330
47
100
AcDbProxyObject
 90
      499
 91
      503
 93
      113
310
904313A34304000000000000444000
  0
ACAD_PROXY_OBJECT
  5
52
102
{ACAD_REACTORS
330
47
102
}
330
47
100
AcDbProxyObject
 90
      499
 91
      503
 93
      113
310
904313A35304000000000000494000
  0
ACAD_PROXY_OBJECT
  5
53
102
{ACAD_REACTORS
330
47
102
}
330
47
100
AcDbProxyObject
 90
      499
 91
      503
 93
      121
310
905313A3130304000000000000594000
  0
ACAD_PROXY_OBJECT
  5
54
102
{ACAD_REACTORS
330
47
102
}
330
47
100
AcDbProxyObject
 90
      499
 91
      503
 93
      105
310
903323A310000000000000010100
  0
ACAD_PROXY_OBJECT
  5
55
102
{ACAD_REACTORS
330
47
102
}
330
47
100
AcDbProxyObject
 90
      499
 91
      503
 93
      105
310
903343A310000000000000410100
  0
ACAD_PROXY_OBJECT
  5
56
102
{ACAD_REACTORS
330
47
102
}
330
47
100
AcDbProxyObject
 90
      499
 91
      503
 93
      105
310
903383A310000000000000810100
  0
ACAD_PROXY_OBJECT
  5
57
102
{ACAD_REACTORS
330
47
102
}
330
47
100
AcDbProxyObject
 90
      499
 91
      503
 93
      113
310
90431303A310000000000000910100
  0
ACAD_PROXY_OBJECT
  5
58
102
{ACAD_REACTORS
330
47
102
}
330
47
100
AcDbProxyObject
 90
      499
 91
      503
 93
      121
310
9053130303A310000000000001650100
  0
ACAD_PROXY_OBJECT
  5
59
102
{ACAD_REACTORS
330
47
102
}
330
47
100
AcDbProxyObject
 90
      499
 91
      503
 93
      257
310
90E312F31323822203D2031272D3022000000000000200FC000000000000284000
  0
ACAD_PROXY_OBJECT
  5
5A
102
{ACAD_REACTORS
330
47
102
}
330
47
100
AcDbProxyObject
 90
      499
 91
      503
 93
      249
310
90D312F363422203D2031272D3022000000000000240FC000000000000284000
  0
ACAD_PROXY_OBJECT
  5
5B
102
{ACAD_REACTORS
330
47
102
}
330
47
100
AcDbProxyObject
 90
      499
 91
      503
 93
      249
310
90D312F333222203D2031272D3022000000000000280FC000000000000284000
  0
ACAD_PROXY_OBJECT
  5
5C
102
{ACAD_REACTORS
330
47
102
}
330
47
100
AcDbProxyObject
 90
      499
 91
      503
 93
      249
310
90D312F313622203D2031272D30220000000000002C0FC000000000000284000
  0
ACAD_PROXY_OBJECT
  5
5D
102
{ACAD_REACTORS
330
47
102
}
330
47
100
AcDbProxyObject
 90
      499
 91
      503
 93
      249
310
90D332F333222203D2031272D30220000000000002E0FC000000000000284000
  0
ACAD_PROXY_OBJECT
  5
5E
102
{ACAD_REACTORS
330
47
102
}
330
47
100
AcDbProxyObject
 90
      499
 91
      503
 93
      241
310
90C312F3822203D2031272D3022000000000000300FC000000000000284000
  0
ACAD_PROXY_OBJECT
  5
5F
102
{ACAD_REACTORS
330
47
102
}
330
47
100
AcDbProxyObject
 90
      499
 91
      503
 93
      249
310
90D332F313622203D2031272D3022000000000000320FC000000000000284000
  0
ACAD_PROXY_OBJECT
  5
60
102
{ACAD_REACTORS
330
47
102
}
330
47
100
AcDbProxyObject
 90
      499
 91
      503
 93
      241
310
90C312F3422203D2031272D3022000000000000340FC000000000000284000
  0
ACAD_PROXY_OBJECT
  5
61
102
{ACAD_REACTORS
330
47
102
}
330
47
100
AcDbProxyObject
 90
      499
 91
      503
 93
      241
310
90C332F3822203D2031272D3022000000000000360FC000000000000284000
  0
ACAD_PROXY_OBJECT
  5
62
102
{ACAD_REACTORS
330
47
102
}
330
47
100
AcDbProxyObject
 90
      499
 91
      503
 93
      241
310
90C312F3222203D2031272D3022000000000000380FC000000000000284000
  0
ACAD_PROXY_OBJECT
  5
63
102
{ACAD_REACTORS
330
47
102
}
330
47
100
AcDbProxyObject
 90
      499
 91
      503
 93
      241
310
90C332F3422203D2031272D30220000000000003A0FC000000000000284000
  0
ACAD_PROXY_OBJECT
  5
64
102
{ACAD_REACTORS
330
47
102
}
330
47
100
AcDbProxyObject
 90
      499
 91
      503
 93
      161
310
90A3122203D2031272D30224000000000000284000
  0
ACAD_PROXY_OBJECT
  5
65
102
{ACAD_REACTORS
330
47
102
}
330
47
100
AcDbProxyObject
 90
      499
 91
      503
 93
      257
310
90E312D312F3222203D2031272D30220000000000003E0FC000000000000284000
  0
ACAD_PROXY_OBJECT
  5
66
102
{ACAD_REACTORS
330
47
102
}
330
47
100
AcDbProxyObject
 90
      499
 91
      503
 93
      225
310
90A3322203D2031272D302200000000000002100000000000000284000
  0
ACAD_PROXY_OBJECT
  5
67
102
{ACAD_REACTORS
330
47
102
}
330
47
100
AcDbProxyObject
 90
      499
 91
      503
 93
      225
310
90A3622203D2031272D302200000000000006100000000000000284000
  0
ACAD_PROXY_OBJECT
  5
68
102
{ACAD_REACTORS
330
47
102
}
330
47
100
AcDbProxyObject
 90
      499
 91
      503
 93
      249
310
90D31272D3022203D2031272D30220000000000000A100000000000000284000
  0
ACAD_PROXY_OBJECT
  5
2F
102
{ACAD_REACTORS
330
2A
102
}
330
2A
100
AcDbProxyObject
 90
      499
 91
      501
 93
      436
310
42CC9915DA5C99599C985B595049028333333333333E33F0000000000000F90107901411070040501600405405064090741402480A0340
1001
ACAD
1000
AcDbSavedByObjectVersion
1070
     0
  0
ACAD_PROXY_OBJECT
  5
32
102
{ACAD_REACTORS
330
2A
102
}
330
2A
100
AcDbProxyObject
 90
      499
 91
      501
 93
      388
310
4150985CDA58D07406404333333333333E33F0000000000000F90107A41107004050150841D405064090741402480A0350
1001
ACAD
1000
AcDbSavedByObjectVersion
1070
     0
  0
ACAD_PROXY_OBJECT
  5
36
102
{ACAD_REACTORS
330
2A
102
}
330
2A
100
AcDbProxyObject
 90
      499
 91
      501
 93
      428
310
42109C9A59DA1D195B90C409028333333333333E33F0000000000000F9010790141107004050150841D405064090741402480A029950
1001
ACAD
1000
AcDbSavedByObjectVersion
1070
     0
  0
ACAD_PROXY_OBJECT
  5
3A
102
{ACAD_REACTORS
330
2A
102
}
330
2A
100
AcDbProxyObject
 90
      499
 91
      501
 93
      452
310
42D0DBDB1BDC90DA185B99D95104090240C333333333333E33F0000000000000F90108901411070040501508421405064090741402480A0350
1001
ACAD
1000
AcDbSavedByObjectVersion
1070
     0
  0
ACAD_PROXY_OBJECT
  5
34
102
{ACAD_REACTORS
330
2A
102
}
330
2A
100
AcDbProxyObject
 90
      499
 91
      501
 93
      500
310
4290DBDB98D95C1D1D585B10940D028333333333333E33F0000000000000F90107902409070040501000000000018199010841D405064090740C02480A0340
1001
ACAD
1000
AcDbSavedByObjectVersion
1070
     0
  0
ACAD_PROXY_OBJECT
  5
35
102
{ACAD_REACTORS
330
2A
102
}
330
2A
100
AcDbProxyObject
 90
      499
 91
      501
 93
      412
310
40D11A5B50B409028333333333333E33F0000000000000F9010790141107004050150841D405064090741402480A02677FFFFFD0
1001
ACAD
1000
AcDbSavedByObjectVersion
1070
     0
  0
ACAD_PROXY_OBJECT
  5
3D
102
{ACAD_REACTORS
330
2A
102
}
330
2A
100
AcDbProxyObject
 90
      499
 91
      501
 93
      452
310
43115919D950DBDB1BDC93D999916409028333333333333E33F0000000000000F9010790141107004050150841D405064090741402480A0350
1001
ACAD
1000
AcDbSavedByObjectVersion
1070
     0
  0
ACAD_PROXY_OBJECT
  5
39
102
{ACAD_REACTORS
330
2A
102
}
330
2A
100
AcDbProxyObject
 90
      499
 91
      501
 93
      444
310
42D19858D95C185D1D195C9B90F409028333333333333E33F0000000000000F9010790141107004050150841D405064090741402480A0350
1001
ACAD
1000
AcDbSavedByObjectVersion
1070
     0
  0
ACAD_PROXY_OBJECT
  5
2B
102
{ACAD_REACTORS
330
2A
102
}
330
2A
100
AcDbProxyObject
 90
      499
 91
      501
 93
      380
310
41119B185D240901404333333333333E33F0000000000000F9010740A907004050150841D405064090741402480A1B50
1001
ACAD
1000
AcDbSavedByObjectVersion
1070
     0
  0
ACAD_PROXY_OBJECT
  5
2C
102
{ACAD_REACTORS
330
2A
102
}
330
2A
100
AcDbProxyObject
 90
      499
 91
      501
 93
      468
310
43519B185D15DA5D1A115919D95CD0140901404333333333333E33F0000000000000F90107409019070040501600405405064090741402480A1B50
1001
ACAD
1000
AcDbSavedByObjectVersion
1070
     0
  0
ACAD_PROXY_OBJECT
  5
2D
102
{ACAD_REACTORS
330
2A
102
}
330
2A
100
AcDbProxyObject
 90
      499
 91
      501
 93
      404
310
41D1DBDD5C985D5910240902404333333333333E33F0000000000000F9010740A9070040501641D405064090741402480A1B50
1001
ACAD
1000
AcDbSavedByObjectVersion
1070
     0
  0
ACAD_PROXY_OBJECT
  5
2E
102
{ACAD_REACTORS
330
2A
102
}
330
2A
100
AcDbProxyObject
 90
      499
 91
      501
 93
      492
310
4411DBDD5C985D5915DA5D1A115919D95CD0340902404333333333333E33F0000000000000F90107409019070040501600405405064090741402480A1B50
1001
ACAD
1000
AcDbSavedByObjectVersion
1070
     0
  0
ACAD_PROXY_OBJECT
  5
31
102
{ACAD_REACTORS
330
2A
102
}
330
2A
100
AcDbProxyObject
 90
      499
 91
      501
 93
      476
310
41921A5919195B90640502408333333333333E33F0000000000000F901079024090700405020000000000001110200405405064090740C02480A0340
1001
ACAD
1000
AcDbSavedByObjectVersion
1070
     0
  0
ACAD_PROXY_OBJECT
  5
3B
102
{ACAD_REACTORS
330
2A
102
}
330
2A
100
AcDbProxyObject
 90
      499
 91
      501
 93
      428
310
42529A5D1D195C93D999914409028333333333333E33F0000000000000F9010790141107004050150A41D405064090741402480A0350
1001
ACAD
1000
AcDbSavedByObjectVersion
1070
     0
  0
ACAD_PROXY_OBJECT
  5
38
102
{ACAD_REACTORS
330
2A
102
}
330
2A
100
AcDbProxyObject
 90
      499
 91
      501
 93
      444
310
42D31A5B995C185D1D195C9B90E409028333333333333E33F0000000000000F9010790141107004050750841D405064090741402483A0350
1001
ACAD
1000
AcDbSavedByObjectVersion
1070
     0
  0
ACAD_PROXY_OBJECT
  5
3C
102
{ACAD_REACTORS
330
2A
102
}
330
2A
100
AcDbProxyObject
 90
      499
 91
      501
 93
      444
310
42D3DD995C9A185B99D3D999915409028333333333333E33F0000000000000F9010790141107004050150941D405064090741402480A0350
1001
ACAD
1000
AcDbSavedByObjectVersion
1070
     0
  0
ACAD_PROXY_OBJECT
  5
33
102
{ACAD_REACTORS
330
2A
102
}
330
2A
100
AcDbProxyObject
 90
      499
 91
      501
 93
      428
310
425499585B1A5CDD1A58D08409038333333333333E33F0000000000000F9010740A907004050150800405405064090740C02480A1B40
1001
ACAD
1000
AcDbSavedByObjectVersion
1070
     0
  0
ACAD_PROXY_OBJECT
  5
42
102
{ACAD_REACTORS
330
2A
102
}
330
2A
100
AcDbProxyObject
 90
      499
 91
      501
 93
      420
310
4194DA1859195911B40902404333333333333E33F0000000000000F9010740A41107004050150800405405064090840C02480A0B40
1001
ACAD
1000
AcDbSavedByObjectVersion
1070
     0
  0
ACAD_PROXY_OBJECT
  5
41
102
{ACAD_REACTORS
330
2A
102
}
330
2A
100
AcDbProxyObject
 90
      499
 91
      501
 93
      516
310
4454DA18591959081DDA5D1A08195919D95CD1A40902404333333333333E33F0000000000000F901074090142907004050250800405405064090740C02480A0B40
1001
ACAD
1000
AcDbSavedByObjectVersion
1070
     0
  0
ACAD_PROXY_OBJECT
  5
3E
102
{ACAD_REACTORS
330
2A
102
}
330
2A
100
AcDbProxyObject
 90
      499
 91
      501
 93
      532
310
4394DA1859195CC81BD98811DC985E5174090240C333333333333E33F0000000000000F901079024090741D01000000000000111010841D405064090740C02480A0340
1001
ACAD
1000
AcDbSavedByObjectVersion
1070
     0
  0
ACAD_PROXY_OBJECT
  5
3F
102
{ACAD_REACTORS
330
2A
102
}
330
2A
100
AcDbProxyObject
 90
      499
 91
      501
 93
      476
310
41D4DAD95D18DA1E51840502408333333333333E33F0000000000000F901079024090741D01000000000000111010B41D405064090741802480A0340
1001
ACAD
1000
AcDbSavedByObjectVersion
1070
     0
  0
ACAD_PROXY_OBJECT
  5
37
102
{ACAD_REACTORS
330
2A
102
}
330
2A
100
AcDbProxyObject
 90
      499
 91
      501
 93
      412
310
41D51A1A58DAD95B90D409028333333333333E33F0000000000000F9010790141107004050150C41D405064090741402480A0350
1001
ACAD
1000
AcDbSavedByObjectVersion
1070
     0
  0
ACAD_PROXY_OBJECT
  5
30
102
{ACAD_REACTORS
330
2A
102
}
330
2A
100
AcDbProxyObject
 90
      499
 91
      501
 93
      420
310
4255DA5C99599C985B595059028333333333333E33F0000000000000F90107901411070040501600405405064090740C02480A0340
1001
ACAD
1000
AcDbSavedByObjectVersion
1070
     0
  0
ACAD_PROXY_OBJECT
  5
40
102
{ACAD_REACTORS
330
2A
102
}
330
2A
100
AcDbProxyObject
 90
      499
 91
      501
 93
      404
310
41560B54985E51940902404000000000000E03F0000000000000F9010740501907004050150841D405064090740C02480A1B40
1001
ACAD
1000
AcDbSavedByObjectVersion
1070
     0
  0
XRECORD
  5
426
102
{ACAD_REACTORS
330
41C
102
}
330
41C
100
AcDbXrecord
340
0
  0
XRECORD
  5
425
102
{ACAD_REACTORS
330
41C
102
}
330
41C
100
AcDbXrecord
 90
        0
  0
XRECORD
  5
43C
102
{ACAD_REACTORS
330
41C
102
}
330
41C
100
AcDbXrecord
1000
DSTYLE
1002
{
1070
   179
 70
     2
1070
   171
 70
     2
1070
   143
 40
25.4
1070
   274
 70
     2
1070
    41
 40
3.0
1070
   141
 40
0.09
1070
    43
 40
0.38
1070
   278
 70
    46
1070
    44
 40
1.5
1070
    42
 40
0.0625
1070
   147
 40
1.5
1070
   272
 70
     4
1070
    73
 70
     1
1070
   172
 70
     0
1070
    74
 70
     1
1070
   283
 70
     1
1070
   340
340
6F
1070
   140
 40
3.0
1070
   284
 70
     0
1070
    78
 70
     0
1002
}
  0
XRECORD
  5
427
102
{ACAD_REACTORS
330
41C
102
}
330
41C
100
AcDbXrecord
  1
{DE952DF8-B21E-4F7F-9971-6753CAD50A81}
  0
XRECORD
  5
41F
102
{ACAD_REACTORS
330
41C
102
}
330
41C
100
AcDbXrecord
  1

  0
XRECORD
  5
424
102
{ACAD_REACTORS
330
41C
102
}
330
41C
100
AcDbXrecord
 90
        4
  0
XRECORD
  5
421
102
{ACAD_REACTORS
330
41C
102
}
330
41C
100
AcDbXrecord
340
1A
  0
XRECORD
  5
423
102
{ACAD_REACTORS
330
41C
102
}
330
41C
100
AcDbXrecord
 90
    10269
  0
XRECORD
  5
422
102
{ACAD_REACTORS
330
41C
102
}
330
41C
100
AcDbXrecord
340
19
  0
XRECORD
  5
429
102
{ACAD_REACTORS
330
41C
102
}
330
41C
100
AcDbXrecord
 40
0.0
  0
XRECORD
  5
42C
102
{ACAD_REACTORS
330
41C
102
}
330
41C
100
AcDbXrecord
340
0
  0
XRECORD
  5
432
102
{ACAD_REACTORS
330
41C
102
}
330
41C
100
AcDbXrecord
 10
0.0
 20
0.0
 30
0.0
  0
XRECORD
  5
42E
102
{ACAD_REACTORS
330
41C
102
}
330
41C
100
AcDbXrecord
 10
0.0
 20
0.0
 30
0.0
  0
XRECORD
  5
431
102
{ACAD_REACTORS
330
41C
102
}
330
41C
100
AcDbXrecord
 10
0.0
 20
0.0
 30
0.0
  0
XRECORD
  5
42F
102
{ACAD_REACTORS
330
41C
102
}
330
41C
100
AcDbXrecord
 10
0.0
 20
0.0
 30
0.0
  0
XRECORD
  5
430
102
{ACAD_REACTORS
330
41C
102
}
330
41C
100
AcDbXrecord
 10
0.0
 20
0.0
 30
0.0
  0
XRECORD
  5
42D
102
{ACAD_REACTORS
330
41C
102
}
330
41C
100
AcDbXrecord
 10
0.0
 20
0.0
 30
0.0
  0
XRECORD
  5
42A
102
{ACAD_REACTORS
330
41C
102
}
330
41C
100
AcDbXrecord
340
0
  0
XRECORD
  5
42B
102
{ACAD_REACTORS
330
41C
102
}
330
41C
100
AcDbXrecord
 70
     0
  0
XRECORD
  5
420
102
{ACAD_REACTORS
330
41C
102
}
330
41C
100
AcDbXrecord
  1

  0
XRECORD
  5
41D
102
{ACAD_REACTORS
330
41C
102
}
330
41C
100
AcDbXrecord
 90
        1
  0
XRECORD
  5
41E
102
{ACAD_REACTORS
330
41C
102
}
330
41C
100
AcDbXrecord
 90
       70
  0
XRECORD
  5
435
102
{ACAD_REACTORS
330
41C
102
}
330
41C
100
AcDbXrecord
340
0
  0
XRECORD
  5
43B
102
{ACAD_REACTORS
330
41C
102
}
330
41C
100
AcDbXrecord
 10
0.0
 20
0.0
 30
0.0
  0
XRECORD
  5
437
102
{ACAD_REACTORS
330
41C
102
}
330
41C
100
AcDbXrecord
 10
0.0
 20
0.0
 30
0.0
  0
XRECORD
  5
43A
102
{ACAD_REACTORS
330
41C
102
}
330
41C
100
AcDbXrecord
 10
0.0
 20
0.0
 30
0.0
  0
XRECORD
  5
438
102
{ACAD_REACTORS
330
41C
102
}
330
41C
100
AcDbXrecord
 10
0.0
 20
0.0
 30
0.0
  0
XRECORD
  5
439
102
{ACAD_REACTORS
330
41C
102
}
330
41C
100
AcDbXrecord
 10
0.0
 20
0.0
 30
0.0
  0
XRECORD
  5
436
102
{ACAD_REACTORS
330
41C
102
}
330
41C
100
AcDbXrecord
 10
0.0
 20
0.0
 30
0.0
  0
XRECORD
  5
433
102
{ACAD_REACTORS
330
41C
102
}
330
41C
100
AcDbXrecord
340
0
  0
XRECORD
  5
434
102
{ACAD_REACTORS
330
41C
102
}
330
41C
100
AcDbXrecord
 70
     0
  0
XRECORD
  5
428
102
{ACAD_REACTORS
330
41C
102
}
330
41C
100
AcDbXrecord
  1
{FAEB1C32-E019-11D5-929B-00C0DF256EC4}
  0
DICTIONARYVAR
  5
446
102
{ACAD_REACTORS
330
43D
102
}
330
43D
100
DictionaryVariables
280
     0
  1
1:1
  0
DICTIONARYVAR
  5
43F
102
{ACAD_REACTORS
330
43D
102
}
330
43D
100
DictionaryVariables
280
     0
  1
Standard
  0
DICTIONARYVAR
  5
43E
102
{ACAD_REACTORS
330
43D
102
}
330
43D
100
DictionaryVariables
280
     0
  1
Standard
  0
DICTIONARYVAR
  5
442
102
{ACAD_REACTORS
330
43D
102
}
330
43D
100
DictionaryVariables
280
     0
  1
2
  0
DICTIONARYVAR
  5
443
102
{ACAD_REACTORS
330
43D
102
}
330
43D
100
DictionaryVariables
280
     0
  1
1
  0
DICTIONARYVAR
  5
447
102
{ACAD_REACTORS
330
43D
102
}
330
43D
100
DictionaryVariables
280
     0
  1
1
  0
DICTIONARY
  5
44A
330
45
100
AcDbDictionary
280
     1
  3
ACAD_XREC_ROUNDTRIP
360
44B
  0
DICTIONARY
  5
448
330
44
100
AcDbDictionary
280
     1
  3
ACAD_XREC_ROUNDTRIP
360
449
  0
DICTIONARY
  5
44C
330
46
100
AcDbDictionary
280
     1
  3
ACAD_XREC_ROUNDTRIP
360
44D
  0
XRECORD
  5
44B
102
{ACAD_REACTORS
330
44A
102
}
330
44A
100
AcDbXrecord
102
MATERIAL
148
0.0
149
0.0
149
0.0
 93
        0
 94
      127
282
     0
 72
     1
 77
     1
171
     1
175
     1
179
     1
273
     0
  0
XRECORD
  5
449
102
{ACAD_REACTORS
330
448
102
}
330
448
100
AcDbXrecord
102
MATERIAL
148
0.0
149
0.0
149
0.0
 93
        0
 94
      127
282
     0
 72
     1
 77
     1
171
     1
175
     1
179
     1
273
     0
  0
XRECORD
  5
44D
102
{ACAD_REACTORS
330
44C
102
}
330
44C
100
AcDbXrecord
102
MATERIAL
148
0.0
149
0.0
149
0.0
 93
        0
 94
      127
282
     0
 72
     1
 77
     1
171
     1
175
     1
179
     1
273
     0
  0
ENDSEC
  0
EOF
