  0
SECTION
  2
HEADER
  9
$ACADVER
  1
AC1006
  9
$DWGCODEPAGE
  3
ansi_932
  9
$INSBASE
 10
0.0
 20
0.0
 30
0.0
  9
$EXTMIN
 10
444.9794738037825
 20
-12.65909090909091
  9
$EXTMAX
 10
704.0044738037826
 20
246.4079857705731
  9
$LIMMIN
 10
0.0
 20
0.0
  9
$LIMMAX
 10
12.0
 20
9.0
  9
$ORTHOMODE
 70
     0
  9
$REGENMODE
 70
     1
  9
$FILLMODE
 70
     1
  9
$QTEXTMODE
 70
     0
  9
$MIRRTEXT
 70
     1
  9
$DRAGMODE
 70
     2
  9
$LTSCALE
 40
1.0
  9
$OSMODE
 70
    37
  9
$ATTMODE
 70
     1
  9
$TEXTSIZE
 40
0.2
  9
$TRACEWID
 40
0.05
  9
$TEXTSTYLE
  7
STANDARD
  9
$CLAYER
  8
0
  9
$CELTYPE
  6
BYLAYER
  9
$CECOLOR
 62
   256
  9
$DIMSCALE
 40
1.0
  9
$DIMASZ
 40
3.0
  9
$DIMEXO
 40
0.0625
  9
$DIMDLI
 40
0.38
  9
$DIMRND
 40
0.0
  9
$DIMDLE
 40
0.0
  9
$DIMEXE
 40
1.5
  9
$DIMTP
 40
0.0
  9
$DIMTM
 40
0.0
  9
$DIMTXT
 40
3.0
  9
$DIMCEN
 40
0.09
  9
$DIMTSZ
 40
0.0
  9
$DIMTOL
 70
     0
  9
$DIMLIM
 70
     0
  9
$DIMTIH
 70
     1
  9
$DIMTOH
 70
     1
  9
$DIMSE1
 70
     0
  9
$DIMSE2
 70
     0
  9
$DIMTAD
 70
     1
  9
$DIMZIN
 70
     0
  9
$DIMBLK
  1

  9
$DIMASO
 70
     1
  9
$DIMSHO
 70
     1
  9
$DIMPOST
  1

  9
$DIMAPOST
  1

  9
$DIMALT
 70
     0
  9
$DIMALTD
 70
     2
  9
$DIMALTF
 40
25.4
  9
$DIMLFAC
 40
1.0
  9
$DIMTOFL
 70
     0
  9
$DIMTVP
 40
0.0
  9
$DIMTIX
 70
     0
  9
$DIMSOXD
 70
     0
  9
$DIMSAH
 70
     0
  9
$DIMBLK1
  1

  9
$DIMBLK2
  1

  9
$LUNITS
 70
     2
  9
$LUPREC
 70
     4
  9
$SKETCHINC
 40
0.1
  9
$FILLETRAD
 40
0.5
  9
$AUNITS
 70
     0
  9
$AUPREC
 70
     0
  9
$MENU
  1
.
  9
$ELEVATION
 40
0.0
  9
$THICKNESS
 40
0.0
  9
$LIMCHECK
 70
     0
  9
$CHAMFERA
 40
0.0
  9
$CHAMFERB
 40
0.0
  9
$SKPOLY
 70
     0
  9
$TDCREATE
 40
2459068.491165046
  9
$TDUPDATE
 40
2459068.491167037
  9
$TDINDWG
 40
0.0000000116
  9
$TDUSRTIMER
 40
0.0000000116
  9
$USRTIMER
 70
     1
  9
$ANGBASE
 50
0.0
  9
$ANGDIR
 70
     0
  9
$PDMODE
 70
     0
  9
$PDSIZE
 40
0.0
  9
$PLINEWID
 40
0.0
  9
$COORDS
 70
     1
  9
$SPLFRAME
 70
     0
  9
$SPLINETYPE
 70
     6
  9
$SPLINESEGS
 70
     8
  9
$ATTDIA
 70
     0
  9
$ATTREQ
 70
     1
  9
$HANDLING
 70
     1
  9
$HANDSEED
  5
455
  9
$SURFTAB1
 70
     6
  9
$SURFTAB2
 70
     6
  9
$SURFTYPE
 70
     6
  9
$SURFU
 70
     6
  9
$SURFV
 70
     6
  9
$UCSNAME
  2

  9
$UCSORG
 10
0.0
 20
0.0
 30
0.0
  9
$UCSXDIR
 10
1.0
 20
0.0
 30
0.0
  9
$UCSYDIR
 10
0.0
 20
1.0
 30
0.0
  9
$USERI1
 70
     0
  9
$USERI2
 70
     0
  9
$USERI3
 70
     0
  9
$USERI4
 70
     0
  9
$USERI5
 70
     0
  9
$USERR1
 40
0.0
  9
$USERR2
 40
0.0
  9
$USERR3
 40
0.0
  9
$USERR4
 40
0.0
  9
$USERR5
 40
0.0
  9
$WORLDVIEW
 70
     1
  0
ENDSEC
  0
SECTION
  2
TABLES
  0
TABLE
  2
VPORT
 70
     1
  0
VPORT
  2
*ACTIVE
 70
     0
 10
0.0
 20
0.0
 11
1.0
 21
1.0
 12
574.4919738037826
 22
116.8744474307411
 13
0.0
 23
0.0
 14
0.5
 24
0.5
 15
0.5
 25
0.5
 16
0.0
 26
0.0
 36
1.0
 17
0.0
 27
0.0
 37
0.0
 40
259.067076679664
 41
1.6
 42
50.0
 43
0.0
 44
0.0
 50
0.0
 51
0.0
 71
     0
 72
   100
 73
     1
 74
     3
 75
     0
 76
     0
 77
     0
 78
     0
  0
ENDTAB
  0
TABLE
  2
LTYPE
 70
     1
  0
LTYPE
  2
CONTINUOUS
 70
     0
  3
Solid line
 72
    65
 73
     0
 40
0.0
  0
ENDTAB
  0
TABLE
  2
LAYER
 70
     1
  0
LAYER
  2
0
 70
     0
 62
     7
  6
CONTINUOUS
  0
ENDTAB
  0
TABLE
  2
STYLE
 70
     2
  0
STYLE
  2
STANDARD
 70
     0
 40
0.0
 41
1.0
 50
0.0
 71
     0
 42
0.2
  3
txt
  4

  0
STYLE
  2
ＭＳ_ゴシック
 70
     0
 40
0.0
 41
1.0
 50
0.0
 71
     0
 42
0.2
  3
ＭＳ ゴシック.shx
  4

  0
ENDTAB
  0
TABLE
  2
VIEW
 70
     0
  0
ENDTAB
  0
TABLE
  2
UCS
 70
     0
  0
ENDTAB
  0
ENDSEC
  0
SECTION
  2
BLOCKS
  0
BLOCK
  8
0
  2
D_FRAME_VIEW_6868
 70
     0
 10
0.0
 20
0.0
 30
0.0
  0
LINE
  5
A3
  8
0
  6
CONTINUOUS
 62
     7
 10
449.1294738037826
 20
58.18298577057315
 30
0.0
 11
449.1294738037826
 21
57.88298577057306
 31
0.0
  0
LINE
  5
A4
  8
0
  6
CONTINUOUS
 62
     7
 10
622.8294738037827
 20
58.18298577057315
 30
0.0
 11
622.8294738037827
 21
57.88298577057306
 31
0.0
  0
ARC
  5
A5
  8
0
  6
CONTINUOUS
 62
     7
 10
452.1478849382877
 20
46.55766982813162
 30
0.0
 40
3.16929121819207
 50
165.2438403022499
 51
181.3502947920742
  0
POLYLINE
  5
A6
  8
0
  6
CONTINUOUS
 62
     7
 66
     1
 10
0.0
 20
0.0
 30
0.0
  0
VERTEX
  5
25F
  8
0
  6
CONTINUOUS
 62
     7
 10
449.0831215024442
 20
47.36490703492141
 30
0.0
  0
VERTEX
  5
260
  8
0
  6
CONTINUOUS
 62
     7
 10
449.1372992308383
 20
47.46377105097629
 30
0.0
  0
VERTEX
  5
261
  8
0
  6
CONTINUOUS
 62
     7
 10
449.1755522351552
 20
47.48298577057305
 30
0.0
  0
SEQEND
  5
431
  8
0
  6
CONTINUOUS
 62
     7
  0
POLYLINE
  5
A7
  8
0
  6
CONTINUOUS
 62
     7
 66
     1
 10
0.0
 20
0.0
 30
0.0
  0
VERTEX
  5
262
  8
0
  6
CONTINUOUS
 62
     7
 10
449.1755522351552
 20
27.88298577057305
 30
0.0
  0
VERTEX
  5
263
  8
0
  6
CONTINUOUS
 62
     7
 10
449.1005162680248
 20
27.95910623806177
 30
0.0
  0
VERTEX
  5
264
  8
0
  6
CONTINUOUS
 62
     7
 10
449.0587484499606
 20
28.07977823909241
 30
0.0
  0
SEQEND
  5
432
  8
0
  6
CONTINUOUS
 62
     7
  0
ARC
  5
A8
  8
0
  6
CONTINUOUS
 62
     7
 10
452.479298351816
 20
28.82289413864117
 30
0.0
 40
3.500340393625297
 50
179.0163339423742
 51
192.2570656353097
  0
LINE
  5
A9
  8
0
  6
CONTINUOUS
 62
     7
 10
448.9794738037826
 20
46.48298577057305
 30
0.0
 11
448.9794738037826
 21
28.88298577057306
 31
0.0
  0
POLYLINE
  5
AA
  8
0
  6
CONTINUOUS
 62
     7
 66
     1
 10
0.0
 20
0.0
 30
0.0
  0
VERTEX
  5
265
  8
0
  6
CONTINUOUS
 62
     7
 10
622.78339537241
 20
27.88298577057305
 30
0.0
  0
VERTEX
  5
266
  8
0
  6
CONTINUOUS
 62
     7
 10
622.8584313395404
 20
27.95910623806177
 30
0.0
  0
VERTEX
  5
267
  8
0
  6
CONTINUOUS
 62
     7
 10
622.9001991576047
 20
28.07977823909241
 30
0.0
  0
SEQEND
  5
433
  8
0
  6
CONTINUOUS
 62
     7
  0
ARC
  5
AB
  8
0
  6
CONTINUOUS
 62
     7
 10
619.4796492557492
 20
28.82289413864117
 30
0.0
 40
3.500340393625297
 50
347.7429343646903
 51
0.983666057625726
  0
LINE
  5
AC
  8
0
  6
CONTINUOUS
 62
     7
 10
622.9794738037826
 20
46.48298577057305
 30
0.0
 11
622.9794738037826
 21
28.88298577057306
 31
0.0
  0
ARC
  5
AD
  8
0
  6
CONTINUOUS
 62
     7
 10
619.8110626692775
 20
46.55766982813162
 30
0.0
 40
3.169291218192126
 50
358.6497052079259
 51
14.75615969774998
  0
POLYLINE
  5
AE
  8
0
  6
CONTINUOUS
 62
     7
 66
     1
 10
0.0
 20
0.0
 30
0.0
  0
VERTEX
  5
268
  8
0
  6
CONTINUOUS
 62
     7
 10
622.8758261051211
 20
47.36490703492141
 30
0.0
  0
VERTEX
  5
269
  8
0
  6
CONTINUOUS
 62
     7
 10
622.8216483767269
 20
47.46377105097629
 30
0.0
  0
VERTEX
  5
26A
  8
0
  6
CONTINUOUS
 62
     7
 10
622.78339537241
 20
47.48298577057305
 30
0.0
  0
SEQEND
  5
434
  8
0
  6
CONTINUOUS
 62
     7
  0
ARC
  5
AF
  8
0
  6
CONTINUOUS
 62
     7
 10
624.5859024491751
 20
42.55777710050256
 30
0.0
 40
3.224943083148692
 50
165.5060801028418
 51
181.3288953212899
  0
POLYLINE
  5
B0
  8
0
  6
CONTINUOUS
 62
     7
 66
     1
 10
0.0
 20
0.0
 30
0.0
  0
VERTEX
  5
26B
  8
0
  6
CONTINUOUS
 62
     7
 10
621.4635957444272
 20
43.36490703492141
 30
0.0
  0
VERTEX
  5
26C
  8
0
  6
CONTINUOUS
 62
     7
 10
621.5167914572439
 20
43.46377105097629
 30
0.0
  0
VERTEX
  5
26D
  8
0
  6
CONTINUOUS
 62
     7
 10
621.554351094614
 20
43.48298577057305
 30
0.0
  0
SEQEND
  5
435
  8
0
  6
CONTINUOUS
 62
     7
  0
LINE
  5
B1
  8
0
  6
CONTINUOUS
 62
     7
 10
621.3618267449591
 20
42.48298577057305
 30
0.0
 11
621.3618267449591
 21
32.88298577057305
 31
0.0
  0
POLYLINE
  5
B2
  8
0
  6
CONTINUOUS
 62
     7
 66
     1
 10
0.0
 20
0.0
 30
0.0
  0
VERTEX
  5
26E
  8
0
  6
CONTINUOUS
 62
     7
 10
621.554351094614
 20
31.88298577057306
 30
0.0
  0
VERTEX
  5
26F
  8
0
  6
CONTINUOUS
 62
     7
 10
621.4806752156743
 20
31.95910623806177
 30
0.0
  0
VERTEX
  5
270
  8
0
  6
CONTINUOUS
 62
     7
 10
621.4396644734268
 20
32.07977823909241
 30
0.0
  0
SEQEND
  5
436
  8
0
  6
CONTINUOUS
 62
     7
  0
ARC
  5
B3
  8
0
  6
CONTINUOUS
 62
     7
 10
624.9239187088089
 20
32.82280782608603
 30
0.0
 40
3.562600250368564
 50
179.0321377696369
 51
192.0382028444683
  0
LINE
  5
B4
  8
0
  6
CONTINUOUS
 62
     7
 10
621.9500620390768
 20
31.88298577057306
 30
0.0
 11
621.554351094614
 21
31.88298577057306
 31
0.0
  0
ARC
  5
B5
  8
0
  6
CONTINUOUS
 62
     7
 10
618.9777293359442
 20
32.8083017130145
 30
0.0
 40
3.169291218192015
 50
345.2438403022496
 51
1.350294792074067
  0
POLYLINE
  5
B6
  8
0
  6
CONTINUOUS
 62
     7
 66
     1
 10
0.0
 20
0.0
 30
0.0
  0
VERTEX
  5
271
  8
0
  6
CONTINUOUS
 62
     7
 10
622.0424927717877
 20
32.0010645062247
 30
0.0
  0
VERTEX
  5
272
  8
0
  6
CONTINUOUS
 62
     7
 10
621.9883150433935
 20
31.90220049016983
 30
0.0
  0
VERTEX
  5
273
  8
0
  6
CONTINUOUS
 62
     7
 10
621.9500620390768
 20
31.88298577057306
 30
0.0
  0
SEQEND
  5
437
  8
0
  6
CONTINUOUS
 62
     7
  0
LINE
  5
B7
  8
0
  6
CONTINUOUS
 62
     7
 10
622.1461404704493
 20
42.48298577057305
 30
0.0
 11
622.1461404704493
 21
32.88298577057305
 31
0.0
  0
POLYLINE
  5
B8
  8
0
  6
CONTINUOUS
 62
     7
 66
     1
 10
0.0
 20
0.0
 30
0.0
  0
VERTEX
  5
274
  8
0
  6
CONTINUOUS
 62
     7
 10
621.9500620390768
 20
43.48298577057305
 30
0.0
  0
VERTEX
  5
275
  8
0
  6
CONTINUOUS
 62
     7
 10
622.025098006207
 20
43.40686530308434
 30
0.0
  0
VERTEX
  5
276
  8
0
  6
CONTINUOUS
 62
     7
 10
622.0668658242713
 20
43.2861933020537
 30
0.0
  0
SEQEND
  5
438
  8
0
  6
CONTINUOUS
 62
     7
  0
ARC
  5
B9
  8
0
  6
CONTINUOUS
 62
     7
 10
618.646315922416
 20
42.54307740250493
 30
0.0
 40
3.500340393625299
 50
359.0163339423743
 51
12.25706563530975
  0
LINE
  5
BA
  8
0
  6
CONTINUOUS
 62
     7
 10
621.9500620390768
 20
43.48298577057305
 30
0.0
 11
621.554351094614
 21
43.48298577057305
 31
0.0
  0
LINE
  5
BB
  8
0
  6
CONTINUOUS
 62
     7
 10
620.4794738037826
 20
47.48298577057305
 30
0.0
 11
620.4794738037826
 21
27.88298577057306
 31
0.0
  0
POLYLINE
  5
BC
  8
0
  6
CONTINUOUS
 62
     7
 66
     1
 10
0.0
 20
0.0
 30
0.0
  0
VERTEX
  5
277
  8
0
  6
CONTINUOUS
 62
     7
 10
450.0088855684886
 20
31.88298577057306
 30
0.0
  0
VERTEX
  5
278
  8
0
  6
CONTINUOUS
 62
     7
 10
449.9338496013581
 20
31.95910623806177
 30
0.0
  0
VERTEX
  5
279
  8
0
  6
CONTINUOUS
 62
     7
 10
449.892081783294
 20
32.07977823909241
 30
0.0
  0
SEQEND
  5
439
  8
0
  6
CONTINUOUS
 62
     7
  0
ARC
  5
BD
  8
0
  6
CONTINUOUS
 62
     7
 10
453.3126316851492
 20
32.82289413864117
 30
0.0
 40
3.500340393625132
 50
179.0163339423741
 51
192.25706563531
  0
LINE
  5
BE
  8
0
  6
CONTINUOUS
 62
     7
 10
450.0088855684886
 20
31.88298577057306
 30
0.0
 11
450.4045965129512
 21
31.88298577057306
 31
0.0
  0
ARC
  5
BF
  8
0
  6
CONTINUOUS
 62
     7
 10
447.3730451583874
 20
32.80819444064367
 30
0.0
 40
3.224943083151409
 50
345.5060801028523
 51
1.328895321286723
  0
POLYLINE
  5
C0
  8
0
  6
CONTINUOUS
 62
     7
 66
     1
 10
0.0
 20
0.0
 30
0.0
  0
VERTEX
  5
27A
  8
0
  6
CONTINUOUS
 62
     7
 10
450.4953518631381
 20
32.0010645062247
 30
0.0
  0
VERTEX
  5
27B
  8
0
  6
CONTINUOUS
 62
     7
 10
450.4421561503213
 20
31.90220049016983
 30
0.0
  0
VERTEX
  5
27C
  8
0
  6
CONTINUOUS
 62
     7
 10
450.4045965129512
 20
31.88298577057306
 30
0.0
  0
SEQEND
  5
43A
  8
0
  6
CONTINUOUS
 62
     7
  0
LINE
  5
C1
  8
0
  6
CONTINUOUS
 62
     7
 10
450.5971208626062
 20
42.48298577057305
 30
0.0
 11
450.5971208626062
 21
32.88298577057305
 31
0.0
  0
POLYLINE
  5
C2
  8
0
  6
CONTINUOUS
 62
     7
 66
     1
 10
0.0
 20
0.0
 30
0.0
  0
VERTEX
  5
27D
  8
0
  6
CONTINUOUS
 62
     7
 10
450.4045965129512
 20
43.48298577057305
 30
0.0
  0
VERTEX
  5
27E
  8
0
  6
CONTINUOUS
 62
     7
 10
450.478272391891
 20
43.40686530308434
 30
0.0
  0
VERTEX
  5
27F
  8
0
  6
CONTINUOUS
 62
     7
 10
450.5192831341385
 20
43.2861933020537
 30
0.0
  0
SEQEND
  5
43B
  8
0
  6
CONTINUOUS
 62
     7
  0
ARC
  5
C3
  8
0
  6
CONTINUOUS
 62
     7
 10
447.0350288987519
 20
42.5431637150599
 30
0.0
 40
3.562600250373003
 50
359.0321377696412
 51
12.03820284445635
  0
LINE
  5
C4
  8
0
  6
CONTINUOUS
 62
     7
 10
450.0088855684886
 20
43.48298577057305
 30
0.0
 11
450.4045965129512
 21
43.48298577057305
 31
0.0
  0
ARC
  5
C5
  8
0
  6
CONTINUOUS
 62
     7
 10
452.9812182716211
 20
42.55766982813161
 30
0.0
 40
3.16929121819207
 50
165.2438403022499
 51
181.3502947920742
  0
POLYLINE
  5
C6
  8
0
  6
CONTINUOUS
 62
     7
 66
     1
 10
0.0
 20
0.0
 30
0.0
  0
VERTEX
  5
280
  8
0
  6
CONTINUOUS
 62
     7
 10
449.9164548357776
 20
43.36490703492141
 30
0.0
  0
VERTEX
  5
281
  8
0
  6
CONTINUOUS
 62
     7
 10
449.9706325641717
 20
43.46377105097629
 30
0.0
  0
VERTEX
  5
282
  8
0
  6
CONTINUOUS
 62
     7
 10
450.0088855684886
 20
43.48298577057305
 30
0.0
  0
SEQEND
  5
43C
  8
0
  6
CONTINUOUS
 62
     7
  0
LINE
  5
C7
  8
0
  6
CONTINUOUS
 62
     7
 10
449.812807137116
 20
42.48298577057305
 30
0.0
 11
449.812807137116
 21
32.88298577057305
 31
0.0
  0
LINE
  5
C8
  8
0
  6
CONTINUOUS
 62
     7
 10
451.4794738037826
 20
47.48298577057305
 30
0.0
 11
451.4794738037826
 21
27.88298577057306
 31
0.0
  0
LINE
  5
C9
  8
0
  6
CONTINUOUS
 62
     9
 10
449.812807137116
 20
32.88298577057305
 30
0.0
 11
450.5971208626062
 21
32.88298577057305
 31
0.0
  0
POLYLINE
  5
CA
  8
0
  6
CONTINUOUS
 62
     7
 66
     1
 10
0.0
 20
0.0
 30
0.0
  0
VERTEX
  5
283
  8
0
  6
CONTINUOUS
 62
     7
 10
608.6794738037826
 20
55.55729725606839
 30
0.0
  0
VERTEX
  5
284
  8
0
  6
CONTINUOUS
 62
     7
 10
608.6404557393794
 20
55.55696232143676
 30
0.0
  0
VERTEX
  5
285
  8
0
  6
CONTINUOUS
 62
     7
 10
608.6029371173096
 20
55.55597038889193
 30
0.0
  0
VERTEX
  5
286
  8
0
  6
CONTINUOUS
 62
     7
 10
608.5683597571787
 20
55.55435957784532
 30
0.0
  0
VERTEX
  5
287
  8
0
  6
CONTINUOUS
 62
     7
 10
608.5380524475453
 20
55.5521917908621
 30
0.0
  0
VERTEX
  5
288
  8
0
  6
CONTINUOUS
 62
     7
 10
608.5131798813221
 20
55.54955033478031
 30
0.0
  0
VERTEX
  5
289
  8
0
  6
CONTINUOUS
 62
     7
 10
608.4946978972804
 20
55.54653671927585
 30
0.0
  0
VERTEX
  5
28A
  8
0
  6
CONTINUOUS
 62
     7
 10
608.4833167477019
 20
55.54326675590249
 30
0.0
  0
VERTEX
  5
28B
  8
0
  6
CONTINUOUS
 62
     7
 10
608.4794738037826
 20
55.53986610751885
 30
0.0
  0
SEQEND
  5
43D
  8
0
  6
CONTINUOUS
 62
     7
  0
LINE
  5
CB
  8
0
  6
CONTINUOUS
 62
     7
 10
615.2794738037827
 20
55.55729725606838
 30
0.0
 11
608.6794738037826
 21
55.55729725606838
 31
0.0
  0
POLYLINE
  5
CC
  8
0
  6
CONTINUOUS
 62
     7
 66
     1
 10
0.0
 20
0.0
 30
0.0
  0
VERTEX
  5
28C
  8
0
  6
CONTINUOUS
 62
     7
 10
615.4794738037826
 20
55.53986610751885
 30
0.0
  0
VERTEX
  5
28D
  8
0
  6
CONTINUOUS
 62
     7
 10
615.4756308598634
 20
55.54326675590249
 30
0.0
  0
VERTEX
  5
28E
  8
0
  6
CONTINUOUS
 62
     7
 10
615.4642497102849
 20
55.54653671927585
 30
0.0
  0
VERTEX
  5
28F
  8
0
  6
CONTINUOUS
 62
     7
 10
615.4457677262432
 20
55.54955033478031
 30
0.0
  0
VERTEX
  5
290
  8
0
  6
CONTINUOUS
 62
     7
 10
615.42089516002
 20
55.55219179086209
 30
0.0
  0
VERTEX
  5
291
  8
0
  6
CONTINUOUS
 62
     7
 10
615.3905878503866
 20
55.55435957784531
 30
0.0
  0
VERTEX
  5
292
  8
0
  6
CONTINUOUS
 62
     7
 10
615.3560104902557
 20
55.55597038889192
 30
0.0
  0
VERTEX
  5
293
  8
0
  6
CONTINUOUS
 62
     7
 10
615.3184918681859
 20
55.55696232143675
 30
0.0
  0
VERTEX
  5
294
  8
0
  6
CONTINUOUS
 62
     7
 10
615.2794738037827
 20
55.55729725606837
 30
0.0
  0
SEQEND
  5
43E
  8
0
  6
CONTINUOUS
 62
     7
  0
ARC
  5
CD
  8
0
  6
CONTINUOUS
 62
     7
 10
463.2794738037827
 20
57.18298577057307
 30
0.0
 40
0.1999999999999919
 50
0.0
 51
90.0
  0
LINE
  5
CE
  8
0
  6
CONTINUOUS
 62
     7
 10
463.4794738037826
 20
57.18298577057307
 30
0.0
 11
463.4794738037826
 21
55.53986610751885
 31
0.0
  0
POLYLINE
  5
CF
  8
0
  6
CONTINUOUS
 62
     7
 66
     1
 10
0.0
 20
0.0
 30
0.0
  0
VERTEX
  5
295
  8
0
  6
CONTINUOUS
 62
     7
 10
463.4794738037826
 20
55.53986610751885
 30
0.0
  0
VERTEX
  5
296
  8
0
  6
CONTINUOUS
 62
     7
 10
463.4756308598633
 20
55.54326675590249
 30
0.0
  0
VERTEX
  5
297
  8
0
  6
CONTINUOUS
 62
     7
 10
463.4642497102849
 20
55.54653671927585
 30
0.0
  0
VERTEX
  5
298
  8
0
  6
CONTINUOUS
 62
     7
 10
463.4457677262432
 20
55.54955033478031
 30
0.0
  0
VERTEX
  5
299
  8
0
  6
CONTINUOUS
 62
     7
 10
463.4208951600199
 20
55.55219179086209
 30
0.0
  0
VERTEX
  5
29A
  8
0
  6
CONTINUOUS
 62
     7
 10
463.3905878503866
 20
55.55435957784531
 30
0.0
  0
VERTEX
  5
29B
  8
0
  6
CONTINUOUS
 62
     7
 10
463.3560104902556
 20
55.55597038889192
 30
0.0
  0
VERTEX
  5
29C
  8
0
  6
CONTINUOUS
 62
     7
 10
463.3184918681858
 20
55.55696232143675
 30
0.0
  0
VERTEX
  5
29D
  8
0
  6
CONTINUOUS
 62
     7
 10
463.2794738037827
 20
55.55729725606837
 30
0.0
  0
SEQEND
  5
43F
  8
0
  6
CONTINUOUS
 62
     7
  0
LINE
  5
D0
  8
0
  6
CONTINUOUS
 62
     7
 10
608.4794738037826
 20
55.53986610751885
 30
0.0
 11
608.4794738037826
 21
57.18298577057307
 31
0.0
  0
ARC
  5
D1
  8
0
  6
CONTINUOUS
 62
     7
 10
608.6794738037826
 20
57.18298577057307
 30
0.0
 40
0.199999999999978
 50
90.0
 51
180.0
  0
ARC
  5
D2
  8
0
  6
CONTINUOUS
 62
     7
 10
615.2794738037827
 20
57.18298577057307
 30
0.0
 40
0.1999999999999919
 50
0.0
 51
90.0
  0
LINE
  5
D3
  8
0
  6
CONTINUOUS
 62
     7
 10
615.4794738037826
 20
57.18298577057307
 30
0.0
 11
615.4794738037826
 21
55.53986610751885
 31
0.0
  0
POLYLINE
  5
D4
  8
0
  6
CONTINUOUS
 62
     7
 66
     1
 10
0.0
 20
0.0
 30
0.0
  0
VERTEX
  5
29E
  8
0
  6
CONTINUOUS
 62
     7
 10
456.6794738037826
 20
55.55729725606839
 30
0.0
  0
VERTEX
  5
29F
  8
0
  6
CONTINUOUS
 62
     7
 10
456.6404557393794
 20
55.55696232143676
 30
0.0
  0
VERTEX
  5
2A0
  8
0
  6
CONTINUOUS
 62
     7
 10
456.6029371173096
 20
55.55597038889193
 30
0.0
  0
VERTEX
  5
2A1
  8
0
  6
CONTINUOUS
 62
     7
 10
456.5683597571787
 20
55.55435957784532
 30
0.0
  0
VERTEX
  5
2A2
  8
0
  6
CONTINUOUS
 62
     7
 10
456.5380524475453
 20
55.5521917908621
 30
0.0
  0
VERTEX
  5
2A3
  8
0
  6
CONTINUOUS
 62
     7
 10
456.5131798813221
 20
55.54955033478031
 30
0.0
  0
VERTEX
  5
2A4
  8
0
  6
CONTINUOUS
 62
     7
 10
456.4946978972804
 20
55.54653671927585
 30
0.0
  0
VERTEX
  5
2A5
  8
0
  6
CONTINUOUS
 62
     7
 10
456.483316747702
 20
55.54326675590249
 30
0.0
  0
VERTEX
  5
2A6
  8
0
  6
CONTINUOUS
 62
     7
 10
456.4794738037826
 20
55.53986610751885
 30
0.0
  0
SEQEND
  5
440
  8
0
  6
CONTINUOUS
 62
     7
  0
LINE
  5
D5
  8
0
  6
CONTINUOUS
 62
     7
 10
456.6794738037826
 20
55.55729725606838
 30
0.0
 11
463.2794738037827
 21
55.55729725606838
 31
0.0
  0
LINE
  5
D6
  8
0
  6
CONTINUOUS
 62
     7
 10
456.4794738037826
 20
55.53986610751885
 30
0.0
 11
456.4794738037826
 21
57.18298577057307
 31
0.0
  0
ARC
  5
D7
  8
0
  6
CONTINUOUS
 62
     7
 10
456.6794738037826
 20
57.18298577057307
 30
0.0
 40
0.2000000000000335
 50
90.0
 51
180.0
  0
LINE
  5
D8
  8
0
  6
CONTINUOUS
 62
     7
 10
456.6794738037826
 20
57.38298577057306
 30
0.0
 11
463.2794738037827
 21
57.38298577057306
 31
0.0
  0
LINE
  5
D9
  8
0
  6
CONTINUOUS
 62
     7
 10
615.2794738037827
 20
57.38298577057306
 30
0.0
 11
608.6794738037826
 21
57.38298577057306
 31
0.0
  0
CIRCLE
  5
DA
  8
0
  6
CONTINUOUS
 62
     7
 10
588.9794738037825
 20
37.38298577057306
 30
0.0
 40
13.55000000000006
  0
CIRCLE
  5
DB
  8
0
  6
CONTINUOUS
 62
     7
 10
535.9794738037826
 20
37.38298577057306
 30
0.0
 40
13.54999999999995
  0
CIRCLE
  5
DC
  8
0
  6
CONTINUOUS
 62
     7
 10
482.9794738037826
 20
37.38298577057306
 30
0.0
 40
13.55000000000001
  0
ARC
  5
DD
  8
0
  6
CONTINUOUS
 62
     7
 10
453.7294738037826
 20
22.68298577057305
 30
0.0
 40
2.250000000000001
 50
209.2675775975312
 51
330.7324224024687
  0
ARC
  5
DE
  8
0
  6
CONTINUOUS
 62
     7
 10
456.4794738037826
 20
22.08298577057305
 30
0.0
 40
0.5000000000000004
 50
270.0000000000015
 51
0.0000000000005116
  0
LINE
  5
DF
  8
0
  6
CONTINUOUS
 62
     7
 10
456.9794738037826
 20
23.28298577057306
 30
0.0
 11
456.9794738037826
 21
22.08298577057306
 31
0.0
  0
ARC
  5
E0
  8
0
  6
CONTINUOUS
 62
     7
 10
456.4794738037826
 20
23.28298577057306
 30
0.0
 40
0.5000000000000004
 50
0.0000000000002842
 51
90.0
  0
ARC
  5
E1
  8
0
  6
CONTINUOUS
 62
     7
 10
453.7294738037826
 20
22.68298577057305
 30
0.0
 40
2.250000000000001
 50
29.26757759753139
 51
150.7324224024687
  0
ARC
  5
E2
  8
0
  6
CONTINUOUS
 62
     7
 10
618.2294738037825
 20
22.68298577057305
 30
0.0
 40
2.250000000000001
 50
29.26757759753136
 51
150.7324224024686
  0
ARC
  5
E3
  8
0
  6
CONTINUOUS
 62
     7
 10
615.4794738037826
 20
23.28298577057306
 30
0.0
 40
0.5000000000000004
 50
90.0
 51
179.9999999999997
  0
LINE
  5
E4
  8
0
  6
CONTINUOUS
 62
     7
 10
614.9794738037825
 20
23.28298577057306
 30
0.0
 11
614.9794738037825
 21
22.08298577057306
 31
0.0
  0
ARC
  5
E5
  8
0
  6
CONTINUOUS
 62
     7
 10
615.4794738037826
 20
22.08298577057305
 30
0.0
 40
0.500000000000056
 50
179.9999999999995
 51
269.9999999999984
  0
ARC
  5
E6
  8
0
  6
CONTINUOUS
 62
     7
 10
618.2294738037825
 20
22.68298577057305
 30
0.0
 40
2.250000000000001
 50
209.2675775975313
 51
330.7324224024687
  0
POLYLINE
  5
E7
  8
0
  6
CONTINUOUS
 62
     7
 66
     1
 10
0.0
 20
0.0
 30
0.0
  0
VERTEX
  5
2A7
  8
0
  6
CONTINUOUS
 62
     7
 10
450.9794738037826
 20
23.78298577057306
 30
0.0
  0
VERTEX
  5
2A8
  8
0
  6
CONTINUOUS
 62
     7
 10
450.9586193138355
 20
23.78254897897109
 30
0.0
  0
VERTEX
  5
2A9
  8
0
  6
CONTINUOUS
 62
     7
 10
450.9377882079473
 20
23.78124203267998
 30
0.0
  0
VERTEX
  5
2AA
  8
0
  6
CONTINUOUS
 62
     7
 10
450.9170344608835
 20
23.77907007447194
 30
0.0
  0
VERTEX
  5
2AB
  8
0
  6
CONTINUOUS
 62
     7
 10
450.8964120474096
 20
23.77603824711919
 30
0.0
  0
VERTEX
  5
2AC
  8
0
  6
CONTINUOUS
 62
     7
 10
450.8753451499833
 20
23.77202090042302
 30
0.0
  0
VERTEX
  5
2AD
  8
0
  6
CONTINUOUS
 62
     7
 10
450.8544552282763
 20
23.76710046528171
 30
0.0
  0
VERTEX
  5
2AE
  8
0
  6
CONTINUOUS
 62
     7
 10
450.8337988367874
 20
23.76129209294591
 30
0.0
  0
VERTEX
  5
2AF
  8
0
  6
CONTINUOUS
 62
     7
 10
450.8134325300159
 20
23.75461093466624
 30
0.0
  0
VERTEX
  5
2B0
  8
0
  6
CONTINUOUS
 62
     7
 10
450.7939397912426
 20
23.74728684644706
 30
0.0
  0
VERTEX
  5
2B1
  8
0
  6
CONTINUOUS
 62
     7
 10
450.7747545778418
 20
23.73915144162207
 30
0.0
  0
VERTEX
  5
2B2
  8
0
  6
CONTINUOUS
 62
     7
 10
450.7559254581045
 20
23.73022675229021
 30
0.0
  0
VERTEX
  5
2B3
  8
0
  6
CONTINUOUS
 62
     7
 10
450.7375010003213
 20
23.7205348105504
 30
0.0
  0
VERTEX
  5
2B4
  8
0
  6
CONTINUOUS
 62
     7
 10
450.7189845467742
 20
23.70976851961402
 30
0.0
  0
VERTEX
  5
2B5
  8
0
  6
CONTINUOUS
 62
     7
 10
450.7009294417138
 20
23.69820833737434
 30
0.0
  0
VERTEX
  5
2B6
  8
0
  6
CONTINUOUS
 62
     7
 10
450.6833839101246
 20
23.68588643200481
 30
0.0
  0
VERTEX
  5
2B7
  8
0
  6
CONTINUOUS
 62
     7
 10
450.6663961769916
 20
23.67283497167894
 30
0.0
  0
VERTEX
  5
2B8
  8
0
  6
CONTINUOUS
 62
     7
 10
450.6503960685121
 20
23.6594245825302
 30
0.0
  0
VERTEX
  5
2B9
  8
0
  6
CONTINUOUS
 62
     7
 10
450.6349539116787
 20
23.64534344365221
 30
0.0
  0
VERTEX
  5
2BA
  8
0
  6
CONTINUOUS
 62
     7
 10
450.6201090893753
 20
23.63062831356508
 30
0.0
  0
VERTEX
  5
2BB
  8
0
  6
CONTINUOUS
 62
     7
 10
450.6059009844854
 20
23.61531595078897
 30
0.0
  0
VERTEX
  5
2BC
  8
0
  6
CONTINUOUS
 62
     7
 10
450.5919575928129
 20
23.59894349066401
 30
0.0
  0
VERTEX
  5
2BD
  8
0
  6
CONTINUOUS
 62
     7
 10
450.5787152664378
 20
23.58196604903856
 30
0.0
  0
VERTEX
  5
2BE
  8
0
  6
CONTINUOUS
 62
     7
 10
450.5662101602304
 20
23.56443071495416
 30
0.0
  0
VERTEX
  5
2BF
  8
0
  6
CONTINUOUS
 62
     7
 10
450.5544784290612
 20
23.54638457745231
 30
0.0
  0
VERTEX
  5
2C0
  8
0
  6
CONTINUOUS
 62
     7
 10
450.5438754203562
 20
23.52844927841537
 30
0.0
  0
VERTEX
  5
2C1
  8
0
  6
CONTINUOUS
 62
     7
 10
450.5340171656612
 20
23.51006578921243
 30
0.0
  0
VERTEX
  5
2C2
  8
0
  6
CONTINUOUS
 62
     7
 10
450.5249291721021
 20
23.49128234807467
 30
0.0
  0
VERTEX
  5
2C3
  8
0
  6
CONTINUOUS
 62
     7
 10
450.5166369468047
 20
23.47214719323324
 30
0.0
  0
VERTEX
  5
2C4
  8
0
  6
CONTINUOUS
 62
     7
 10
450.5089416189858
 20
23.45209368340204
 30
0.0
  0
VERTEX
  5
2C5
  8
0
  6
CONTINUOUS
 62
     7
 10
450.5021063819099
 20
23.43170305044803
 30
0.0
  0
VERTEX
  5
2C6
  8
0
  6
CONTINUOUS
 62
     7
 10
450.4961498981191
 20
23.41103273979087
 30
0.0
  0
VERTEX
  5
2C7
  8
0
  6
CONTINUOUS
 62
     7
 10
450.4910908301551
 20
23.39014019685028
 30
0.0
  0
VERTEX
  5
2C8
  8
0
  6
CONTINUOUS
 62
     7
 10
450.4869272200087
 20
23.36897549948164
 30
0.0
  0
VERTEX
  5
2C9
  8
0
  6
CONTINUOUS
 62
     7
 10
450.4836767675429
 20
23.34761646050485
 30
0.0
  0
VERTEX
  5
2CA
  8
0
  6
CONTINUOUS
 62
     7
 10
450.481346417513
 20
23.32612432758464
 30
0.0
  0
VERTEX
  5
2CB
  8
0
  6
CONTINUOUS
 62
     7
 10
450.4799431146744
 20
23.3045603483858
 30
0.0
  0
VERTEX
  5
2CC
  8
0
  6
CONTINUOUS
 62
     7
 10
450.4794738037826
 20
23.28298577057306
 30
0.0
  0
SEQEND
  5
441
  8
0
  6
CONTINUOUS
 62
     7
  0
LINE
  5
E8
  8
0
  6
CONTINUOUS
 62
     7
 10
450.4794738037826
 20
23.28298577057306
 30
0.0
 11
450.4794738037826
 21
22.08298577057305
 31
0.0
  0
POLYLINE
  5
E9
  8
0
  6
CONTINUOUS
 62
     7
 66
     1
 10
0.0
 20
0.0
 30
0.0
  0
VERTEX
  5
2CD
  8
0
  6
CONTINUOUS
 62
     7
 10
450.4794738037826
 20
22.08298577057305
 30
0.0
  0
VERTEX
  5
2CE
  8
0
  6
CONTINUOUS
 62
     7
 10
450.4799003630559
 20
22.06237807728976
 30
0.0
  0
VERTEX
  5
2CF
  8
0
  6
CONTINUOUS
 62
     7
 10
450.4811769528746
 20
22.04178839064918
 30
0.0
  0
VERTEX
  5
2D0
  8
0
  6
CONTINUOUS
 62
     7
 10
450.4832989412371
 20
22.02127025206591
 30
0.0
  0
VERTEX
  5
2D1
  8
0
  6
CONTINUOUS
 62
     7
 10
450.4862616961416
 20
22.00087720295457
 30
0.0
  0
VERTEX
  5
2D2
  8
0
  6
CONTINUOUS
 62
     7
 10
450.4901886651638
 20
21.98003834969921
 30
0.0
  0
VERTEX
  5
2D3
  8
0
  6
CONTINUOUS
 62
     7
 10
450.4949990828296
 20
21.95936984378555
 30
0.0
  0
VERTEX
  5
2D4
  8
0
  6
CONTINUOUS
 62
     7
 10
450.5006779804846
 20
21.93892787555178
 30
0.0
  0
VERTEX
  5
2D5
  8
0
  6
CONTINUOUS
 62
     7
 10
450.5072103894739
 20
21.91876863533609
 30
0.0
  0
VERTEX
  5
2D6
  8
0
  6
CONTINUOUS
 62
     7
 10
450.5143706974555
 20
21.89947156701814
 30
0.0
  0
VERTEX
  5
2D7
  8
0
  6
CONTINUOUS
 62
     7
 10
450.522323539494
 20
21.8804747276081
 30
0.0
  0
VERTEX
  5
2D8
  8
0
  6
CONTINUOUS
 62
     7
 10
450.5310468967664
 20
21.86182594030806
 30
0.0
  0
VERTEX
  5
2D9
  8
0
  6
CONTINUOUS
 62
     7
 10
450.5405187504491
 20
21.84357302832011
 30
0.0
  0
VERTEX
  5
2DA
  8
0
  6
CONTINUOUS
 62
     7
 10
450.5510363189828
 20
21.82522709332017
 30
0.0
  0
VERTEX
  5
2DB
  8
0
  6
CONTINUOUS
 62
     7
 10
450.5623266368013
 20
21.80733188668577
 30
0.0
  0
VERTEX
  5
2DC
  8
0
  6
CONTINUOUS
 62
     7
 10
450.5743578749452
 20
21.78993407348297
 30
0.0
  0
VERTEX
  5
2DD
  8
0
  6
CONTINUOUS
 62
     7
 10
450.5870982044552
 20
21.77308031877781
 30
0.0
  0
VERTEX
  5
2DE
  8
0
  6
CONTINUOUS
 62
     7
 10
450.6002438544601
 20
21.75712837391049
 30
0.0
  0
VERTEX
  5
2DF
  8
0
  6
CONTINUOUS
 62
     7
 10
450.6140457674455
 20
21.74172414169805
 30
0.0
  0
VERTEX
  5
2E0
  8
0
  6
CONTINUOUS
 62
     7
 10
450.6284678163134
 20
21.72690545178923
 30
0.0
  0
VERTEX
  5
2E1
  8
0
  6
CONTINUOUS
 62
     7
 10
450.6434738739661
 20
21.71271013383275
 30
0.0
  0
VERTEX
  5
2E2
  8
0
  6
CONTINUOUS
 62
     7
 10
450.6595051801313
 20
21.69877449012997
 30
0.0
  0
VERTEX
  5
2E3
  8
0
  6
CONTINUOUS
 62
     7
 10
450.6761263915682
 20
21.68552231847042
 30
0.0
  0
VERTEX
  5
2E4
  8
0
  6
CONTINUOUS
 62
     7
 10
450.6932923979605
 20
21.67298768435217
 30
0.0
  0
VERTEX
  5
2E5
  8
0
  6
CONTINUOUS
 62
     7
 10
450.7109580889923
 20
21.66120465327329
 30
0.0
  0
VERTEX
  5
2E6
  8
0
  6
CONTINUOUS
 62
     7
 10
450.7287616903859
 20
21.65038688626658
 30
0.0
  0
VERTEX
  5
2E7
  8
0
  6
CONTINUOUS
 62
     7
 10
450.747016211186
 20
21.64031145657165
 30
0.0
  0
VERTEX
  5
2E8
  8
0
  6
CONTINUOUS
 62
     7
 10
450.7656744444835
 20
21.63100325698226
 30
0.0
  0
VERTEX
  5
2E9
  8
0
  6
CONTINUOUS
 62
     7
 10
450.7846891833696
 20
21.6224871802922
 30
0.0
  0
VERTEX
  5
2EA
  8
0
  6
CONTINUOUS
 62
     7
 10
450.8046105337521
 20
21.61456184121309
 30
0.0
  0
VERTEX
  5
2EB
  8
0
  6
CONTINUOUS
 62
     7
 10
450.824874563245
 20
21.60749048288821
 30
0.0
  0
VERTEX
  5
2EC
  8
0
  6
CONTINUOUS
 62
     7
 10
450.8454258162822
 20
21.60129159533177
 30
0.0
  0
VERTEX
  5
2ED
  8
0
  6
CONTINUOUS
 62
     7
 10
450.8662088372972
 20
21.59598366855802
 30
0.0
  0
VERTEX
  5
2EE
  8
0
  6
CONTINUOUS
 62
     7
 10
450.8885427463033
 20
21.59132813501939
 30
0.0
  0
VERTEX
  5
2EF
  8
0
  6
CONTINUOUS
 62
     7
 10
450.9111066987188
 20
21.5876916873006
 30
0.0
  0
VERTEX
  5
2F0
  8
0
  6
CONTINUOUS
 62
     7
 10
450.9338301932798
 20
21.58508321655262
 30
0.0
  0
VERTEX
  5
2F1
  8
0
  6
CONTINUOUS
 62
     7
 10
450.9566427287224
 20
21.58351161392644
 30
0.0
  0
VERTEX
  5
2F2
  8
0
  6
CONTINUOUS
 62
     7
 10
450.9794738037826
 20
21.58298577057306
 30
0.0
  0
SEQEND
  5
442
  8
0
  6
CONTINUOUS
 62
     7
  0
ARC
  5
EA
  8
0
  6
CONTINUOUS
 62
     7
 10
623.9794738037826
 20
20.88298577057306
 30
0.0
 40
2.999999999999996
 50
270.0
 51
0.0000000000000568
  0
LINE
  5
EB
  8
0
  6
CONTINUOUS
 62
     7
 10
623.9794738037826
 20
17.88298577057306
 30
0.0
 11
621.0156001469337
 21
17.88298577057306
 31
0.0
  0
ARC
  5
EC
  8
0
  6
CONTINUOUS
 62
     7
 10
618.2294738037826
 20
22.68298577057305
 30
0.0
 40
5.549999999999989
 50
300.1327218310103
 51
300.1384540306357
  0
LINE
  5
ED
  8
0
  6
CONTINUOUS
 62
     7
 10
621.4794738037826
 20
22.08298577057305
 30
0.0
 11
621.4794738037826
 21
23.28298577057306
 31
0.0
  0
POLYLINE
  5
EE
  8
0
  6
CONTINUOUS
 62
     7
 66
     1
 10
0.0
 20
0.0
 30
0.0
  0
VERTEX
  5
2F3
  8
0
  6
CONTINUOUS
 62
     7
 10
621.4794738037826
 20
23.28298577057306
 30
0.0
  0
VERTEX
  5
2F4
  8
0
  6
CONTINUOUS
 62
     7
 10
621.4790472445093
 20
23.30359346385634
 30
0.0
  0
VERTEX
  5
2F5
  8
0
  6
CONTINUOUS
 62
     7
 10
621.4777706546906
 20
23.32418315049693
 30
0.0
  0
VERTEX
  5
2F6
  8
0
  6
CONTINUOUS
 62
     7
 10
621.4756486663282
 20
23.34470128908021
 30
0.0
  0
VERTEX
  5
2F7
  8
0
  6
CONTINUOUS
 62
     7
 10
621.4726859114237
 20
23.36509433819155
 30
0.0
  0
VERTEX
  5
2F8
  8
0
  6
CONTINUOUS
 62
     7
 10
621.4687589424015
 20
23.38593319144691
 30
0.0
  0
VERTEX
  5
2F9
  8
0
  6
CONTINUOUS
 62
     7
 10
621.4639485247357
 20
23.40660169736057
 30
0.0
  0
VERTEX
  5
2FA
  8
0
  6
CONTINUOUS
 62
     7
 10
621.4582696270808
 20
23.42704366559434
 30
0.0
  0
VERTEX
  5
2FB
  8
0
  6
CONTINUOUS
 62
     7
 10
621.4517372180915
 20
23.44720290581002
 30
0.0
  0
VERTEX
  5
2FC
  8
0
  6
CONTINUOUS
 62
     7
 10
621.4445769101097
 20
23.46649997412798
 30
0.0
  0
VERTEX
  5
2FD
  8
0
  6
CONTINUOUS
 62
     7
 10
621.4366240680712
 20
23.48549681353802
 30
0.0
  0
VERTEX
  5
2FE
  8
0
  6
CONTINUOUS
 62
     7
 10
621.4279007107989
 20
23.50414560083806
 30
0.0
  0
VERTEX
  5
2FF
  8
0
  6
CONTINUOUS
 62
     7
 10
621.4184288571162
 20
23.52239851282601
 30
0.0
  0
VERTEX
  5
300
  8
0
  6
CONTINUOUS
 62
     7
 10
621.4079112885825
 20
23.54074444782595
 30
0.0
  0
VERTEX
  5
301
  8
0
  6
CONTINUOUS
 62
     7
 10
621.3966209707639
 20
23.55863965446035
 30
0.0
  0
VERTEX
  5
302
  8
0
  6
CONTINUOUS
 62
     7
 10
621.38458973262
 20
23.57603746766315
 30
0.0
  0
VERTEX
  5
303
  8
0
  6
CONTINUOUS
 62
     7
 10
621.3718494031101
 20
23.59289122236831
 30
0.0
  0
VERTEX
  5
304
  8
0
  6
CONTINUOUS
 62
     7
 10
621.3587037531051
 20
23.60884316723564
 30
0.0
  0
VERTEX
  5
305
  8
0
  6
CONTINUOUS
 62
     7
 10
621.3449018401197
 20
23.62424739944807
 30
0.0
  0
VERTEX
  5
306
  8
0
  6
CONTINUOUS
 62
     7
 10
621.3304797912517
 20
23.63906608935689
 30
0.0
  0
VERTEX
  5
307
  8
0
  6
CONTINUOUS
 62
     7
 10
621.3154737335992
 20
23.65326140731337
 30
0.0
  0
VERTEX
  5
308
  8
0
  6
CONTINUOUS
 62
     7
 10
621.299442427434
 20
23.66719705101615
 30
0.0
  0
VERTEX
  5
309
  8
0
  6
CONTINUOUS
 62
     7
 10
621.282821215997
 20
23.6804492226757
 30
0.0
  0
VERTEX
  5
30A
  8
0
  6
CONTINUOUS
 62
     7
 10
621.2656552096047
 20
23.69298385679395
 30
0.0
  0
VERTEX
  5
30B
  8
0
  6
CONTINUOUS
 62
     7
 10
621.2479895185729
 20
23.70476688787283
 30
0.0
  0
VERTEX
  5
30C
  8
0
  6
CONTINUOUS
 62
     7
 10
621.2301859171794
 20
23.71558465487954
 30
0.0
  0
VERTEX
  5
30D
  8
0
  6
CONTINUOUS
 62
     7
 10
621.2119313963793
 20
23.72566008457447
 30
0.0
  0
VERTEX
  5
30E
  8
0
  6
CONTINUOUS
 62
     7
 10
621.1932731630818
 20
23.73496828416386
 30
0.0
  0
VERTEX
  5
30F
  8
0
  6
CONTINUOUS
 62
     7
 10
621.1742584241957
 20
23.74348436085392
 30
0.0
  0
VERTEX
  5
310
  8
0
  6
CONTINUOUS
 62
     7
 10
621.1543370738132
 20
23.75140969993302
 30
0.0
  0
VERTEX
  5
311
  8
0
  6
CONTINUOUS
 62
     7
 10
621.1340730443202
 20
23.75848105825791
 30
0.0
  0
VERTEX
  5
312
  8
0
  6
CONTINUOUS
 62
     7
 10
621.1135217912831
 20
23.76467994581435
 30
0.0
  0
VERTEX
  5
313
  8
0
  6
CONTINUOUS
 62
     7
 10
621.092738770268
 20
23.76998787258809
 30
0.0
  0
VERTEX
  5
314
  8
0
  6
CONTINUOUS
 62
     7
 10
621.070404861262
 20
23.77464340612673
 30
0.0
  0
VERTEX
  5
315
  8
0
  6
CONTINUOUS
 62
     7
 10
621.0478409088464
 20
23.77827985384552
 30
0.0
  0
VERTEX
  5
316
  8
0
  6
CONTINUOUS
 62
     7
 10
621.0251174142854
 20
23.7808883245935
 30
0.0
  0
VERTEX
  5
317
  8
0
  6
CONTINUOUS
 62
     7
 10
621.0023048788429
 20
23.78245992721967
 30
0.0
  0
VERTEX
  5
318
  8
0
  6
CONTINUOUS
 62
     7
 10
620.9794738037826
 20
23.78298577057306
 30
0.0
  0
SEQEND
  5
443
  8
0
  6
CONTINUOUS
 62
     7
  0
POLYLINE
  5
EF
  8
0
  6
CONTINUOUS
 62
     7
 66
     1
 10
0.0
 20
0.0
 30
0.0
  0
VERTEX
  5
319
  8
0
  6
CONTINUOUS
 62
     7
 10
620.9794738037826
 20
21.58298577057306
 30
0.0
  0
VERTEX
  5
31A
  8
0
  6
CONTINUOUS
 62
     7
 10
621.0003282937297
 20
21.58342256217503
 30
0.0
  0
VERTEX
  5
31B
  8
0
  6
CONTINUOUS
 62
     7
 10
621.021159399618
 20
21.58472950846614
 30
0.0
  0
VERTEX
  5
31C
  8
0
  6
CONTINUOUS
 62
     7
 10
621.0419131466817
 20
21.58690146667418
 30
0.0
  0
VERTEX
  5
31D
  8
0
  6
CONTINUOUS
 62
     7
 10
621.0625355601557
 20
21.58993329402693
 30
0.0
  0
VERTEX
  5
31E
  8
0
  6
CONTINUOUS
 62
     7
 10
621.083602457582
 20
21.5939506407231
 30
0.0
  0
VERTEX
  5
31F
  8
0
  6
CONTINUOUS
 62
     7
 10
621.104492379289
 20
21.5988710758644
 30
0.0
  0
VERTEX
  5
320
  8
0
  6
CONTINUOUS
 62
     7
 10
621.1251487707779
 20
21.60467944820021
 30
0.0
  0
VERTEX
  5
321
  8
0
  6
CONTINUOUS
 62
     7
 10
621.1455150775494
 20
21.61136060647988
 30
0.0
  0
VERTEX
  5
322
  8
0
  6
CONTINUOUS
 62
     7
 10
621.1650078163226
 20
21.61868469469906
 30
0.0
  0
VERTEX
  5
323
  8
0
  6
CONTINUOUS
 62
     7
 10
621.1841930297234
 20
21.62682009952405
 30
0.0
  0
VERTEX
  5
324
  8
0
  6
CONTINUOUS
 62
     7
 10
621.2030221494607
 20
21.63574478885591
 30
0.0
  0
VERTEX
  5
325
  8
0
  6
CONTINUOUS
 62
     7
 10
621.2214466072439
 20
21.64543673059571
 30
0.0
  0
VERTEX
  5
326
  8
0
  6
CONTINUOUS
 62
     7
 10
621.2399630607911
 20
21.6562030215321
 30
0.0
  0
VERTEX
  5
327
  8
0
  6
CONTINUOUS
 62
     7
 10
621.2580181658516
 20
21.66776320377179
 30
0.0
  0
VERTEX
  5
328
  8
0
  6
CONTINUOUS
 62
     7
 10
621.2755636974406
 20
21.6800851091413
 30
0.0
  0
VERTEX
  5
329
  8
0
  6
CONTINUOUS
 62
     7
 10
621.2925514305736
 20
21.69313656946717
 30
0.0
  0
VERTEX
  5
32A
  8
0
  6
CONTINUOUS
 62
     7
 10
621.3085515390532
 20
21.70654695861591
 30
0.0
  0
VERTEX
  5
32B
  8
0
  6
CONTINUOUS
 62
     7
 10
621.3239936958865
 20
21.72062809749391
 30
0.0
  0
VERTEX
  5
32C
  8
0
  6
CONTINUOUS
 62
     7
 10
621.33883851819
 20
21.73534322758103
 30
0.0
  0
VERTEX
  5
32D
  8
0
  6
CONTINUOUS
 62
     7
 10
621.3530466230799
 20
21.75065559035714
 30
0.0
  0
VERTEX
  5
32E
  8
0
  6
CONTINUOUS
 62
     7
 10
621.3669900147522
 20
21.76702805048211
 30
0.0
  0
VERTEX
  5
32F
  8
0
  6
CONTINUOUS
 62
     7
 10
621.3802323411275
 20
21.78400549210756
 30
0.0
  0
VERTEX
  5
330
  8
0
  6
CONTINUOUS
 62
     7
 10
621.3927374473349
 20
21.80154082619196
 30
0.0
  0
VERTEX
  5
331
  8
0
  6
CONTINUOUS
 62
     7
 10
621.404469178504
 20
21.81958696369381
 30
0.0
  0
VERTEX
  5
332
  8
0
  6
CONTINUOUS
 62
     7
 10
621.415072187209
 20
21.83752226273075
 30
0.0
  0
VERTEX
  5
333
  8
0
  6
CONTINUOUS
 62
     7
 10
621.424930441904
 20
21.85590575193369
 30
0.0
  0
VERTEX
  5
334
  8
0
  6
CONTINUOUS
 62
     7
 10
621.4340184354631
 20
21.87468919307146
 30
0.0
  0
VERTEX
  5
335
  8
0
  6
CONTINUOUS
 62
     7
 10
621.4423106607605
 20
21.89382434791289
 30
0.0
  0
VERTEX
  5
336
  8
0
  6
CONTINUOUS
 62
     7
 10
621.4500059885795
 20
21.91387785774408
 30
0.0
  0
VERTEX
  5
337
  8
0
  6
CONTINUOUS
 62
     7
 10
621.4568412256552
 20
21.93426849069811
 30
0.0
  0
VERTEX
  5
338
  8
0
  6
CONTINUOUS
 62
     7
 10
621.4627977094461
 20
21.95493880135527
 30
0.0
  0
VERTEX
  5
339
  8
0
  6
CONTINUOUS
 62
     7
 10
621.4678567774101
 20
21.97583134429587
 30
0.0
  0
VERTEX
  5
33A
  8
0
  6
CONTINUOUS
 62
     7
 10
621.4720203875565
 20
21.9969960416645
 30
0.0
  0
VERTEX
  5
33B
  8
0
  6
CONTINUOUS
 62
     7
 10
621.4752708400224
 20
22.01835508064129
 30
0.0
  0
VERTEX
  5
33C
  8
0
  6
CONTINUOUS
 62
     7
 10
621.4776011900523
 20
22.03984721356149
 30
0.0
  0
VERTEX
  5
33D
  8
0
  6
CONTINUOUS
 62
     7
 10
621.4790044928908
 20
22.06141119276032
 30
0.0
  0
VERTEX
  5
33E
  8
0
  6
CONTINUOUS
 62
     7
 10
621.4794738037826
 20
22.08298577057305
 30
0.0
  0
SEQEND
  5
444
  8
0
  6
CONTINUOUS
 62
     7
  0
LINE
  5
F0
  8
0
  6
CONTINUOUS
 62
     7
 10
615.4433474606317
 20
17.88298577057305
 30
0.0
 11
456.5156001469337
 21
17.88298577057305
 31
0.0
  0
ARC
  5
F1
  8
0
  6
CONTINUOUS
 62
     7
 10
453.7294738037826
 20
22.68298577057305
 30
0.0
 40
5.550000000000011
 50
239.8615459693588
 51
239.8672781689898
  0
LINE
  5
F2
  8
0
  6
CONTINUOUS
 62
     7
 10
450.9433474606316
 20
17.88298577057306
 30
0.0
 11
447.9794738037826
 21
17.88298577057306
 31
0.0
  0
ARC
  5
F3
  8
0
  6
CONTINUOUS
 62
     7
 10
447.9794738037826
 20
20.88298577057306
 30
0.0
 40
3.000000000000003
 50
180.0
 51
270.0
  0
ENDBLK
  8
0
  0
BLOCK
  8
0
  2
D_FRAME_VIEW_1401
 70
     0
 10
0.0
 20
0.0
 30
0.0
  0
LINE
  5
F9
  8
0
  6
CONTINUOUS
 62
     7
 10
614.7294738037826
 20
120.6579857705731
 30
0.0
 11
613.2794738037826
 21
120.6579857705731
 31
0.0
  0
ARC
  5
FA
  8
0
  6
CONTINUOUS
 62
     7
 10
613.2794738037826
 20
121.4579857705731
 30
0.0
 40
0.800000000000009
 50
180.0
 51
269.999999999999
  0
LINE
  5
FB
  8
0
  6
CONTINUOUS
 62
     7
 10
612.4794738037826
 20
121.4579857705731
 30
0.0
 11
612.4794738037826
 21
122.3517268674211
 31
0.0
  0
ARC
  5
FC
  8
0
  6
CONTINUOUS
 62
     7
 10
611.9794738037825
 20
120.1579857705731
 30
0.0
 40
2.250000000000012
 50
77.16041159309587
 51
102.8395884069042
  0
LINE
  5
FD
  8
0
  6
CONTINUOUS
 62
     7
 10
611.4794738037825
 20
122.3517268674211
 30
0.0
 11
611.4794738037825
 21
121.4579857705731
 31
0.0
  0
ARC
  5
FE
  8
0
  6
CONTINUOUS
 62
     7
 10
610.6794738037826
 20
121.4579857705731
 30
0.0
 40
0.7999999999999952
 50
270.0
 51
359.9999999999996
  0
LINE
  5
FF
  8
0
  6
CONTINUOUS
 62
     7
 10
610.6794738037826
 20
120.6579857705731
 30
0.0
 11
609.2294738037826
 21
120.6579857705731
 31
0.0
  0
LINE
  5
100
  8
0
  6
CONTINUOUS
 62
     7
 10
609.2294738037826
 20
120.6579857705731
 30
0.0
 11
609.2294738037826
 21
119.6579857705731
 31
0.0
  0
LINE
  5
101
  8
0
  6
CONTINUOUS
 62
     7
 10
609.2294738037826
 20
119.6579857705731
 30
0.0
 11
610.6794738037826
 21
119.6579857705731
 31
0.0
  0
ARC
  5
102
  8
0
  6
CONTINUOUS
 62
     7
 10
610.6794738037826
 20
118.8579857705731
 30
0.0
 40
0.800000000000009
 50
0.0
 51
89.99999999999898
  0
LINE
  5
103
  8
0
  6
CONTINUOUS
 62
     7
 10
611.4794738037825
 20
118.8579857705731
 30
0.0
 11
611.4794738037825
 21
117.964244673725
 31
0.0
  0
ARC
  5
104
  8
0
  6
CONTINUOUS
 62
     7
 10
611.9794738037825
 20
120.1579857705731
 30
0.0
 40
2.250000000000012
 50
257.1604115930959
 51
282.8395884069041
  0
LINE
  5
105
  8
0
  6
CONTINUOUS
 62
     7
 10
612.4794738037826
 20
117.964244673725
 30
0.0
 11
612.4794738037826
 21
118.8579857705731
 31
0.0
  0
ARC
  5
106
  8
0
  6
CONTINUOUS
 62
     7
 10
613.2794738037826
 20
118.8579857705731
 30
0.0
 40
0.8000000000000229
 50
90.0
 51
180.0
  0
LINE
  5
107
  8
0
  6
CONTINUOUS
 62
     7
 10
613.2794738037826
 20
119.6579857705731
 30
0.0
 11
614.7294738037825
 21
119.6579857705731
 31
0.0
  0
LINE
  5
108
  8
0
  6
CONTINUOUS
 62
     7
 10
614.7294738037826
 20
119.6579857705731
 30
0.0
 11
614.7294738037826
 21
120.6579857705731
 31
0.0
  0
LINE
  5
109
  8
0
  6
CONTINUOUS
 62
     7
 10
458.6794738037826
 20
119.6579857705731
 30
0.0
 11
457.2294738037826
 21
119.6579857705731
 31
0.0
  0
ARC
  5
10A
  8
0
  6
CONTINUOUS
 62
     7
 10
458.6794738037826
 20
118.8579857705731
 30
0.0
 40
0.800000000000009
 50
0.0
 51
90.0
  0
LINE
  5
10B
  8
0
  6
CONTINUOUS
 62
     7
 10
459.4794738037826
 20
117.964244673725
 30
0.0
 11
459.4794738037826
 21
118.8579857705731
 31
0.0
  0
ARC
  5
10C
  8
0
  6
CONTINUOUS
 62
     7
 10
459.9794738037826
 20
120.1579857705731
 30
0.0
 40
2.250000000000012
 50
257.1604115930959
 51
282.8395884069041
  0
LINE
  5
10D
  8
0
  6
CONTINUOUS
 62
     7
 10
460.4794738037826
 20
118.8579857705731
 30
0.0
 11
460.4794738037826
 21
117.964244673725
 31
0.0
  0
ARC
  5
10E
  8
0
  6
CONTINUOUS
 62
     7
 10
461.2794738037827
 20
118.8579857705731
 30
0.0
 40
0.800000000000009
 50
90.000000000001
 51
180.0
  0
LINE
  5
10F
  8
0
  6
CONTINUOUS
 62
     7
 10
462.7294738037826
 20
119.6579857705731
 30
0.0
 11
461.2794738037826
 21
119.6579857705731
 31
0.0
  0
LINE
  5
110
  8
0
  6
CONTINUOUS
 62
     7
 10
462.7294738037826
 20
120.6579857705731
 30
0.0
 11
462.7294738037826
 21
119.6579857705731
 31
0.0
  0
LINE
  5
111
  8
0
  6
CONTINUOUS
 62
     7
 10
461.2794738037826
 20
120.6579857705731
 30
0.0
 11
462.7294738037826
 21
120.6579857705731
 31
0.0
  0
ARC
  5
112
  8
0
  6
CONTINUOUS
 62
     7
 10
461.2794738037826
 20
121.4579857705731
 30
0.0
 40
0.800000000000009
 50
180.0000000000005
 51
270.0
  0
LINE
  5
113
  8
0
  6
CONTINUOUS
 62
     7
 10
460.4794738037826
 20
122.3517268674211
 30
0.0
 11
460.4794738037826
 21
121.4579857705731
 31
0.0
  0
ARC
  5
114
  8
0
  6
CONTINUOUS
 62
     7
 10
459.9794738037826
 20
120.1579857705731
 30
0.0
 40
2.250000000000012
 50
77.16041159309577
 51
102.8395884069041
  0
LINE
  5
115
  8
0
  6
CONTINUOUS
 62
     7
 10
459.4794738037826
 20
121.4579857705731
 30
0.0
 11
459.4794738037826
 21
122.3517268674211
 31
0.0
  0
ARC
  5
116
  8
0
  6
CONTINUOUS
 62
     7
 10
458.6794738037826
 20
121.4579857705731
 30
0.0
 40
0.800000000000009
 50
270.000000000001
 51
0.0
  0
LINE
  5
117
  8
0
  6
CONTINUOUS
 62
     7
 10
457.2294738037826
 20
120.6579857705731
 30
0.0
 11
458.6794738037826
 21
120.6579857705731
 31
0.0
  0
LINE
  5
118
  8
0
  6
CONTINUOUS
 62
     7
 10
457.2294738037826
 20
119.6579857705731
 30
0.0
 11
457.2294738037826
 21
120.6579857705731
 31
0.0
  0
LINE
  5
119
  8
0
  6
CONTINUOUS
 62
     7
 10
613.2794738037826
 20
225.6579857705731
 30
0.0
 11
614.7294738037825
 21
225.6579857705731
 31
0.0
  0
ARC
  5
11A
  8
0
  6
CONTINUOUS
 62
     7
 10
613.2794738037826
 20
226.4579857705731
 30
0.0
 40
0.8000000000000229
 50
180.0
 51
270.0
  0
LINE
  5
11B
  8
0
  6
CONTINUOUS
 62
     7
 10
612.4794738037826
 20
227.3517268674211
 30
0.0
 11
612.4794738037826
 21
226.4579857705731
 31
0.0
  0
ARC
  5
11C
  8
0
  6
CONTINUOUS
 62
     7
 10
611.9794738037825
 20
225.1579857705731
 30
0.0
 40
2.249999999999998
 50
77.16041159309589
 51
102.8395884069041
  0
LINE
  5
11D
  8
0
  6
CONTINUOUS
 62
     7
 10
611.4794738037825
 20
226.4579857705731
 30
0.0
 11
611.4794738037825
 21
227.3517268674211
 31
0.0
  0
ARC
  5
11E
  8
0
  6
CONTINUOUS
 62
     7
 10
610.6794738037826
 20
226.4579857705731
 30
0.0
 40
0.7999999999999952
 50
270.000000000001
 51
0.0
  0
LINE
  5
11F
  8
0
  6
CONTINUOUS
 62
     7
 10
609.2294738037826
 20
225.6579857705731
 30
0.0
 11
610.6794738037826
 21
225.6579857705731
 31
0.0
  0
LINE
  5
120
  8
0
  6
CONTINUOUS
 62
     7
 10
609.2294738037826
 20
224.6579857705731
 30
0.0
 11
609.2294738037826
 21
225.6579857705731
 31
0.0
  0
LINE
  5
121
  8
0
  6
CONTINUOUS
 62
     7
 10
610.6794738037826
 20
224.6579857705731
 30
0.0
 11
609.2294738037826
 21
224.6579857705731
 31
0.0
  0
ARC
  5
122
  8
0
  6
CONTINUOUS
 62
     7
 10
610.6794738037826
 20
223.8579857705731
 30
0.0
 40
0.7999999999999952
 50
0.000000000000497
 51
90.0
  0
LINE
  5
123
  8
0
  6
CONTINUOUS
 62
     7
 10
611.4794738037825
 20
222.9642446737251
 30
0.0
 11
611.4794738037825
 21
223.8579857705731
 31
0.0
  0
ARC
  5
124
  8
0
  6
CONTINUOUS
 62
     7
 10
611.9794738037825
 20
225.1579857705731
 30
0.0
 40
2.250000000000025
 50
257.1604115930958
 51
282.8395884069041
  0
LINE
  5
125
  8
0
  6
CONTINUOUS
 62
     7
 10
612.4794738037826
 20
223.8579857705731
 30
0.0
 11
612.4794738037826
 21
222.9642446737251
 31
0.0
  0
ARC
  5
126
  8
0
  6
CONTINUOUS
 62
     7
 10
613.2794738037826
 20
223.8579857705731
 30
0.0
 40
0.8000000000000229
 50
90.000000000001
 51
180.0
  0
LINE
  5
127
  8
0
  6
CONTINUOUS
 62
     7
 10
614.7294738037826
 20
224.6579857705731
 30
0.0
 11
613.2794738037826
 21
224.6579857705731
 31
0.0
  0
LINE
  5
128
  8
0
  6
CONTINUOUS
 62
     7
 10
614.7294738037826
 20
225.6579857705731
 30
0.0
 11
614.7294738037826
 21
224.6579857705731
 31
0.0
  0
LINE
  5
129
  8
0
  6
CONTINUOUS
 62
     7
 10
457.2294738037826
 20
224.6579857705731
 30
0.0
 11
458.6794738037826
 21
224.6579857705731
 31
0.0
  0
ARC
  5
12A
  8
0
  6
CONTINUOUS
 62
     7
 10
458.6794738037826
 20
223.8579857705731
 30
0.0
 40
0.8000000000000229
 50
0.0
 51
89.99999999999898
  0
LINE
  5
12B
  8
0
  6
CONTINUOUS
 62
     7
 10
459.4794738037826
 20
223.8579857705731
 30
0.0
 11
459.4794738037826
 21
222.9642446737251
 31
0.0
  0
ARC
  5
12C
  8
0
  6
CONTINUOUS
 62
     7
 10
459.9794738037826
 20
225.1579857705731
 30
0.0
 40
2.250000000000025
 50
257.1604115930959
 51
282.8395884069043
  0
LINE
  5
12D
  8
0
  6
CONTINUOUS
 62
     7
 10
460.4794738037826
 20
222.9642446737251
 30
0.0
 11
460.4794738037826
 21
223.8579857705731
 31
0.0
  0
ARC
  5
12E
  8
0
  6
CONTINUOUS
 62
     7
 10
461.2794738037826
 20
223.8579857705731
 30
0.0
 40
0.800000000000009
 50
90.0
 51
179.9999999999995
  0
LINE
  5
12F
  8
0
  6
CONTINUOUS
 62
     7
 10
461.2794738037826
 20
224.6579857705731
 30
0.0
 11
462.7294738037826
 21
224.6579857705731
 31
0.0
  0
LINE
  5
130
  8
0
  6
CONTINUOUS
 62
     7
 10
462.7294738037826
 20
224.6579857705731
 30
0.0
 11
462.7294738037826
 21
225.6579857705731
 31
0.0
  0
LINE
  5
131
  8
0
  6
CONTINUOUS
 62
     7
 10
462.7294738037826
 20
225.6579857705731
 30
0.0
 11
461.2794738037826
 21
225.6579857705731
 31
0.0
  0
ARC
  5
132
  8
0
  6
CONTINUOUS
 62
     7
 10
461.2794738037827
 20
226.4579857705731
 30
0.0
 40
0.7999999999999952
 50
180.0
 51
269.999999999999
  0
LINE
  5
133
  8
0
  6
CONTINUOUS
 62
     7
 10
460.4794738037826
 20
226.4579857705731
 30
0.0
 11
460.4794738037826
 21
227.3517268674211
 31
0.0
  0
ARC
  5
134
  8
0
  6
CONTINUOUS
 62
     7
 10
459.9794738037826
 20
225.1579857705731
 30
0.0
 40
2.249999999999998
 50
77.16041159309587
 51
102.8395884069042
  0
LINE
  5
135
  8
0
  6
CONTINUOUS
 62
     7
 10
459.4794738037826
 20
227.3517268674211
 30
0.0
 11
459.4794738037826
 21
226.4579857705731
 31
0.0
  0
ARC
  5
136
  8
0
  6
CONTINUOUS
 62
     7
 10
458.6794738037826
 20
226.4579857705731
 30
0.0
 40
0.800000000000009
 50
270.0
 51
0.0
  0
LINE
  5
137
  8
0
  6
CONTINUOUS
 62
     7
 10
458.6794738037826
 20
225.6579857705731
 30
0.0
 11
457.2294738037826
 21
225.6579857705731
 31
0.0
  0
LINE
  5
138
  8
0
  6
CONTINUOUS
 62
     7
 10
457.2294738037826
 20
225.6579857705731
 30
0.0
 11
457.2294738037826
 21
224.6579857705731
 31
0.0
  0
CIRCLE
  5
139
  8
0
  6
CONTINUOUS
 62
     7
 10
581.9794738037826
 20
130.9079857705731
 30
0.0
 40
1.649999999999985
  0
CIRCLE
  5
13A
  8
0
  6
CONTINUOUS
 62
     7
 10
535.9794738037826
 20
130.9079857705731
 30
0.0
 40
1.649999999999999
  0
CIRCLE
  5
13B
  8
0
  6
CONTINUOUS
 62
     7
 10
489.9794738037826
 20
130.9079857705731
 30
0.0
 40
1.649999999999999
  0
CIRCLE
  5
13C
  8
0
  6
CONTINUOUS
 62
     7
 10
581.9794738037826
 20
214.4079857705731
 30
0.0
 40
1.649999999999985
  0
CIRCLE
  5
13D
  8
0
  6
CONTINUOUS
 62
     7
 10
535.9794738037826
 20
214.4079857705731
 30
0.0
 40
1.649999999999999
  0
CIRCLE
  5
13E
  8
0
  6
CONTINUOUS
 62
     7
 10
489.9794738037826
 20
214.4079857705731
 30
0.0
 40
1.649999999999999
  0
CIRCLE
  5
13F
  8
0
  6
CONTINUOUS
 62
     7
 10
581.9794738037826
 20
130.9079857705731
 30
0.0
 40
4.000000000000004
  0
CIRCLE
  5
140
  8
0
  6
CONTINUOUS
 62
     7
 10
489.9794738037826
 20
130.9079857705731
 30
0.0
 40
4.000000000000004
  0
CIRCLE
  5
141
  8
0
  6
CONTINUOUS
 62
     7
 10
535.9794738037826
 20
130.9079857705731
 30
0.0
 40
4.000000000000004
  0
CIRCLE
  5
142
  8
0
  6
CONTINUOUS
 62
     7
 10
581.9794738037826
 20
214.4079857705731
 30
0.0
 40
4.000000000000004
  0
LINE
  5
143
  8
0
  6
CONTINUOUS
 62
     7
 10
622.8294738037827
 20
216.9579857705731
 30
0.0
 11
622.8294738037827
 21
226.5079857705731
 31
0.0
  0
LINE
  5
144
  8
0
  6
CONTINUOUS
 62
     7
 10
621.1294738037826
 20
215.9579857705731
 30
0.0
 11
621.8294738037825
 21
215.9579857705731
 31
0.0
  0
LINE
  5
145
  8
0
  6
CONTINUOUS
 62
     7
 10
620.1294738037826
 20
202.3579857705731
 30
0.0
 11
620.1294738037826
 21
214.9579857705731
 31
0.0
  0
ARC
  5
146
  8
0
  6
CONTINUOUS
 62
     7
 10
621.8294738037825
 20
144.9579857705731
 30
0.0
 40
1.000000000000001
 50
270.0
 51
359.9999999999996
  0
LINE
  5
147
  8
0
  6
CONTINUOUS
 62
     7
 10
621.8294738037825
 20
143.9579857705731
 30
0.0
 11
621.1294738037826
 21
143.9579857705731
 31
0.0
  0
ARC
  5
148
  8
0
  6
CONTINUOUS
 62
     7
 10
621.1294738037826
 20
142.9579857705731
 30
0.0
 40
1.000000000000001
 50
90.0
 51
180.0
  0
LINE
  5
149
  8
0
  6
CONTINUOUS
 62
     7
 10
620.1294738037826
 20
142.9579857705731
 30
0.0
 11
620.1294738037826
 21
130.3579857705731
 31
0.0
  0
ARC
  5
14A
  8
0
  6
CONTINUOUS
 62
     7
 10
621.1294738037826
 20
130.3579857705731
 30
0.0
 40
1.000000000000001
 50
180.0000000000004
 51
270.0
  0
ARC
  5
14B
  8
0
  6
CONTINUOUS
 62
     7
 10
621.8294738037825
 20
128.3579857705731
 30
0.0
 40
1.000000000000001
 50
359.9999999999996
 51
90.0
  0
ARC
  5
14C
  8
0
  6
CONTINUOUS
 62
     7
 10
619.8294738037825
 20
118.8079857705731
 30
0.0
 40
3.000000000000003
 50
270.0
 51
359.9999999999998
  0
LINE
  5
14D
  8
0
  6
CONTINUOUS
 62
     7
 10
452.1294738037827
 20
115.8079857705731
 30
0.0
 11
619.8294738037825
 21
115.8079857705731
 31
0.0
  0
ARC
  5
14E
  8
0
  6
CONTINUOUS
 62
     7
 10
452.1294738037827
 20
118.8079857705731
 30
0.0
 40
3.000000000000003
 50
180.0000000000002
 51
270.0
  0
LINE
  5
14F
  8
0
  6
CONTINUOUS
 62
     7
 10
450.8294738037826
 20
129.3579857705731
 30
0.0
 11
450.1294738037826
 21
129.3579857705731
 31
0.0
  0
ARC
  5
150
  8
0
  6
CONTINUOUS
 62
     7
 10
450.8294738037826
 20
130.3579857705731
 30
0.0
 40
1.000000000000001
 50
270.0
 51
359.9999999999996
  0
LINE
  5
151
  8
0
  6
CONTINUOUS
 62
     7
 10
450.1294738037826
 20
143.9579857705731
 30
0.0
 11
450.8294738037826
 21
143.9579857705731
 31
0.0
  0
ARC
  5
152
  8
0
  6
CONTINUOUS
 62
     7
 10
450.1294738037826
 20
144.9579857705731
 30
0.0
 40
1.000000000000001
 50
180.0000000000004
 51
270.0
  0
LINE
  5
153
  8
0
  6
CONTINUOUS
 62
     7
 10
449.1294738037826
 20
144.9579857705731
 30
0.0
 11
449.1294738037826
 21
200.3579857705731
 31
0.0
  0
ARC
  5
154
  8
0
  6
CONTINUOUS
 62
     7
 10
450.1294738037826
 20
200.3579857705731
 30
0.0
 40
1.000000000000001
 50
90.0
 51
179.9999999999995
  0
LINE
  5
155
  8
0
  6
CONTINUOUS
 62
     7
 10
450.1294738037826
 20
201.3579857705731
 30
0.0
 11
450.8294738037826
 21
201.3579857705731
 31
0.0
  0
ARC
  5
156
  8
0
  6
CONTINUOUS
 62
     7
 10
450.8294738037826
 20
202.3579857705731
 30
0.0
 40
1.000000000000001
 50
270.0
 51
0.0
  0
LINE
  5
157
  8
0
  6
CONTINUOUS
 62
     7
 10
451.8294738037826
 20
202.3579857705731
 30
0.0
 11
451.8294738037826
 21
214.9579857705731
 31
0.0
  0
ARC
  5
158
  8
0
  6
CONTINUOUS
 62
     7
 10
450.8294738037826
 20
214.9579857705731
 30
0.0
 40
1.000000000000001
 50
0.0000000000003976
 51
90.0
  0
ARC
  5
159
  8
0
  6
CONTINUOUS
 62
     7
 10
619.8294738037825
 20
226.5079857705731
 30
0.0
 40
3.000000000000003
 50
0.000000000000265
 51
90.0
  0
LINE
  5
15A
  8
0
  6
CONTINUOUS
 62
     7
 10
530.8794738037826
 20
214.4079857705731
 30
0.0
 11
530.8794738037826
 21
217.1579857705731
 31
0.0
  0
LINE
  5
15B
  8
0
  6
CONTINUOUS
 62
     7
 10
529.3794738037826
 20
218.6579857705731
 30
0.0
 11
496.5794738037826
 21
218.6579857705731
 31
0.0
  0
ARC
  5
15C
  8
0
  6
CONTINUOUS
 62
     7
 10
496.5794738037827
 20
217.1579857705731
 30
0.0
 40
1.500000000000001
 50
90.0
 51
180.0
  0
LINE
  5
15D
  8
0
  6
CONTINUOUS
 62
     7
 10
495.0794738037826
 20
217.1579857705731
 30
0.0
 11
495.0794738037826
 21
214.4079857705731
 31
0.0
  0
LINE
  5
15E
  8
0
  6
CONTINUOUS
 62
     7
 10
484.8794738037826
 20
214.4079857705731
 30
0.0
 11
484.8794738037826
 21
217.1579857705731
 31
0.0
  0
ARC
  5
15F
  8
0
  6
CONTINUOUS
 62
     7
 10
467.9794738037826
 20
217.1579857705731
 30
0.0
 40
1.500000000000001
 50
90.0
 51
179.9999999999995
  0
LINE
  5
160
  8
0
  6
CONTINUOUS
 62
     7
 10
466.4794738037826
 20
217.1579857705731
 30
0.0
 11
466.4794738037826
 21
128.1579857705731
 31
0.0
  0
LINE
  5
161
  8
0
  6
CONTINUOUS
 62
     7
 10
483.3794738037827
 20
126.6579857705731
 30
0.0
 11
467.9794738037826
 21
126.6579857705731
 31
0.0
  0
ARC
  5
162
  8
0
  6
CONTINUOUS
 62
     7
 10
483.3794738037827
 20
128.1579857705731
 30
0.0
 40
1.500000000000001
 50
270.0
 51
0.0
  0
ARC
  5
163
  8
0
  6
CONTINUOUS
 62
     7
 10
529.3794738037826
 20
128.1579857705731
 30
0.0
 40
1.500000000000001
 50
270.0000000000001
 51
0.0
  0
ARC
  5
164
  8
0
  6
CONTINUOUS
 62
     7
 10
535.9794738037826
 20
130.9079857705731
 30
0.0
 40
5.099999999999993
 50
359.9999999999999
 51
180.0000000000001
  0
ARC
  5
165
  8
0
  6
CONTINUOUS
 62
     7
 10
542.5794738037825
 20
128.1579857705731
 30
0.0
 40
1.500000000000001
 50
180.0
 51
269.9999999999999
  0
LINE
  5
166
  8
0
  6
CONTINUOUS
 62
     7
 10
542.5794738037825
 20
126.6579857705731
 30
0.0
 11
575.3794738037825
 21
126.6579857705731
 31
0.0
  0
ARC
  5
167
  8
0
  6
CONTINUOUS
 62
     7
 10
575.3794738037826
 20
128.1579857705731
 30
0.0
 40
1.500000000000001
 50
270.0
 51
0.0
  0
LINE
  5
168
  8
0
  6
CONTINUOUS
 62
     7
 10
576.8794738037826
 20
128.1579857705731
 30
0.0
 11
576.8794738037826
 21
130.907985770573
 31
0.0
  0
ARC
  5
169
  8
0
  6
CONTINUOUS
 62
     7
 10
581.9794738037825
 20
130.9079857705731
 30
0.0
 40
5.099999999999993
 50
0.0
 51
180.0
  0
LINE
  5
16A
  8
0
  6
CONTINUOUS
 62
     7
 10
587.0794738037825
 20
130.9079857705731
 30
0.0
 11
587.0794738037825
 21
128.1579857705731
 31
0.0
  0
LINE
  5
16B
  8
0
  6
CONTINUOUS
 62
     7
 10
588.5794738037825
 20
126.6579857705731
 30
0.0
 11
603.9794738037825
 21
126.6579857705731
 31
0.0
  0
ARC
  5
16C
  8
0
  6
CONTINUOUS
 62
     7
 10
603.9794738037825
 20
128.1579857705731
 30
0.0
 40
1.500000000000001
 50
270.0
 51
359.9999999999995
  0
LINE
  5
16D
  8
0
  6
CONTINUOUS
 62
     7
 10
588.5794738037825
 20
218.6579857705731
 30
0.0
 11
603.9794738037825
 21
218.6579857705731
 31
0.0
  0
ARC
  5
16E
  8
0
  6
CONTINUOUS
 62
     7
 10
581.9794738037825
 20
214.4079857705731
 30
0.0
 40
5.099999999999993
 50
180.0
 51
0.0
  0
ARC
  5
16F
  8
0
  6
CONTINUOUS
 62
     7
 10
575.3794738037826
 20
217.1579857705731
 30
0.0
 40
1.500000000000001
 50
0.0
 51
90.0
  0
LINE
  5
170
  8
0
  6
CONTINUOUS
 62
     7
 10
541.0794738037827
 20
214.4079857705731
 30
0.0
 11
541.0794738037827
 21
217.1579857705731
 31
0.0
  0
LINE
  5
171
  8
0
  6
CONTINUOUS
 62
     7
 10
449.1294738037826
 20
128.3579857705731
 30
0.0
 11
449.1294738037826
 21
118.8079857705731
 31
0.0
  0
ARC
  5
172
  8
0
  6
CONTINUOUS
 62
     7
 10
450.1294738037826
 20
128.3579857705731
 30
0.0
 40
1.000000000000001
 50
90.0
 51
180.0000000000004
  0
CIRCLE
  5
173
  8
0
  6
CONTINUOUS
 62
     7
 10
535.9794738037826
 20
214.4079857705731
 30
0.0
 40
4.000000000000004
  0
CIRCLE
  5
174
  8
0
  6
CONTINUOUS
 62
     7
 10
489.9794738037826
 20
214.4079857705731
 30
0.0
 40
4.000000000000004
  0
LINE
  5
175
  8
0
  6
CONTINUOUS
 62
     7
 10
451.8294738037826
 20
142.9579857705731
 30
0.0
 11
451.8294738037826
 21
130.3579857705731
 31
0.0
  0
ARC
  5
176
  8
0
  6
CONTINUOUS
 62
     7
 10
450.8294738037826
 20
142.9579857705731
 30
0.0
 40
1.000000000000001
 50
0.0
 51
90.0
  0
LINE
  5
177
  8
0
  6
CONTINUOUS
 62
     7
 10
483.3794738037827
 20
218.6579857705731
 30
0.0
 11
467.9794738037826
 21
218.6579857705731
 31
0.0
  0
ARC
  5
178
  8
0
  6
CONTINUOUS
 62
     7
 10
483.3794738037827
 20
217.1579857705731
 30
0.0
 40
1.500000000000001
 50
0.0
 51
90.0
  0
ARC
  5
179
  8
0
  6
CONTINUOUS
 62
     7
 10
467.9794738037826
 20
128.1579857705731
 30
0.0
 40
1.500000000000001
 50
180.0000000000004
 51
270.0
  0
ARC
  5
17A
  8
0
  6
CONTINUOUS
 62
     7
 10
621.8294738037825
 20
216.9579857705731
 30
0.0
 40
1.000000000000001
 50
270.0
 51
0.0000000000003979
  0
ARC
  5
17B
  8
0
  6
CONTINUOUS
 62
     7
 10
489.9794738037826
 20
130.9079857705731
 30
0.0
 40
5.099999999999993
 50
0.0
 51
180.0
  0
ARC
  5
17C
  8
0
  6
CONTINUOUS
 62
     7
 10
621.1294738037826
 20
214.9579857705731
 30
0.0
 40
1.000000000000001
 50
90.0
 51
179.9999999999995
  0
ARC
  5
17D
  8
0
  6
CONTINUOUS
 62
     7
 10
496.5794738037827
 20
128.1579857705731
 30
0.0
 40
1.500000000000001
 50
180.0
 51
270.0
  0
ARC
  5
17E
  8
0
  6
CONTINUOUS
 62
     7
 10
621.1294738037826
 20
202.3579857705731
 30
0.0
 40
1.000000000000001
 50
180.0
 51
270.0
  0
LINE
  5
17F
  8
0
  6
CONTINUOUS
 62
     7
 10
530.8794738037826
 20
130.9079857705731
 30
0.0
 11
530.8794738037826
 21
128.1579857705731
 31
0.0
  0
LINE
  5
180
  8
0
  6
CONTINUOUS
 62
     7
 10
622.8294738037827
 20
144.9579857705731
 30
0.0
 11
622.8294738037827
 21
200.3579857705731
 31
0.0
  0
LINE
  5
181
  8
0
  6
CONTINUOUS
 62
     7
 10
576.8794738037826
 20
217.1579857705731
 30
0.0
 11
576.8794738037826
 21
214.4079857705731
 31
0.0
  0
LINE
  5
182
  8
0
  6
CONTINUOUS
 62
     7
 10
542.5794738037825
 20
218.6579857705731
 30
0.0
 11
575.3794738037825
 21
218.6579857705731
 31
0.0
  0
LINE
  5
183
  8
0
  6
CONTINUOUS
 62
     7
 10
449.1294738037826
 20
216.9579857705731
 30
0.0
 11
449.1294738037826
 21
226.5079857705731
 31
0.0
  0
ARC
  5
184
  8
0
  6
CONTINUOUS
 62
     7
 10
450.1294738037826
 20
216.9579857705731
 30
0.0
 40
1.000000000000001
 50
179.9999999999995
 51
270.0
  0
LINE
  5
185
  8
0
  6
CONTINUOUS
 62
     7
 10
450.8294738037826
 20
215.9579857705731
 30
0.0
 11
450.1294738037826
 21
215.9579857705731
 31
0.0
  0
ARC
  5
186
  8
0
  6
CONTINUOUS
 62
     7
 10
489.9794738037826
 20
214.4079857705731
 30
0.0
 40
5.099999999999993
 50
180.0
 51
0.0
  0
ARC
  5
187
  8
0
  6
CONTINUOUS
 62
     7
 10
535.9794738037826
 20
214.4079857705731
 30
0.0
 40
5.099999999999993
 50
179.9999999999999
 51
0.0000000000000568
  0
LINE
  5
188
  8
0
  6
CONTINUOUS
 62
     7
 10
452.1294738037827
 20
229.5079857705731
 30
0.0
 11
619.8294738037825
 21
229.5079857705731
 31
0.0
  0
LINE
  5
189
  8
0
  6
CONTINUOUS
 62
     7
 10
622.8294738037827
 20
128.3579857705731
 30
0.0
 11
622.8294738037827
 21
118.8079857705731
 31
0.0
  0
LINE
  5
18A
  8
0
  6
CONTINUOUS
 62
     7
 10
621.1294738037826
 20
129.3579857705731
 30
0.0
 11
621.8294738037825
 21
129.3579857705731
 31
0.0
  0
LINE
  5
18B
  8
0
  6
CONTINUOUS
 62
     7
 10
484.8794738037826
 20
130.9079857705731
 30
0.0
 11
484.8794738037826
 21
128.1579857705731
 31
0.0
  0
LINE
  5
18C
  8
0
  6
CONTINUOUS
 62
     7
 10
495.0794738037826
 20
128.1579857705731
 30
0.0
 11
495.0794738037826
 21
130.907985770573
 31
0.0
  0
LINE
  5
18D
  8
0
  6
CONTINUOUS
 62
     7
 10
529.3794738037826
 20
126.6579857705731
 30
0.0
 11
496.5794738037826
 21
126.6579857705731
 31
0.0
  0
LINE
  5
18E
  8
0
  6
CONTINUOUS
 62
     7
 10
621.8294738037825
 20
201.3579857705731
 30
0.0
 11
621.1294738037826
 21
201.3579857705731
 31
0.0
  0
ARC
  5
18F
  8
0
  6
CONTINUOUS
 62
     7
 10
603.9794738037825
 20
217.1579857705731
 30
0.0
 40
1.500000000000001
 50
0.0000000000005116
 51
90.0
  0
LINE
  5
190
  8
0
  6
CONTINUOUS
 62
     7
 10
587.0794738037825
 20
214.4079857705731
 30
0.0
 11
587.0794738037825
 21
217.1579857705731
 31
0.0
  0
ARC
  5
191
  8
0
  6
CONTINUOUS
 62
     7
 10
452.1294738037827
 20
226.5079857705731
 30
0.0
 40
3.000000000000003
 50
90.0
 51
179.9999999999998
  0
ARC
  5
192
  8
0
  6
CONTINUOUS
 62
     7
 10
542.5794738037825
 20
217.1579857705731
 30
0.0
 40
1.500000000000001
 50
90.00000000000006
 51
180.0
  0
ARC
  5
193
  8
0
  6
CONTINUOUS
 62
     7
 10
588.5794738037825
 20
217.1579857705731
 30
0.0
 40
1.500000000000001
 50
90.0
 51
180.0
  0
ARC
  5
194
  8
0
  6
CONTINUOUS
 62
     7
 10
529.3794738037826
 20
217.1579857705731
 30
0.0
 40
1.500000000000001
 50
0.0
 51
89.99999999999991
  0
ARC
  5
195
  8
0
  6
CONTINUOUS
 62
     7
 10
621.8294738037825
 20
200.3579857705731
 30
0.0
 40
1.000000000000001
 50
0.0000000000003976
 51
90.0
  0
LINE
  5
196
  8
0
  6
CONTINUOUS
 62
     7
 10
605.4794738037825
 20
217.1579857705731
 30
0.0
 11
605.4794738037825
 21
128.1579857705731
 31
0.0
  0
LINE
  5
197
  8
0
  6
CONTINUOUS
 62
     7
 10
541.0794738037827
 20
130.9079857705731
 30
0.0
 11
541.0794738037827
 21
128.1579857705731
 31
0.0
  0
ARC
  5
198
  8
0
  6
CONTINUOUS
 62
     7
 10
588.5794738037825
 20
128.1579857705731
 30
0.0
 40
1.500000000000001
 50
180.0
 51
270.0
  0
LINE
  5
199
  8
0
  6
CONTINUOUS
 62
     7
 10
451.4794738037826
 20
115.1579857705731
 30
0.0
 11
620.4794738037826
 21
115.1579857705731
 31
0.0
  0
ARC
  5
19A
  8
0
  6
CONTINUOUS
 62
     7
 10
451.4794738037826
 20
118.1579857705731
 30
0.0
 40
3.000000000000003
 50
180.0
 51
270.0
  0
LINE
  5
19B
  8
0
  6
CONTINUOUS
 62
     7
 10
624.2294738037825
 20
227.6579857705731
 30
0.0
 11
626.2294738037825
 21
227.6579857705731
 31
0.0
  0
LINE
  5
19C
  8
0
  6
CONTINUOUS
 62
     7
 10
624.2294738037825
 20
117.6579857705731
 30
0.0
 11
624.2294738037825
 21
227.6579857705731
 31
0.0
  0
LINE
  5
19D
  8
0
  6
CONTINUOUS
 62
     7
 10
626.2294738037825
 20
227.6579857705731
 30
0.0
 11
626.2294738037825
 21
117.6579857705731
 31
0.0
  0
ARC
  5
19E
  8
0
  6
CONTINUOUS
 62
     7
 10
620.4794738037826
 20
118.1579857705731
 30
0.0
 40
3.000000000000003
 50
270.0
 51
0.0
  0
LINE
  5
19F
  8
0
  6
CONTINUOUS
 62
     7
 10
623.4794738037825
 20
118.1579857705731
 30
0.0
 11
623.4794738037825
 21
227.1579857705731
 31
0.0
  0
ARC
  5
1A0
  8
0
  6
CONTINUOUS
 62
     7
 10
620.4794738037826
 20
227.1579857705731
 30
0.0
 40
3.000000000000003
 50
0.0
 51
90.0
  0
LINE
  5
1A1
  8
0
  6
CONTINUOUS
 62
     7
 10
620.4794738037826
 20
230.1579857705731
 30
0.0
 11
451.4794738037826
 21
230.1579857705731
 31
0.0
  0
ARC
  5
1A2
  8
0
  6
CONTINUOUS
 62
     7
 10
451.4794738037826
 20
227.1579857705731
 30
0.0
 40
3.000000000000003
 50
90.0
 51
180.0
  0
LINE
  5
1A3
  8
0
  6
CONTINUOUS
 62
     7
 10
448.4794738037826
 20
227.1579857705731
 30
0.0
 11
448.4794738037826
 21
118.1579857705731
 31
0.0
  0
ARC
  5
1A4
  8
0
  6
CONTINUOUS
 62
     7
 10
620.4794738037826
 20
118.1579857705731
 30
0.0
 40
6.500000000000005
 50
270.0
 51
0.0
  0
LINE
  5
1A5
  8
0
  6
CONTINUOUS
 62
     7
 10
451.4794738037826
 20
111.6579857705731
 30
0.0
 11
620.4794738037826
 21
111.6579857705731
 31
0.0
  0
ARC
  5
1A6
  8
0
  6
CONTINUOUS
 62
     7
 10
451.4794738037826
 20
118.1579857705731
 30
0.0
 40
6.500000000000005
 50
179.9999999999999
 51
270.0
  0
ARC
  5
1A7
  8
0
  6
CONTINUOUS
 62
     7
 10
451.4794738037826
 20
227.1579857705731
 30
0.0
 40
6.500000000000005
 50
90.0
 51
180.0
  0
LINE
  5
1A8
  8
0
  6
CONTINUOUS
 62
     7
 10
620.4794738037826
 20
233.6579857705731
 30
0.0
 11
451.4794738037826
 21
233.6579857705731
 31
0.0
  0
ARC
  5
1A9
  8
0
  6
CONTINUOUS
 62
     7
 10
620.4794738037826
 20
227.1579857705731
 30
0.0
 40
6.500000000000005
 50
359.9999999999999
 51
90.0
  0
LINE
  5
1AA
  8
0
  6
CONTINUOUS
 62
     7
 10
447.7294738037826
 20
227.6579857705731
 30
0.0
 11
447.7294738037826
 21
117.6579857705731
 31
0.0
  0
LINE
  5
1AB
  8
0
  6
CONTINUOUS
 62
     7
 10
447.7294738037826
 20
227.6579857705731
 30
0.0
 11
445.7294738037826
 21
227.6579857705731
 31
0.0
  0
LINE
  5
1AC
  8
0
  6
CONTINUOUS
 62
     7
 10
445.7294738037826
 20
117.6579857705731
 30
0.0
 11
445.7294738037826
 21
227.6579857705731
 31
0.0
  0
LINE
  5
1AD
  8
0
  6
CONTINUOUS
 62
     7
 10
445.7294738037826
 20
117.6579857705731
 30
0.0
 11
447.7294738037826
 21
117.6579857705731
 31
0.0
  0
LINE
  5
1AE
  8
0
  6
CONTINUOUS
 62
     7
 10
626.2294738037825
 20
117.6579857705731
 30
0.0
 11
624.2294738037825
 21
117.6579857705731
 31
0.0
  0
LINE
  5
1AF
  8
0
  6
CONTINUOUS
 62
     7
 10
608.4794738037826
 20
233.6579857705731
 30
0.0
 11
608.4794738037826
 21
235.4511362271382
 31
0.0
  0
POLYLINE
  5
1B0
  8
0
  6
CONTINUOUS
 62
     7
 66
     1
 10
0.0
 20
0.0
 30
0.0
  0
VERTEX
  5
33F
  8
0
  6
CONTINUOUS
 62
     7
 10
608.6794738037827
 20
235.6503751667566
 30
0.0
  0
VERTEX
  5
340
  8
0
  6
CONTINUOUS
 62
     7
 10
608.6404557393795
 20
235.6465468463991
 30
0.0
  0
VERTEX
  5
341
  8
0
  6
CONTINUOUS
 62
     7
 10
608.6029371173097
 20
235.6352090055309
 30
0.0
  0
VERTEX
  5
342
  8
0
  6
CONTINUOUS
 62
     7
 10
608.5683597571787
 20
235.6167973510183
 30
0.0
  0
VERTEX
  5
343
  8
0
  6
CONTINUOUS
 62
     7
 10
608.5380524475453
 20
235.5920194324189
 30
0.0
  0
VERTEX
  5
344
  8
0
  6
CONTINUOUS
 62
     7
 10
608.5131798813221
 20
235.5618274512486
 30
0.0
  0
VERTEX
  5
345
  8
0
  6
CONTINUOUS
 62
     7
 10
608.4946978972803
 20
235.5273816684122
 30
0.0
  0
VERTEX
  5
346
  8
0
  6
CONTINUOUS
 62
     7
 10
608.4833167477019
 20
235.4900058160266
 30
0.0
  0
VERTEX
  5
347
  8
0
  6
CONTINUOUS
 62
     7
 10
608.4794738037825
 20
235.4511362271382
 30
0.0
  0
SEQEND
  5
445
  8
0
  6
CONTINUOUS
 62
     7
  0
LINE
  5
1B1
  8
0
  6
CONTINUOUS
 62
     7
 10
615.2794738037826
 20
235.6503751667566
 30
0.0
 11
608.6794738037826
 21
235.6503751667566
 31
0.0
  0
LINE
  5
1B2
  8
0
  6
CONTINUOUS
 62
     7
 10
463.4794738037826
 20
235.4511362271382
 30
0.0
 11
463.4794738037826
 21
233.6579857705731
 31
0.0
  0
POLYLINE
  5
1B3
  8
0
  6
CONTINUOUS
 62
     7
 66
     1
 10
0.0
 20
0.0
 30
0.0
  0
VERTEX
  5
348
  8
0
  6
CONTINUOUS
 62
     7
 10
463.4794738037826
 20
235.4511362271382
 30
0.0
  0
VERTEX
  5
349
  8
0
  6
CONTINUOUS
 62
     7
 10
463.4756308598633
 20
235.4900058160265
 30
0.0
  0
VERTEX
  5
34A
  8
0
  6
CONTINUOUS
 62
     7
 10
463.4642497102848
 20
235.5273816684121
 30
0.0
  0
VERTEX
  5
34B
  8
0
  6
CONTINUOUS
 62
     7
 10
463.4457677262431
 20
235.5618274512486
 30
0.0
  0
VERTEX
  5
34C
  8
0
  6
CONTINUOUS
 62
     7
 10
463.4208951600199
 20
235.5920194324188
 30
0.0
  0
VERTEX
  5
34D
  8
0
  6
CONTINUOUS
 62
     7
 10
463.3905878503865
 20
235.6167973510183
 30
0.0
  0
VERTEX
  5
34E
  8
0
  6
CONTINUOUS
 62
     7
 10
463.3560104902556
 20
235.6352090055309
 30
0.0
  0
VERTEX
  5
34F
  8
0
  6
CONTINUOUS
 62
     7
 10
463.3184918681858
 20
235.646546846399
 30
0.0
  0
VERTEX
  5
350
  8
0
  6
CONTINUOUS
 62
     7
 10
463.2794738037826
 20
235.6503751667566
 30
0.0
  0
SEQEND
  5
446
  8
0
  6
CONTINUOUS
 62
     7
  0
LINE
  5
1B4
  8
0
  6
CONTINUOUS
 62
     7
 10
456.4794738037826
 20
109.8648353140079
 30
0.0
 11
456.4794738037826
 21
111.6579857705731
 31
0.0
  0
POLYLINE
  5
1B5
  8
0
  6
CONTINUOUS
 62
     7
 66
     1
 10
0.0
 20
0.0
 30
0.0
  0
VERTEX
  5
351
  8
0
  6
CONTINUOUS
 62
     7
 10
456.4794738037826
 20
109.8648353140079
 30
0.0
  0
VERTEX
  5
352
  8
0
  6
CONTINUOUS
 62
     7
 10
456.4833167477019
 20
109.8259657251196
 30
0.0
  0
VERTEX
  5
353
  8
0
  6
CONTINUOUS
 62
     7
 10
456.4946978972803
 20
109.788589872734
 30
0.0
  0
VERTEX
  5
354
  8
0
  6
CONTINUOUS
 62
     7
 10
456.5131798813221
 20
109.7541440898976
 30
0.0
  0
VERTEX
  5
355
  8
0
  6
CONTINUOUS
 62
     7
 10
456.5380524475453
 20
109.7239521087274
 30
0.0
  0
VERTEX
  5
356
  8
0
  6
CONTINUOUS
 62
     7
 10
456.5683597571787
 20
109.6991741901279
 30
0.0
  0
VERTEX
  5
357
  8
0
  6
CONTINUOUS
 62
     7
 10
456.6029371173095
 20
109.6807625356153
 30
0.0
  0
VERTEX
  5
358
  8
0
  6
CONTINUOUS
 62
     7
 10
456.6404557393793
 20
109.6694246947471
 30
0.0
  0
VERTEX
  5
359
  8
0
  6
CONTINUOUS
 62
     7
 10
456.6794738037826
 20
109.6655963743896
 30
0.0
  0
SEQEND
  5
447
  8
0
  6
CONTINUOUS
 62
     7
  0
LINE
  5
1B6
  8
0
  6
CONTINUOUS
 62
     7
 10
456.4794738037826
 20
233.6579857705731
 30
0.0
 11
456.4794738037826
 21
235.4511362271382
 31
0.0
  0
POLYLINE
  5
1B7
  8
0
  6
CONTINUOUS
 62
     7
 66
     1
 10
0.0
 20
0.0
 30
0.0
  0
VERTEX
  5
35A
  8
0
  6
CONTINUOUS
 62
     7
 10
456.6794738037827
 20
235.6503751667566
 30
0.0
  0
VERTEX
  5
35B
  8
0
  6
CONTINUOUS
 62
     7
 10
456.6404557393795
 20
235.6465468463991
 30
0.0
  0
VERTEX
  5
35C
  8
0
  6
CONTINUOUS
 62
     7
 10
456.6029371173096
 20
235.6352090055309
 30
0.0
  0
VERTEX
  5
35D
  8
0
  6
CONTINUOUS
 62
     7
 10
456.5683597571787
 20
235.6167973510183
 30
0.0
  0
VERTEX
  5
35E
  8
0
  6
CONTINUOUS
 62
     7
 10
456.5380524475453
 20
235.5920194324188
 30
0.0
  0
VERTEX
  5
35F
  8
0
  6
CONTINUOUS
 62
     7
 10
456.5131798813221
 20
235.5618274512486
 30
0.0
  0
VERTEX
  5
360
  8
0
  6
CONTINUOUS
 62
     7
 10
456.4946978972803
 20
235.5273816684122
 30
0.0
  0
VERTEX
  5
361
  8
0
  6
CONTINUOUS
 62
     7
 10
456.4833167477019
 20
235.4900058160265
 30
0.0
  0
VERTEX
  5
362
  8
0
  6
CONTINUOUS
 62
     7
 10
456.4794738037826
 20
235.4511362271382
 30
0.0
  0
SEQEND
  5
448
  8
0
  6
CONTINUOUS
 62
     7
  0
LINE
  5
1B8
  8
0
  6
CONTINUOUS
 62
     7
 10
456.6794738037826
 20
109.6655963743896
 30
0.0
 11
463.2794738037826
 21
109.6655963743896
 31
0.0
  0
LINE
  5
1B9
  8
0
  6
CONTINUOUS
 62
     7
 10
615.2794738037826
 20
109.6655963743896
 30
0.0
 11
608.6794738037826
 21
109.6655963743896
 31
0.0
  0
LINE
  5
1BA
  8
0
  6
CONTINUOUS
 62
     7
 10
456.6794738037826
 20
235.6503751667566
 30
0.0
 11
463.2794738037826
 21
235.6503751667566
 31
0.0
  0
LINE
  5
1BB
  8
0
  6
CONTINUOUS
 62
     7
 10
615.4794738037825
 20
111.6579857705731
 30
0.0
 11
615.4794738037825
 21
109.8648353140079
 31
0.0
  0
POLYLINE
  5
1BC
  8
0
  6
CONTINUOUS
 62
     7
 66
     1
 10
0.0
 20
0.0
 30
0.0
  0
VERTEX
  5
363
  8
0
  6
CONTINUOUS
 62
     7
 10
615.2794738037825
 20
109.6655963743896
 30
0.0
  0
VERTEX
  5
364
  8
0
  6
CONTINUOUS
 62
     7
 10
615.3184918681857
 20
109.6694246947471
 30
0.0
  0
VERTEX
  5
365
  8
0
  6
CONTINUOUS
 62
     7
 10
615.3560104902555
 20
109.6807625356153
 30
0.0
  0
VERTEX
  5
366
  8
0
  6
CONTINUOUS
 62
     7
 10
615.3905878503864
 20
109.6991741901279
 30
0.0
  0
VERTEX
  5
367
  8
0
  6
CONTINUOUS
 62
     7
 10
615.4208951600199
 20
109.7239521087274
 30
0.0
  0
VERTEX
  5
368
  8
0
  6
CONTINUOUS
 62
     7
 10
615.445767726243
 20
109.7541440898976
 30
0.0
  0
VERTEX
  5
369
  8
0
  6
CONTINUOUS
 62
     7
 10
615.4642497102848
 20
109.788589872734
 30
0.0
  0
VERTEX
  5
36A
  8
0
  6
CONTINUOUS
 62
     7
 10
615.4756308598633
 20
109.8259657251196
 30
0.0
  0
VERTEX
  5
36B
  8
0
  6
CONTINUOUS
 62
     7
 10
615.4794738037825
 20
109.8648353140079
 30
0.0
  0
SEQEND
  5
449
  8
0
  6
CONTINUOUS
 62
     7
  0
LINE
  5
1BD
  8
0
  6
CONTINUOUS
 62
     7
 10
608.4794738037826
 20
109.8648353140079
 30
0.0
 11
608.4794738037826
 21
111.6579857705731
 31
0.0
  0
POLYLINE
  5
1BE
  8
0
  6
CONTINUOUS
 62
     7
 66
     1
 10
0.0
 20
0.0
 30
0.0
  0
VERTEX
  5
36C
  8
0
  6
CONTINUOUS
 62
     7
 10
608.4794738037826
 20
109.8648353140079
 30
0.0
  0
VERTEX
  5
36D
  8
0
  6
CONTINUOUS
 62
     7
 10
608.4833167477019
 20
109.8259657251197
 30
0.0
  0
VERTEX
  5
36E
  8
0
  6
CONTINUOUS
 62
     7
 10
608.4946978972804
 20
109.788589872734
 30
0.0
  0
VERTEX
  5
36F
  8
0
  6
CONTINUOUS
 62
     7
 10
608.5131798813221
 20
109.7541440898976
 30
0.0
  0
VERTEX
  5
370
  8
0
  6
CONTINUOUS
 62
     7
 10
608.5380524475453
 20
109.7239521087274
 30
0.0
  0
VERTEX
  5
371
  8
0
  6
CONTINUOUS
 62
     7
 10
608.5683597571787
 20
109.6991741901279
 30
0.0
  0
VERTEX
  5
372
  8
0
  6
CONTINUOUS
 62
     7
 10
608.6029371173096
 20
109.6807625356153
 30
0.0
  0
VERTEX
  5
373
  8
0
  6
CONTINUOUS
 62
     7
 10
608.6404557393794
 20
109.6694246947471
 30
0.0
  0
VERTEX
  5
374
  8
0
  6
CONTINUOUS
 62
     7
 10
608.6794738037826
 20
109.6655963743896
 30
0.0
  0
SEQEND
  5
44A
  8
0
  6
CONTINUOUS
 62
     7
  0
LINE
  5
1BF
  8
0
  6
CONTINUOUS
 62
     7
 10
615.4794738037825
 20
235.4511362271382
 30
0.0
 11
615.4794738037825
 21
233.6579857705731
 31
0.0
  0
POLYLINE
  5
1C0
  8
0
  6
CONTINUOUS
 62
     7
 66
     1
 10
0.0
 20
0.0
 30
0.0
  0
VERTEX
  5
375
  8
0
  6
CONTINUOUS
 62
     7
 10
615.4794738037826
 20
235.4511362271382
 30
0.0
  0
VERTEX
  5
376
  8
0
  6
CONTINUOUS
 62
     7
 10
615.4756308598633
 20
235.4900058160265
 30
0.0
  0
VERTEX
  5
377
  8
0
  6
CONTINUOUS
 62
     7
 10
615.4642497102849
 20
235.5273816684122
 30
0.0
  0
VERTEX
  5
378
  8
0
  6
CONTINUOUS
 62
     7
 10
615.4457677262432
 20
235.5618274512486
 30
0.0
  0
VERTEX
  5
379
  8
0
  6
CONTINUOUS
 62
     7
 10
615.4208951600199
 20
235.5920194324188
 30
0.0
  0
VERTEX
  5
37A
  8
0
  6
CONTINUOUS
 62
     7
 10
615.3905878503865
 20
235.6167973510183
 30
0.0
  0
VERTEX
  5
37B
  8
0
  6
CONTINUOUS
 62
     7
 10
615.3560104902556
 20
235.6352090055309
 30
0.0
  0
VERTEX
  5
37C
  8
0
  6
CONTINUOUS
 62
     7
 10
615.3184918681858
 20
235.6465468463991
 30
0.0
  0
VERTEX
  5
37D
  8
0
  6
CONTINUOUS
 62
     7
 10
615.2794738037826
 20
235.6503751667566
 30
0.0
  0
SEQEND
  5
44B
  8
0
  6
CONTINUOUS
 62
     7
  0
LINE
  5
1C1
  8
0
  6
CONTINUOUS
 62
     7
 10
463.4794738037826
 20
111.6579857705731
 30
0.0
 11
463.4794738037826
 21
109.8648353140079
 31
0.0
  0
POLYLINE
  5
1C2
  8
0
  6
CONTINUOUS
 62
     7
 66
     1
 10
0.0
 20
0.0
 30
0.0
  0
VERTEX
  5
37E
  8
0
  6
CONTINUOUS
 62
     7
 10
463.2794738037824
 20
109.6655963743896
 30
0.0
  0
VERTEX
  5
37F
  8
0
  6
CONTINUOUS
 62
     7
 10
463.3184918681857
 20
109.6694246947471
 30
0.0
  0
VERTEX
  5
380
  8
0
  6
CONTINUOUS
 62
     7
 10
463.3560104902555
 20
109.6807625356153
 30
0.0
  0
VERTEX
  5
381
  8
0
  6
CONTINUOUS
 62
     7
 10
463.3905878503865
 20
109.6991741901278
 30
0.0
  0
VERTEX
  5
382
  8
0
  6
CONTINUOUS
 62
     7
 10
463.4208951600199
 20
109.7239521087273
 30
0.0
  0
VERTEX
  5
383
  8
0
  6
CONTINUOUS
 62
     7
 10
463.445767726243
 20
109.7541440898976
 30
0.0
  0
VERTEX
  5
384
  8
0
  6
CONTINUOUS
 62
     7
 10
463.4642497102848
 20
109.788589872734
 30
0.0
  0
VERTEX
  5
385
  8
0
  6
CONTINUOUS
 62
     7
 10
463.4756308598633
 20
109.8259657251196
 30
0.0
  0
VERTEX
  5
386
  8
0
  6
CONTINUOUS
 62
     7
 10
463.4794738037826
 20
109.8648353140079
 30
0.0
  0
SEQEND
  5
44C
  8
0
  6
CONTINUOUS
 62
     7
  0
LINE
  5
1C3
  8
0
  6
CONTINUOUS
 62
     7
 10
626.9794738037826
 20
246.4079857705731
 30
0.0
 11
622.9794738037826
 21
246.4079857705731
 31
0.0
  0
ARC
  5
1C4
  8
0
  6
CONTINUOUS
 62
     7
 10
624.9794738037826
 20
113.6579857705731
 30
0.0
 40
2.000000000000002
 50
270.0
 51
0.0
  0
ARC
  5
1C5
  8
0
  6
CONTINUOUS
 62
     7
 10
623.4794738037825
 20
111.1579857705731
 30
0.0
 40
0.5000000000000004
 50
90.0
 51
180.0
  0
LINE
  5
1C6
  8
0
  6
CONTINUOUS
 62
     7
 10
622.9794738037826
 20
111.1579857705731
 30
0.0
 11
622.9794738037826
 21
110.6579857705731
 31
0.0
  0
ARC
  5
1C7
  8
0
  6
CONTINUOUS
 62
     7
 10
623.4794738037825
 20
110.6579857705731
 30
0.0
 40
0.5000000000000004
 50
180.0
 51
270.0
  0
ARC
  5
1C8
  8
0
  6
CONTINUOUS
 62
     7
 10
625.9794738037826
 20
109.1579857705731
 30
0.0
 40
1.000000000000001
 50
0.0
 51
90.0
  0
LINE
  5
1C9
  8
0
  6
CONTINUOUS
 62
     7
 10
624.9794738037826
 20
111.6579857705731
 30
0.0
 11
623.4794738037825
 21
111.6579857705731
 31
0.0
  0
LINE
  5
1CA
  8
0
  6
CONTINUOUS
 62
     7
 10
623.4794738037825
 20
110.1579857705731
 30
0.0
 11
625.9794738037825
 21
110.1579857705731
 31
0.0
  0
LINE
  5
1CB
  8
0
  6
CONTINUOUS
 62
     7
 10
626.9794738037826
 20
98.90798577057308
 30
0.0
 11
622.9794738037826
 21
98.90798577057309
 31
0.0
  0
LINE
  5
1CC
  8
0
  6
CONTINUOUS
 62
     7
 10
444.9794738037826
 20
98.90798577057308
 30
0.0
 11
448.9794738037826
 21
98.90798577057309
 31
0.0
  0
ARC
  5
1CD
  8
0
  6
CONTINUOUS
 62
     7
 10
446.9794738037826
 20
231.6579857705731
 30
0.0
 40
2.000000000000002
 50
90.0
 51
180.0
  0
LINE
  5
1CE
  8
0
  6
CONTINUOUS
 62
     7
 10
446.9794738037826
 20
233.6579857705731
 30
0.0
 11
448.4794738037826
 21
233.6579857705731
 31
0.0
  0
ARC
  5
1CF
  8
0
  6
CONTINUOUS
 62
     7
 10
448.4794738037826
 20
234.1579857705731
 30
0.0
 40
0.5000000000000004
 50
270.0
 51
0.0
  0
LINE
  5
1D0
  8
0
  6
CONTINUOUS
 62
     7
 10
448.9794738037826
 20
234.1579857705731
 30
0.0
 11
448.9794738037826
 21
234.6579857705731
 31
0.0
  0
ARC
  5
1D1
  8
0
  6
CONTINUOUS
 62
     7
 10
448.4794738037826
 20
234.6579857705731
 30
0.0
 40
0.5000000000000004
 50
0.0
 51
90.0
  0
ARC
  5
1D2
  8
0
  6
CONTINUOUS
 62
     7
 10
445.9794738037826
 20
236.1579857705731
 30
0.0
 40
1.000000000000001
 50
180.0
 51
270.0
  0
LINE
  5
1D3
  8
0
  6
CONTINUOUS
 62
     7
 10
448.4794738037826
 20
235.1579857705731
 30
0.0
 11
445.9794738037826
 21
235.1579857705731
 31
0.0
  0
LINE
  5
1D4
  8
0
  6
CONTINUOUS
 62
     7
 10
444.9794738037826
 20
246.4079857705731
 30
0.0
 11
448.9794738037826
 21
246.4079857705731
 31
0.0
  0
ARC
  5
1D5
  8
0
  6
CONTINUOUS
 62
     7
 10
624.9794738037826
 20
231.6579857705731
 30
0.0
 40
2.000000000000002
 50
0.0
 51
90.0
  0
ARC
  5
1D6
  8
0
  6
CONTINUOUS
 62
     7
 10
623.4794738037825
 20
234.1579857705731
 30
0.0
 40
0.5000000000000004
 50
180.0
 51
270.0
  0
ARC
  5
1D7
  8
0
  6
CONTINUOUS
 62
     7
 10
623.4794738037825
 20
234.6579857705731
 30
0.0
 40
0.5000000000000004
 50
90.0
 51
180.0
  0
ARC
  5
1D8
  8
0
  6
CONTINUOUS
 62
     7
 10
625.9794738037826
 20
236.1579857705731
 30
0.0
 40
1.000000000000001
 50
270.0
 51
0.0
  0
LINE
  5
1D9
  8
0
  6
CONTINUOUS
 62
     7
 10
624.9794738037826
 20
233.6579857705731
 30
0.0
 11
623.4794738037825
 21
233.6579857705731
 31
0.0
  0
LINE
  5
1DA
  8
0
  6
CONTINUOUS
 62
     7
 10
622.9794738037826
 20
234.1579857705731
 30
0.0
 11
622.9794738037826
 21
234.6579857705731
 31
0.0
  0
LINE
  5
1DB
  8
0
  6
CONTINUOUS
 62
     7
 10
623.4794738037825
 20
235.1579857705731
 30
0.0
 11
625.9794738037825
 21
235.1579857705731
 31
0.0
  0
LINE
  5
1DC
  8
0
  6
CONTINUOUS
 62
     7
 10
448.9794738037826
 20
111.1579857705731
 30
0.0
 11
448.9794738037826
 21
110.6579857705731
 31
0.0
  0
ARC
  5
1DD
  8
0
  6
CONTINUOUS
 62
     7
 10
448.4794738037826
 20
110.6579857705731
 30
0.0
 40
0.5000000000000004
 50
270.0
 51
0.0
  0
LINE
  5
1DE
  8
0
  6
CONTINUOUS
 62
     7
 10
448.4794738037826
 20
110.1579857705731
 30
0.0
 11
445.9794738037826
 21
110.1579857705731
 31
0.0
  0
ARC
  5
1DF
  8
0
  6
CONTINUOUS
 62
     7
 10
446.9794738037826
 20
113.6579857705731
 30
0.0
 40
2.000000000000002
 50
180.0
 51
270.0
  0
ARC
  5
1E0
  8
0
  6
CONTINUOUS
 62
     7
 10
448.4794738037826
 20
111.1579857705731
 30
0.0
 40
0.5000000000000004
 50
0.0
 51
90.0
  0
LINE
  5
1E1
  8
0
  6
CONTINUOUS
 62
     7
 10
446.9794738037826
 20
111.6579857705731
 30
0.0
 11
448.4794738037826
 21
111.6579857705731
 31
0.0
  0
ARC
  5
1E2
  8
0
  6
CONTINUOUS
 62
     7
 10
445.9794738037826
 20
109.1579857705731
 30
0.0
 40
1.000000000000001
 50
90.0
 51
180.0
  0
CIRCLE
  5
1E3
  8
0
  6
CONTINUOUS
 62
     7
 10
531.7292631544401
 20
165.2968999320707
 30
0.0
 40
1.499992680666829
  0
CIRCLE
  5
1E4
  8
0
  6
CONTINUOUS
 62
     7
 10
531.7296917928727
 20
180.0193190835898
 30
0.0
 40
1.499992680666806
  0
CIRCLE
  5
1E5
  8
0
  6
CONTINUOUS
 62
     7
 10
535.9794738037826
 20
172.6579857705731
 30
0.0
 40
5.750000000000005
  0
CIRCLE
  5
1E6
  8
0
  6
CONTINUOUS
 62
     7
 10
540.2292558146926
 20
165.2966524575563
 30
0.0
 40
1.499992680666806
  0
CIRCLE
  5
1E7
  8
0
  6
CONTINUOUS
 62
     7
 10
527.4794741181967
 20
172.6580141556076
 30
0.0
 40
1.499999685854549
  0
CIRCLE
  5
1E8
  8
0
  6
CONTINUOUS
 62
     7
 10
540.2296844531252
 20
180.0190716090755
 30
0.0
 40
1.499992680666829
  0
CIRCLE
  5
1E9
  8
0
  6
CONTINUOUS
 62
     7
 10
544.4794734893685
 20
172.6579573855385
 30
0.0
 40
1.499999685854549
  0
CIRCLE
  5
1EA
  8
0
  6
CONTINUOUS
 62
     7
 10
535.9794738037826
 20
172.6579857705731
 30
0.0
 40
13.50000000000001
  0
LINE
  5
1EB
  8
0
  6
CONTINUOUS
 62
     7
 10
533.0169133953558
 20
185.9144744004277
 30
0.0
 11
533.1794738037826
 21
185.8644235946042
 31
0.0
  0
LINE
  5
1EC
  8
0
  6
CONTINUOUS
 62
     7
 10
574.245755101118
 20
169.6579857705731
 30
0.0
 11
605.4794738037825
 21
169.6579857705731
 31
0.0
  0
LINE
  5
1ED
  8
0
  6
CONTINUOUS
 62
     7
 10
515.9794738037826
 20
126.6579857705731
 30
0.0
 11
515.9794738037826
 21
166.2353694812405
 31
0.0
  0
LINE
  5
1EE
  8
0
  6
CONTINUOUS
 62
     7
 10
515.6926970200971
 20
115.7668906799687
 30
0.0
 11
515.7308782799839
 21
115.8079857705731
 31
0.0
  0
LINE
  5
1EF
  8
0
  6
CONTINUOUS
 62
     7
 10
522.7229851739279
 20
169.6954253621463
 30
0.0
 11
522.7730359797514
 21
169.8579857705731
 31
0.0
  0
LINE
  5
1F0
  8
0
  6
CONTINUOUS
 62
     7
 10
538.9420342122094
 20
185.9144744004277
 30
0.0
 11
539.1529972351643
 21
185.9853541916257
 31
0.0
  0
LINE
  5
1F1
  8
0
  6
CONTINUOUS
 62
     7
 10
532.8059503724008
 20
185.9853541916257
 30
0.0
 11
533.0169133953558
 21
185.9144744004277
 31
0.0
  0
ARC
  5
1F2
  8
0
  6
CONTINUOUS
 62
     7
 10
535.9794738037826
 20
191.6579857705731
 30
0.0
 40
6.500000000000009
 50
299.2245980261437
 51
240.7754019738563
  0
ARC
  5
1F3
  8
0
  6
CONTINUOUS
 62
     7
 10
568.4794738037826
 20
172.6579857705731
 30
0.0
 40
6.499999999999995
 50
207.4864262503813
 51
332.5135737496187
  0
LINE
  5
1F4
  8
0
  6
CONTINUOUS
 62
     7
 10
533.1794738037826
 20
159.451547946542
 30
0.0
 11
533.0169133953558
 21
159.4014971407184
 31
0.0
  0
LINE
  5
1F5
  8
0
  6
CONTINUOUS
 62
     7
 10
522.6521053827299
 20
169.4844623391913
 30
0.0
 11
522.722985173928
 21
169.6954253621463
 31
0.0
  0
ARC
  5
1F6
  8
0
  6
CONTINUOUS
 62
     7
 10
516.9794738037826
 20
172.6579857705731
 30
0.0
 40
6.499999999999998
 50
261.150116901571
 51
330.7754019738563
  0
LINE
  5
1F7
  8
0
  6
CONTINUOUS
 62
     7
 10
533.0169133953558
 20
159.4014971407184
 30
0.0
 11
532.8059503724008
 21
159.3306173495205
 31
0.0
  0
LINE
  5
1F8
  8
0
  6
CONTINUOUS
 62
     7
 10
539.1529972351644
 20
159.3306173495205
 30
0.0
 11
538.9420342122094
 21
159.4014971407185
 31
0.0
  0
ARC
  5
1F9
  8
0
  6
CONTINUOUS
 62
     7
 10
535.9794738037826
 20
153.6579857705731
 30
0.0
 40
6.499999999999998
 50
119.2245980261436
 51
60.77540197385634
  0
CIRCLE
  5
1FA
  8
0
  6
CONTINUOUS
 62
     7
 10
503.4794738037826
 20
172.6579857705731
 30
0.0
 40
3.000000000000003
  0
LINE
  5
1FB
  8
0
  6
CONTINUOUS
 62
     7
 10
561.9794738037826
 20
175.6579857705731
 30
0.0
 11
561.9794738037826
 21
218.6579857705731
 31
0.0
  0
CIRCLE
  5
1FC
  8
0
  6
CONTINUOUS
 62
     7
 10
535.9794738037826
 20
191.6579857705731
 30
0.0
 40
3.000000000000003
  0
LINE
  5
1FD
  8
0
  6
CONTINUOUS
 62
     7
 10
549.3068422248352
 20
175.8315092019549
 30
0.0
 11
549.2359624336374
 21
175.6205461789999
 31
0.0
  0
ARC
  5
1FE
  8
0
  6
CONTINUOUS
 62
     7
 10
554.9794738037825
 20
172.6579857705731
 30
0.0
 40
6.500000000000009
 50
81.15011690157093
 51
150.7754019738563
  0
LINE
  5
1FF
  8
0
  6
CONTINUOUS
 62
     7
 10
561.9794738037826
 20
126.6579857705731
 30
0.0
 11
561.9794738037826
 21
169.657985770573
 31
0.0
  0
LINE
  5
200
  8
0
  6
CONTINUOUS
 62
     7
 10
561.6926970200971
 20
115.7668906799687
 30
0.0
 11
561.730878279984
 21
115.8079857705731
 31
0.0
  0
ARC
  5
201
  8
0
  6
CONTINUOUS
 62
     7
 10
516.9794738037826
 20
172.6579857705731
 30
0.0
 40
6.500000000000015
 50
29.22459802614367
 51
98.84988309842912
  0
LINE
  5
202
  8
0
  6
CONTINUOUS
 62
     7
 10
522.7229851739279
 20
175.6205461789999
 30
0.0
 11
522.6521053827298
 21
175.8315092019549
 31
0.0
  0
LINE
  5
203
  8
0
  6
CONTINUOUS
 62
     7
 10
561.9794738037826
 20
169.6579857705731
 30
0.0
 11
562.7131925064473
 21
169.6579857705731
 31
0.0
  0
LINE
  5
204
  8
0
  6
CONTINUOUS
 62
     7
 10
509.245755101118
 20
169.6579857705731
 30
0.0
 11
509.9794738037826
 21
169.6579857705731
 31
0.0
  0
LINE
  5
205
  8
0
  6
CONTINUOUS
 62
     7
 10
509.9794738037826
 20
169.6579857705731
 30
0.0
 11
509.9794738037826
 21
126.6579857705731
 31
0.0
  0
CIRCLE
  5
206
  8
0
  6
CONTINUOUS
 62
     7
 10
535.9794738037826
 20
153.6579857705731
 30
0.0
 40
2.999999999999989
  0
LINE
  5
207
  8
0
  6
CONTINUOUS
 62
     7
 10
522.7730359797514
 20
175.4579857705731
 30
0.0
 11
522.7229851739279
 21
175.6205461789999
 31
0.0
  0
LINE
  5
208
  8
0
  6
CONTINUOUS
 62
     7
 10
515.9794738037826
 20
179.0806020599057
 30
0.0
 11
515.9794738037826
 21
218.6579857705731
 31
0.0
  0
ARC
  5
209
  8
0
  6
CONTINUOUS
 62
     7
 10
503.4794738037826
 20
172.6579857705731
 30
0.0
 40
6.499999999999995
 50
207.4864262503813
 51
332.5135737496187
  0
LINE
  5
20A
  8
0
  6
CONTINUOUS
 62
     7
 10
538.7794738037826
 20
185.8644235946042
 30
0.0
 11
538.9420342122094
 21
185.9144744004277
 31
0.0
  0
LINE
  5
20B
  8
0
  6
CONTINUOUS
 62
     7
 10
549.2359624336373
 20
175.6205461789999
 30
0.0
 11
549.1859116278137
 21
175.4579857705731
 31
0.0
  0
ARC
  5
20C
  8
0
  6
CONTINUOUS
 62
     7
 10
568.4794738037826
 20
172.6579857705731
 30
0.0
 40
6.499999999999995
 50
27.48642625038133
 51
152.5135737496187
  0
LINE
  5
20D
  8
0
  6
CONTINUOUS
 62
     7
 10
605.4794738037825
 20
175.6579857705731
 30
0.0
 11
574.245755101118
 21
175.6579857705731
 31
0.0
  0
LINE
  5
20E
  8
0
  6
CONTINUOUS
 62
     7
 10
549.1859116278137
 20
169.8579857705731
 30
0.0
 11
549.2359624336373
 21
169.6954253621463
 31
0.0
  0
LINE
  5
20F
  8
0
  6
CONTINUOUS
 62
     7
 10
538.9420342122094
 20
159.4014971407184
 30
0.0
 11
538.7794738037826
 21
159.451547946542
 31
0.0
  0
LINE
  5
210
  8
0
  6
CONTINUOUS
 62
     7
 10
466.4794738037826
 20
169.6579857705731
 30
0.0
 11
497.7131925064472
 21
169.6579857705731
 31
0.0
  0
CIRCLE
  5
211
  8
0
  6
CONTINUOUS
 62
     7
 10
568.4794738037826
 20
172.6579857705731
 30
0.0
 40
3.000000000000003
  0
LINE
  5
212
  8
0
  6
CONTINUOUS
 62
     7
 10
562.7131925064473
 20
175.6579857705731
 30
0.0
 11
561.9794738037826
 21
175.6579857705731
 31
0.0
  0
LINE
  5
213
  8
0
  6
CONTINUOUS
 62
     7
 10
509.9794738037826
 20
218.6579857705731
 30
0.0
 11
509.9794738037826
 21
175.6579857705731
 31
0.0
  0
LINE
  5
214
  8
0
  6
CONTINUOUS
 62
     7
 10
510.2662505874682
 20
229.5490808611775
 30
0.0
 11
510.2280693275812
 21
229.5079857705731
 31
0.0
  0
ARC
  5
215
  8
0
  6
CONTINUOUS
 62
     7
 10
554.9794738037825
 20
172.6579857705731
 30
0.0
 40
6.500000000000013
 50
209.2245980261437
 51
278.8498830984291
  0
LINE
  5
216
  8
0
  6
CONTINUOUS
 62
     7
 10
549.2359624336373
 20
169.6954253621463
 30
0.0
 11
549.3068422248352
 21
169.4844623391913
 31
0.0
  0
LINE
  5
217
  8
0
  6
CONTINUOUS
 62
     7
 10
509.9794738037826
 20
175.6579857705731
 30
0.0
 11
509.245755101118
 21
175.6579857705731
 31
0.0
  0
LINE
  5
218
  8
0
  6
CONTINUOUS
 62
     7
 10
555.9794738037826
 20
218.6579857705731
 30
0.0
 11
555.9794738037826
 21
179.0806020599056
 31
0.0
  0
LINE
  5
219
  8
0
  6
CONTINUOUS
 62
     7
 10
556.2662505874681
 20
229.5490808611775
 30
0.0
 11
556.2280693275811
 21
229.5079857705731
 31
0.0
  0
ARC
  5
21A
  8
0
  6
CONTINUOUS
 62
     7
 10
503.4794738037826
 20
172.6579857705731
 30
0.0
 40
6.499999999999995
 50
27.48642625038133
 51
152.5135737496187
  0
LINE
  5
21B
  8
0
  6
CONTINUOUS
 62
     7
 10
497.7131925064472
 20
175.6579857705731
 30
0.0
 11
466.4794738037826
 21
175.6579857705731
 31
0.0
  0
LINE
  5
21C
  8
0
  6
CONTINUOUS
 62
     7
 10
555.9794738037826
 20
166.2353694812405
 30
0.0
 11
555.9794738037826
 21
126.6579857705731
 31
0.0
  0
ENDBLK
  8
0
  0
BLOCK
  8
0
  2
D_FRAME_VIEW_3559
 70
     0
 10
0.0
 20
0.0
 30
0.0
  0
LINE
  5
221
  8
0
  6
CONTINUOUS
 62
     7
 10
662.9544738037824
 20
229.5079857705731
 30
0.0
 11
663.2544738037825
 21
229.5079857705731
 31
0.0
  0
LINE
  5
222
  8
0
  6
CONTINUOUS
 62
     9
 10
662.9544738037824
 20
144.9579857705731
 30
0.0
 11
663.2544738037825
 21
144.9579857705731
 31
0.0
  0
LINE
  5
223
  8
0
  6
CONTINUOUS
 62
     7
 10
662.9544738037824
 20
115.8079857705731
 30
0.0
 11
663.2544738037825
 21
115.8079857705731
 31
0.0
  0
LINE
  5
224
  8
0
  6
CONTINUOUS
 62
     7
 10
662.9544738037824
 20
143.9579857705731
 30
0.0
 11
663.2544738037825
 21
143.9579857705731
 31
0.0
  0
LINE
  5
225
  8
0
  6
CONTINUOUS
 62
     9
 10
662.9544738037824
 20
142.9579857705731
 30
0.0
 11
663.2544738037825
 21
142.9579857705731
 31
0.0
  0
CIRCLE
  5
226
  8
0
  6
CONTINUOUS
 62
     7
 10
681.1544738037826
 20
210.1579857705731
 30
0.0
 40
10.89999999999999
  0
CIRCLE
  5
227
  8
0
  6
CONTINUOUS
 62
     7
 10
681.1544738037826
 20
135.1579857705731
 30
0.0
 40
10.90000000000001
  0
LINE
  5
228
  8
0
  6
CONTINUOUS
 62
     7
 10
673.6544738037826
 20
110.1579857705731
 30
0.0
 11
693.2544738037827
 21
110.1579857705731
 31
0.0
  0
ARC
  5
229
  8
0
  6
CONTINUOUS
 62
     7
 10
700.2544738037826
 20
230.6579857705731
 30
0.0
 40
3.000000000000003
 50
66.42182152179925
 51
90.0
  0
ARC
  5
22A
  8
0
  6
CONTINUOUS
 62
     7
 10
700.2062205788192
 20
230.6267056543881
 30
0.0
 40
3.048134964121101
 50
0.5879825266907233
 51
65.82570606848361
  0
ARC
  5
22B
  8
0
  6
CONTINUOUS
 62
     7
 10
695.5544738037827
 20
176.1579857705731
 30
0.0
 40
0.5000000000000004
 50
90.0
 51
179.9999999999995
  0
ARC
  5
22C
  8
0
  6
CONTINUOUS
 62
     7
 10
700.2066636787251
 20
114.6889758547023
 30
0.0
 40
3.047688924593309
 50
294.1689271740431
 51
359.4173842307749
  0
ARC
  5
22D
  8
0
  6
CONTINUOUS
 62
     7
 10
700.2544738037826
 20
114.6579857705731
 30
0.0
 40
3.000000000000016
 50
270.0
 51
293.5781784782008
  0
POLYLINE
  5
22E
  8
0
  6
CONTINUOUS
 62
     7
 66
     1
 10
0.0
 20
0.0
 30
0.0
  0
VERTEX
  5
389
  8
0
  6
CONTINUOUS
 62
     7
 10
678.6544738037825
 20
108.4579857705731
 30
0.0
  0
VERTEX
  5
38A
  8
0
  6
CONTINUOUS
 62
     7
 10
678.4593834817664
 20
108.4382632647632
 30
0.0
  0
VERTEX
  5
38B
  8
0
  6
CONTINUOUS
 62
     7
 10
678.2717903714174
 20
108.3798536721714
 30
0.0
  0
VERTEX
  5
38C
  8
0
  6
CONTINUOUS
 62
     7
 10
678.0989035707629
 20
108.2850016406844
 30
0.0
  0
VERTEX
  5
38D
  8
0
  6
CONTINUOUS
 62
     7
 10
677.9473670225959
 20
108.1573522806787
 30
0.0
  0
VERTEX
  5
38E
  8
0
  6
CONTINUOUS
 62
     7
 10
677.82300419148
 20
108.0018110854727
 30
0.0
  0
VERTEX
  5
38F
  8
0
  6
CONTINUOUS
 62
     7
 10
677.7305942712712
 20
107.8243554159696
 30
0.0
  0
VERTEX
  5
390
  8
0
  6
CONTINUOUS
 62
     7
 10
677.6736885233793
 20
107.6318047940302
 30
0.0
  0
VERTEX
  5
391
  8
0
  6
CONTINUOUS
 62
     7
 10
677.6544738037825
 20
107.4315588320721
 30
0.0
  0
SEQEND
  5
44D
  8
0
  6
CONTINUOUS
 62
     7
  0
POLYLINE
  5
22F
  8
0
  6
CONTINUOUS
 62
     7
 66
     1
 10
0.0
 20
0.0
 30
0.0
  0
VERTEX
  5
392
  8
0
  6
CONTINUOUS
 62
     7
 10
678.6544738037825
 20
107.1579857705731
 30
0.0
  0
VERTEX
  5
393
  8
0
  6
CONTINUOUS
 62
     7
 10
678.6054061294552
 20
107.1568030601184
 30
0.0
  0
VERTEX
  5
394
  8
0
  6
CONTINUOUS
 62
     7
 10
678.556456663453
 20
107.1532577780073
 30
0.0
  0
VERTEX
  5
395
  8
0
  6
CONTINUOUS
 62
     7
 10
678.5077433293271
 20
107.1473584651349
 30
0.0
  0
VERTEX
  5
396
  8
0
  6
CONTINUOUS
 62
     7
 10
678.4593834817665
 20
107.1391193334628
 30
0.0
  0
VERTEX
  5
397
  8
0
  6
CONTINUOUS
 62
     7
 10
678.4114936238793
 20
107.1285602317807
 30
0.0
  0
VERTEX
  5
398
  8
0
  6
CONTINUOUS
 62
     7
 10
678.3641891265281
 20
107.1157065978895
 30
0.0
  0
VERTEX
  5
399
  8
0
  6
CONTINUOUS
 62
     7
 10
678.3175839503903
 20
107.1005893973191
 30
0.0
  0
VERTEX
  5
39A
  8
0
  6
CONTINUOUS
 62
     7
 10
678.2717903714175
 20
107.0832450487297
 30
0.0
  0
VERTEX
  5
39B
  8
0
  6
CONTINUOUS
 62
     7
 10
678.2269187103523
 20
107.0637153361763
 30
0.0
  0
VERTEX
  5
39C
  8
0
  6
CONTINUOUS
 62
     7
 10
678.1830770669566
 20
107.042047308447
 30
0.0
  0
VERTEX
  5
39D
  8
0
  6
CONTINUOUS
 62
     7
 10
678.1403710595894
 20
107.0182931657186
 30
0.0
  0
VERTEX
  5
39E
  8
0
  6
CONTINUOUS
 62
     7
 10
678.0989035707629
 20
106.9925101338014
 30
0.0
  0
VERTEX
  5
39F
  8
0
  6
CONTINUOUS
 62
     7
 10
678.05877449929
 20
106.9647603262777
 30
0.0
  0
VERTEX
  5
3A0
  8
0
  6
CONTINUOUS
 62
     7
 10
678.0200805196189
 20
106.9351105948645
 30
0.0
  0
VERTEX
  5
3A1
  8
0
  6
CONTINUOUS
 62
     7
 10
677.9829148489356
 20
106.9036323683616
 30
0.0
  0
VERTEX
  5
3A2
  8
0
  6
CONTINUOUS
 62
     7
 10
677.947367022596
 20
106.8704014805739
 30
0.0
  0
VERTEX
  5
3A3
  8
0
  6
CONTINUOUS
 62
     7
 10
677.9135226784276
 20
106.8354979876208
 30
0.0
  0
VERTEX
  5
3A4
  8
0
  6
CONTINUOUS
 62
     7
 10
677.8814633504198
 20
106.799005975074
 30
0.0
  0
VERTEX
  5
3A5
  8
0
  6
CONTINUOUS
 62
     7
 10
677.8512662723019
 20
106.761013355388
 30
0.0
  0
VERTEX
  5
3A6
  8
0
  6
CONTINUOUS
 62
     7
 10
677.8230041914801
 20
106.7216116561114
 30
0.0
  0
VERTEX
  5
3A7
  8
0
  6
CONTINUOUS
 62
     7
 10
677.7967451937823
 20
106.680895799389
 30
0.0
  0
VERTEX
  5
3A8
  8
0
  6
CONTINUOUS
 62
     7
 10
677.7725525394343
 20
106.6389638732858
 30
0.0
  0
VERTEX
  5
3A9
  8
0
  6
CONTINUOUS
 62
     7
 10
677.7504845106592
 20
106.5959168954847
 30
0.0
  0
VERTEX
  5
3AA
  8
0
  6
CONTINUOUS
 62
     7
 10
677.7305942712712
 20
106.5518585699257
 30
0.0
  0
VERTEX
  5
3AB
  8
0
  6
CONTINUOUS
 62
     7
 10
677.7129297385995
 20
106.5068950369741
 30
0.0
  0
VERTEX
  5
3AC
  8
0
  6
CONTINUOUS
 62
     7
 10
677.6975334680504
 20
106.461134617719
 30
0.0
  0
VERTEX
  5
3AD
  8
0
  6
CONTINUOUS
 62
     7
 10
677.6844425505881
 20
106.4146875530187
 30
0.0
  0
VERTEX
  5
3AE
  8
0
  6
CONTINUOUS
 62
     7
 10
677.6736885233794
 20
106.3676657379202
 30
0.0
  0
VERTEX
  5
3AF
  8
0
  6
CONTINUOUS
 62
     7
 10
677.6652972938177
 20
106.3201824520949
 30
0.0
  0
VERTEX
  5
3B0
  8
0
  6
CONTINUOUS
 62
     7
 10
677.6592890771104
 20
106.2723520869372
 30
0.0
  0
VERTEX
  5
3B1
  8
0
  6
CONTINUOUS
 62
     7
 10
677.6556783475775
 20
106.2242898699863
 30
0.0
  0
VERTEX
  5
3B2
  8
0
  6
CONTINUOUS
 62
     7
 10
677.6544738037826
 20
106.1761115873325
 30
0.0
  0
SEQEND
  5
44E
  8
0
  6
CONTINUOUS
 62
     7
  0
ARC
  5
230
  8
0
  6
CONTINUOUS
 62
     7
 10
692.2544738037826
 20
99.90798577057309
 30
0.0
 40
1.000000000000001
 50
270.0
 51
0.0
  0
LINE
  5
231
  8
0
  6
CONTINUOUS
 62
     7
 10
674.6544738037825
 20
98.90798577057308
 30
0.0
 11
692.2544738037826
 21
98.90798577057308
 31
0.0
  0
ARC
  5
232
  8
0
  6
CONTINUOUS
 62
     7
 10
674.6544738037825
 20
99.90798577057309
 30
0.0
 40
1.000000000000001
 50
180.0
 51
270.0
  0
ARC
  5
233
  8
0
  6
CONTINUOUS
 62
     7
 10
688.2544738037825
 20
104.1579857705731
 30
0.0
 40
1.000000000000001
 50
270.0
 51
0.0
  0
POLYLINE
  5
234
  8
0
  6
CONTINUOUS
 62
     7
 66
     1
 10
0.0
 20
0.0
 30
0.0
  0
VERTEX
  5
3B3
  8
0
  6
CONTINUOUS
 62
     7
 10
689.2544738037825
 20
107.4315588320721
 30
0.0
  0
VERTEX
  5
3B4
  8
0
  6
CONTINUOUS
 62
     7
 10
689.2352590841857
 20
107.6318047940302
 30
0.0
  0
VERTEX
  5
3B5
  8
0
  6
CONTINUOUS
 62
     7
 10
689.1783533362938
 20
107.8243554159696
 30
0.0
  0
VERTEX
  5
3B6
  8
0
  6
CONTINUOUS
 62
     7
 10
689.085943416085
 20
108.0018110854727
 30
0.0
  0
VERTEX
  5
3B7
  8
0
  6
CONTINUOUS
 62
     7
 10
688.961580584969
 20
108.1573522806787
 30
0.0
  0
VERTEX
  5
3B8
  8
0
  6
CONTINUOUS
 62
     7
 10
688.8100440368021
 20
108.2850016406844
 30
0.0
  0
VERTEX
  5
3B9
  8
0
  6
CONTINUOUS
 62
     7
 10
688.6371572361476
 20
108.3798536721714
 30
0.0
  0
VERTEX
  5
3BA
  8
0
  6
CONTINUOUS
 62
     7
 10
688.4495641257986
 20
108.4382632647632
 30
0.0
  0
VERTEX
  5
3BB
  8
0
  6
CONTINUOUS
 62
     7
 10
688.2544738037825
 20
108.4579857705731
 30
0.0
  0
SEQEND
  5
44F
  8
0
  6
CONTINUOUS
 62
     7
  0
LINE
  5
235
  8
0
  6
CONTINUOUS
 62
     7
 10
678.6544738037825
 20
108.4579857705731
 30
0.0
 11
688.2544738037825
 21
108.4579857705731
 31
0.0
  0
LINE
  5
236
  8
0
  6
CONTINUOUS
 62
     7
 10
677.6544738037826
 20
107.4315588320721
 30
0.0
 11
677.6544738037826
 21
104.1579857705731
 31
0.0
  0
ARC
  5
237
  8
0
  6
CONTINUOUS
 62
     7
 10
678.6544738037825
 20
104.1579857705731
 30
0.0
 40
1.000000000000001
 50
180.0
 51
270.0
  0
LINE
  5
238
  8
0
  6
CONTINUOUS
 62
     7
 10
689.2544738037826
 20
107.4315588320721
 30
0.0
 11
689.2544738037826
 21
104.1579857705731
 31
0.0
  0
LINE
  5
239
  8
0
  6
CONTINUOUS
 62
     7
 10
678.6544738037825
 20
103.1579857705731
 30
0.0
 11
688.2544738037825
 21
103.1579857705731
 31
0.0
  0
LINE
  5
23A
  8
0
  6
CONTINUOUS
 62
     7
 10
678.6544738037825
 20
107.1579857705731
 30
0.0
 11
688.2544738037825
 21
107.1579857705731
 31
0.0
  0
POLYLINE
  5
23B
  8
0
  6
CONTINUOUS
 62
     7
 66
     1
 10
0.0
 20
0.0
 30
0.0
  0
VERTEX
  5
3BC
  8
0
  6
CONTINUOUS
 62
     7
 10
688.2544738037825
 20
236.8579857705731
 30
0.0
  0
VERTEX
  5
3BD
  8
0
  6
CONTINUOUS
 62
     7
 10
688.4495641257986
 20
236.877708276383
 30
0.0
  0
VERTEX
  5
3BE
  8
0
  6
CONTINUOUS
 62
     7
 10
688.6371572361476
 20
236.9361178689748
 30
0.0
  0
VERTEX
  5
3BF
  8
0
  6
CONTINUOUS
 62
     7
 10
688.8100440368021
 20
237.0309699004618
 30
0.0
  0
VERTEX
  5
3C0
  8
0
  6
CONTINUOUS
 62
     7
 10
688.961580584969
 20
237.1586192604675
 30
0.0
  0
VERTEX
  5
3C1
  8
0
  6
CONTINUOUS
 62
     7
 10
689.085943416085
 20
237.3141604556735
 30
0.0
  0
VERTEX
  5
3C2
  8
0
  6
CONTINUOUS
 62
     7
 10
689.1783533362938
 20
237.4916161251766
 30
0.0
  0
VERTEX
  5
3C3
  8
0
  6
CONTINUOUS
 62
     7
 10
689.2352590841857
 20
237.6841667471159
 30
0.0
  0
VERTEX
  5
3C4
  8
0
  6
CONTINUOUS
 62
     7
 10
689.2544738037825
 20
237.8844127090741
 30
0.0
  0
SEQEND
  5
450
  8
0
  6
CONTINUOUS
 62
     7
  0
POLYLINE
  5
23C
  8
0
  6
CONTINUOUS
 62
     7
 66
     1
 10
0.0
 20
0.0
 30
0.0
  0
VERTEX
  5
3C5
  8
0
  6
CONTINUOUS
 62
     7
 10
688.2544738037825
 20
238.1579857705731
 30
0.0
  0
VERTEX
  5
3C6
  8
0
  6
CONTINUOUS
 62
     7
 10
688.30354147811
 20
238.1591684810278
 30
0.0
  0
VERTEX
  5
3C7
  8
0
  6
CONTINUOUS
 62
     7
 10
688.3524909441121
 20
238.1627137631389
 30
0.0
  0
VERTEX
  5
3C8
  8
0
  6
CONTINUOUS
 62
     7
 10
688.4012042782379
 20
238.1686130760112
 30
0.0
  0
VERTEX
  5
3C9
  8
0
  6
CONTINUOUS
 62
     7
 10
688.4495641257987
 20
238.1768522076834
 30
0.0
  0
VERTEX
  5
3CA
  8
0
  6
CONTINUOUS
 62
     7
 10
688.4974539836859
 20
238.1874113093654
 30
0.0
  0
VERTEX
  5
3CB
  8
0
  6
CONTINUOUS
 62
     7
 10
688.5447584810371
 20
238.2002649432566
 30
0.0
  0
VERTEX
  5
3CC
  8
0
  6
CONTINUOUS
 62
     7
 10
688.5913636571747
 20
238.2153821438271
 30
0.0
  0
VERTEX
  5
3CD
  8
0
  6
CONTINUOUS
 62
     7
 10
688.6371572361476
 20
238.2327264924165
 30
0.0
  0
VERTEX
  5
3CE
  8
0
  6
CONTINUOUS
 62
     7
 10
688.6820288972128
 20
238.2522562049699
 30
0.0
  0
VERTEX
  5
3CF
  8
0
  6
CONTINUOUS
 62
     7
 10
688.7258705406085
 20
238.2739242326991
 30
0.0
  0
VERTEX
  5
3D0
  8
0
  6
CONTINUOUS
 62
     7
 10
688.7685765479758
 20
238.2976783754276
 30
0.0
  0
VERTEX
  5
3D1
  8
0
  6
CONTINUOUS
 62
     7
 10
688.8100440368021
 20
238.3234614073448
 30
0.0
  0
VERTEX
  5
3D2
  8
0
  6
CONTINUOUS
 62
     7
 10
688.850173108275
 20
238.3512112148684
 30
0.0
  0
VERTEX
  5
3D3
  8
0
  6
CONTINUOUS
 62
     7
 10
688.8888670879462
 20
238.3808609462817
 30
0.0
  0
VERTEX
  5
3D4
  8
0
  6
CONTINUOUS
 62
     7
 10
688.9260327586296
 20
238.4123391727846
 30
0.0
  0
VERTEX
  5
3D5
  8
0
  6
CONTINUOUS
 62
     7
 10
688.9615805849692
 20
238.4455700605723
 30
0.0
  0
VERTEX
  5
3D6
  8
0
  6
CONTINUOUS
 62
     7
 10
688.9954249291376
 20
238.4804735535254
 30
0.0
  0
VERTEX
  5
3D7
  8
0
  6
CONTINUOUS
 62
     7
 10
689.0274842571453
 20
238.5169655660722
 30
0.0
  0
VERTEX
  5
3D8
  8
0
  6
CONTINUOUS
 62
     7
 10
689.0576813352632
 20
238.5549581857582
 30
0.0
  0
VERTEX
  5
3D9
  8
0
  6
CONTINUOUS
 62
     7
 10
689.0859434160852
 20
238.5943598850347
 30
0.0
  0
VERTEX
  5
3DA
  8
0
  6
CONTINUOUS
 62
     7
 10
689.1122024137828
 20
238.6350757417572
 30
0.0
  0
VERTEX
  5
3DB
  8
0
  6
CONTINUOUS
 62
     7
 10
689.1363950681309
 20
238.6770076678604
 30
0.0
  0
VERTEX
  5
3DC
  8
0
  6
CONTINUOUS
 62
     7
 10
689.1584630969061
 20
238.7200546456615
 30
0.0
  0
VERTEX
  5
3DD
  8
0
  6
CONTINUOUS
 62
     7
 10
689.1783533362939
 20
238.7641129712205
 30
0.0
  0
VERTEX
  5
3DE
  8
0
  6
CONTINUOUS
 62
     7
 10
689.1960178689656
 20
238.8090765041721
 30
0.0
  0
VERTEX
  5
3DF
  8
0
  6
CONTINUOUS
 62
     7
 10
689.2114141395148
 20
238.8548369234272
 30
0.0
  0
VERTEX
  5
3E0
  8
0
  6
CONTINUOUS
 62
     7
 10
689.2245050569771
 20
238.9012839881275
 30
0.0
  0
VERTEX
  5
3E1
  8
0
  6
CONTINUOUS
 62
     7
 10
689.2352590841858
 20
238.9483058032259
 30
0.0
  0
VERTEX
  5
3E2
  8
0
  6
CONTINUOUS
 62
     7
 10
689.2436503137474
 20
238.9957890890513
 30
0.0
  0
VERTEX
  5
3E3
  8
0
  6
CONTINUOUS
 62
     7
 10
689.2496585304548
 20
239.043619454209
 30
0.0
  0
VERTEX
  5
3E4
  8
0
  6
CONTINUOUS
 62
     7
 10
689.2532692599877
 20
239.0916816711599
 30
0.0
  0
VERTEX
  5
3E5
  8
0
  6
CONTINUOUS
 62
     7
 10
689.2544738037826
 20
239.1398599538136
 30
0.0
  0
SEQEND
  5
451
  8
0
  6
CONTINUOUS
 62
     7
  0
LINE
  5
23D
  8
0
  6
CONTINUOUS
 62
     7
 10
673.6544738037826
 20
235.1579857705731
 30
0.0
 11
693.2544738037827
 21
235.1579857705731
 31
0.0
  0
POLYLINE
  5
23E
  8
0
  6
CONTINUOUS
 62
     7
 66
     1
 10
0.0
 20
0.0
 30
0.0
  0
VERTEX
  5
3E6
  8
0
  6
CONTINUOUS
 62
     7
 10
677.6544738037825
 20
237.8844127090741
 30
0.0
  0
VERTEX
  5
3E7
  8
0
  6
CONTINUOUS
 62
     7
 10
677.6736885233793
 20
237.6841667471159
 30
0.0
  0
VERTEX
  5
3E8
  8
0
  6
CONTINUOUS
 62
     7
 10
677.7305942712712
 20
237.4916161251766
 30
0.0
  0
VERTEX
  5
3E9
  8
0
  6
CONTINUOUS
 62
     7
 10
677.82300419148
 20
237.3141604556735
 30
0.0
  0
VERTEX
  5
3EA
  8
0
  6
CONTINUOUS
 62
     7
 10
677.9473670225959
 20
237.1586192604675
 30
0.0
  0
VERTEX
  5
3EB
  8
0
  6
CONTINUOUS
 62
     7
 10
678.0989035707629
 20
237.0309699004618
 30
0.0
  0
VERTEX
  5
3EC
  8
0
  6
CONTINUOUS
 62
     7
 10
678.2717903714174
 20
236.9361178689748
 30
0.0
  0
VERTEX
  5
3ED
  8
0
  6
CONTINUOUS
 62
     7
 10
678.4593834817664
 20
236.877708276383
 30
0.0
  0
VERTEX
  5
3EE
  8
0
  6
CONTINUOUS
 62
     7
 10
678.6544738037825
 20
236.8579857705731
 30
0.0
  0
SEQEND
  5
452
  8
0
  6
CONTINUOUS
 62
     7
  0
POLYLINE
  5
23F
  8
0
  6
CONTINUOUS
 62
     7
 66
     1
 10
0.0
 20
0.0
 30
0.0
  0
VERTEX
  5
3EF
  8
0
  6
CONTINUOUS
 62
     7
 10
677.6544738037826
 20
239.1398599538136
 30
0.0
  0
VERTEX
  5
3F0
  8
0
  6
CONTINUOUS
 62
     7
 10
677.6556783475775
 20
239.0916816711599
 30
0.0
  0
VERTEX
  5
3F1
  8
0
  6
CONTINUOUS
 62
     7
 10
677.6592890771104
 20
239.043619454209
 30
0.0
  0
VERTEX
  5
3F2
  8
0
  6
CONTINUOUS
 62
     7
 10
677.6652972938177
 20
238.9957890890513
 30
0.0
  0
VERTEX
  5
3F3
  8
0
  6
CONTINUOUS
 62
     7
 10
677.6736885233794
 20
238.9483058032259
 30
0.0
  0
VERTEX
  5
3F4
  8
0
  6
CONTINUOUS
 62
     7
 10
677.6844425505881
 20
238.9012839881275
 30
0.0
  0
VERTEX
  5
3F5
  8
0
  6
CONTINUOUS
 62
     7
 10
677.6975334680504
 20
238.8548369234272
 30
0.0
  0
VERTEX
  5
3F6
  8
0
  6
CONTINUOUS
 62
     7
 10
677.7129297385995
 20
238.8090765041721
 30
0.0
  0
VERTEX
  5
3F7
  8
0
  6
CONTINUOUS
 62
     7
 10
677.7305942712712
 20
238.7641129712205
 30
0.0
  0
VERTEX
  5
3F8
  8
0
  6
CONTINUOUS
 62
     7
 10
677.7504845106592
 20
238.7200546456615
 30
0.0
  0
VERTEX
  5
3F9
  8
0
  6
CONTINUOUS
 62
     7
 10
677.7725525394343
 20
238.6770076678604
 30
0.0
  0
VERTEX
  5
3FA
  8
0
  6
CONTINUOUS
 62
     7
 10
677.7967451937823
 20
238.6350757417572
 30
0.0
  0
VERTEX
  5
3FB
  8
0
  6
CONTINUOUS
 62
     7
 10
677.8230041914801
 20
238.5943598850347
 30
0.0
  0
VERTEX
  5
3FC
  8
0
  6
CONTINUOUS
 62
     7
 10
677.8512662723019
 20
238.5549581857582
 30
0.0
  0
VERTEX
  5
3FD
  8
0
  6
CONTINUOUS
 62
     7
 10
677.8814633504198
 20
238.5169655660721
 30
0.0
  0
VERTEX
  5
3FE
  8
0
  6
CONTINUOUS
 62
     7
 10
677.9135226784276
 20
238.4804735535254
 30
0.0
  0
VERTEX
  5
3FF
  8
0
  6
CONTINUOUS
 62
     7
 10
677.947367022596
 20
238.4455700605723
 30
0.0
  0
VERTEX
  5
400
  8
0
  6
CONTINUOUS
 62
     7
 10
677.9829148489356
 20
238.4123391727846
 30
0.0
  0
VERTEX
  5
401
  8
0
  6
CONTINUOUS
 62
     7
 10
678.0200805196189
 20
238.3808609462817
 30
0.0
  0
VERTEX
  5
402
  8
0
  6
CONTINUOUS
 62
     7
 10
678.05877449929
 20
238.3512112148684
 30
0.0
  0
VERTEX
  5
403
  8
0
  6
CONTINUOUS
 62
     7
 10
678.0989035707629
 20
238.3234614073448
 30
0.0
  0
VERTEX
  5
404
  8
0
  6
CONTINUOUS
 62
     7
 10
678.1403710595894
 20
238.2976783754276
 30
0.0
  0
VERTEX
  5
405
  8
0
  6
CONTINUOUS
 62
     7
 10
678.1830770669566
 20
238.2739242326991
 30
0.0
  0
VERTEX
  5
406
  8
0
  6
CONTINUOUS
 62
     7
 10
678.2269187103523
 20
238.2522562049699
 30
0.0
  0
VERTEX
  5
407
  8
0
  6
CONTINUOUS
 62
     7
 10
678.2717903714175
 20
238.2327264924165
 30
0.0
  0
VERTEX
  5
408
  8
0
  6
CONTINUOUS
 62
     7
 10
678.3175839503903
 20
238.2153821438271
 30
0.0
  0
VERTEX
  5
409
  8
0
  6
CONTINUOUS
 62
     7
 10
678.3641891265281
 20
238.2002649432566
 30
0.0
  0
VERTEX
  5
40A
  8
0
  6
CONTINUOUS
 62
     7
 10
678.4114936238793
 20
238.1874113093654
 30
0.0
  0
VERTEX
  5
40B
  8
0
  6
CONTINUOUS
 62
     7
 10
678.4593834817665
 20
238.1768522076834
 30
0.0
  0
VERTEX
  5
40C
  8
0
  6
CONTINUOUS
 62
     7
 10
678.5077433293271
 20
238.1686130760112
 30
0.0
  0
VERTEX
  5
40D
  8
0
  6
CONTINUOUS
 62
     7
 10
678.556456663453
 20
238.1627137631389
 30
0.0
  0
VERTEX
  5
40E
  8
0
  6
CONTINUOUS
 62
     7
 10
678.6054061294552
 20
238.1591684810278
 30
0.0
  0
VERTEX
  5
40F
  8
0
  6
CONTINUOUS
 62
     7
 10
678.6544738037825
 20
238.1579857705731
 30
0.0
  0
SEQEND
  5
453
  8
0
  6
CONTINUOUS
 62
     7
  0
LINE
  5
240
  8
0
  6
CONTINUOUS
 62
     7
 10
695.0544738037826
 20
176.1579857705731
 30
0.0
 11
695.0544738037826
 21
169.1579857705731
 31
0.0
  0
ARC
  5
241
  8
0
  6
CONTINUOUS
 62
     7
 10
695.5544738037827
 20
169.1579857705731
 30
0.0
 40
0.5000000000000004
 50
180.0000000000004
 51
270.0
  0
POLYLINE
  5
242
  8
0
  6
CONTINUOUS
 62
     7
 66
     1
 10
0.0
 20
0.0
 30
0.0
  0
VERTEX
  5
410
  8
0
  6
CONTINUOUS
 62
     7
 10
689.2544738037826
 20
106.1761115873325
 30
0.0
  0
VERTEX
  5
411
  8
0
  6
CONTINUOUS
 62
     7
 10
689.2532692599877
 20
106.2242898699863
 30
0.0
  0
VERTEX
  5
412
  8
0
  6
CONTINUOUS
 62
     7
 10
689.2496585304548
 20
106.2723520869372
 30
0.0
  0
VERTEX
  5
413
  8
0
  6
CONTINUOUS
 62
     7
 10
689.2436503137474
 20
106.3201824520949
 30
0.0
  0
VERTEX
  5
414
  8
0
  6
CONTINUOUS
 62
     7
 10
689.2352590841858
 20
106.3676657379202
 30
0.0
  0
VERTEX
  5
415
  8
0
  6
CONTINUOUS
 62
     7
 10
689.2245050569771
 20
106.4146875530187
 30
0.0
  0
VERTEX
  5
416
  8
0
  6
CONTINUOUS
 62
     7
 10
689.2114141395148
 20
106.461134617719
 30
0.0
  0
VERTEX
  5
417
  8
0
  6
CONTINUOUS
 62
     7
 10
689.1960178689656
 20
106.5068950369741
 30
0.0
  0
VERTEX
  5
418
  8
0
  6
CONTINUOUS
 62
     7
 10
689.1783533362939
 20
106.5518585699257
 30
0.0
  0
VERTEX
  5
419
  8
0
  6
CONTINUOUS
 62
     7
 10
689.1584630969061
 20
106.5959168954847
 30
0.0
  0
VERTEX
  5
41A
  8
0
  6
CONTINUOUS
 62
     7
 10
689.1363950681309
 20
106.6389638732858
 30
0.0
  0
VERTEX
  5
41B
  8
0
  6
CONTINUOUS
 62
     7
 10
689.1122024137828
 20
106.680895799389
 30
0.0
  0
VERTEX
  5
41C
  8
0
  6
CONTINUOUS
 62
     7
 10
689.0859434160852
 20
106.7216116561114
 30
0.0
  0
VERTEX
  5
41D
  8
0
  6
CONTINUOUS
 62
     7
 10
689.0576813352632
 20
106.761013355388
 30
0.0
  0
VERTEX
  5
41E
  8
0
  6
CONTINUOUS
 62
     7
 10
689.0274842571453
 20
106.799005975074
 30
0.0
  0
VERTEX
  5
41F
  8
0
  6
CONTINUOUS
 62
     7
 10
688.9954249291376
 20
106.8354979876208
 30
0.0
  0
VERTEX
  5
420
  8
0
  6
CONTINUOUS
 62
     7
 10
688.9615805849692
 20
106.8704014805739
 30
0.0
  0
VERTEX
  5
421
  8
0
  6
CONTINUOUS
 62
     7
 10
688.9260327586296
 20
106.9036323683616
 30
0.0
  0
VERTEX
  5
422
  8
0
  6
CONTINUOUS
 62
     7
 10
688.8888670879462
 20
106.9351105948645
 30
0.0
  0
VERTEX
  5
423
  8
0
  6
CONTINUOUS
 62
     7
 10
688.850173108275
 20
106.9647603262777
 30
0.0
  0
VERTEX
  5
424
  8
0
  6
CONTINUOUS
 62
     7
 10
688.8100440368021
 20
106.9925101338014
 30
0.0
  0
VERTEX
  5
425
  8
0
  6
CONTINUOUS
 62
     7
 10
688.7685765479758
 20
107.0182931657186
 30
0.0
  0
VERTEX
  5
426
  8
0
  6
CONTINUOUS
 62
     7
 10
688.7258705406085
 20
107.042047308447
 30
0.0
  0
VERTEX
  5
427
  8
0
  6
CONTINUOUS
 62
     7
 10
688.6820288972128
 20
107.0637153361763
 30
0.0
  0
VERTEX
  5
428
  8
0
  6
CONTINUOUS
 62
     7
 10
688.6371572361476
 20
107.0832450487297
 30
0.0
  0
VERTEX
  5
429
  8
0
  6
CONTINUOUS
 62
     7
 10
688.5913636571747
 20
107.1005893973191
 30
0.0
  0
VERTEX
  5
42A
  8
0
  6
CONTINUOUS
 62
     7
 10
688.5447584810371
 20
107.1157065978895
 30
0.0
  0
VERTEX
  5
42B
  8
0
  6
CONTINUOUS
 62
     7
 10
688.4974539836859
 20
107.1285602317807
 30
0.0
  0
VERTEX
  5
42C
  8
0
  6
CONTINUOUS
 62
     7
 10
688.4495641257987
 20
107.1391193334628
 30
0.0
  0
VERTEX
  5
42D
  8
0
  6
CONTINUOUS
 62
     7
 10
688.4012042782379
 20
107.1473584651349
 30
0.0
  0
VERTEX
  5
42E
  8
0
  6
CONTINUOUS
 62
     7
 10
688.3524909441121
 20
107.1532577780073
 30
0.0
  0
VERTEX
  5
42F
  8
0
  6
CONTINUOUS
 62
     7
 10
688.30354147811
 20
107.1568030601184
 30
0.0
  0
VERTEX
  5
430
  8
0
  6
CONTINUOUS
 62
     7
 10
688.2544738037825
 20
107.1579857705731
 30
0.0
  0
SEQEND
  5
454
  8
0
  6
CONTINUOUS
 62
     7
  0
LINE
  5
243
  8
0
  6
CONTINUOUS
 62
     7
 10
678.6544738037825
 20
238.1579857705731
 30
0.0
 11
688.2544738037825
 21
238.1579857705731
 31
0.0
  0
LINE
  5
244
  8
0
  6
CONTINUOUS
 62
     7
 10
678.6544738037825
 20
236.8579857705731
 30
0.0
 11
688.2544738037825
 21
236.8579857705731
 31
0.0
  0
LINE
  5
245
  8
0
  6
CONTINUOUS
 62
     7
 10
674.6544738037825
 20
246.4079857705731
 30
0.0
 11
692.2544738037826
 21
246.4079857705731
 31
0.0
  0
ARC
  5
246
  8
0
  6
CONTINUOUS
 62
     7
 10
688.2544738037825
 20
241.1579857705731
 30
0.0
 40
1.000000000000001
 50
0.0
 51
90.0
  0
ARC
  5
247
  8
0
  6
CONTINUOUS
 62
     7
 10
674.6544738037825
 20
245.4079857705731
 30
0.0
 40
1.000000000000001
 50
90.0
 51
180.0
  0
LINE
  5
248
  8
0
  6
CONTINUOUS
 62
     7
 10
678.6544738037825
 20
242.1579857705731
 30
0.0
 11
688.2544738037825
 21
242.1579857705731
 31
0.0
  0
ARC
  5
249
  8
0
  6
CONTINUOUS
 62
     7
 10
692.2544738037826
 20
245.4079857705731
 30
0.0
 40
1.000000000000001
 50
0.0
 51
90.0
  0
LINE
  5
24A
  8
0
  6
CONTINUOUS
 62
     7
 10
677.6544738037826
 20
237.8844127090741
 30
0.0
 11
677.6544738037826
 21
241.1579857705731
 31
0.0
  0
LINE
  5
24B
  8
0
  6
CONTINUOUS
 62
     7
 10
689.2544738037826
 20
237.8844127090741
 30
0.0
 11
689.2544738037826
 21
241.1579857705731
 31
0.0
  0
ARC
  5
24C
  8
0
  6
CONTINUOUS
 62
     7
 10
678.6544738037825
 20
241.1579857705731
 30
0.0
 40
1.000000000000001
 50
90.0
 51
180.0
  0
LINE
  5
24D
  8
0
  6
CONTINUOUS
 62
     7
 10
703.2541950396421
 20
230.6579857705731
 30
0.0
 11
703.2544738037826
 21
230.6579857705731
 31
0.0
  0
LINE
  5
24E
  8
0
  6
CONTINUOUS
 62
     7
 10
703.2541950396425
 20
114.6579857705731
 30
0.0
 11
703.2544738037827
 21
114.6579857705731
 31
0.0
  0
LINE
  5
24F
  8
0
  6
CONTINUOUS
 62
     7
 10
704.0044738037826
 20
187.6579857705731
 30
0.0
 11
703.2544738037826
 21
187.6579857705731
 31
0.0
  0
LINE
  5
250
  8
0
  6
CONTINUOUS
 62
     7
 10
704.0044738037826
 20
157.6579857705731
 30
0.0
 11
703.2544738037826
 21
157.6579857705731
 31
0.0
  0
ARC
  5
251
  8
0
  6
CONTINUOUS
 62
     7
 10
665.7544738037826
 20
233.6579857705731
 30
0.0
 40
2.000000000000002
 50
95.00000000000018
 51
180.0
  0
ARC
  5
252
  8
0
  6
CONTINUOUS
 62
     7
 10
665.7544738037826
 20
111.6579857705731
 30
0.0
 40
1.999999999999997
 50
180.0
 51
264.9999999999998
  0
ARC
  5
253
  8
0
  6
CONTINUOUS
 62
     7
 10
701.0044738037826
 20
230.6579857705731
 30
0.0
 40
3.000000000000003
 50
0.0
 51
90.0
  0
ARC
  5
254
  8
0
  6
CONTINUOUS
 62
     7
 10
701.0044738037826
 20
114.6579857705731
 30
0.0
 40
3.000000000000003
 50
270.0
 51
0.0
  0
LINE
  5
255
  8
0
  6
CONTINUOUS
 62
     7
 10
704.0044738037826
 20
187.6579857705731
 30
0.0
 11
704.0044738037826
 21
230.657985770573
 31
0.0
  0
LINE
  5
256
  8
0
  6
CONTINUOUS
 62
     7
 10
704.0044738037826
 20
114.6579857705731
 30
0.0
 11
704.0044738037826
 21
157.6579857705731
 31
0.0
  0
ENDBLK
  8
0
  0
ENDSEC
  0
SECTION
  2
ENTITIES
  0
LINE
  5
6F
  8
0
  6
CONTINUOUS
 62
     7
 10
616.2985249119304
 20
23.78298577057306
 30
0.0
 11
615.4794738037826
 21
23.78298577057306
 31
0.0
  0
LINE
  5
70
  8
0
  6
CONTINUOUS
 62
     7
 10
456.4794738037826
 20
23.78298577057306
 30
0.0
 11
455.6604226956349
 21
23.78298577057306
 31
0.0
  0
LINE
  5
71
  8
0
  6
CONTINUOUS
 62
     7
 10
455.6604226956349
 20
21.58298577057306
 30
0.0
 11
456.4794738037826
 21
21.58298577057306
 31
0.0
  0
LINE
  5
72
  8
0
  6
CONTINUOUS
 62
     7
 10
451.7985249119304
 20
23.78298577057306
 30
0.0
 11
450.9794738037826
 21
23.78298577057306
 31
0.0
  0
LINE
  5
73
  8
0
  6
CONTINUOUS
 62
     7
 10
450.9794738037826
 20
21.58298577057306
 30
0.0
 11
451.7985249119304
 21
21.58298577057306
 31
0.0
  0
LINE
  5
74
  8
0
  6
CONTINUOUS
 62
     7
 10
620.1604226956349
 20
21.58298577057306
 30
0.0
 11
620.9794738037826
 21
21.58298577057306
 31
0.0
  0
LINE
  5
75
  8
0
  6
CONTINUOUS
 62
     7
 10
620.9794738037826
 20
23.78298577057306
 30
0.0
 11
620.1604226956349
 21
23.78298577057306
 31
0.0
  0
LINE
  5
76
  8
0
  6
CONTINUOUS
 62
     7
 10
444.9794738037826
 20
27.88298577057305
 30
0.0
 11
451.4794738037826
 21
27.88298577057305
 31
0.0
  0
LINE
  5
77
  8
0
  6
CONTINUOUS
 62
     7
 10
663.2544738037826
 20
111.6579857705731
 30
0.0
 11
701.0044738037826
 21
111.6579857705731
 31
0.0
  0
LINE
  5
78
  8
0
  6
CONTINUOUS
 62
     7
 10
626.9794738037826
 20
27.88298577057304
 30
0.0
 11
620.4794738037826
 21
27.88298577057306
 31
0.0
  0
LINE
  5
79
  8
0
  6
CONTINUOUS
 62
     7
 10
693.2544738037826
 20
227.1579857705731
 30
0.0
 11
693.2544738037826
 21
245.4079857705731
 31
0.0
  0
LINE
  5
7A
  8
0
  6
CONTINUOUS
 62
     7
 10
626.9794738037826
 20
57.88298577057306
 30
0.0
 11
626.9794738037826
 21
20.88298577057306
 31
0.0
  0
LINE
  5
7B
  8
0
  6
CONTINUOUS
 62
     7
 10
444.9794738037826
 20
20.88298577057306
 30
0.0
 11
444.9794738037826
 21
57.88298577057306
 31
0.0
  0
LINE
  5
7C
  8
0
  6
CONTINUOUS
 62
     7
 10
665.7544738037826
 20
233.6579857705731
 30
0.0
 11
665.5801623182873
 21
235.6503751667566
 31
0.0
  0
LINE
  5
7D
  8
0
  6
CONTINUOUS
 62
     7
 10
665.754473803783
 20
111.6579857705731
 30
0.0
 11
665.5801623182872
 21
109.6655963743896
 31
0.0
  0
LINE
  5
7E
  8
0
  6
CONTINUOUS
 62
     7
 10
693.2544738037826
 20
118.1579857705731
 30
0.0
 11
693.2544738037826
 21
99.90798577057309
 31
0.0
  0
LINE
  5
7F
  8
0
  6
CONTINUOUS
 62
     7
 10
673.6544738037826
 20
227.1579857705731
 30
0.0
 11
673.6544738037826
 21
245.4079857705731
 31
0.0
  0
LINE
  5
80
  8
0
  6
CONTINUOUS
 62
     7
 10
663.2544738037826
 20
233.6579857705731
 30
0.0
 11
701.0044738037826
 21
233.6579857705731
 31
0.0
  0
LINE
  5
81
  8
0
  6
CONTINUOUS
 62
     7
 10
626.9794738037826
 20
47.48298577057305
 30
0.0
 11
620.4794738037826
 21
47.48298577057305
 31
0.0
  0
LINE
  5
82
  8
0
  6
CONTINUOUS
 62
     7
 10
703.2544738037826
 20
230.657985770573
 30
0.0
 11
703.2544738037826
 21
114.6579857705731
 31
0.0
  0
LINE
  5
83
  8
0
  6
CONTINUOUS
 62
     7
 10
444.9794738037826
 20
47.48298577057305
 30
0.0
 11
451.4794738037826
 21
47.48298577057305
 31
0.0
  0
LINE
  5
84
  8
0
  6
CONTINUOUS
 62
     7
 10
622.8294738037827
 20
58.18298577057315
 30
0.0
 11
449.1294738037826
 21
58.18298577057315
 31
0.0
  0
LINE
  5
85
  8
0
  6
CONTINUOUS
 62
     7
 10
615.4794738037826
 20
21.58298577057306
 30
0.0
 11
616.2985249119304
 21
21.58298577057306
 31
0.0
  0
LINE
  5
86
  8
0
  6
CONTINUOUS
 62
     7
 10
444.9794738037826
 20
57.88298577057306
 30
0.0
 11
626.9794738037826
 21
57.88298577057306
 31
0.0
  0
LINE
  5
87
  8
0
  6
CONTINUOUS
 62
     7
 10
448.9794738037826
 20
98.90798577057309
 30
0.0
 11
451.4794738037826
 21
111.6579857705731
 31
0.0
  0
LINE
  5
88
  8
0
  6
CONTINUOUS
 62
     7
 10
448.9794738037826
 20
246.4079857705731
 30
0.0
 11
451.4794738037826
 21
233.6579857705731
 31
0.0
  0
LINE
  5
89
  8
0
  6
CONTINUOUS
 62
     7
 10
622.9794738037826
 20
98.90798577057309
 30
0.0
 11
620.4794738037824
 21
111.657985770573
 31
0.0
  0
LINE
  5
8A
  8
0
  6
CONTINUOUS
 62
     7
 10
673.6544738037826
 20
118.1579857705731
 30
0.0
 11
673.6544738037826
 21
99.90798577057309
 31
0.0
  0
LINE
  5
8B
  8
0
  6
CONTINUOUS
 62
     7
 10
557.3896927874869
 20
218.6579857705731
 30
0.0
 11
557.3896927933222
 21
126.6579857705731
 31
0.0
  0
LINE
  5
8C
  8
0
  6
CONTINUOUS
 62
     7
 10
626.9794738037826
 20
236.1579857705731
 30
0.0
 11
626.9794738037826
 21
246.4079857705731
 31
0.0
  0
LINE
  5
8D
  8
0
  6
CONTINUOUS
 62
     7
 10
511.3896927874869
 20
218.6579857705731
 30
0.0
 11
511.3896927933228
 21
126.6579857705731
 31
0.0
  0
ARC
  5
8E
  8
0
  6
CONTINUOUS
 62
     7
 10
453.7294738037826
 20
22.68298577057305
 30
0.0
 40
5.549999999999999
 50
239.8672781689898
 51
300.1327218310103
  0
ARC
  5
8F
  8
0
  6
CONTINUOUS
 62
     7
 10
516.9794738037826
 20
172.6579857705731
 30
0.0
 40
2.999999999999991
 50
210.3153516863065
 51
149.6846483209616
  0
CIRCLE
  5
90
  8
0
  6
CONTINUOUS
 62
     7
 10
459.9794738037826
 20
225.1579857705731
 30
0.0
 40
4.000000000000034
  0
CIRCLE
  5
91
  8
0
  6
CONTINUOUS
 62
     7
 10
611.9794738037825
 20
225.1579857705731
 30
0.0
 40
4.00000000000003
  0
CIRCLE
  5
92
  8
0
  6
CONTINUOUS
 62
     7
 10
459.9794738037826
 20
120.1579857705731
 30
0.0
 40
4.000000000000007
  0
LINE
  5
93
  8
0
  6
CONTINUOUS
 62
     7
 10
444.9794738037826
 20
231.6579857705731
 30
0.0
 11
444.9794738037826
 21
113.6579857705731
 31
0.0
  0
LINE
  5
94
  8
0
  6
CONTINUOUS
 62
     7
 10
626.9794738037826
 20
113.6579857705731
 30
0.0
 11
626.9794738037826
 21
231.6579857705731
 31
0.0
  0
LINE
  5
95
  8
0
  6
CONTINUOUS
 62
     7
 10
695.5544738037827
 20
168.6579857705731
 30
0.0
 11
703.2544738037825
 21
168.6579857705731
 31
0.0
  0
CIRCLE
  5
96
  8
0
  6
CONTINUOUS
 62
     7
 10
611.9794738037825
 20
120.1579857705731
 30
0.0
 40
4.000000000000004
  0
LINE
  5
97
  8
0
  6
CONTINUOUS
 62
     7
 10
622.9794738037826
 20
246.4079857705731
 30
0.0
 11
620.4794738037825
 21
233.6579857705731
 31
0.0
  0
LINE
  5
98
  8
0
  6
CONTINUOUS
 62
     7
 10
663.2544738037826
 20
111.6579857705731
 30
0.0
 11
663.2544738037826
 21
233.657985770573
 31
0.0
  0
LINE
  5
99
  8
0
  6
CONTINUOUS
 62
     7
 10
560.389692787487
 20
218.6579857705731
 30
0.0
 11
560.3896927933223
 21
126.6579857705731
 31
0.0
  0
ARC
  5
9A
  8
0
  6
CONTINUOUS
 62
     7
 10
554.9794738037825
 20
172.6579857705731
 30
0.0
 40
2.999999999999991
 50
42.53320013105108
 51
318.3423495057904
  0
ARC
  5
9B
  8
0
  6
CONTINUOUS
 62
     7
 10
618.2294738037826
 20
22.68298577057305
 30
0.0
 40
5.549999999999999
 50
239.8672781689898
 51
300.1327218310103
  0
LINE
  5
9C
  8
0
  6
CONTINUOUS
 62
     7
 10
444.9794738037826
 20
236.1579857705731
 30
0.0
 11
444.9794738037826
 21
246.4079857705731
 31
0.0
  0
LINE
  5
9D
  8
0
  6
CONTINUOUS
 62
     7
 10
703.2544738037826
 20
176.6579857705731
 30
0.0
 11
695.5544738037826
 21
176.6579857705731
 31
0.0
  0
LINE
  5
9E
  8
0
  6
CONTINUOUS
 62
     7
 10
514.3896927874869
 20
218.6579857705731
 30
0.0
 11
514.3896927933222
 21
126.6579857705731
 31
0.0
  0
LINE
  5
9F
  8
0
  6
CONTINUOUS
 62
     7
 10
662.9544738037824
 20
229.5079857705731
 30
0.0
 11
662.9544738037824
 21
115.8079857705731
 31
0.0
  0
LINE
  5
A0
  8
0
  6
CONTINUOUS
 62
     7
 10
444.9794738037826
 20
109.1579857705731
 30
0.0
 11
444.9794738037826
 21
98.90798577057309
 31
0.0
  0
LINE
  5
A1
  8
0
  6
CONTINUOUS
 62
     7
 10
626.9794738037826
 20
109.1579857705731
 30
0.0
 11
626.9794738037826
 21
98.90798577057309
 31
0.0
  0
INSERT
  5
F4
  8
0
  6
CONTINUOUS
 62
     7
  2
D_FRAME_VIEW_6868
 10
0.0
 20
0.0
 30
0.0
  0
TEXT
  5
F5
  8
0
  6
CONTINUOUS
 62
     1
 10
556.8938852069526
 20
-13.34315993497562
 30
0.0
 40
6.0
  1
SM40-3WNF
  0
INSERT
  5
21D
  8
0
  6
CONTINUOUS
 62
     7
  2
D_FRAME_VIEW_1401
 10
0.0
 20
0.0
 30
0.0
  0
INSERT
  5
257
  8
0
  6
CONTINUOUS
 62
     7
  2
D_FRAME_VIEW_3559
 10
0.0
 20
0.0
 30
0.0
  0
ENDSEC
  0
EOF
