  0
SECTION
  2
HEADER
  9
$ACADVER
  1
AC1006
  9
$DWGCODEPAGE
  3
ansi_932
  9
$INSBASE
 10
0.0
 20
0.0
 30
0.0
  9
$EXTMIN
 10
60.99999999999999
 20
95.02727272727272
  9
$EXTMAX
 10
173.4999999999945
 20
258.4999999999945
  9
$LIMMIN
 10
0.0
 20
0.0
  9
$LIMMAX
 10
12.0
 20
9.0
  9
$ORTHOMODE
 70
     0
  9
$REGENMODE
 70
     1
  9
$FILLMODE
 70
     1
  9
$QTEXTMODE
 70
     0
  9
$MIRRTEXT
 70
     1
  9
$DRAGMODE
 70
     2
  9
$LTSCALE
 40
1.0
  9
$OSMODE
 70
    37
  9
$ATTMODE
 70
     1
  9
$TEXTSIZE
 40
0.2
  9
$TRACEWID
 40
0.05
  9
$TEXTSTYLE
  7
STANDARD
  9
$CLAYER
  8
0
  9
$CELTYPE
  6
BYLAYER
  9
$CECOLOR
 62
   256
  9
$DIMSCALE
 40
1.0
  9
$DIMASZ
 40
3.0
  9
$DIMEXO
 40
0.0625
  9
$DIMDLI
 40
0.38
  9
$DIMRND
 40
0.0
  9
$DIMDLE
 40
0.0
  9
$DIMEXE
 40
0.18
  9
$DIMTP
 40
0.0
  9
$DIMTM
 40
0.0
  9
$DIMTXT
 40
3.0
  9
$DIMCEN
 40
0.09
  9
$DIMTSZ
 40
0.0
  9
$DIMTOL
 70
     0
  9
$DIMLIM
 70
     0
  9
$DIMTIH
 70
     1
  9
$DIMTOH
 70
     1
  9
$DIMSE1
 70
     0
  9
$DIMSE2
 70
     0
  9
$DIMTAD
 70
     1
  9
$DIMZIN
 70
     0
  9
$DIMBLK
  1

  9
$DIMASO
 70
     1
  9
$DIMSHO
 70
     1
  9
$DIMPOST
  1

  9
$DIMAPOST
  1

  9
$DIMALT
 70
     0
  9
$DIMALTD
 70
     2
  9
$DIMALTF
 40
25.4
  9
$DIMLFAC
 40
1.0
  9
$DIMTOFL
 70
     0
  9
$DIMTVP
 40
0.0
  9
$DIMTIX
 70
     0
  9
$DIMSOXD
 70
     0
  9
$DIMSAH
 70
     0
  9
$DIMBLK1
  1

  9
$DIMBLK2
  1

  9
$LUNITS
 70
     2
  9
$LUPREC
 70
     4
  9
$SKETCHINC
 40
0.1
  9
$FILLETRAD
 40
0.5
  9
$AUNITS
 70
     0
  9
$AUPREC
 70
     0
  9
$MENU
  1
.
  9
$ELEVATION
 40
0.0
  9
$THICKNESS
 40
0.0
  9
$LIMCHECK
 70
     0
  9
$CHAMFERA
 40
0.5
  9
$CHAMFERB
 40
0.5
  9
$SKPOLY
 70
     0
  9
$TDCREATE
 40
2460087.739061979
  9
$TDUPDATE
 40
2460087.739061991
  9
$TDINDWG
 40
0.0000000116
  9
$TDUSRTIMER
 40
0.0000000116
  9
$USRTIMER
 70
     1
  9
$ANGBASE
 50
0.0
  9
$ANGDIR
 70
     0
  9
$PDMODE
 70
     0
  9
$PDSIZE
 40
0.0
  9
$PLINEWID
 40
0.0
  9
$COORDS
 70
     1
  9
$SPLFRAME
 70
     0
  9
$SPLINETYPE
 70
     6
  9
$SPLINESEGS
 70
     8
  9
$ATTDIA
 70
     0
  9
$ATTREQ
 70
     1
  9
$HANDLING
 70
     1
  9
$HANDSEED
  5
1B1
  9
$SURFTAB1
 70
     6
  9
$SURFTAB2
 70
     6
  9
$SURFTYPE
 70
     6
  9
$SURFU
 70
     6
  9
$SURFV
 70
     6
  9
$UCSNAME
  2

  9
$UCSORG
 10
0.0
 20
0.0
 30
0.0
  9
$UCSXDIR
 10
1.0
 20
0.0
 30
0.0
  9
$UCSYDIR
 10
0.0
 20
1.0
 30
0.0
  9
$USERI1
 70
     0
  9
$USERI2
 70
     0
  9
$USERI3
 70
     0
  9
$USERI4
 70
     0
  9
$USERI5
 70
     0
  9
$USERR1
 40
0.0
  9
$USERR2
 40
0.0
  9
$USERR3
 40
0.0
  9
$USERR4
 40
0.0
  9
$USERR5
 40
0.0
  9
$WORLDVIEW
 70
     1
  0
ENDSEC
  0
SECTION
  2
TABLES
  0
TABLE
  2
VPORT
 70
     1
  0
VPORT
  2
*ACTIVE
 70
     0
 10
0.0
 20
0.0
 11
1.0
 21
1.0
 12
117.2499999999973
 22
176.7636363636336
 13
0.0
 23
0.0
 14
0.5
 24
0.5
 15
0.5
 25
0.5
 16
0.0
 26
0.0
 36
1.0
 17
0.0
 27
0.0
 37
0.0
 40
163.4727272727218
 41
1.6
 42
50.0
 43
0.0
 44
0.0
 50
0.0
 51
0.0
 71
     0
 72
   100
 73
     1
 74
     3
 75
     0
 76
     0
 77
     0
 78
     0
  0
ENDTAB
  0
TABLE
  2
LTYPE
 70
     4
  0
LTYPE
  2
CONTINUOUS
 70
     0
  3
Solid line
 72
    65
 73
     0
 40
0.0
  0
LTYPE
  2
________________
 70
     0
  3

 72
    65
 73
     0
 40
0.0
  0
LTYPE
  2
________________0
 70
     0
  3

 72
    65
 73
     2
 40
1.8
 49
0.8999999999999999
 49
-0.8999999999999999
  0
LTYPE
  2
________________1
 70
     0
  3

 72
    65
 73
     4
 40
7.2
 49
2.7
 49
-1.8
 49
0.8999999999999999
 49
-1.8
  0
ENDTAB
  0
TABLE
  2
LAYER
 70
     2
  0
LAYER
  2
0
 70
     0
 62
     7
  6
CONTINUOUS
  0
LAYER
  2
1
 70
     0
 62
     7
  6
CONTINUOUS
  0
ENDTAB
  0
TABLE
  2
STYLE
 70
     2
  0
STYLE
  2
STANDARD
 70
     0
 40
0.0
 41
1.0
 50
0.0
 71
     0
 42
0.2
  3
txt
  4

  0
STYLE
  2
EXPLODED0
 70
     0
 40
0.2
 41
1.0
 50
0.0
 71
     0
 42
0.2
  3
ＭＳ ゴシック
  4

  0
ENDTAB
  0
TABLE
  2
VIEW
 70
     0
  0
ENDTAB
  0
TABLE
  2
UCS
 70
     0
  0
ENDTAB
  0
ENDSEC
  0
SECTION
  2
BLOCKS
  0
BLOCK
  8
0
  2
_1482
 70
     0
 10
0.0
 20
0.0
 30
0.0
  0
LINE
  5
3D
  8
1
  6
________________
 62
     7
 10
72.44420752005556
 20
152.6500000000014
 30
0.0
 11
69.70000000000232
 21
152.6500000000014
 31
0.0
  0
LINE
  5
3F
  8
1
  6
________________
 62
     7
 10
72.44420752005556
 20
152.6500000000014
 30
0.0
 11
87.5557924799441
 21
152.6500000000014
 31
0.0
  0
LINE
  5
40
  8
1
  6
________________
 62
     7
 10
90.29999999999794
 20
152.6500000000014
 30
0.0
 11
87.55579247994446
 21
152.6500000000014
 31
0.0
  0
LINE
  5
41
  8
1
  6
________________
 62
     7
 10
90.99999999999781
 20
151.9500000000015
 30
0.0
 11
69.00000000000222
 21
151.9500000000015
 31
0.0
  0
LINE
  5
42
  8
1
  6
________________
 62
     7
 10
69.00000000000222
 20
148.4500000000021
 30
0.0
 11
90.99999999999781
 21
148.4500000000021
 31
0.0
  0
LINE
  5
43
  8
1
  6
________________
 62
     7
 10
90.9999999999978
 20
162.189391935409
 30
0.0
 11
69.00000000000222
 21
162.189391935409
 31
0.0
  0
LINE
  5
44
  8
1
  6
________________
 62
     7
 10
69.00000000000222
 20
158.3500000000005
 30
0.0
 11
90.9999999999978
 21
158.3500000000006
 31
0.0
  0
LINE
  5
45
  8
1
  6
________________
 62
     7
 10
90.29999999999795
 20
157.6500000000007
 30
0.0
 11
87.55579247994446
 21
157.6500000000007
 31
0.0
  0
LINE
  5
46
  8
1
  6
________________
 62
     7
 10
87.55579247994446
 20
157.6500000000007
 30
0.0
 11
72.4442075200559
 21
157.6500000000007
 31
0.0
  0
LINE
  5
47
  8
1
  6
________________
 62
     7
 10
72.44420752005554
 20
157.6500000000007
 30
0.0
 11
69.70000000000229
 21
157.6500000000007
 31
0.0
  0
LINE
  5
48
  8
1
  6
________________
 62
     7
 10
90.24999999999797
 20
172.1999999999985
 30
0.0
 11
69.75000000000206
 21
172.1999999999985
 31
0.0
  0
LINE
  5
49
  8
1
  6
________________
 62
     7
 10
89.69999999999808
 20
172.7499999999984
 30
0.0
 11
70.30000000000193
 21
172.7499999999984
 31
0.0
  0
LINE
  5
4A
  8
1
  6
________________
 62
     7
 10
89.69999999999807
 20
177.7499999999977
 30
0.0
 11
70.30000000000194
 21
177.7499999999977
 31
0.0
  0
LINE
  5
4B
  8
1
  6
________________
 62
     7
 10
70.30000000000194
 20
179.8999999999973
 30
0.0
 11
89.69999999999807
 21
179.8999999999973
 31
0.0
  0
LINE
  5
4C
  8
1
  6
________________
 62
     7
 10
89.69999999999807
 20
180.7499999999972
 30
0.0
 11
70.30000000000194
 21
180.7499999999972
 31
0.0
  0
LINE
  5
4D
  8
1
  6
________________
 62
     7
 10
89.54999999999811
 20
179.7499999999974
 30
0.0
 11
70.4500000000019
 21
179.7499999999974
 31
0.0
  0
LINE
  5
4E
  8
1
  6
________________
 62
     7
 10
89.29999999999815
 20
178.7499999999975
 30
0.0
 11
70.70000000000186
 21
178.7499999999975
 31
0.0
  0
LINE
  5
4F
  8
1
  6
________________
 62
     7
 10
89.39999999999812
 20
181.749999999997
 30
0.0
 11
70.6000000000019
 21
181.749999999997
 31
0.0
  0
LINE
  5
50
  8
1
  6
________________
 62
     7
 10
85.89312844645794
 20
157.6500000000007
 30
0.0
 11
85.89312844645794
 21
152.6500000000014
 31
0.0
  0
LINE
  5
51
  8
1
  6
________________
 62
     7
 10
74.10687155354208
 20
152.6500000000014
 30
0.0
 11
74.10687155354209
 21
157.6500000000007
 31
0.0
  0
LINE
  5
52
  8
1
  6
________________
 62
     7
 10
87.55579247994545
 20
157.6500000000007
 30
0.0
 11
87.55579247994545
 21
152.6500000000014
 31
0.0
  0
ARC
  5
53
  8
1
  6
________________
 62
     7
 10
100.2934420187719
 20
155.1500000000011
 30
0.0
 40
10.30140201053008
 50
165.9549100213813
 51
194.045089978619
  0
ARC
  5
54
  8
1
  6
________________
 62
     7
 10
59.70782371688426
 20
155.150000000001
 30
0.0
 40
10.30017411856998
 50
345.9532013255746
 51
14.04679867442536
  0
LINE
  5
55
  8
1
  6
________________
 62
     7
 10
72.44420752005458
 20
152.6500000000014
 30
0.0
 11
72.44420752005458
 21
157.6500000000007
 31
0.0
  0
LINE
  5
56
  8
1
  6
________________
 62
     7
 10
69.70000000000104
 20
157.6500000000008
 30
0.0
 11
69.70279469205893
 21
157.6384608001564
 31
0.0
  0
LINE
  5
57
  8
1
  6
________________
 62
     7
 10
90.29999999999897
 20
152.6500000000013
 30
0.0
 11
90.29720663524789
 21
152.6615337074801
 31
0.0
  0
LINE
  5
58
  8
1
  6
________________
 62
     7
 10
74.5500000000011
 20
182.7499999999969
 30
0.0
 11
85.44999999999891
 21
182.7499999999969
 31
0.0
  0
LINE
  5
59
  8
1
  6
________________
 62
     7
 10
75.04394309960018
 20
142.2500000000031
 30
0.0
 11
75.0439430996002
 21
147.000000000003
 31
0.0
  0
ARC
  5
5A
  8
1
  6
________________
 62
     7
 10
80.00000000000001
 20
130.9951349363468
 30
0.0
 40
16.754647286823
 50
72.79436954367549
 51
107.2056304563244
  0
LINE
  5
5B
  8
1
  6
________________
 62
     7
 10
84.95605690039984
 20
147.000000000003
 30
0.0
 11
84.95605690039984
 21
142.2500000000031
 31
0.0
  0
LINE
  5
5C
  8
1
  6
________________
 62
     7
 10
85.74456264653804
 20
142.2500000000031
 30
0.0
 11
84.95605690039984
 21
142.2500000000031
 31
0.0
  0
LINE
  5
5D
  8
1
  6
________________
 62
     7
 10
85.74456264653804
 20
118.7500000000031
 30
0.0
 11
85.74456264653804
 21
142.2500000000031
 31
0.0
  0
ARC
  5
5E
  8
1
  6
________________
 62
     7
 10
80.00000000000001
 20
134.7535499087354
 30
0.0
 40
17.00334113288584
 50
250.2541193652951
 51
289.7458806347049
  0
LINE
  5
5F
  8
1
  6
________________
 62
     7
 10
74.25543735346199
 20
142.2500000000031
 30
0.0
 11
74.25543735346199
 21
118.7500000000031
 31
0.0
  0
LINE
  5
60
  8
1
  6
________________
 62
     7
 10
75.04394309960018
 20
142.2500000000031
 30
0.0
 11
74.25543735346199
 21
142.2500000000031
 31
0.0
  0
LINE
  5
61
  8
1
  6
________________
 62
     7
 10
69.015874862718
 20
118.7500000000031
 30
0.0
 11
74.25543735346199
 21
118.7500000000031
 31
0.0
  0
LINE
  5
62
  8
1
  6
________________
 62
     7
 10
69.015874862718
 20
118.7500000000031
 30
0.0
 11
69.01587486271801
 21
142.2500000000031
 31
0.0
  0
LINE
  5
63
  8
1
  6
________________
 62
     7
 10
69.01587486271796
 20
142.2500000000031
 30
0.0
 11
74.25543735346197
 21
142.2500000000031
 31
0.0
  0
LINE
  5
64
  8
1
  6
________________
 62
     7
 10
90.98412513728204
 20
142.2500000000031
 30
0.0
 11
90.98412513728202
 21
118.7500000000031
 31
0.0
  0
LINE
  5
65
  8
1
  6
________________
 62
     7
 10
85.74456264653804
 20
118.7500000000031
 30
0.0
 11
90.98412513728202
 21
118.7500000000031
 31
0.0
  0
LINE
  5
66
  8
1
  6
________________
 62
     7
 10
85.74456264653804
 20
142.2500000000031
 30
0.0
 11
90.98412513728204
 21
142.2500000000031
 31
0.0
  0
LINE
  5
67
  8
1
  6
________________
 62
     7
 10
91.37837801035114
 20
142.2500000000031
 30
0.0
 11
91.37837801035113
 21
147.000000000003
 31
0.0
  0
LINE
  5
68
  8
1
  6
________________
 62
     7
 10
84.95605690039984
 20
147.000000000003
 30
0.0
 11
91.37837801035113
 21
147.000000000003
 31
0.0
  0
LINE
  5
69
  8
1
  6
________________
 62
     7
 10
64.50000000000003
 20
117.2500000000031
 30
0.0
 11
95.5
 21
117.2500000000031
 31
0.0
  0
LINE
  5
6A
  8
1
  6
________________
 62
     7
 10
63.0
 20
118.7500000000031
 30
0.0
 11
63.27131221617997
 21
118.7500000000031
 31
0.0
  0
ARC
  5
6B
  8
1
  6
________________
 62
     7
 10
66.14359353944899
 20
122.3771357487098
 30
0.0
 40
4.626674155324361
 50
231.6247581576145
 51
308.3752418423855
  0
ARC
  5
6C
  8
1
  6
________________
 62
     7
 10
93.85640646055103
 20
122.3771357487098
 30
0.0
 40
4.626674155324372
 50
231.6247581576146
 51
308.3752418423855
  0
LINE
  5
6D
  8
1
  6
________________
 62
     7
 10
96.72868778382005
 20
118.7500000000031
 30
0.0
 11
97.00000000000003
 21
118.7500000000031
 31
0.0
  0
LINE
  5
6E
  8
1
  6
________________
 62
     7
 10
68.6216219896489
 20
147.000000000003
 30
0.0
 11
68.62162198964889
 21
142.2500000000031
 31
0.0
  0
LINE
  5
6F
  8
1
  6
________________
 62
     7
 10
68.6216219896489
 20
147.000000000003
 30
0.0
 11
75.0439430996002
 21
147.000000000003
 31
0.0
  0
LINE
  5
70
  8
1
  6
________________
 62
     7
 10
63.25
 20
147.000000000003
 30
0.0
 11
63.66556508924911
 21
147.000000000003
 31
0.0
  0
LINE
  5
71
  8
1
  6
________________
 62
     7
 10
64.50000000000004
 20
148.2500000000031
 30
0.0
 11
95.49999999999999
 21
148.2500000000031
 31
0.0
  0
ARC
  5
72
  8
1
  6
________________
 62
     7
 10
66.143593539449
 20
143.2779252969016
 30
0.0
 40
4.471517091040569
 50
56.34569837064521
 51
123.6543016293548
  0
LINE
  5
73
  8
1
  6
________________
 62
     7
 10
96.33443491075093
 20
147.000000000003
 30
0.0
 11
96.75000000000003
 21
147.000000000003
 31
0.0
  0
ARC
  5
74
  8
1
  6
________________
 62
     7
 10
93.85640646055103
 20
143.2779252969016
 30
0.0
 40
4.471517091040569
 50
56.34569837064521
 51
123.6543016293548
  0
LINE
  5
75
  8
1
  6
________________
 62
     7
 10
96.33443491075093
 20
147.000000000003
 30
0.0
 11
96.33443491075093
 21
142.2500000000031
 31
0.0
  0
LINE
  5
76
  8
1
  6
________________
 62
     7
 10
96.72868778382004
 20
142.2500000000031
 30
0.0
 11
96.33443491075093
 21
142.2500000000031
 31
0.0
  0
LINE
  5
77
  8
1
  6
________________
 62
     7
 10
96.72868778382004
 20
118.7500000000031
 30
0.0
 11
96.72868778382004
 21
142.2500000000031
 31
0.0
  0
LINE
  5
78
  8
1
  6
________________
 62
     7
 10
91.37837801035114
 20
142.2500000000031
 30
0.0
 11
90.98412513728204
 21
142.2500000000031
 31
0.0
  0
LINE
  5
79
  8
1
  6
________________
 62
     7
 10
63.6655650892491
 20
142.2500000000031
 30
0.0
 11
63.27131221617997
 21
142.2500000000031
 31
0.0
  0
LINE
  5
7A
  8
1
  6
________________
 62
     7
 10
63.6655650892491
 20
142.2500000000031
 30
0.0
 11
63.6655650892491
 21
147.000000000003
 31
0.0
  0
LINE
  5
7B
  8
1
  6
________________
 62
     7
 10
63.27131221617997
 20
142.2500000000031
 30
0.0
 11
63.27131221617997
 21
118.7500000000031
 31
0.0
  0
LINE
  5
7C
  8
1
  6
________________
 62
     7
 10
69.01587486271801
 20
142.2500000000031
 30
0.0
 11
68.62162198964889
 21
142.2500000000031
 31
0.0
  0
LINE
  5
7D
  8
1
  6
________________
 62
     7
 10
63.27131221617999
 20
142.2500000000031
 30
0.0
 11
63.00000000000003
 21
142.2500000000031
 31
0.0
  0
LINE
  5
7E
  8
1
  6
________________
 62
     7
 10
96.72868778382008
 20
142.2500000000031
 30
0.0
 11
97.00000000000004
 21
142.2500000000031
 31
0.0
  0
LINE
  5
7F
  8
1
  6
________________
 62
     7
 10
90.99999999999892
 20
151.9500000000015
 30
0.0
 11
90.29999999999897
 21
152.6500000000014
 31
0.0
  0
LINE
  5
80
  8
1
  6
________________
 62
     7
 10
69.70000000000104
 20
152.6500000000014
 30
0.0
 11
69.0000000000011
 21
151.9500000000015
 31
0.0
  0
LINE
  5
81
  8
1
  6
________________
 62
     7
 10
69.00000000000111
 20
148.4500000000021
 30
0.0
 11
69.2000000000011
 21
148.2500000000021
 31
0.0
  0
LINE
  5
82
  8
1
  6
________________
 62
     7
 10
90.79999999999893
 20
148.2500000000021
 30
0.0
 11
90.99999999999892
 21
148.4500000000021
 31
0.0
  0
LINE
  5
83
  8
1
  6
________________
 62
     7
 10
90.99999999999892
 20
148.4500000000021
 30
0.0
 11
90.99999999999892
 21
151.9500000000015
 31
0.0
  0
LINE
  5
84
  8
1
  6
________________
 62
     7
 10
69.00000000000111
 20
151.9500000000015
 30
0.0
 11
69.00000000000111
 21
148.4500000000021
 31
0.0
  0
LINE
  5
85
  8
1
  6
________________
 62
     7
 10
90.99999999999892
 20
158.3500000000005
 30
0.0
 11
90.99999999999892
 21
162.189391935409
 31
0.0
  0
LINE
  5
86
  8
1
  6
________________
 62
     7
 10
69.0000000000011
 20
162.189391935409
 30
0.0
 11
69.00000000000111
 21
158.3500000000005
 31
0.0
  0
LINE
  5
87
  8
1
  6
________________
 62
     7
 10
69.0000000000011
 20
158.3500000000005
 30
0.0
 11
69.70000000000104
 21
157.6500000000007
 31
0.0
  0
LINE
  5
88
  8
1
  6
________________
 62
     7
 10
90.29999999999899
 20
157.6500000000007
 30
0.0
 11
90.99999999999892
 21
158.3500000000006
 31
0.0
  0
LINE
  5
89
  8
1
  6
________________
 62
     7
 10
90.99999999999892
 20
162.189391935409
 30
0.0
 11
90.85307379213984
 21
162.5930683738279
 31
0.0
  0
LINE
  5
8A
  8
1
  6
________________
 62
     7
 10
69.14692620786019
 20
162.5930683738279
 30
0.0
 11
69.00000000000111
 21
162.189391935409
 31
0.0
  0
ARC
  5
8B
  8
1
  6
________________
 62
     7
 10
-100.249999999997
 20
166.013269807084
 30
0.0
 40
9.999999999999002
 50
339.999999999999
 51
0.0
210
0.0
220
0.0
230
-1.0
  0
ARC
  5
8C
  8
1
  6
________________
 62
     7
 10
-59.75000000000303
 20
166.013269807084
 30
0.0
 40
9.999999999999009
 50
180.0
 51
200.0000000000009
210
0.0
220
0.0
230
-1.0
  0
LINE
  5
8D
  8
1
  6
________________
 62
     7
 10
90.24999999999899
 20
172.1999999999985
 30
0.0
 11
89.69999999999902
 21
172.7499999999984
 31
0.0
  0
LINE
  5
8E
  8
1
  6
________________
 62
     7
 10
70.30000000000099
 20
172.7499999999984
 30
0.0
 11
69.75000000000104
 21
172.1999999999985
 31
0.0
  0
LINE
  5
8F
  8
1
  6
________________
 62
     7
 10
90.24999999999899
 20
166.013269807084
 30
0.0
 11
90.24999999999898
 21
172.1999999999985
 31
0.0
  0
LINE
  5
90
  8
1
  6
________________
 62
     7
 10
69.75000000000104
 20
172.1999999999985
 30
0.0
 11
69.75000000000104
 21
166.013269807084
 31
0.0
  0
LINE
  5
91
  8
1
  6
________________
 62
     7
 10
89.69999999999905
 20
172.7499999999984
 30
0.0
 11
89.69999999999904
 21
177.7499999999977
 31
0.0
  0
LINE
  5
92
  8
1
  6
________________
 62
     7
 10
70.30000000000098
 20
177.7499999999977
 30
0.0
 11
70.30000000000098
 21
172.7499999999984
 31
0.0
  0
LINE
  5
93
  8
1
  6
________________
 62
     7
 10
89.69999999999904
 20
179.8999999999973
 30
0.0
 11
89.69999999999904
 21
180.7499999999972
 31
0.0
  0
LINE
  5
94
  8
1
  6
________________
 62
     7
 10
70.30000000000098
 20
180.7499999999972
 30
0.0
 11
70.30000000000098
 21
179.8999999999973
 31
0.0
  0
LINE
  5
95
  8
1
  6
________________
 62
     7
 10
70.30000000000098
 20
179.8999999999973
 30
0.0
 11
70.45000000000095
 21
179.7499999999974
 31
0.0
  0
LINE
  5
96
  8
1
  6
________________
 62
     7
 10
89.54999999999906
 20
179.7499999999974
 30
0.0
 11
89.69999999999904
 21
179.8999999999973
 31
0.0
  0
LINE
  5
97
  8
1
  6
________________
 62
     7
 10
89.69999999999904
 20
177.7499999999977
 30
0.0
 11
89.29999999999907
 21
178.7499999999975
 31
0.0
  0
LINE
  5
98
  8
1
  6
________________
 62
     7
 10
70.70000000000094
 20
178.7499999999975
 30
0.0
 11
70.30000000000098
 21
177.7499999999977
 31
0.0
  0
LINE
  5
99
  8
1
  6
________________
 62
     7
 10
89.69999999999902
 20
180.7499999999972
 30
0.0
 11
89.39999999999907
 21
181.749999999997
 31
0.0
  0
LINE
  5
9A
  8
1
  6
________________
 62
     7
 10
70.60000000000095
 20
181.749999999997
 30
0.0
 11
70.30000000000098
 21
180.7499999999972
 31
0.0
  0
ARC
  5
9B
  8
1
  6
________________
 62
     7
 10
-89.44999999999858
 20
179.5999999999974
 30
0.0
 40
0.1499999999999835
 50
0.0000000000000035
 51
90.00000000027035
210
0.0
220
0.0
230
-1.0
  0
ARC
  5
9C
  8
1
  6
________________
 62
     7
 10
-70.55000000000142
 20
179.5999999999974
 30
0.0
 40
0.1499999999999835
 50
89.99999999972967
 51
180.0
210
0.0
220
0.0
230
-1.0
  0
LINE
  5
9D
  8
1
  6
________________
 62
     7
 10
89.29999999999907
 20
178.7499999999975
 30
0.0
 11
89.29999999999907
 21
179.5999999999974
 31
0.0
  0
LINE
  5
9E
  8
1
  6
________________
 62
     7
 10
70.70000000000094
 20
179.5999999999974
 30
0.0
 11
70.70000000000094
 21
178.7499999999975
 31
0.0
  0
LINE
  5
9F
  8
1
  6
________________
 62
     7
 10
86.24999999999937
 20
181.749999999993
 30
0.0
 11
86.24999999999937
 21
181.949999999997
 31
0.0
  0
LINE
  5
A0
  8
1
  6
________________
 62
     7
 10
73.75000000000064
 20
181.949999999997
 30
0.0
 11
73.75000000000064
 21
181.749999999993
 31
0.0
  0
ARC
  5
A1
  8
1
  6
________________
 62
     7
 10
74.55000000000082
 20
181.949999999997
 30
0.0
 40
0.7999999999999396
 50
90.00000000002926
 51
180.0
  0
ARC
  5
A2
  8
1
  6
________________
 62
     7
 10
85.44999999999919
 20
181.949999999997
 30
0.0
 40
0.7999999999999119
 50
0.0
 51
89.99999999997073
  0
LINE
  5
A3
  8
1
  6
________________
 62
     7
 10
63.0
 20
118.7500000000031
 30
0.0
 11
64.50000000000001
 21
117.2500000000031
 31
0.0
  0
LINE
  5
A4
  8
1
  6
________________
 62
     7
 10
95.5
 20
117.2500000000031
 30
0.0
 11
97.0
 21
118.7500000000031
 31
0.0
  0
LINE
  5
A5
  8
1
  6
________________
 62
     7
 10
96.75000000000003
 20
147.000000000003
 30
0.0
 11
95.49999999999999
 21
148.2500000000031
 31
0.0
  0
LINE
  5
A6
  8
1
  6
________________
 62
     7
 10
64.50000000000004
 20
148.2500000000031
 30
0.0
 11
63.25
 21
147.000000000003
 31
0.0
  0
LINE
  5
A7
  8
1
  6
________________
 62
     7
 10
96.75000000000003
 20
142.2500000000031
 30
0.0
 11
96.75000000000003
 21
147.000000000003
 31
0.0
  0
LINE
  5
A8
  8
1
  6
________________
 62
     7
 10
63.25
 20
147.000000000003
 30
0.0
 11
63.25
 21
142.2500000000031
 31
0.0
  0
LINE
  5
A9
  8
1
  6
________________
 62
     7
 10
63.00000000000001
 20
142.2500000000031
 30
0.0
 11
63.00000000000001
 21
118.7500000000031
 31
0.0
  0
LINE
  5
AA
  8
1
  6
________________
 62
     7
 10
97.00000000000001
 20
118.7500000000031
 30
0.0
 11
97.00000000000001
 21
142.2500000000031
 31
0.0
  0
ENDBLK
  8
0
  0
BLOCK
  8
0
  2
_1765
 70
     0
 10
0.0
 20
0.0
 30
0.0
  0
LINE
  5
B0
  8
1
  6
________________
 62
     7
 10
129.0000000000022
 20
148.4500000000021
 30
0.0
 11
140.0
 21
148.4500000000021
 31
0.0
  0
LINE
  5
B1
  8
1
  6
________________
 62
     7
 10
140.0
 20
148.4500000000021
 30
0.0
 11
150.9999999999972
 21
148.4500000000021
 31
0.0
  0
LINE
  5
B2
  8
1
  6
________________
 62
     7
 10
150.9999999999978
 20
151.9500000000015
 30
0.0
 11
140.0
 21
151.9500000000015
 31
0.0
  0
LINE
  5
B3
  8
1
  6
________________
 62
     7
 10
140.0
 20
151.9500000000015
 30
0.0
 11
129.0000000000028
 21
151.9500000000015
 31
0.0
  0
LINE
  5
B4
  8
1
  6
________________
 62
     7
 10
129.7000000000021
 20
152.6500000000014
 30
0.0
 11
133.000000000002
 21
152.6500000000014
 31
0.0
  0
LINE
  5
B5
  8
1
  6
________________
 62
     7
 10
140.0
 20
152.6500000000014
 30
0.0
 11
133.0000000000023
 21
152.6500000000014
 31
0.0
  0
LINE
  5
B6
  8
1
  6
________________
 62
     7
 10
146.999999999998
 20
152.6500000000014
 30
0.0
 11
140.0000000000003
 21
152.6500000000014
 31
0.0
  0
LINE
  5
B7
  8
1
  6
________________
 62
     7
 10
146.999999999998
 20
152.6500000000014
 30
0.0
 11
150.2999999999977
 21
152.6500000000014
 31
0.0
  0
LINE
  5
B8
  8
1
  6
________________
 62
     7
 10
150.2999999999979
 20
157.6500000000007
 30
0.0
 11
146.999999999998
 21
157.6500000000007
 31
0.0
  0
LINE
  5
B9
  8
1
  6
________________
 62
     7
 10
129.0000000000022
 20
158.3500000000005
 30
0.0
 11
150.9999999999978
 21
158.3500000000005
 31
0.0
  0
LINE
  5
BA
  8
1
  6
________________
 62
     7
 10
146.999999999998
 20
157.6500000000007
 30
0.0
 11
140.0000000000003
 21
157.6500000000007
 31
0.0
  0
LINE
  5
BB
  8
1
  6
________________
 62
     7
 10
140.0
 20
157.6500000000007
 30
0.0
 11
133.0000000000023
 21
157.6500000000007
 31
0.0
  0
LINE
  5
BC
  8
1
  6
________________
 62
     7
 10
133.000000000002
 20
157.6500000000007
 30
0.0
 11
129.7000000000023
 21
157.6500000000007
 31
0.0
  0
LINE
  5
BD
  8
1
  6
________________
 62
     7
 10
150.9999999999978
 20
162.189391935409
 30
0.0
 11
140.0
 21
162.189391935409
 31
0.0
  0
LINE
  5
BE
  8
1
  6
________________
 62
     7
 10
140.0
 20
162.189391935409
 30
0.0
 11
129.0000000000028
 21
162.189391935409
 31
0.0
  0
ARC
  5
BF
  8
1
  6
________________
 62
     7
 10
139.9999913768118
 20
155.150000000001
 30
0.0
 40
2.500000000014485
 50
270.0001976289151
 51
89.99980237108491
  0
LINE
  5
C0
  8
1
  6
________________
 62
     7
 10
146.9999999999989
 20
152.6500000000014
 30
0.0
 11
146.9999999999989
 21
157.6500000000007
 31
0.0
  0
ARC
  5
C1
  8
1
  6
________________
 62
     7
 10
140.0000103785748
 20
155.150000000001
 30
0.0
 40
2.500000000021157
 50
90.0002378594141
 51
269.9997621405859
  0
LINE
  5
C2
  8
1
  6
________________
 62
     7
 10
133.0000000000011
 20
157.6500000000007
 30
0.0
 11
133.0000000000011
 21
152.6500000000014
 31
0.0
  0
LINE
  5
C3
  8
1
  6
________________
 62
     7
 10
150.249999999998
 20
172.1999999999985
 30
0.0
 11
129.750000000002
 21
172.1999999999985
 31
0.0
  0
LINE
  5
C4
  8
1
  6
________________
 62
     7
 10
149.6999999999981
 20
172.7499999999984
 30
0.0
 11
140.0
 21
172.7499999999984
 31
0.0
  0
LINE
  5
C5
  8
1
  6
________________
 62
     7
 10
140.0
 20
172.7499999999984
 30
0.0
 11
130.3000000000024
 21
172.7499999999984
 31
0.0
  0
LINE
  5
C6
  8
1
  6
________________
 62
     7
 10
149.6999999999981
 20
177.7499999999977
 30
0.0
 11
140.0
 21
177.7499999999977
 31
0.0
  0
LINE
  5
C7
  8
1
  6
________________
 62
     7
 10
140.0
 20
177.7499999999977
 30
0.0
 11
130.3000000000024
 21
177.7499999999977
 31
0.0
  0
LINE
  5
C8
  8
1
  6
________________
 62
     7
 10
149.6999999999981
 20
180.7499999999972
 30
0.0
 11
140.0
 21
180.7499999999972
 31
0.0
  0
LINE
  5
C9
  8
1
  6
________________
 62
     7
 10
130.3000000000019
 20
179.8999999999973
 30
0.0
 11
140.0
 21
179.8999999999973
 31
0.0
  0
LINE
  5
CA
  8
1
  6
________________
 62
     7
 10
140.0
 20
180.7499999999972
 30
0.0
 11
130.3000000000024
 21
180.7499999999972
 31
0.0
  0
LINE
  5
CB
  8
1
  6
________________
 62
     7
 10
140.0
 20
179.8999999999973
 30
0.0
 11
149.6999999999976
 21
179.8999999999973
 31
0.0
  0
LINE
  5
CC
  8
1
  6
________________
 62
     7
 10
149.5499999999981
 20
179.7499999999974
 30
0.0
 11
140.0
 21
179.7499999999974
 31
0.0
  0
LINE
  5
CD
  8
1
  6
________________
 62
     7
 10
140.0
 20
179.7499999999974
 30
0.0
 11
130.4500000000024
 21
179.7499999999974
 31
0.0
  0
LINE
  5
CE
  8
1
  6
________________
 62
     7
 10
149.2999999999982
 20
178.7499999999975
 30
0.0
 11
140.0
 21
178.7499999999975
 31
0.0
  0
LINE
  5
CF
  8
1
  6
________________
 62
     7
 10
140.0
 20
178.7499999999975
 30
0.0
 11
130.7000000000023
 21
178.7499999999975
 31
0.0
  0
LINE
  5
D0
  8
1
  6
________________
 62
     7
 10
149.3999999999981
 20
181.749999999997
 30
0.0
 11
140.0
 21
181.749999999997
 31
0.0
  0
LINE
  5
D1
  8
1
  6
________________
 62
     7
 10
140.0
 20
181.749999999997
 30
0.0
 11
130.6000000000024
 21
181.749999999997
 31
0.0
  0
LINE
  5
D2
  8
1
  6
________________
 62
     7
 10
134.5500000000011
 20
182.7499999999969
 30
0.0
 11
145.4499999999989
 21
182.7499999999969
 31
0.0
  0
LINE
  5
D3
  8
1
  6
________________
 62
     7
 10
136.9749371855331
 20
142.2500000000031
 30
0.0
 11
143.0250628144669
 21
142.2500000000031
 31
0.0
  0
LINE
  5
D4
  8
1
  6
________________
 62
     7
 10
143.0250628144669
 20
142.2500000000031
 30
0.0
 11
143.0250628144669
 21
118.7500000000031
 31
0.0
  0
LINE
  5
D5
  8
1
  6
________________
 62
     7
 10
136.9749371855331
 20
118.7500000000031
 30
0.0
 11
143.0250628144669
 21
118.7500000000031
 31
0.0
  0
LINE
  5
D6
  8
1
  6
________________
 62
     7
 10
136.9749371855331
 20
118.7500000000031
 30
0.0
 11
136.9749371855331
 21
142.2500000000031
 31
0.0
  0
LINE
  5
D7
  8
1
  6
________________
 62
     7
 10
124.5
 20
117.2500000000031
 30
0.0
 11
155.5
 21
117.2500000000031
 31
0.0
  0
LINE
  5
D8
  8
1
  6
________________
 62
     7
 10
124.0
 20
117.7500000029682
 30
0.0
 11
124.0
 21
118.750000000003
 31
0.0
  0
LINE
  5
D9
  8
1
  6
________________
 62
     7
 10
124.0
 20
118.7500000000031
 30
0.0
 11
127.0250628144669
 21
118.7500000000031
 31
0.0
  0
ARC
  5
DA
  8
1
  6
________________
 62
     7
 10
132.0
 20
130.6279900481925
 30
0.0
 40
12.87775786326513
 50
247.2742795208937
 51
292.7257204791063
  0
ARC
  5
DB
  8
1
  6
________________
 62
     7
 10
148.0
 20
130.6279900481924
 30
0.0
 40
12.87775786326505
 50
247.2742795208936
 51
292.7257204791063
  0
LINE
  5
DC
  8
1
  6
________________
 62
     7
 10
152.9749371855331
 20
118.7500000000031
 30
0.0
 11
156.0
 21
118.7500000000031
 31
0.0
  0
LINE
  5
DD
  8
1
  6
________________
 62
     7
 10
156.0
 20
118.750000000003
 30
0.0
 11
156.0
 21
117.7500000034527
 31
0.0
  0
LINE
  5
DE
  8
1
  6
________________
 62
     7
 10
143.7079288216526
 20
142.2500000000031
 30
0.0
 11
143.7079288216527
 21
147.000000000003
 31
0.0
  0
LINE
  5
DF
  8
1
  6
________________
 62
     7
 10
136.2920711783474
 20
147.000000000003
 30
0.0
 11
136.2920711783474
 21
142.2500000000031
 31
0.0
  0
LINE
  5
E0
  8
1
  6
________________
 62
     7
 10
136.2920711783474
 20
147.000000000003
 30
0.0
 11
143.7079288216527
 21
147.000000000003
 31
0.0
  0
LINE
  5
E1
  8
1
  6
________________
 62
     7
 10
156.0
 20
147.7499999970379
 30
0.0
 11
156.0
 21
147.0000000000031
 31
0.0
  0
LINE
  5
E2
  8
1
  6
________________
 62
     7
 10
124.5
 20
148.2500000000031
 30
0.0
 11
155.5
 21
148.2500000000031
 31
0.0
  0
LINE
  5
E3
  8
1
  6
________________
 62
     7
 10
152.2920711783473
 20
147.000000000003
 30
0.0
 11
156.0
 21
147.000000000003
 31
0.0
  0
ARC
  5
E4
  8
1
  6
________________
 62
     7
 10
148.0
 20
135.0876977349567
 30
0.0
 40
12.66194377865528
 50
70.18561609753563
 51
109.8143839024645
  0
ARC
  5
E5
  8
1
  6
________________
 62
     7
 10
132.0
 20
135.0876977349563
 30
0.0
 40
12.6619437786557
 50
70.18561609753591
 51
109.8143839024641
  0
LINE
  5
E6
  8
1
  6
________________
 62
     7
 10
124.0
 20
147.000000000003
 30
0.0
 11
127.7079288216526
 21
147.000000000003
 31
0.0
  0
LINE
  5
E7
  8
1
  6
________________
 62
     7
 10
124.0
 20
147.000000000003
 30
0.0
 11
124.0
 21
147.7499999965534
 31
0.0
  0
LINE
  5
E8
  8
1
  6
________________
 62
     7
 10
152.2920711783473
 20
147.000000000003
 30
0.0
 11
152.2920711783473
 21
142.2500000000031
 31
0.0
  0
LINE
  5
E9
  8
1
  6
________________
 62
     7
 10
152.9749371855331
 20
142.2500000000031
 30
0.0
 11
152.2920711783473
 21
142.2500000000031
 31
0.0
  0
LINE
  5
EA
  8
1
  6
________________
 62
     7
 10
152.9749371855331
 20
118.7500000000031
 30
0.0
 11
152.9749371855331
 21
142.2500000000031
 31
0.0
  0
LINE
  5
EB
  8
1
  6
________________
 62
     7
 10
143.7079288216526
 20
142.2500000000031
 30
0.0
 11
143.0250628144669
 21
142.2500000000031
 31
0.0
  0
LINE
  5
EC
  8
1
  6
________________
 62
     7
 10
127.7079288216526
 20
142.2500000000031
 30
0.0
 11
127.0250628144669
 21
142.2500000000031
 31
0.0
  0
LINE
  5
ED
  8
1
  6
________________
 62
     7
 10
127.7079288216526
 20
142.2500000000031
 30
0.0
 11
127.7079288216526
 21
147.000000000003
 31
0.0
  0
LINE
  5
EE
  8
1
  6
________________
 62
     7
 10
127.0250628144669
 20
142.2500000000031
 30
0.0
 11
127.0250628144669
 21
118.7500000000031
 31
0.0
  0
LINE
  5
EF
  8
1
  6
________________
 62
     7
 10
136.9749371855331
 20
142.2500000000031
 30
0.0
 11
136.2920711783474
 21
142.2500000000031
 31
0.0
  0
LINE
  5
F0
  8
1
  6
________________
 62
     7
 10
156.0
 20
142.2500000000031
 30
0.0
 11
156.0
 21
147.000000000003
 31
0.0
  0
LINE
  5
F1
  8
1
  6
________________
 62
     7
 10
124.0
 20
147.000000000003
 30
0.0
 11
124.0
 21
142.2500000000031
 31
0.0
  0
LINE
  5
F2
  8
1
  6
________________
 62
     7
 10
156.0
 20
142.2500000000031
 30
0.0
 11
156.0
 21
118.7500000000031
 31
0.0
  0
LINE
  5
F3
  8
1
  6
________________
 62
     7
 10
152.9749371855331
 20
142.2500000000031
 30
0.0
 11
156.0
 21
142.2500000000031
 31
0.0
  0
LINE
  5
F4
  8
1
  6
________________
 62
     7
 10
124.0
 20
118.7500000000031
 30
0.0
 11
124.0
 21
142.2500000000031
 31
0.0
  0
LINE
  5
F5
  8
1
  6
________________
 62
     7
 10
124.0
 20
142.2500000000031
 30
0.0
 11
127.0250628144669
 21
142.2500000000031
 31
0.0
  0
LINE
  5
F6
  8
1
  6
________________
 62
     7
 10
129.0000000000011
 20
148.4500000000021
 30
0.0
 11
129.2000000000011
 21
148.2500000000021
 31
0.0
  0
LINE
  5
F7
  8
1
  6
________________
 62
     7
 10
150.7999999999989
 20
148.2500000000021
 30
0.0
 11
150.9999999999989
 21
148.4500000000021
 31
0.0
  0
LINE
  5
F8
  8
1
  6
________________
 62
     7
 10
150.9999999999989
 20
148.4500000000021
 30
0.0
 11
150.9999999999989
 21
151.9500000000015
 31
0.0
  0
LINE
  5
F9
  8
1
  6
________________
 62
     7
 10
129.0000000000011
 20
151.9500000000015
 30
0.0
 11
129.0000000000011
 21
148.4500000000021
 31
0.0
  0
LINE
  5
FA
  8
1
  6
________________
 62
     7
 10
150.9999999999989
 20
151.9500000000015
 30
0.0
 11
150.299999999999
 21
152.6500000000014
 31
0.0
  0
LINE
  5
FB
  8
1
  6
________________
 62
     7
 10
129.700000000001
 20
152.6500000000014
 30
0.0
 11
129.0000000000011
 21
151.9500000000015
 31
0.0
  0
LINE
  5
FC
  8
1
  6
________________
 62
     7
 10
129.0000000000011
 20
158.3500000000005
 30
0.0
 11
129.700000000001
 21
157.6500000000007
 31
0.0
  0
LINE
  5
FD
  8
1
  6
________________
 62
     7
 10
150.299999999999
 20
157.6500000000007
 30
0.0
 11
150.9999999999989
 21
158.3500000000005
 31
0.0
  0
LINE
  5
FE
  8
1
  6
________________
 62
     7
 10
150.9999999999989
 20
158.3500000000005
 30
0.0
 11
150.9999999999989
 21
162.189391935409
 31
0.0
  0
LINE
  5
FF
  8
1
  6
________________
 62
     7
 10
129.0000000000011
 20
162.189391935409
 30
0.0
 11
129.0000000000011
 21
158.3500000000005
 31
0.0
  0
LINE
  5
100
  8
1
  6
________________
 62
     7
 10
150.9999999999989
 20
162.189391935409
 30
0.0
 11
150.8530737921398
 21
162.5930683738279
 31
0.0
  0
LINE
  5
101
  8
1
  6
________________
 62
     7
 10
129.1469262078602
 20
162.5930683738279
 30
0.0
 11
129.0000000000011
 21
162.189391935409
 31
0.0
  0
ARC
  5
102
  8
1
  6
________________
 62
     7
 10
-160.249999999997
 20
166.013269807084
 30
0.0
 40
9.999999999999
 50
339.9999999999995
 51
0.0
210
0.0
220
0.0
230
-1.0
  0
ARC
  5
103
  8
1
  6
________________
 62
     7
 10
-119.750000000003
 20
166.013269807084
 30
0.0
 40
9.999999999998996
 50
180.0
 51
200.0000000000005
210
0.0
220
0.0
230
-1.0
  0
LINE
  5
104
  8
1
  6
________________
 62
     7
 10
150.249999999999
 20
172.1999999999985
 30
0.0
 11
149.699999999999
 21
172.7499999999984
 31
0.0
  0
LINE
  5
105
  8
1
  6
________________
 62
     7
 10
130.300000000001
 20
172.7499999999984
 30
0.0
 11
129.750000000001
 21
172.1999999999985
 31
0.0
  0
LINE
  5
106
  8
1
  6
________________
 62
     7
 10
150.249999999999
 20
166.013269807084
 30
0.0
 11
150.249999999999
 21
172.1999999999985
 31
0.0
  0
LINE
  5
107
  8
1
  6
________________
 62
     7
 10
129.750000000001
 20
172.1999999999985
 30
0.0
 11
129.750000000001
 21
166.013269807084
 31
0.0
  0
LINE
  5
108
  8
1
  6
________________
 62
     7
 10
149.6999999999991
 20
172.7499999999984
 30
0.0
 11
149.6999999999991
 21
177.7499999999977
 31
0.0
  0
LINE
  5
109
  8
1
  6
________________
 62
     7
 10
130.300000000001
 20
177.7499999999977
 30
0.0
 11
130.300000000001
 21
172.7499999999984
 31
0.0
  0
LINE
  5
10A
  8
1
  6
________________
 62
     7
 10
149.699999999999
 20
179.8999999999973
 30
0.0
 11
149.699999999999
 21
180.7499999999972
 31
0.0
  0
LINE
  5
10B
  8
1
  6
________________
 62
     7
 10
130.300000000001
 20
180.7499999999972
 30
0.0
 11
130.300000000001
 21
179.8999999999973
 31
0.0
  0
LINE
  5
10C
  8
1
  6
________________
 62
     7
 10
130.300000000001
 20
179.8999999999973
 30
0.0
 11
130.450000000001
 21
179.7499999999974
 31
0.0
  0
LINE
  5
10D
  8
1
  6
________________
 62
     7
 10
149.549999999999
 20
179.7499999999974
 30
0.0
 11
149.6999999999991
 21
179.8999999999973
 31
0.0
  0
LINE
  5
10E
  8
1
  6
________________
 62
     7
 10
149.699999999999
 20
177.7499999999977
 30
0.0
 11
149.2999999999991
 21
178.7499999999975
 31
0.0
  0
LINE
  5
10F
  8
1
  6
________________
 62
     7
 10
130.7000000000009
 20
178.7499999999975
 30
0.0
 11
130.300000000001
 21
177.7499999999977
 31
0.0
  0
LINE
  5
110
  8
1
  6
________________
 62
     7
 10
149.699999999999
 20
180.7499999999972
 30
0.0
 11
149.3999999999991
 21
181.749999999997
 31
0.0
  0
LINE
  5
111
  8
1
  6
________________
 62
     7
 10
130.6000000000009
 20
181.749999999997
 30
0.0
 11
130.300000000001
 21
180.7499999999972
 31
0.0
  0
ARC
  5
112
  8
1
  6
________________
 62
     7
 10
-149.4499999999986
 20
179.5999999999974
 30
0.0
 40
0.1499999999999835
 50
0.0
 51
90.00000000018024
210
0.0
220
0.0
230
-1.0
  0
ARC
  5
113
  8
1
  6
________________
 62
     7
 10
-130.5500000000014
 20
179.5999999999974
 30
0.0
 40
0.1499999999999835
 50
89.99999999981976
 51
180.0
210
0.0
220
0.0
230
-1.0
  0
LINE
  5
114
  8
1
  6
________________
 62
     7
 10
149.2999999999991
 20
178.7499999999975
 30
0.0
 11
149.2999999999991
 21
179.5999999999974
 31
0.0
  0
LINE
  5
115
  8
1
  6
________________
 62
     7
 10
130.7000000000009
 20
179.5999999999974
 30
0.0
 11
130.7000000000009
 21
178.7499999999975
 31
0.0
  0
LINE
  5
116
  8
1
  6
________________
 62
     7
 10
146.2499999999994
 20
181.749999999993
 30
0.0
 11
146.2499999999994
 21
181.949999999997
 31
0.0
  0
LINE
  5
117
  8
1
  6
________________
 62
     7
 10
133.7500000000006
 20
181.949999999997
 30
0.0
 11
133.7500000000006
 21
181.749999999993
 31
0.0
  0
ARC
  5
118
  8
1
  6
________________
 62
     7
 10
134.5500000000008
 20
181.949999999997
 30
0.0
 40
0.7999999999999396
 50
90.00000000001948
 51
180.0
  0
ARC
  5
119
  8
1
  6
________________
 62
     7
 10
145.4499999999992
 20
181.949999999997
 30
0.0
 40
0.7999999999999119
 50
0.0
 51
89.9999999999805
  0
LINE
  5
11A
  8
1
  6
________________
 62
     7
 10
124.0
 20
117.7500000000031
 30
0.0
 11
124.5
 21
117.2500000000031
 31
0.0
  0
LINE
  5
11B
  8
1
  6
________________
 62
     7
 10
155.5
 20
117.2500000000031
 30
0.0
 11
156.0
 21
117.7500000000031
 31
0.0
  0
LINE
  5
11C
  8
1
  6
________________
 62
     7
 10
156.0
 20
147.750000000003
 30
0.0
 11
155.5
 21
148.2500000000031
 31
0.0
  0
LINE
  5
11D
  8
1
  6
________________
 62
     7
 10
124.5
 20
148.2500000000031
 30
0.0
 11
124.0
 21
147.750000000003
 31
0.0
  0
ENDBLK
  8
0
  0
BLOCK
  8
0
  2
_1877
 70
     0
 10
0.0
 20
0.0
 30
0.0
  0
POLYLINE
  5
122
  8
1
  6
________________
 62
     7
 10
0.0
 20
0.0
 30
0.0
 66
     1
 70
     8
  0
VERTEX
  5
123
  8
1
  6
________________
 62
     7
 10
79.48722602781962
 20
231.840367468599
 30
0.0
 70
    32
  0
VERTEX
  5
124
  8
1
  6
________________
 62
     7
 10
79.58013066007665
 20
231.8869640800918
 30
0.0
 70
    32
  0
VERTEX
  5
125
  8
1
  6
________________
 62
     7
 10
79.68313144746683
 20
231.9231580748273
 30
0.0
 70
    32
  0
SEQEND
  5
12C
  8
1
  6
________________
 62
     7
  0
ARC
  5
126
  8
1
  6
________________
 62
     7
 10
-79.99914323415567
 20
230.7937339406855
 30
0.0
 40
1.172801059049755
 50
74.36843126135561
 51
107.9355333933387
210
0.0
220
0.0
230
-1.0
  0
POLYLINE
  5
127
  8
1
  6
________________
 62
     7
 10
0.0
 20
0.0
 30
0.0
 66
     1
 70
     8
  0
VERTEX
  5
128
  8
1
  6
________________
 62
     7
 10
80.36030346580485
 20
231.9095410974932
 30
0.0
 70
    32
  0
VERTEX
  5
129
  8
1
  6
________________
 62
     7
 10
80.45565955636432
 20
231.8708815069331
 30
0.0
 70
    32
  0
VERTEX
  5
12A
  8
1
  6
________________
 62
     7
 10
80.5127739721804
 20
231.840367468599
 30
0.0
 70
    32
  0
SEQEND
  5
12B
  8
1
  6
________________
 62
     7
  0
ARC
  5
12D
  8
1
  6
________________
 62
     7
 10
-80.00000000000001
 20
225.0
 30
0.0
 40
6.949999999999309
 50
181.9061000902414
 51
183.9725482438862
210
0.0
220
0.0
230
-1.0
  0
ARC
  5
12E
  8
1
  6
________________
 62
     7
 10
-80.00000000000001
 20
225.0
 30
0.0
 40
6.949999999999308
 50
183.9725482438862
 51
206.0263868666907
210
0.0
220
0.0
230
-1.0
  0
ARC
  5
12F
  8
1
  6
________________
 62
     7
 10
-80.00000000000001
 20
225.0
 30
0.0
 40
6.94999999999932
 50
206.0263868666907
 51
208.0941481937129
210
0.0
220
0.0
230
-1.0
  0
ARC
  5
130
  8
1
  6
________________
 62
     7
 10
-80.00000000000001
 20
225.0
 30
0.0
 40
6.94999999999932
 50
211.9061000902374
 51
213.972548243865
210
0.0
220
0.0
230
-1.0
  0
ARC
  5
131
  8
1
  6
________________
 62
     7
 10
-80.00000000000001
 20
225.0
 30
0.0
 40
6.949999999999318
 50
213.972548243865
 51
236.0263868666975
210
0.0
220
0.0
230
-1.0
  0
ARC
  5
132
  8
1
  6
________________
 62
     7
 10
-80.00000000000001
 20
225.0
 30
0.0
 40
6.949999999999322
 50
236.0263868666975
 51
238.0941481937145
210
0.0
220
0.0
230
-1.0
  0
ARC
  5
133
  8
1
  6
________________
 62
     7
 10
-80.00000000000001
 20
225.0
 30
0.0
 40
6.949999999999327
 50
241.9061000902362
 51
243.9725482438392
210
0.0
220
0.0
230
-1.0
  0
ARC
  5
134
  8
1
  6
________________
 62
     7
 10
-80.00000000000001
 20
225.0
 30
0.0
 40
6.949999999999322
 50
243.9725482438392
 51
266.0263868667057
210
0.0
220
0.0
230
-1.0
  0
ARC
  5
135
  8
1
  6
________________
 62
     7
 10
-80.00000000000001
 20
225.0
 30
0.0
 40
6.949999999999319
 50
266.0263868667057
 51
268.094085877907
210
0.0
220
0.0
230
-1.0
  0
ARC
  5
136
  8
1
  6
________________
 62
     7
 10
-80.00000000000001
 20
225.0
 30
0.0
 40
6.949999999999316
 50
271.906149999602
 51
273.9725482438346
210
0.0
220
0.0
230
-1.0
  0
ARC
  5
137
  8
1
  6
________________
 62
     7
 10
-80.00000000000001
 20
225.0
 30
0.0
 40
6.94999999999933
 50
273.9725482438346
 51
296.0263868667072
210
0.0
220
0.0
230
-1.0
  0
ARC
  5
138
  8
1
  6
________________
 62
     7
 10
-80.00000000000001
 20
225.0
 30
0.0
 40
6.949999999999326
 50
296.0263868667072
 51
298.0941481937208
210
0.0
220
0.0
230
-1.0
  0
ARC
  5
139
  8
1
  6
________________
 62
     7
 10
-80.00000000000001
 20
225.0
 30
0.0
 40
6.949999999999334
 50
301.9061000902437
 51
303.9725482438559
210
0.0
220
0.0
230
-1.0
  0
ARC
  5
13A
  8
1
  6
________________
 62
     7
 10
-80.00000000000001
 20
225.0
 30
0.0
 40
6.949999999999335
 50
303.9725482438559
 51
326.0263868667002
210
0.0
220
0.0
230
-1.0
  0
ARC
  5
13B
  8
1
  6
________________
 62
     7
 10
-80.00000000000001
 20
225.0
 30
0.0
 40
6.949999999999314
 50
326.0263868667002
 51
328.0941481937188
210
0.0
220
0.0
230
-1.0
  0
ARC
  5
13C
  8
1
  6
________________
 62
     7
 10
-80.00000000000001
 20
225.0
 30
0.0
 40
6.94999999999933
 50
331.9061000902452
 51
333.9725482438815
210
0.0
220
0.0
230
-1.0
  0
ARC
  5
13D
  8
1
  6
________________
 62
     7
 10
-80.00000000000001
 20
225.0
 30
0.0
 40
6.949999999999327
 50
333.9725482438816
 51
356.0263868666919
210
0.0
220
0.0
230
-1.0
  0
ARC
  5
13E
  8
1
  6
________________
 62
     7
 10
-80.00000000000001
 20
225.0
 30
0.0
 40
6.949999999999325
 50
356.0263868666919
 51
358.0941481937143
210
0.0
220
0.0
230
-1.0
  0
ARC
  5
13F
  8
1
  6
________________
 62
     7
 10
-80.00000000000001
 20
225.0
 30
0.0
 40
6.949999999999325
 50
1.906100090242296
 51
3.972548243886214
210
0.0
220
0.0
230
-1.0
  0
ARC
  5
140
  8
1
  6
________________
 62
     7
 10
-80.00000000000001
 20
225.0
 30
0.0
 40
6.94999999999932
 50
3.972548243886193
 51
26.02638686669031
210
0.0
220
0.0
230
-1.0
  0
ARC
  5
141
  8
1
  6
________________
 62
     7
 10
-80.00000000000001
 20
225.0
 30
0.0
 40
6.949999999999321
 50
26.02638686669033
 51
28.09414819371171
210
0.0
220
0.0
230
-1.0
  0
ARC
  5
142
  8
1
  6
________________
 62
     7
 10
-80.00000000000001
 20
225.0
 30
0.0
 40
6.949999999999317
 50
31.90610009023822
 51
33.97254824386508
210
0.0
220
0.0
230
-1.0
  0
ARC
  5
143
  8
1
  6
________________
 62
     7
 10
-80.00000000000001
 20
225.0
 30
0.0
 40
6.949999999999318
 50
33.97254824386508
 51
56.02638686669714
210
0.0
220
0.0
230
-1.0
  0
ARC
  5
144
  8
1
  6
________________
 62
     7
 10
-80.00000000000001
 20
225.0
 30
0.0
 40
6.949999999999307
 50
56.02638686669712
 51
58.09414819371319
210
0.0
220
0.0
230
-1.0
  0
ARC
  5
145
  8
1
  6
________________
 62
     7
 10
-80.00000000000001
 20
225.0
 30
0.0
 40
6.949999999999319
 50
61.9061000902369
 51
63.9725482438392
210
0.0
220
0.0
230
-1.0
  0
ARC
  5
146
  8
1
  6
________________
 62
     7
 10
-80.00000000000001
 20
225.0
 30
0.0
 40
6.949999999999304
 50
63.97254824383921
 51
86.02638686670548
210
0.0
220
0.0
230
-1.0
  0
ARC
  5
147
  8
1
  6
________________
 62
     7
 10
-80.00000000000001
 20
225.0
 30
0.0
 40
6.949999999999322
 50
86.02638686670548
 51
88.09408587790593
210
0.0
220
0.0
230
-1.0
  0
ARC
  5
148
  8
1
  6
________________
 62
     7
 10
-80.00000000000001
 20
225.0
 30
0.0
 40
6.94999999999932
 50
91.90614999960283
 51
93.97254824383485
210
0.0
220
0.0
230
-1.0
  0
ARC
  5
149
  8
1
  6
________________
 62
     7
 10
-80.00000000000001
 20
225.0
 30
0.0
 40
6.949999999999306
 50
93.97254824383485
 51
116.026386866707
210
0.0
220
0.0
230
-1.0
  0
ARC
  5
14A
  8
1
  6
________________
 62
     7
 10
-80.00000000000001
 20
225.0
 30
0.0
 40
6.949999999999315
 50
116.026386866707
 51
118.09414819372
210
0.0
220
0.0
230
-1.0
  0
ARC
  5
14B
  8
1
  6
________________
 62
     7
 10
-80.00000000000001
 20
225.0
 30
0.0
 40
6.949999999999301
 50
121.9061000902445
 51
123.9725482438561
210
0.0
220
0.0
230
-1.0
  0
ARC
  5
14C
  8
1
  6
________________
 62
     7
 10
-80.00000000000001
 20
225.0
 30
0.0
 40
6.94999999999932
 50
123.9725482438561
 51
146.0263868667003
210
0.0
220
0.0
230
-1.0
  0
ARC
  5
14D
  8
1
  6
________________
 62
     7
 10
-80.00000000000001
 20
225.0
 30
0.0
 40
6.949999999999298
 50
146.0263868667003
 51
148.0941481937184
210
0.0
220
0.0
230
-1.0
  0
ARC
  5
14E
  8
1
  6
________________
 62
     7
 10
-80.00000000000001
 20
225.0
 30
0.0
 40
6.949999999999302
 50
151.9061000902461
 51
153.972548243882
210
0.0
220
0.0
230
-1.0
  0
ARC
  5
14F
  8
1
  6
________________
 62
     7
 10
-80.00000000000001
 20
225.0
 30
0.0
 40
6.949999999999303
 50
153.9725482438819
 51
176.0263868666923
210
0.0
220
0.0
230
-1.0
  0
ARC
  5
150
  8
1
  6
________________
 62
     7
 10
-80.00000000000001
 20
225.0
 30
0.0
 40
6.949999999999306
 50
176.0263868666922
 51
178.0941481937147
210
0.0
220
0.0
230
-1.0
  0
CIRCLE
  5
151
  8
1
  6
________________
 62
     7
 10
-80.0
 20
225.0
 30
0.0
 40
9.699999999998058
210
0.0
220
0.0
230
-1.0
  0
CIRCLE
  5
152
  8
1
  6
________________
 62
     7
 10
-80.0
 20
225.0
 30
0.0
 40
9.399999999998117
210
0.0
220
0.0
230
-1.0
  0
ARC
  5
153
  8
1
  6
________________
 62
     7
 10
80.0
 20
225.0
 30
0.0
 40
8.599999999999136
 50
270.0
 51
180.0
  0
ARC
  5
154
  8
1
  6
________________
 62
     7
 10
80.0
 20
225.0
 30
0.0
 40
8.599999999999136
 50
180.0
 51
270.0
  0
CIRCLE
  5
155
  8
1
  6
________________
 62
     7
 10
-80.00000000000001
 20
225.0
 30
0.0
 40
10.24999999999796
210
0.0
220
0.0
230
-1.0
  0
CIRCLE
  5
156
  8
1
  6
________________
 62
     7
 10
-80.00000000000001
 20
225.0
 30
0.0
 40
10.9999999999978
210
0.0
220
0.0
230
-1.0
  0
CIRCLE
  5
157
  8
1
  6
________________
 62
     7
 10
-80.00000000000001
 20
225.0
 30
0.0
 40
8.593999999998298
210
0.0
220
0.0
230
-1.0
  0
CIRCLE
  5
158
  8
1
  6
________________
 62
     7
 10
-80.0
 20
225.0
 30
0.0
 40
5.199999999998956
210
0.0
220
0.0
230
-1.0
  0
ARC
  5
159
  8
1
  6
________________
 62
     7
 10
-80.0
 20
225.0
 30
0.0
 40
6.249999999999367
 50
90.0
 51
0.0
210
0.0
220
0.0
230
-1.0
  0
ARC
  5
15A
  8
1
  6
________________
 62
     7
 10
-80.0
 20
225.0
 30
0.0
 40
6.249999999999367
 50
0.0000000000000035
 51
90.0
210
0.0
220
0.0
230
-1.0
  0
ARC
  5
15B
  8
1
  6
________________
 62
     7
 10
80.0
 20
225.0
 30
0.0
 40
3.849999999999604
 50
270.0
 51
180.0
  0
ARC
  5
15C
  8
1
  6
________________
 62
     7
 10
80.0
 20
225.0
 30
0.0
 40
3.849999999999604
 50
180.0
 51
270.0
  0
CIRCLE
  5
15D
  8
1
  6
________________
 62
     7
 10
-80.00000000000001
 20
225.0
 30
0.0
 40
3.499999999999309
210
0.0
220
0.0
230
-1.0
  0
CIRCLE
  5
15E
  8
1
  6
________________
 62
     7
 10
-80.00000000000001
 20
225.0
 30
0.0
 40
3.249999999999351
210
0.0
220
0.0
230
-1.0
  0
CIRCLE
  5
15F
  8
1
  6
________________
 62
     7
 10
80.00000000000001
 20
225.0
 30
0.0
 40
8.500000000000007
  0
CIRCLE
  5
160
  8
1
  6
________________
 62
     7
 10
80.00000000000001
 20
225.0
 30
0.0
 40
7.050000000000001
  0
CIRCLE
  5
161
  8
1
  6
________________
 62
     7
 10
80.00000000000001
 20
225.0
 30
0.0
 40
15.49999999999997
  0
ARC
  5
162
  8
1
  6
________________
 62
     7
 10
80.00000000000001
 20
225.0
 30
0.0
 40
16.75000000000001
 50
227.210553088011
 51
252.7894469119889
  0
LINE
  5
163
  8
1
  6
________________
 62
     7
 10
68.6216219896489
 20
212.7079288216526
 30
0.0
 11
63.6655650892491
 21
221.2920711783474
 31
0.0
  0
ARC
  5
164
  8
1
  6
________________
 62
     7
 10
80.00000000000001
 20
225.0
 30
0.0
 40
16.75000000000001
 50
167.2105530880109
 51
192.789446911989
  0
LINE
  5
165
  8
1
  6
________________
 62
     7
 10
63.66556508924911
 20
228.7079288216527
 30
0.0
 11
68.62162198964884
 21
237.2920711783473
 31
0.0
  0
ARC
  5
166
  8
1
  6
________________
 62
     7
 10
80.00000000000001
 20
225.0
 30
0.0
 40
16.75
 50
107.2105530880107
 51
132.7894469119892
  0
LINE
  5
167
  8
1
  6
________________
 62
     7
 10
75.0439430996003
 20
241.0
 30
0.0
 11
84.95605690039973
 21
241.0
 31
0.0
  0
ARC
  5
168
  8
1
  6
________________
 62
     7
 10
80.00000000000001
 20
225.0
 30
0.0
 40
16.75
 50
47.21055308801073
 51
72.78944691198923
  0
LINE
  5
169
  8
1
  6
________________
 62
     7
 10
91.37837801035118
 20
237.2920711783473
 30
0.0
 11
96.33443491075091
 21
228.7079288216527
 31
0.0
  0
ARC
  5
16A
  8
1
  6
________________
 62
     7
 10
80.00000000000001
 20
225.0
 30
0.0
 40
16.75000000000001
 50
347.210553088011
 51
12.78944691198916
  0
LINE
  5
16B
  8
1
  6
________________
 62
     7
 10
96.33443491075093
 20
221.2920711783474
 30
0.0
 11
91.37837801035113
 21
212.7079288216526
 31
0.0
  0
ARC
  5
16C
  8
1
  6
________________
 62
     7
 10
80.00000000000001
 20
225.0
 30
0.0
 40
16.75
 50
287.2105530880111
 51
312.7894469119889
  0
LINE
  5
16D
  8
1
  6
________________
 62
     7
 10
84.95605690039984
 20
209.0
 30
0.0
 11
75.0439430996002
 21
209.0
 31
0.0
  0
ARC
  5
16E
  8
1
  6
________________
 62
     7
 10
80.00000000000001
 20
225.0
 30
0.0
 40
16.99999999999999
 50
229.7499227956425
 51
250.2500772043574
  0
LINE
  5
16F
  8
1
  6
________________
 62
     7
 10
69.01587486271801
 20
212.0250628144669
 30
0.0
 11
68.62162198964889
 21
212.7079288216526
 31
0.0
  0
LINE
  5
170
  8
1
  6
________________
 62
     7
 10
75.04394309960018
 20
209.0
 30
0.0
 11
74.25543735346199
 21
209.0
 31
0.0
  0
ARC
  5
171
  8
1
  6
________________
 62
     7
 10
-80.00000000000001
 20
225.0
 30
0.0
 40
17.0
 50
349.7499227956425
 51
10.25007720435741
210
0.0
220
0.0
230
-1.0
  0
LINE
  5
172
  8
1
  6
________________
 62
     7
 10
63.27131221617999
 20
228.0250628144669
 30
0.0
 11
63.66556508924911
 21
228.7079288216527
 31
0.0
  0
LINE
  5
173
  8
1
  6
________________
 62
     7
 10
63.6655650892491
 20
221.2920711783474
 30
0.0
 11
63.27131221617997
 21
221.9749371855331
 31
0.0
  0
ARC
  5
174
  8
1
  6
________________
 62
     7
 10
80.00000000000001
 20
225.0
 30
0.0
 40
17.00000000000003
 50
109.7499227956424
 51
130.2500772043575
  0
LINE
  5
175
  8
1
  6
________________
 62
     7
 10
68.62162198964884
 20
237.2920711783473
 30
0.0
 11
69.01587486271798
 21
237.9749371855331
 31
0.0
  0
LINE
  5
176
  8
1
  6
________________
 62
     7
 10
74.25543735346201
 20
241.0
 30
0.0
 11
75.0439430996003
 21
241.0
 31
0.0
  0
ARC
  5
177
  8
1
  6
________________
 62
     7
 10
80.00000000000001
 20
225.0
 30
0.0
 40
17.00000000000002
 50
49.7499227956425
 51
70.25007720435747
  0
LINE
  5
178
  8
1
  6
________________
 62
     7
 10
84.95605690039974
 20
241.0
 30
0.0
 11
85.74456264653804
 21
241.0
 31
0.0
  0
LINE
  5
179
  8
1
  6
________________
 62
     7
 10
90.98412513728205
 20
237.9749371855331
 30
0.0
 11
91.37837801035118
 21
237.2920711783473
 31
0.0
  0
ARC
  5
17A
  8
1
  6
________________
 62
     7
 10
80.00000000000001
 20
225.0
 30
0.0
 40
16.99999999999999
 50
289.7499227956425
 51
310.2500772043575
  0
LINE
  5
17B
  8
1
  6
________________
 62
     7
 10
91.37837801035114
 20
212.7079288216526
 30
0.0
 11
90.98412513728204
 21
212.0250628144669
 31
0.0
  0
LINE
  5
17C
  8
1
  6
________________
 62
     7
 10
85.74456264653804
 20
209.0
 30
0.0
 11
84.95605690039984
 21
209.0
 31
0.0
  0
ARC
  5
17D
  8
1
  6
________________
 62
     7
 10
80.00000000000001
 20
225.0
 30
0.0
 40
17.0
 50
349.7499227956427
 51
10.25007720435752
  0
LINE
  5
17E
  8
1
  6
________________
 62
     7
 10
96.33443491075091
 20
228.7079288216526
 30
0.0
 11
96.72868778382005
 21
228.0250628144669
 31
0.0
  0
LINE
  5
17F
  8
1
  6
________________
 62
     7
 10
96.72868778382004
 20
221.9749371855331
 30
0.0
 11
96.33443491075093
 21
221.2920711783474
 31
0.0
  0
CIRCLE
  5
180
  8
1
  6
________________
 62
     7
 10
80.00000000000001
 20
225.0
 30
0.0
 40
6.874999999999326
  0
ENDBLK
  8
0
  0
ENDSEC
  0
SECTION
  2
ENTITIES
  0
INSERT
  5
AB
  8
1
  6
________________0
 62
     7
  2
_1482
 10
0.0
 20
0.0
 30
0.0
  0
INSERT
  5
11E
  8
1
  6
________________0
 62
     7
  2
_1765
 10
0.0
 20
0.0
 30
0.0
  0
INSERT
  5
181
  8
1
  6
________________0
 62
     7
  2
_1877
 10
0.0
 20
0.0
 30
0.0
  0
TEXT
  5
182
  8
1
 62
     7
 10
99.98336363636365
 20
94.68636363636364
 30
0.0
 40
3.0
  1
SMRM-13A-15
  7
EXPLODED0
  0
LINE
  5
183
  8
1
  6
________________1
 62
     1
 10
60.99999999999999
 20
225.0
 30
0.0
 11
99.00000000000003
 21
225.0
 31
0.0
  0
LINE
  5
185
  8
1
  6
________________1
 62
     1
 10
80.00000000000001
 20
205.9999999999999
 30
0.0
 11
80.00000000000001
 21
244.0
 31
0.0
  0
LINE
  5
186
  8
1
  6
________________1
 62
     1
 10
80.00000000000001
 20
190.0
 30
0.0
 11
80.00000000000001
 21
110.0
 31
0.0
  0
LINE
  5
187
  8
1
  6
________________1
 62
     1
 10
140.0
 20
110.0
 30
0.0
 11
140.0
 21
190.0
 31
0.0
  0
ENDSEC
  0
EOF
