  0
SECTION
  2
HEADER
  9
$ACADVER
  1
AC1006
  9
$DWGCODEPAGE
  3
ansi_932
  9
$INSBASE
 10
0.0
 20
0.0
 30
0.0
  9
$EXTMIN
 10
55.99999999999996
 20
80.02727272727273
  9
$EXTMAX
 10
156.0
 20
229.0
  9
$LIMMIN
 10
0.0
 20
0.0
  9
$LIMMAX
 10
12.0
 20
9.0
  9
$ORTHOMODE
 70
     0
  9
$REGENMODE
 70
     1
  9
$FILLMODE
 70
     1
  9
$QTEXTMODE
 70
     0
  9
$MIRRTEXT
 70
     1
  9
$DRAGMODE
 70
     2
  9
$LTSCALE
 40
1.0
  9
$OSMODE
 70
    37
  9
$ATTMODE
 70
     1
  9
$TEXTSIZE
 40
0.2
  9
$TRACEWID
 40
0.05
  9
$TEXTSTYLE
  7
STANDARD
  9
$CLAYER
  8
0
  9
$CELTYPE
  6
BYLAYER
  9
$CECOLOR
 62
   256
  9
$DIMSCALE
 40
1.0
  9
$DIMASZ
 40
3.0
  9
$DIMEXO
 40
0.0625
  9
$DIMDLI
 40
0.38
  9
$DIMRND
 40
0.0
  9
$DIMDLE
 40
0.0
  9
$DIMEXE
 40
0.18
  9
$DIMTP
 40
0.0
  9
$DIMTM
 40
0.0
  9
$DIMTXT
 40
3.0
  9
$DIMCEN
 40
0.09
  9
$DIMTSZ
 40
0.0
  9
$DIMTOL
 70
     0
  9
$DIMLIM
 70
     0
  9
$DIMTIH
 70
     1
  9
$DIMTOH
 70
     1
  9
$DIMSE1
 70
     0
  9
$DIMSE2
 70
     0
  9
$DIMTAD
 70
     1
  9
$DIMZIN
 70
     0
  9
$DIMBLK
  1

  9
$DIMASO
 70
     1
  9
$DIMSHO
 70
     1
  9
$DIMPOST
  1

  9
$DIMAPOST
  1

  9
$DIMALT
 70
     0
  9
$DIMALTD
 70
     2
  9
$DIMALTF
 40
25.4
  9
$DIMLFAC
 40
1.0
  9
$DIMTOFL
 70
     0
  9
$DIMTVP
 40
0.0
  9
$DIMTIX
 70
     0
  9
$DIMSOXD
 70
     0
  9
$DIMSAH
 70
     0
  9
$DIMBLK1
  1

  9
$DIMBLK2
  1

  9
$LUNITS
 70
     2
  9
$LUPREC
 70
     4
  9
$SKETCHINC
 40
0.1
  9
$FILLETRAD
 40
0.5
  9
$AUNITS
 70
     0
  9
$AUPREC
 70
     0
  9
$MENU
  1
.
  9
$ELEVATION
 40
0.0
  9
$THICKNESS
 40
0.0
  9
$LIMCHECK
 70
     0
  9
$CHAMFERA
 40
0.5
  9
$CHAMFERB
 40
0.5
  9
$SKPOLY
 70
     0
  9
$TDCREATE
 40
2460087.738818565
  9
$TDUPDATE
 40
2460087.738818577
  9
$TDINDWG
 40
0.0000000116
  9
$TDUSRTIMER
 40
0.0000000116
  9
$USRTIMER
 70
     1
  9
$ANGBASE
 50
0.0
  9
$ANGDIR
 70
     0
  9
$PDMODE
 70
     0
  9
$PDSIZE
 40
0.0
  9
$PLINEWID
 40
0.0
  9
$COORDS
 70
     1
  9
$SPLFRAME
 70
     0
  9
$SPLINETYPE
 70
     6
  9
$SPLINESEGS
 70
     8
  9
$ATTDIA
 70
     0
  9
$ATTREQ
 70
     1
  9
$HANDLING
 70
     1
  9
$HANDSEED
  5
255
  9
$SURFTAB1
 70
     6
  9
$SURFTAB2
 70
     6
  9
$SURFTYPE
 70
     6
  9
$SURFU
 70
     6
  9
$SURFV
 70
     6
  9
$UCSNAME
  2

  9
$UCSORG
 10
0.0
 20
0.0
 30
0.0
  9
$UCSXDIR
 10
1.0
 20
0.0
 30
0.0
  9
$UCSYDIR
 10
0.0
 20
1.0
 30
0.0
  9
$USERI1
 70
     0
  9
$USERI2
 70
     0
  9
$USERI3
 70
     0
  9
$USERI4
 70
     0
  9
$USERI5
 70
     0
  9
$USERR1
 40
0.0
  9
$USERR2
 40
0.0
  9
$USERR3
 40
0.0
  9
$USERR4
 40
0.0
  9
$USERR5
 40
0.0
  9
$WORLDVIEW
 70
     1
  0
ENDSEC
  0
SECTION
  2
TABLES
  0
TABLE
  2
VPORT
 70
     1
  0
VPORT
  2
*ACTIVE
 70
     0
 10
0.0
 20
0.0
 11
1.0
 21
1.0
 12
106.0
 22
154.5136363636364
 13
0.0
 23
0.0
 14
0.5
 24
0.5
 15
0.5
 25
0.5
 16
0.0
 26
0.0
 36
1.0
 17
0.0
 27
0.0
 37
0.0
 40
148.9727272727272
 41
1.6
 42
50.0
 43
0.0
 44
0.0
 50
0.0
 51
0.0
 71
     0
 72
   100
 73
     1
 74
     3
 75
     0
 76
     0
 77
     0
 78
     0
  0
ENDTAB
  0
TABLE
  2
LTYPE
 70
     4
  0
LTYPE
  2
CONTINUOUS
 70
     0
  3
Solid line
 72
    65
 73
     0
 40
0.0
  0
LTYPE
  2
________________
 70
     0
  3

 72
    65
 73
     0
 40
0.0
  0
LTYPE
  2
________________0
 70
     0
  3

 72
    65
 73
     2
 40
1.8
 49
0.8999999999999999
 49
-0.8999999999999999
  0
LTYPE
  2
________________1
 70
     0
  3

 72
    65
 73
     4
 40
7.2
 49
2.7
 49
-1.8
 49
0.8999999999999999
 49
-1.8
  0
ENDTAB
  0
TABLE
  2
LAYER
 70
     2
  0
LAYER
  2
0
 70
     0
 62
     7
  6
CONTINUOUS
  0
LAYER
  2
1
 70
     0
 62
     7
  6
CONTINUOUS
  0
ENDTAB
  0
TABLE
  2
STYLE
 70
     2
  0
STYLE
  2
STANDARD
 70
     0
 40
0.0
 41
1.0
 50
0.0
 71
     0
 42
0.2
  3
txt
  4

  0
STYLE
  2
EXPLODED0
 70
     0
 40
0.2
 41
1.0
 50
0.0
 71
     0
 42
0.2
  3
ＭＳ ゴシック
  4

  0
ENDTAB
  0
TABLE
  2
VIEW
 70
     0
  0
ENDTAB
  0
TABLE
  2
UCS
 70
     0
  0
ENDTAB
  0
ENDSEC
  0
SECTION
  2
BLOCKS
  0
BLOCK
  8
0
  2
_1482
 70
     0
 10
0.0
 20
0.0
 30
0.0
  0
LINE
  5
3D
  8
1
  6
________________
 62
     7
 10
69.25543735346197
 20
131.7500000000001
 30
0.0
 11
69.25543735346197
 21
108.2500000000001
 31
0.0
  0
LINE
  5
3F
  8
1
  6
________________
 62
     7
 10
64.01587486271798
 20
108.2500000000001
 30
0.0
 11
69.25543735346197
 21
108.2500000000001
 31
0.0
  0
LINE
  5
40
  8
1
  6
________________
 62
     7
 10
64.01587486271798
 20
108.2500000000001
 30
0.0
 11
64.01587486271798
 21
131.7500000000001
 31
0.0
  0
LINE
  5
41
  8
1
  6
________________
 62
     7
 10
64.01587486271795
 20
131.7500000000001
 30
0.0
 11
69.25543735346196
 21
131.7500000000001
 31
0.0
  0
LINE
  5
42
  8
1
  6
________________
 62
     7
 10
70.04394309960017
 20
131.7500000000001
 30
0.0
 11
70.04394309960018
 21
136.5
 31
0.0
  0
ARC
  5
43
  8
1
  6
________________
 62
     7
 10
75.00000000000001
 20
120.4951349363438
 30
0.0
 40
16.754647286823
 50
72.79436954367557
 51
107.2056304563245
  0
LINE
  5
44
  8
1
  6
________________
 62
     7
 10
79.95605690039982
 20
136.5
 30
0.0
 11
79.95605690039982
 21
131.7500000000001
 31
0.0
  0
LINE
  5
45
  8
1
  6
________________
 62
     7
 10
80.74456264653803
 20
131.7500000000001
 30
0.0
 11
79.95605690039982
 21
131.7500000000001
 31
0.0
  0
LINE
  5
46
  8
1
  6
________________
 62
     7
 10
80.74456264653803
 20
108.2500000000001
 30
0.0
 11
80.74456264653803
 21
131.7500000000001
 31
0.0
  0
ARC
  5
47
  8
1
  6
________________
 62
     7
 10
75.0
 20
124.2535499087325
 30
0.0
 40
17.00334113288585
 50
250.2541193652951
 51
289.7458806347049
  0
LINE
  5
48
  8
1
  6
________________
 62
     7
 10
70.04394309960017
 20
131.7500000000001
 30
0.0
 11
69.25543735346197
 21
131.7500000000001
 31
0.0
  0
LINE
  5
49
  8
1
  6
________________
 62
     7
 10
58.24999999999999
 20
136.5
 30
0.0
 11
58.66556508924909
 21
136.5
 31
0.0
  0
LINE
  5
4A
  8
1
  6
________________
 62
     7
 10
59.50000000000002
 20
137.7500000000001
 30
0.0
 11
90.49999999999997
 21
137.7500000000001
 31
0.0
  0
LINE
  5
4B
  8
1
  6
________________
 62
     7
 10
63.62162198964888
 20
136.5
 30
0.0
 11
70.04394309960018
 21
136.5
 31
0.0
  0
ARC
  5
4C
  8
1
  6
________________
 62
     7
 10
61.14359353944898
 20
132.7779252968986
 30
0.0
 40
4.471517091040569
 50
56.34569837064521
 51
123.6543016293548
  0
LINE
  5
4D
  8
1
  6
________________
 62
     7
 10
91.33443491075091
 20
136.5
 30
0.0
 11
91.75
 21
136.5
 31
0.0
  0
ARC
  5
4E
  8
1
  6
________________
 62
     7
 10
88.85640646055101
 20
132.7779252968986
 30
0.0
 40
4.471517091040569
 50
56.34569837064521
 51
123.6543016293548
  0
LINE
  5
4F
  8
1
  6
________________
 62
     7
 10
79.95605690039982
 20
136.5
 30
0.0
 11
86.37837801035111
 21
136.5
 31
0.0
  0
LINE
  5
50
  8
1
  6
________________
 62
     7
 10
63.62162198964888
 20
136.5
 30
0.0
 11
63.62162198964888
 21
131.7500000000001
 31
0.0
  0
LINE
  5
51
  8
1
  6
________________
 62
     7
 10
80.74456264653803
 20
131.7500000000001
 30
0.0
 11
85.984125137282
 21
131.7500000000001
 31
0.0
  0
LINE
  5
52
  8
1
  6
________________
 62
     7
 10
85.984125137282
 20
131.7500000000001
 30
0.0
 11
85.98412513728199
 21
108.2500000000001
 31
0.0
  0
LINE
  5
53
  8
1
  6
________________
 62
     7
 10
80.74456264653803
 20
108.2500000000001
 30
0.0
 11
85.98412513728199
 21
108.2500000000001
 31
0.0
  0
LINE
  5
54
  8
1
  6
________________
 62
     7
 10
86.37837801035113
 20
131.7500000000001
 30
0.0
 11
86.37837801035111
 21
136.5
 31
0.0
  0
LINE
  5
55
  8
1
  6
________________
 62
     7
 10
59.5
 20
106.7500000000001
 30
0.0
 11
90.49999999999999
 21
106.7500000000001
 31
0.0
  0
LINE
  5
56
  8
1
  6
________________
 62
     7
 10
57.99999999999999
 20
108.2500000000001
 30
0.0
 11
58.27131221617995
 21
108.2500000000001
 31
0.0
  0
ARC
  5
57
  8
1
  6
________________
 62
     7
 10
61.14359353944896
 20
111.8771357487068
 30
0.0
 40
4.626674155324361
 50
231.6247581576145
 51
308.3752418423855
  0
ARC
  5
58
  8
1
  6
________________
 62
     7
 10
88.85640646055101
 20
111.8771357487068
 30
0.0
 40
4.626674155324361
 50
231.6247581576145
 51
308.3752418423855
  0
LINE
  5
59
  8
1
  6
________________
 62
     7
 10
91.72868778382004
 20
108.2500000000001
 30
0.0
 11
92.00000000000001
 21
108.2500000000001
 31
0.0
  0
LINE
  5
5A
  8
1
  6
________________
 62
     7
 10
91.33443491075091
 20
136.5
 30
0.0
 11
91.33443491075091
 21
131.7500000000001
 31
0.0
  0
LINE
  5
5B
  8
1
  6
________________
 62
     7
 10
91.72868778382004
 20
131.7500000000001
 30
0.0
 11
91.33443491075091
 21
131.7500000000001
 31
0.0
  0
LINE
  5
5C
  8
1
  6
________________
 62
     7
 10
91.72868778382002
 20
108.2500000000001
 30
0.0
 11
91.72868778382004
 21
131.7500000000001
 31
0.0
  0
LINE
  5
5D
  8
1
  6
________________
 62
     7
 10
86.37837801035113
 20
131.7500000000001
 30
0.0
 11
85.984125137282
 21
131.7500000000001
 31
0.0
  0
LINE
  5
5E
  8
1
  6
________________
 62
     7
 10
58.66556508924909
 20
131.7500000000001
 30
0.0
 11
58.27131221617995
 21
131.7500000000001
 31
0.0
  0
LINE
  5
5F
  8
1
  6
________________
 62
     7
 10
58.66556508924909
 20
131.7500000000001
 30
0.0
 11
58.66556508924909
 21
136.5
 31
0.0
  0
LINE
  5
60
  8
1
  6
________________
 62
     7
 10
58.27131221617995
 20
131.7500000000001
 30
0.0
 11
58.27131221617995
 21
108.2500000000001
 31
0.0
  0
LINE
  5
61
  8
1
  6
________________
 62
     7
 10
64.01587486271798
 20
131.7500000000001
 30
0.0
 11
63.62162198964888
 21
131.7500000000001
 31
0.0
  0
LINE
  5
62
  8
1
  6
________________
 62
     7
 10
85.4775
 20
102.95
 30
0.0
 11
64.52249999999998
 21
102.95
 31
0.0
  0
LINE
  5
63
  8
1
  6
________________
 62
     7
 10
64.52249999999998
 20
95.74999999999994
 30
0.0
 11
85.4775
 21
95.74999999999994
 31
0.0
  0
LINE
  5
64
  8
1
  6
________________
 62
     7
 10
84.4775
 20
94.74999999999994
 30
0.0
 11
65.52249999999995
 21
94.74999999999994
 31
0.0
  0
LINE
  5
65
  8
1
  6
________________
 62
     7
 10
65.52249999999997
 20
103.95
 30
0.0
 11
84.47750000000002
 21
103.95
 31
0.0
  0
LINE
  5
66
  8
1
  6
________________
 62
     7
 10
58.27131221617996
 20
131.7500000000001
 30
0.0
 11
58.0
 21
131.7500000000001
 31
0.0
  0
LINE
  5
67
  8
1
  6
________________
 62
     7
 10
91.72868778382006
 20
131.7500000000001
 30
0.0
 11
92.00000000000003
 21
131.7500000000001
 31
0.0
  0
LINE
  5
68
  8
1
  6
________________
 62
     7
 10
61.75
 20
137.9500000000001
 30
0.0
 11
88.25
 21
137.9500000000001
 31
0.0
  0
LINE
  5
69
  8
1
  6
________________
 62
     7
 10
88.25
 20
141.4500000000001
 30
0.0
 11
61.75
 21
141.4500000000001
 31
0.0
  0
LINE
  5
6A
  8
1
  6
________________
 62
     7
 10
61.75
 20
147.8500000000001
 30
0.0
 11
75.0
 21
147.8500000000001
 31
0.0
  0
LINE
  5
6B
  8
1
  6
________________
 62
     7
 10
88.25
 20
152.5136351612455
 30
0.0
 11
75.0
 21
152.5136351612455
 31
0.0
  0
LINE
  5
6C
  8
1
  6
________________
 62
     7
 10
75.0
 20
147.8500000000001
 30
0.0
 11
88.25
 21
147.8500000000001
 31
0.0
  0
LINE
  5
6D
  8
1
  6
________________
 62
     7
 10
75.0
 20
152.5136351612455
 30
0.0
 11
61.75000000000001
 21
152.5136351612455
 31
0.0
  0
LINE
  5
6E
  8
1
  6
________________
 62
     7
 10
87.55
 20
147.1500000000001
 30
0.0
 11
84.00000000000001
 21
147.1500000000001
 31
0.0
  0
LINE
  5
6F
  8
1
  6
________________
 62
     7
 10
84.00000000000001
 20
147.1500000000001
 30
0.0
 11
75.0
 21
147.1500000000001
 31
0.0
  0
LINE
  5
70
  8
1
  6
________________
 62
     7
 10
75.0
 20
147.1500000000001
 30
0.0
 11
65.99999999999997
 21
147.1500000000001
 31
0.0
  0
LINE
  5
71
  8
1
  6
________________
 62
     7
 10
65.99999999999997
 20
147.1500000000001
 30
0.0
 11
62.45
 21
147.1500000000001
 31
0.0
  0
LINE
  5
72
  8
1
  6
________________
 62
     7
 10
62.44999999999999
 20
142.1500000000001
 30
0.0
 11
65.99999999999997
 21
142.1500000000001
 31
0.0
  0
LINE
  5
73
  8
1
  6
________________
 62
     7
 10
75.0
 20
142.1500000000001
 30
0.0
 11
65.99999999999997
 21
142.1500000000001
 31
0.0
  0
LINE
  5
74
  8
1
  6
________________
 62
     7
 10
84.00000000000001
 20
142.1500000000001
 30
0.0
 11
75.0
 21
142.1500000000001
 31
0.0
  0
LINE
  5
75
  8
1
  6
________________
 62
     7
 10
84.00000000000001
 20
142.1500000000001
 30
0.0
 11
87.55000000000001
 21
142.1500000000001
 31
0.0
  0
LINE
  5
76
  8
1
  6
________________
 62
     7
 10
87.8
 20
153.7500000000001
 30
0.0
 11
62.2
 21
153.7500000000001
 31
0.0
  0
LINE
  5
77
  8
1
  6
________________
 62
     7
 10
88.20000000000002
 20
156.3267658063818
 30
0.0
 11
75.0
 21
156.3267658063818
 31
0.0
  0
LINE
  5
78
  8
1
  6
________________
 62
     7
 10
75.0
 20
156.3267658063818
 30
0.0
 11
61.79999999999999
 21
156.3267658063818
 31
0.0
  0
LINE
  5
79
  8
1
  6
________________
 62
     7
 10
61.79999999999999
 20
155.4000000000001
 30
0.0
 11
88.20000000000002
 21
155.4000000000001
 31
0.0
  0
LINE
  5
7A
  8
1
  6
________________
 62
     7
 10
88.05
 20
155.2500000000001
 30
0.0
 11
61.95
 21
155.2500000000001
 31
0.0
  0
LINE
  5
7B
  8
1
  6
________________
 62
     7
 10
84.00000000000001
 20
142.1500000000001
 30
0.0
 11
84.00000000000001
 21
147.1500000000001
 31
0.0
  0
ARC
  5
7C
  8
1
  6
________________
 62
     7
 10
74.9997496582448
 20
144.6500000000001
 30
0.0
 40
2.500000012534173
 50
270.0057374103844
 51
89.99426258961559
  0
LINE
  5
7D
  8
1
  6
________________
 62
     7
 10
65.99999999999997
 20
147.1500000000001
 30
0.0
 11
65.99999999999997
 21
142.1500000000001
 31
0.0
  0
ARC
  5
7E
  8
1
  6
________________
 62
     7
 10
74.99999999999999
 20
144.6500000000001
 30
0.0
 40
2.500000000000002
 50
89.99999999999969
 51
270.0000000000003
  0
LINE
  5
7F
  8
1
  6
________________
 62
     7
 10
87.49999999999999
 20
169.429410453325
 30
0.0
 11
62.50000000000001
 21
169.429410453325
 31
0.0
  0
LINE
  5
80
  8
1
  6
________________
 62
     7
 10
86.65
 20
174.2500000000001
 30
0.0
 11
63.35
 21
174.2500000000001
 31
0.0
  0
LINE
  5
81
  8
1
  6
________________
 62
     7
 10
67.85000000000001
 20
175.2500000000001
 30
0.0
 11
75.00000000000001
 21
175.2500000000001
 31
0.0
  0
LINE
  5
82
  8
1
  6
________________
 62
     7
 10
75.00000000000001
 20
175.2500000000001
 30
0.0
 11
82.15000000000002
 21
175.2500000000001
 31
0.0
  0
LINE
  5
83
  8
1
  6
________________
 62
     7
 10
91.75
 20
136.5
 30
0.0
 11
90.49999999999997
 21
137.7500000000001
 31
0.0
  0
LINE
  5
84
  8
1
  6
________________
 62
     7
 10
59.50000000000002
 20
137.7500000000001
 30
0.0
 11
58.24999999999999
 21
136.5
 31
0.0
  0
LINE
  5
85
  8
1
  6
________________
 62
     7
 10
57.99999999999999
 20
108.2500000000001
 30
0.0
 11
59.5
 21
106.7500000000001
 31
0.0
  0
LINE
  5
86
  8
1
  6
________________
 62
     7
 10
90.49999999999999
 20
106.7500000000001
 30
0.0
 11
92.0
 21
108.2500000000001
 31
0.0
  0
LINE
  5
87
  8
1
  6
________________
 62
     7
 10
85.4775
 20
95.74999999999994
 30
0.0
 11
85.4775
 21
102.95
 31
0.0
  0
LINE
  5
88
  8
1
  6
________________
 62
     7
 10
64.52249999999998
 20
102.95
 30
0.0
 11
64.52249999999998
 21
95.74999999999994
 31
0.0
  0
LINE
  5
89
  8
1
  6
________________
 62
     7
 10
64.52249999999998
 20
95.74999999999994
 30
0.0
 11
65.52249999999998
 21
94.74999999999994
 31
0.0
  0
LINE
  5
8A
  8
1
  6
________________
 62
     7
 10
84.4775
 20
94.74999999999994
 30
0.0
 11
85.4775
 21
95.74999999999994
 31
0.0
  0
LINE
  5
8B
  8
1
  6
________________
 62
     7
 10
85.4775
 20
102.95
 30
0.0
 11
84.4775
 21
103.95
 31
0.0
  0
LINE
  5
8C
  8
1
  6
________________
 62
     7
 10
65.52249999999998
 20
103.95
 30
0.0
 11
64.52249999999998
 21
102.95
 31
0.0
  0
LINE
  5
8D
  8
1
  6
________________
 62
     7
 10
84.3155
 20
103.95
 30
0.0
 11
84.3155
 21
106.7500000000001
 31
0.0
  0
LINE
  5
8E
  8
1
  6
________________
 62
     7
 10
65.68449999999997
 20
106.7500000000001
 30
0.0
 11
65.68449999999997
 21
103.95
 31
0.0
  0
LINE
  5
8F
  8
1
  6
________________
 62
     7
 10
91.75
 20
131.7500000000001
 30
0.0
 11
91.75
 21
136.5
 31
0.0
  0
LINE
  5
90
  8
1
  6
________________
 62
     7
 10
58.24999999999999
 20
136.5
 30
0.0
 11
58.24999999999999
 21
131.7500000000001
 31
0.0
  0
LINE
  5
91
  8
1
  6
________________
 62
     7
 10
57.99999999999999
 20
131.7500000000001
 30
0.0
 11
57.99999999999999
 21
108.2500000000001
 31
0.0
  0
LINE
  5
92
  8
1
  6
________________
 62
     7
 10
92.0
 20
108.2500000000001
 30
0.0
 11
92.0
 21
131.7500000000001
 31
0.0
  0
LINE
  5
93
  8
1
  6
________________
 62
     7
 10
88.25
 20
137.9500000000001
 30
0.0
 11
88.25
 21
141.4500000000001
 31
0.0
  0
LINE
  5
94
  8
1
  6
________________
 62
     7
 10
61.75
 20
141.4500000000001
 30
0.0
 11
61.75
 21
137.9500000000001
 31
0.0
  0
LINE
  5
95
  8
1
  6
________________
 62
     7
 10
88.25
 20
147.8500000000001
 30
0.0
 11
88.25000000000001
 21
152.5136351612455
 31
0.0
  0
LINE
  5
96
  8
1
  6
________________
 62
     7
 10
61.75
 20
152.5136351612455
 30
0.0
 11
61.75
 21
147.8500000000001
 31
0.0
  0
LINE
  5
97
  8
1
  6
________________
 62
     7
 10
61.75
 20
137.9500000000001
 30
0.0
 11
61.95
 21
137.7500000000001
 31
0.0
  0
LINE
  5
98
  8
1
  6
________________
 62
     7
 10
88.05
 20
137.7500000000001
 30
0.0
 11
88.25
 21
137.9500000000001
 31
0.0
  0
LINE
  5
99
  8
1
  6
________________
 62
     7
 10
61.75
 20
147.8500000000001
 30
0.0
 11
62.45
 21
147.1500000000001
 31
0.0
  0
LINE
  5
9A
  8
1
  6
________________
 62
     7
 10
87.55
 20
147.1500000000001
 30
0.0
 11
88.25
 21
147.8500000000001
 31
0.0
  0
LINE
  5
9B
  8
1
  6
________________
 62
     7
 10
88.25
 20
141.4500000000001
 30
0.0
 11
87.55
 21
142.1500000000001
 31
0.0
  0
LINE
  5
9C
  8
1
  6
________________
 62
     7
 10
62.44999999999999
 20
142.1500000000001
 30
0.0
 11
61.75
 21
141.4500000000001
 31
0.0
  0
LINE
  5
9D
  8
1
  6
________________
 62
     7
 10
88.25000000000001
 20
152.5136351612455
 30
0.0
 11
87.8
 21
153.7500000000001
 31
0.0
  0
LINE
  5
9E
  8
1
  6
________________
 62
     7
 10
62.2
 20
153.7500000000001
 30
0.0
 11
61.75
 21
152.5136351612455
 31
0.0
  0
LINE
  5
9F
  8
1
  6
________________
 62
     7
 10
88.20000000000002
 20
156.3267658063818
 30
0.0
 11
88.10307379214092
 21
156.593068373828
 31
0.0
  0
LINE
  5
A0
  8
1
  6
________________
 62
     7
 10
61.89692620785908
 20
156.593068373828
 30
0.0
 11
61.79999999999999
 21
156.3267658063818
 31
0.0
  0
LINE
  5
A1
  8
1
  6
________________
 62
     7
 10
88.20000000000002
 20
155.4000000000001
 30
0.0
 11
88.20000000000002
 21
156.3267658063818
 31
0.0
  0
LINE
  5
A2
  8
1
  6
________________
 62
     7
 10
61.79999999999999
 20
156.3267658063818
 30
0.0
 11
61.79999999999999
 21
155.4000000000001
 31
0.0
  0
LINE
  5
A3
  8
1
  6
________________
 62
     7
 10
61.79999999999999
 20
155.4000000000001
 30
0.0
 11
61.95
 21
155.2500000000001
 31
0.0
  0
LINE
  5
A4
  8
1
  6
________________
 62
     7
 10
88.05000000000001
 20
155.2500000000001
 30
0.0
 11
88.20000000000002
 21
155.4000000000001
 31
0.0
  0
ARC
  5
A5
  8
1
  6
________________
 62
     7
 10
-97.5
 20
160.0132698070847
 30
0.0
 40
9.999999999999984
 50
340.0000000000001
 51
0.0
210
0.0
220
0.0
230
-1.0
  0
ARC
  5
A6
  8
1
  6
________________
 62
     7
 10
-52.49999999999999
 20
160.0132698070847
 30
0.0
 40
10.00000000000001
 50
180.0
 51
200.0
210
0.0
220
0.0
230
-1.0
  0
ARC
  5
A7
  8
1
  6
________________
 62
     7
 10
-87.95000000000002
 20
155.1000000000001
 30
0.0
 40
0.1500000000000112
 50
0.0000000000000035
 51
90.0
210
0.0
220
0.0
230
-1.0
  0
ARC
  5
A8
  8
1
  6
________________
 62
     7
 10
-62.04999999999999
 20
155.1000000000001
 30
0.0
 40
0.1499999999999835
 50
90.00000000000001
 51
180.0
210
0.0
220
0.0
230
-1.0
  0
LINE
  5
A9
  8
1
  6
________________
 62
     7
 10
87.8
 20
153.7500000000001
 30
0.0
 11
87.8
 21
155.1000000000001
 31
0.0
  0
LINE
  5
AA
  8
1
  6
________________
 62
     7
 10
62.2
 20
155.1000000000001
 30
0.0
 11
62.2
 21
153.7500000000001
 31
0.0
  0
LINE
  5
AB
  8
1
  6
________________
 62
     7
 10
87.5
 20
160.0132698070847
 30
0.0
 11
87.5
 21
169.429410453325
 31
0.0
  0
LINE
  5
AC
  8
1
  6
________________
 62
     7
 10
62.5
 20
169.429410453325
 30
0.0
 11
62.5
 21
160.0132698070847
 31
0.0
  0
LINE
  5
AD
  8
1
  6
________________
 62
     7
 10
87.5
 20
169.429410453325
 30
0.0
 11
86.65
 21
174.2500000000001
 31
0.0
  0
LINE
  5
AE
  8
1
  6
________________
 62
     7
 10
63.35
 20
174.2500000000001
 30
0.0
 11
62.5
 21
169.429410453325
 31
0.0
  0
ARC
  5
AF
  8
1
  6
________________
 62
     7
 10
67.85000000000001
 20
174.4500000000001
 30
0.0
 40
0.7999999999999952
 50
90.0
 51
180.0
  0
ARC
  5
B0
  8
1
  6
________________
 62
     7
 10
82.15000000000002
 20
174.4500000000001
 30
0.0
 40
0.7999999999999952
 50
0.0
 51
90.0
  0
LINE
  5
B1
  8
1
  6
________________
 62
     7
 10
82.95
 20
174.2500000000001
 30
0.0
 11
82.95
 21
174.4500000000001
 31
0.0
  0
LINE
  5
B2
  8
1
  6
________________
 62
     7
 10
67.05
 20
174.4500000000001
 30
0.0
 11
67.05
 21
174.2500000000001
 31
0.0
  0
ENDBLK
  8
0
  0
BLOCK
  8
0
  2
_1716
 70
     0
 10
0.0
 20
0.0
 30
0.0
  0
LINE
  5
B8
  8
1
  6
________________
 62
     7
 10
136.9749371855331
 20
131.7500000000001
 30
0.0
 11
143.0250628144669
 21
131.7500000000001
 31
0.0
  0
LINE
  5
B9
  8
1
  6
________________
 62
     7
 10
143.0250628144669
 20
131.7500000000001
 30
0.0
 11
143.0250628144669
 21
108.2500000000001
 31
0.0
  0
LINE
  5
BA
  8
1
  6
________________
 62
     7
 10
136.9749371855331
 20
108.2500000000001
 30
0.0
 11
143.0250628144669
 21
108.2500000000001
 31
0.0
  0
LINE
  5
BB
  8
1
  6
________________
 62
     7
 10
136.9749371855331
 20
108.2500000000001
 30
0.0
 11
136.9749371855331
 21
131.7500000000001
 31
0.0
  0
LINE
  5
BC
  8
1
  6
________________
 62
     7
 10
124.5
 20
106.7500000000001
 30
0.0
 11
155.5
 21
106.7500000000001
 31
0.0
  0
LINE
  5
BD
  8
1
  6
________________
 62
     7
 10
124.0
 20
107.2500000029653
 30
0.0
 11
124.0
 21
108.25
 31
0.0
  0
LINE
  5
BE
  8
1
  6
________________
 62
     7
 10
124.0
 20
108.2500000000001
 30
0.0
 11
127.0250628144669
 21
108.2500000000001
 31
0.0
  0
ARC
  5
BF
  8
1
  6
________________
 62
     7
 10
132.0
 20
120.1279900481895
 30
0.0
 40
12.87775786326511
 50
247.2742795208937
 51
292.7257204791063
  0
ARC
  5
C0
  8
1
  6
________________
 62
     7
 10
148.0
 20
120.1279900481894
 30
0.0
 40
12.87775786326505
 50
247.2742795208936
 51
292.7257204791063
  0
LINE
  5
C1
  8
1
  6
________________
 62
     7
 10
152.9749371855331
 20
108.2500000000001
 30
0.0
 11
156.0
 21
108.2500000000001
 31
0.0
  0
LINE
  5
C2
  8
1
  6
________________
 62
     7
 10
156.0
 20
108.25
 30
0.0
 11
156.0
 21
107.2500000034497
 31
0.0
  0
LINE
  5
C3
  8
1
  6
________________
 62
     7
 10
143.7079288216526
 20
131.7500000000001
 30
0.0
 11
143.7079288216527
 21
136.5
 31
0.0
  0
LINE
  5
C4
  8
1
  6
________________
 62
     7
 10
136.2920711783474
 20
136.5
 30
0.0
 11
136.2920711783474
 21
131.7500000000001
 31
0.0
  0
LINE
  5
C5
  8
1
  6
________________
 62
     7
 10
136.2920711783474
 20
136.5
 30
0.0
 11
143.7079288216527
 21
136.5
 31
0.0
  0
LINE
  5
C6
  8
1
  6
________________
 62
     7
 10
156.0
 20
137.2499999970349
 30
0.0
 11
156.0
 21
136.5000000000001
 31
0.0
  0
LINE
  5
C7
  8
1
  6
________________
 62
     7
 10
124.5
 20
137.7500000000001
 30
0.0
 11
155.5
 21
137.7500000000001
 31
0.0
  0
LINE
  5
C8
  8
1
  6
________________
 62
     7
 10
152.2920711783473
 20
136.5
 30
0.0
 11
156.0
 21
136.5
 31
0.0
  0
ARC
  5
C9
  8
1
  6
________________
 62
     7
 10
148.0
 20
124.5876977349537
 30
0.0
 40
12.66194377865529
 50
70.18561609753566
 51
109.8143839024645
  0
ARC
  5
CA
  8
1
  6
________________
 62
     7
 10
132.0
 20
124.5876977349533
 30
0.0
 40
12.66194377865568
 50
70.1856160975359
 51
109.8143839024641
  0
LINE
  5
CB
  8
1
  6
________________
 62
     7
 10
124.0
 20
136.5
 30
0.0
 11
127.7079288216526
 21
136.5
 31
0.0
  0
LINE
  5
CC
  8
1
  6
________________
 62
     7
 10
124.0
 20
136.5
 30
0.0
 11
124.0
 21
137.2499999965504
 31
0.0
  0
LINE
  5
CD
  8
1
  6
________________
 62
     7
 10
152.2920711783473
 20
136.5
 30
0.0
 11
152.2920711783473
 21
131.7500000000001
 31
0.0
  0
LINE
  5
CE
  8
1
  6
________________
 62
     7
 10
152.9749371855331
 20
131.7500000000001
 30
0.0
 11
152.2920711783473
 21
131.7500000000001
 31
0.0
  0
LINE
  5
CF
  8
1
  6
________________
 62
     7
 10
152.9749371855331
 20
108.2500000000001
 30
0.0
 11
152.9749371855331
 21
131.7500000000001
 31
0.0
  0
LINE
  5
D0
  8
1
  6
________________
 62
     7
 10
143.7079288216526
 20
131.7500000000001
 30
0.0
 11
143.0250628144669
 21
131.7500000000001
 31
0.0
  0
LINE
  5
D1
  8
1
  6
________________
 62
     7
 10
127.7079288216526
 20
131.7500000000001
 30
0.0
 11
127.0250628144669
 21
131.7500000000001
 31
0.0
  0
LINE
  5
D2
  8
1
  6
________________
 62
     7
 10
127.7079288216526
 20
131.7500000000001
 30
0.0
 11
127.7079288216526
 21
136.5
 31
0.0
  0
LINE
  5
D3
  8
1
  6
________________
 62
     7
 10
127.0250628144669
 20
131.7500000000001
 30
0.0
 11
127.0250628144669
 21
108.2500000000001
 31
0.0
  0
LINE
  5
D4
  8
1
  6
________________
 62
     7
 10
136.9749371855331
 20
131.7500000000001
 30
0.0
 11
136.2920711783474
 21
131.7500000000001
 31
0.0
  0
LINE
  5
D5
  8
1
  6
________________
 62
     7
 10
156.0
 20
131.7500000000001
 30
0.0
 11
156.0
 21
136.5
 31
0.0
  0
LINE
  5
D6
  8
1
  6
________________
 62
     7
 10
124.0
 20
136.5
 30
0.0
 11
124.0
 21
131.7500000000001
 31
0.0
  0
LINE
  5
D7
  8
1
  6
________________
 62
     7
 10
156.0
 20
131.7500000000001
 30
0.0
 11
156.0
 21
108.2500000000001
 31
0.0
  0
LINE
  5
D8
  8
1
  6
________________
 62
     7
 10
152.9749371855331
 20
131.7500000000001
 30
0.0
 11
156.0
 21
131.7500000000001
 31
0.0
  0
LINE
  5
D9
  8
1
  6
________________
 62
     7
 10
124.0
 20
108.2500000000001
 30
0.0
 11
124.0
 21
131.7500000000001
 31
0.0
  0
LINE
  5
DA
  8
1
  6
________________
 62
     7
 10
124.0
 20
131.7500000000001
 30
0.0
 11
127.0250628144669
 21
131.7500000000001
 31
0.0
  0
LINE
  5
DB
  8
1
  6
________________
 62
     7
 10
130.5225
 20
103.95
 30
0.0
 11
149.4775
 21
103.95
 31
0.0
  0
LINE
  5
DC
  8
1
  6
________________
 62
     7
 10
150.4775
 20
102.95
 30
0.0
 11
129.5225
 21
102.95
 31
0.0
  0
LINE
  5
DD
  8
1
  6
________________
 62
     7
 10
129.5225
 20
95.74999999999994
 30
0.0
 11
150.4775
 21
95.74999999999994
 31
0.0
  0
LINE
  5
DE
  8
1
  6
________________
 62
     7
 10
149.4775
 20
94.74999999999994
 30
0.0
 11
130.5225
 21
94.74999999999994
 31
0.0
  0
LINE
  5
DF
  8
1
  6
________________
 62
     7
 10
153.25
 20
152.5136351612455
 30
0.0
 11
126.75
 21
152.5136351612455
 31
0.0
  0
LINE
  5
E0
  8
1
  6
________________
 62
     7
 10
152.8
 20
153.7500000000001
 30
0.0
 11
127.2
 21
153.7500000000001
 31
0.0
  0
LINE
  5
E1
  8
1
  6
________________
 62
     7
 10
126.75
 20
147.8500000000001
 30
0.0
 11
153.25
 21
147.8500000000001
 31
0.0
  0
LINE
  5
E2
  8
1
  6
________________
 62
     7
 10
126.75
 20
137.9500000000001
 30
0.0
 11
153.25
 21
137.9500000000001
 31
0.0
  0
LINE
  5
E3
  8
1
  6
________________
 62
     7
 10
153.25
 20
141.4500000000001
 30
0.0
 11
126.75
 21
141.4500000000001
 31
0.0
  0
LINE
  5
E4
  8
1
  6
________________
 62
     7
 10
152.55
 20
147.1500000000001
 30
0.0
 11
148.746570756588
 21
147.1500000000001
 31
0.0
  0
LINE
  5
E5
  8
1
  6
________________
 62
     7
 10
148.746570756588
 20
147.1500000000001
 30
0.0
 11
131.253429243412
 21
147.1500000000001
 31
0.0
  0
LINE
  5
E6
  8
1
  6
________________
 62
     7
 10
131.253429243412
 20
147.1500000000001
 30
0.0
 11
127.45
 21
147.1500000000001
 31
0.0
  0
LINE
  5
E7
  8
1
  6
________________
 62
     7
 10
131.253429243412
 20
142.1500000000001
 30
0.0
 11
127.45
 21
142.1500000000001
 31
0.0
  0
LINE
  5
E8
  8
1
  6
________________
 62
     7
 10
131.253429243412
 20
142.1500000000001
 30
0.0
 11
148.746570756588
 21
142.1500000000001
 31
0.0
  0
LINE
  5
E9
  8
1
  6
________________
 62
     7
 10
152.55
 20
142.1500000000001
 30
0.0
 11
148.746570756588
 21
142.1500000000001
 31
0.0
  0
LINE
  5
EA
  8
1
  6
________________
 62
     7
 10
126.8
 20
155.4000000000001
 30
0.0
 11
153.2
 21
155.4000000000001
 31
0.0
  0
LINE
  5
EB
  8
1
  6
________________
 62
     7
 10
153.05
 20
155.2500000000001
 30
0.0
 11
126.95
 21
155.2500000000001
 31
0.0
  0
LINE
  5
EC
  8
1
  6
________________
 62
     7
 10
153.2
 20
156.3267658063818
 30
0.0
 11
126.8
 21
156.3267658063818
 31
0.0
  0
LINE
  5
ED
  8
1
  6
________________
 62
     7
 10
152.5
 20
169.429410453325
 30
0.0
 11
127.5
 21
169.429410453325
 31
0.0
  0
LINE
  5
EE
  8
1
  6
________________
 62
     7
 10
151.65
 20
174.2500000000001
 30
0.0
 11
128.35
 21
174.2500000000001
 31
0.0
  0
LINE
  5
EF
  8
1
  6
________________
 62
     7
 10
147.115594767275
 20
147.1500000000001
 30
0.0
 11
147.115594767275
 21
142.1500000000001
 31
0.0
  0
LINE
  5
F0
  8
1
  6
________________
 62
     7
 10
132.8844052327251
 20
142.1500000000001
 30
0.0
 11
132.8844052327251
 21
147.1500000000001
 31
0.0
  0
ARC
  5
F1
  8
1
  6
________________
 62
     7
 10
115.1515045926784
 20
144.6500000000001
 30
0.0
 40
12.55001949336776
 50
348.5096506224824
 51
11.49034937751776
  0
LINE
  5
F2
  8
1
  6
________________
 62
     7
 10
131.253429243412
 20
142.1500000000001
 30
0.0
 11
131.253429243412
 21
147.1500000000001
 31
0.0
  0
LINE
  5
F3
  8
1
  6
________________
 62
     7
 10
148.746570756588
 20
147.1500000000001
 30
0.0
 11
148.746570756588
 21
142.1500000000001
 31
0.0
  0
ARC
  5
F4
  8
1
  6
________________
 62
     7
 10
164.849510124762
 20
144.6500000000001
 30
0.0
 40
12.55101387574417
 50
168.5105733735489
 51
191.489426626451
  0
LINE
  5
F5
  8
1
  6
________________
 62
     7
 10
152.55
 20
142.1500000000001
 30
0.0
 11
152.5483223274496
 21
142.1584355851053
 31
0.0
  0
LINE
  5
F6
  8
1
  6
________________
 62
     7
 10
132.85
 20
175.2500000000001
 30
0.0
 11
147.15
 21
175.2500000000001
 31
0.0
  0
LINE
  5
F7
  8
1
  6
________________
 62
     7
 10
124.0
 20
107.2500000000001
 30
0.0
 11
124.5
 21
106.7500000000001
 31
0.0
  0
LINE
  5
F8
  8
1
  6
________________
 62
     7
 10
155.5
 20
106.7500000000001
 30
0.0
 11
156.0
 21
107.2500000000001
 31
0.0
  0
LINE
  5
F9
  8
1
  6
________________
 62
     7
 10
156.0
 20
137.25
 30
0.0
 11
155.5
 21
137.7500000000001
 31
0.0
  0
LINE
  5
FA
  8
1
  6
________________
 62
     7
 10
124.5
 20
137.7500000000001
 30
0.0
 11
124.0
 21
137.25
 31
0.0
  0
LINE
  5
FB
  8
1
  6
________________
 62
     7
 10
150.4775
 20
102.95
 30
0.0
 11
149.4775
 21
103.95
 31
0.0
  0
LINE
  5
FC
  8
1
  6
________________
 62
     7
 10
130.5225
 20
103.95
 30
0.0
 11
129.5225
 21
102.95
 31
0.0
  0
LINE
  5
FD
  8
1
  6
________________
 62
     7
 10
129.5225
 20
95.74999999999994
 30
0.0
 11
130.5225
 21
94.74999999999994
 31
0.0
  0
LINE
  5
FE
  8
1
  6
________________
 62
     7
 10
149.4775
 20
94.74999999999994
 30
0.0
 11
150.4775
 21
95.74999999999994
 31
0.0
  0
LINE
  5
FF
  8
1
  6
________________
 62
     7
 10
150.4775
 20
95.74999999999994
 30
0.0
 11
150.4775
 21
102.95
 31
0.0
  0
LINE
  5
100
  8
1
  6
________________
 62
     7
 10
129.5225
 20
102.95
 30
0.0
 11
129.5225
 21
95.74999999999994
 31
0.0
  0
LINE
  5
101
  8
1
  6
________________
 62
     7
 10
149.3155
 20
103.95
 30
0.0
 11
149.3155
 21
106.7500000000001
 31
0.0
  0
LINE
  5
102
  8
1
  6
________________
 62
     7
 10
130.6845
 20
106.7500000000001
 30
0.0
 11
130.6845
 21
103.95
 31
0.0
  0
LINE
  5
103
  8
1
  6
________________
 62
     7
 10
153.25
 20
152.5136351612455
 30
0.0
 11
152.8
 21
153.7500000000001
 31
0.0
  0
LINE
  5
104
  8
1
  6
________________
 62
     7
 10
127.2
 20
153.7500000000001
 30
0.0
 11
126.75
 21
152.5136351612455
 31
0.0
  0
LINE
  5
105
  8
1
  6
________________
 62
     7
 10
153.25
 20
147.8500000000001
 30
0.0
 11
153.25
 21
152.5136351612455
 31
0.0
  0
LINE
  5
106
  8
1
  6
________________
 62
     7
 10
126.75
 20
152.5136351612455
 30
0.0
 11
126.75
 21
147.8500000000001
 31
0.0
  0
LINE
  5
107
  8
1
  6
________________
 62
     7
 10
153.25
 20
137.9500000000001
 30
0.0
 11
153.25
 21
141.4500000000001
 31
0.0
  0
LINE
  5
108
  8
1
  6
________________
 62
     7
 10
126.75
 20
141.4500000000001
 30
0.0
 11
126.75
 21
137.9500000000001
 31
0.0
  0
LINE
  5
109
  8
1
  6
________________
 62
     7
 10
126.75
 20
147.8500000000001
 30
0.0
 11
127.45
 21
147.1500000000001
 31
0.0
  0
LINE
  5
10A
  8
1
  6
________________
 62
     7
 10
152.55
 20
147.1500000000001
 30
0.0
 11
153.25
 21
147.8500000000001
 31
0.0
  0
LINE
  5
10B
  8
1
  6
________________
 62
     7
 10
126.75
 20
137.9500000000001
 30
0.0
 11
126.95
 21
137.7500000000001
 31
0.0
  0
LINE
  5
10C
  8
1
  6
________________
 62
     7
 10
153.05
 20
137.7500000000001
 30
0.0
 11
153.25
 21
137.9500000000001
 31
0.0
  0
LINE
  5
10D
  8
1
  6
________________
 62
     7
 10
153.25
 20
141.4500000000001
 30
0.0
 11
152.55
 21
142.1500000000001
 31
0.0
  0
LINE
  5
10E
  8
1
  6
________________
 62
     7
 10
127.45
 20
142.1500000000001
 30
0.0
 11
126.75
 21
141.4500000000001
 31
0.0
  0
LINE
  5
10F
  8
1
  6
________________
 62
     7
 10
126.8
 20
155.4000000000001
 30
0.0
 11
126.95
 21
155.2500000000001
 31
0.0
  0
LINE
  5
110
  8
1
  6
________________
 62
     7
 10
153.05
 20
155.2500000000001
 30
0.0
 11
153.2
 21
155.4000000000001
 31
0.0
  0
LINE
  5
111
  8
1
  6
________________
 62
     7
 10
153.2
 20
155.4000000000001
 30
0.0
 11
153.2
 21
156.3267658063818
 31
0.0
  0
LINE
  5
112
  8
1
  6
________________
 62
     7
 10
126.8
 20
156.3267658063818
 30
0.0
 11
126.8
 21
155.4000000000001
 31
0.0
  0
LINE
  5
113
  8
1
  6
________________
 62
     7
 10
153.2
 20
156.3267658063818
 30
0.0
 11
153.1030737921409
 21
156.593068373828
 31
0.0
  0
LINE
  5
114
  8
1
  6
________________
 62
     7
 10
126.8969262078591
 20
156.593068373828
 30
0.0
 11
126.8
 21
156.3267658063818
 31
0.0
  0
ARC
  5
115
  8
1
  6
________________
 62
     7
 10
-162.5
 20
160.0132698070847
 30
0.0
 40
9.999999999999998
 50
340.0000000000001
 51
0.0
210
0.0
220
0.0
230
-1.0
  0
ARC
  5
116
  8
1
  6
________________
 62
     7
 10
-117.5
 20
160.0132698070847
 30
0.0
 40
9.999999999999995
 50
180.0
 51
200.0
210
0.0
220
0.0
230
-1.0
  0
ARC
  5
117
  8
1
  6
________________
 62
     7
 10
-152.95
 20
155.1000000000001
 30
0.0
 40
0.1500000000000112
 50
0.0
 51
90.0
210
0.0
220
0.0
230
-1.0
  0
ARC
  5
118
  8
1
  6
________________
 62
     7
 10
-127.05
 20
155.1000000000001
 30
0.0
 40
0.1499999999999835
 50
90.0
 51
180.0
210
0.0
220
0.0
230
-1.0
  0
LINE
  5
119
  8
1
  6
________________
 62
     7
 10
152.8
 20
153.7500000000001
 30
0.0
 11
152.8
 21
155.1000000000001
 31
0.0
  0
LINE
  5
11A
  8
1
  6
________________
 62
     7
 10
127.2
 20
155.1000000000001
 30
0.0
 11
127.2
 21
153.7500000000001
 31
0.0
  0
LINE
  5
11B
  8
1
  6
________________
 62
     7
 10
152.5
 20
160.0132698070847
 30
0.0
 11
152.5
 21
169.429410453325
 31
0.0
  0
LINE
  5
11C
  8
1
  6
________________
 62
     7
 10
127.5
 20
169.429410453325
 30
0.0
 11
127.5
 21
160.0132698070847
 31
0.0
  0
LINE
  5
11D
  8
1
  6
________________
 62
     7
 10
152.5
 20
169.429410453325
 30
0.0
 11
151.65
 21
174.2500000000001
 31
0.0
  0
LINE
  5
11E
  8
1
  6
________________
 62
     7
 10
128.35
 20
174.2500000000001
 30
0.0
 11
127.5
 21
169.429410453325
 31
0.0
  0
LINE
  5
11F
  8
1
  6
________________
 62
     7
 10
147.95
 20
174.2500000000001
 30
0.0
 11
147.95
 21
174.4500000000001
 31
0.0
  0
LINE
  5
120
  8
1
  6
________________
 62
     7
 10
132.05
 20
174.4500000000001
 30
0.0
 11
132.05
 21
174.2500000000001
 31
0.0
  0
ARC
  5
121
  8
1
  6
________________
 62
     7
 10
132.85
 20
174.4500000000001
 30
0.0
 40
0.7999999999999952
 50
90.0
 51
180.0
  0
ARC
  5
122
  8
1
  6
________________
 62
     7
 10
147.15
 20
174.4500000000001
 30
0.0
 40
0.7999999999999952
 50
0.0
 51
90.0
  0
ENDBLK
  8
0
  0
BLOCK
  8
0
  2
_1796
 70
     0
 10
0.0
 20
0.0
 30
0.0
  0
CIRCLE
  5
127
  8
1
  6
________________
 62
     7
 10
75.0
 20
210.0
 30
0.0
 40
10.74999999999999
  0
CIRCLE
  5
128
  8
1
  6
________________
 62
     7
 10
75.0
 20
210.0
 30
0.0
 40
8.749999999999993
  0
CIRCLE
  5
129
  8
1
  6
________________
 62
     7
 10
75.0
 20
210.0
 30
0.0
 40
15.49999999999997
  0
ARC
  5
12A
  8
1
  6
________________
 62
     7
 10
75.0
 20
210.0
 30
0.0
 40
16.75000000000001
 50
227.210553088011
 51
252.7894469119889
  0
LINE
  5
12B
  8
1
  6
________________
 62
     7
 10
63.62162198964888
 20
197.7079288216526
 30
0.0
 11
58.66556508924909
 21
206.2920711783474
 31
0.0
  0
ARC
  5
12C
  8
1
  6
________________
 62
     7
 10
75.0
 20
210.0
 30
0.0
 40
16.75000000000001
 50
167.2105530880109
 51
192.789446911989
  0
LINE
  5
12D
  8
1
  6
________________
 62
     7
 10
58.66556508924909
 20
213.7079288216526
 30
0.0
 11
63.62162198964882
 21
222.2920711783473
 31
0.0
  0
ARC
  5
12E
  8
1
  6
________________
 62
     7
 10
75.0
 20
210.0
 30
0.0
 40
16.75
 50
107.2105530880107
 51
132.7894469119892
  0
LINE
  5
12F
  8
1
  6
________________
 62
     7
 10
70.0439430996003
 20
226.0
 30
0.0
 11
79.95605690039972
 21
226.0
 31
0.0
  0
ARC
  5
130
  8
1
  6
________________
 62
     7
 10
75.0
 20
210.0
 30
0.0
 40
16.75
 50
47.21055308801073
 51
72.78944691198923
  0
LINE
  5
131
  8
1
  6
________________
 62
     7
 10
86.37837801035117
 20
222.2920711783473
 30
0.0
 11
91.3344349107509
 21
213.7079288216526
 31
0.0
  0
ARC
  5
132
  8
1
  6
________________
 62
     7
 10
75.0
 20
210.0
 30
0.0
 40
16.75000000000001
 50
347.210553088011
 51
12.78944691198916
  0
LINE
  5
133
  8
1
  6
________________
 62
     7
 10
91.33443491075091
 20
206.2920711783474
 30
0.0
 11
86.37837801035111
 21
197.7079288216526
 31
0.0
  0
ARC
  5
134
  8
1
  6
________________
 62
     7
 10
75.0
 20
210.0
 30
0.0
 40
16.75
 50
287.2105530880111
 51
312.7894469119889
  0
LINE
  5
135
  8
1
  6
________________
 62
     7
 10
79.95605690039982
 20
194.0
 30
0.0
 11
70.04394309960018
 21
194.0
 31
0.0
  0
ARC
  5
136
  8
1
  6
________________
 62
     7
 10
75.0
 20
210.0
 30
0.0
 40
16.99999999999999
 50
229.7499227956425
 51
250.2500772043574
  0
LINE
  5
137
  8
1
  6
________________
 62
     7
 10
64.01587486271798
 20
197.0250628144669
 30
0.0
 11
63.62162198964888
 21
197.7079288216526
 31
0.0
  0
LINE
  5
138
  8
1
  6
________________
 62
     7
 10
70.04394309960017
 20
194.0
 30
0.0
 11
69.25543735346197
 21
194.0
 31
0.0
  0
ARC
  5
139
  8
1
  6
________________
 62
     7
 10
75.0
 20
210.0
 30
0.0
 40
17.00000000000003
 50
109.7499227956424
 51
130.2500772043575
  0
LINE
  5
13A
  8
1
  6
________________
 62
     7
 10
63.62162198964882
 20
222.2920711783473
 30
0.0
 11
64.01587486271796
 21
222.9749371855331
 31
0.0
  0
LINE
  5
13B
  8
1
  6
________________
 62
     7
 10
69.255437353462
 20
226.0
 30
0.0
 11
70.04394309960028
 21
226.0
 31
0.0
  0
ARC
  5
13C
  8
1
  6
________________
 62
     7
 10
-75.0
 20
210.0
 30
0.0
 40
17.0
 50
349.7499227956425
 51
10.25007720435741
210
0.0
220
0.0
230
-1.0
  0
LINE
  5
13D
  8
1
  6
________________
 62
     7
 10
58.27131221617996
 20
213.0250628144669
 30
0.0
 11
58.66556508924909
 21
213.7079288216526
 31
0.0
  0
LINE
  5
13E
  8
1
  6
________________
 62
     7
 10
58.66556508924909
 20
206.2920711783474
 30
0.0
 11
58.27131221617995
 21
206.9749371855331
 31
0.0
  0
ARC
  5
13F
  8
1
  6
________________
 62
     7
 10
75.0
 20
210.0
 30
0.0
 40
17.00000000000001
 50
49.7499227956425
 51
70.25007720435747
  0
LINE
  5
140
  8
1
  6
________________
 62
     7
 10
79.95605690039972
 20
226.0
 30
0.0
 11
80.74456264653803
 21
226.0
 31
0.0
  0
LINE
  5
141
  8
1
  6
________________
 62
     7
 10
85.98412513728202
 20
222.9749371855331
 30
0.0
 11
86.37837801035117
 21
222.2920711783473
 31
0.0
  0
ARC
  5
142
  8
1
  6
________________
 62
     7
 10
75.0
 20
210.0
 30
0.0
 40
16.99999999999999
 50
289.7499227956425
 51
310.2500772043575
  0
LINE
  5
143
  8
1
  6
________________
 62
     7
 10
86.37837801035113
 20
197.7079288216526
 30
0.0
 11
85.984125137282
 21
197.0250628144669
 31
0.0
  0
LINE
  5
144
  8
1
  6
________________
 62
     7
 10
80.74456264653803
 20
194.0
 30
0.0
 11
79.95605690039982
 21
194.0
 31
0.0
  0
ARC
  5
145
  8
1
  6
________________
 62
     7
 10
75.0
 20
210.0
 30
0.0
 40
17.0
 50
349.7499227956427
 51
10.25007720435752
  0
LINE
  5
146
  8
1
  6
________________
 62
     7
 10
91.33443491075091
 20
213.7079288216526
 30
0.0
 11
91.72868778382004
 21
213.0250628144669
 31
0.0
  0
LINE
  5
147
  8
1
  6
________________
 62
     7
 10
91.72868778382004
 20
206.9749371855331
 30
0.0
 11
91.33443491075091
 21
206.2920711783474
 31
0.0
  0
CIRCLE
  5
148
  8
1
  6
________________
 62
     7
 10
-75.00000000000001
 20
210.0
 30
0.0
 40
11.65000000000001
210
0.0
220
0.0
230
-1.0
  0
CIRCLE
  5
149
  8
1
  6
________________
 62
     7
 10
-75.00000000000001
 20
210.0
 30
0.0
 40
12.50000000000001
210
0.0
220
0.0
230
-1.0
  0
CIRCLE
  5
14A
  8
1
  6
________________
 62
     7
 10
75.00000000000001
 20
210.0
 30
0.0
 40
10.85
  0
CIRCLE
  5
14B
  8
1
  6
________________
 62
     7
 10
-75.0
 20
210.0
 30
0.0
 40
13.2
210
0.0
220
0.0
230
-1.0
  0
CIRCLE
  5
14C
  8
1
  6
________________
 62
     7
 10
-75.0
 20
210.0
 30
0.0
 40
13.24999999999999
210
0.0
220
0.0
230
-1.0
  0
CIRCLE
  5
14D
  8
1
  6
________________
 62
     7
 10
-75.0
 20
210.0
 30
0.0
 40
10.84400000000001
210
0.0
220
0.0
230
-1.0
  0
POLYLINE
  5
14E
  8
1
  6
________________
 62
     7
 10
0.0
 20
0.0
 30
0.0
 66
     1
 70
     8
  0
VERTEX
  5
14F
  8
1
  6
________________
 62
     7
 10
71.23959607122407
 20
202.2546354037094
 30
0.0
 70
    32
  0
VERTEX
  5
150
  8
1
  6
________________
 62
     7
 10
71.32103533323529
 20
202.1648788371916
 30
0.0
 70
    32
  0
VERTEX
  5
151
  8
1
  6
________________
 62
     7
 10
71.4028991247462
 20
202.0956009947678
 30
0.0
 70
    32
  0
SEQEND
  5
159
  8
1
  6
________________
 62
     7
  0
ARC
  5
152
  8
1
  6
________________
 62
     7
 10
72.12931969781941
 20
203.0687111733918
 30
0.0
 40
1.214343554652259
 50
233.2588941462942
 51
260.4874368164274
  0
POLYLINE
  5
153
  8
1
  6
________________
 62
     7
 10
0.0
 20
0.0
 30
0.0
 66
     1
 70
     8
  0
VERTEX
  5
154
  8
1
  6
________________
 62
     7
 10
71.92863259015742
 20
201.8710655857726
 30
0.0
 70
    32
  0
VERTEX
  5
155
  8
1
  6
________________
 62
     7
 10
72.04111640272296
 20
201.8590655703589
 30
0.0
 70
    32
  0
VERTEX
  5
156
  8
1
  6
________________
 62
     7
 10
72.155532810959
 20
201.8612230327472
 30
0.0
 70
    32
  0
VERTEX
  5
157
  8
1
  6
________________
 62
     7
 10
72.18220728923872
 20
201.8641930531627
 30
0.0
 70
    32
  0
SEQEND
  5
158
  8
1
  6
________________
 62
     7
  0
POLYLINE
  5
15A
  8
1
  6
________________
 62
     7
 10
0.0
 20
0.0
 30
0.0
 66
     1
 70
     8
  0
VERTEX
  5
15B
  8
1
  6
________________
 62
     7
 10
68.56181706760134
 20
204.2832604601927
 30
0.0
 70
    32
  0
VERTEX
  5
15C
  8
1
  6
________________
 62
     7
 10
68.60270878396402
 20
204.1691707491627
 30
0.0
 70
    32
  0
VERTEX
  5
15D
  8
1
  6
________________
 62
     7
 10
68.65182958286914
 20
204.073838451769
 30
0.0
 70
    32
  0
SEQEND
  5
165
  8
1
  6
________________
 62
     7
  0
ARC
  5
15E
  8
1
  6
________________
 62
     7
 10
69.69534782555155
 20
204.6948859104335
 30
0.0
 40
1.214343554651878
 50
210.7588941462873
 51
237.9874368164299
  0
POLYLINE
  5
15F
  8
1
  6
________________
 62
     7
 10
0.0
 20
0.0
 30
0.0
 66
     1
 70
     8
  0
VERTEX
  5
160
  8
1
  6
________________
 62
     7
 10
69.05161799011697
 20
203.6652052960215
 30
0.0
 70
    32
  0
VERTEX
  5
161
  8
1
  6
________________
 62
     7
 10
69.1509472751982
 20
203.6110730359129
 30
0.0
 70
    32
  0
VERTEX
  5
162
  8
1
  6
________________
 62
     7
 10
69.25747987806287
 20
203.5692810074329
 30
0.0
 70
    32
  0
VERTEX
  5
163
  8
1
  6
________________
 62
     7
 10
69.28326046019271
 20
203.5618170676013
 30
0.0
 70
    32
  0
SEQEND
  5
164
  8
1
  6
________________
 62
     7
  0
POLYLINE
  5
166
  8
1
  6
________________
 62
     7
 10
0.0
 20
0.0
 30
0.0
 66
     1
 70
     8
  0
VERTEX
  5
167
  8
1
  6
________________
 62
     7
 10
66.86419305316271
 20
207.1822072892387
 30
0.0
 70
    32
  0
VERTEX
  5
168
  8
1
  6
________________
 62
     7
 10
66.85831183074494
 20
207.061153557975
 30
0.0
 70
    32
  0
VERTEX
  5
169
  8
1
  6
________________
 62
     7
 10
66.86721144069212
 20
206.9542802837002
 30
0.0
 70
    32
  0
SEQEND
  5
171
  8
1
  6
________________
 62
     7
  0
ARC
  5
16A
  8
1
  6
________________
 62
     7
 10
68.06896116005204
 20
207.1287161766332
 30
0.0
 40
1.214343554652065
 50
188.2588941462929
 51
215.4874368164309
  0
POLYLINE
  5
16B
  8
1
  6
________________
 62
     7
 10
0.0
 20
0.0
 30
0.0
 66
     1
 70
     8
  0
VERTEX
  5
16C
  8
1
  6
________________
 62
     7
 10
67.08019062886405
 20
206.4237600748941
 30
0.0
 70
    32
  0
VERTEX
  5
16D
  8
1
  6
________________
 62
     7
 10
67.15124340322951
 20
206.335736715982
 30
0.0
 70
    32
  0
VERTEX
  5
16E
  8
1
  6
________________
 62
     7
 10
67.23367357765713
 20
206.2563576541242
 30
0.0
 70
    32
  0
VERTEX
  5
16F
  8
1
  6
________________
 62
     7
 10
67.25463540370939
 20
206.239596071224
 30
0.0
 70
    32
  0
SEQEND
  5
170
  8
1
  6
________________
 62
     7
  0
POLYLINE
  5
172
  8
1
  6
________________
 62
     7
 10
0.0
 20
0.0
 30
0.0
 66
     1
 70
     8
  0
VERTEX
  5
173
  8
1
  6
________________
 62
     7
 10
66.40517189510642
 20
210.5101375151436
 30
0.0
 70
    32
  0
VERTEX
  5
174
  8
1
  6
________________
 62
     7
 10
66.3534130967079
 20
210.4005490968762
 30
0.0
 70
    32
  0
VERTEX
  5
175
  8
1
  6
________________
 62
     7
 10
66.32073663275786
 20
210.29840533292
 30
0.0
 70
    32
  0
SEQEND
  5
17D
  8
1
  6
________________
 62
     7
  0
ARC
  5
176
  8
1
  6
________________
 62
     7
 10
67.49776232791083
 20
209.9996733766878
 30
0.0
 40
1.214343554651941
 50
165.7588941462912
 51
192.9874368164322
  0
POLYLINE
  5
177
  8
1
  6
________________
 62
     7
 10
0.0
 20
0.0
 30
0.0
 66
     1
 70
     8
  0
VERTEX
  5
178
  8
1
  6
________________
 62
     7
 10
66.31448245111582
 20
209.7267649636685
 30
0.0
 70
    32
  0
VERTEX
  5
179
  8
1
  6
________________
 62
     7
 10
66.34635011048924
 20
209.6184888400831
 30
0.0
 70
    32
  0
VERTEX
  5
17A
  8
1
  6
________________
 62
     7
 10
66.39206270722433
 20
209.5136553927648
 30
0.0
 70
    32
  0
VERTEX
  5
17B
  8
1
  6
________________
 62
     7
 10
66.40517189510642
 20
209.4898624848564
 30
0.0
 70
    32
  0
SEQEND
  5
17C
  8
1
  6
________________
 62
     7
  0
POLYLINE
  5
17E
  8
1
  6
________________
 62
     7
 10
0.0
 20
0.0
 30
0.0
 66
     1
 70
     8
  0
VERTEX
  5
17F
  8
1
  6
________________
 62
     7
 10
67.25463540370939
 20
213.7604039287759
 30
0.0
 70
    32
  0
VERTEX
  5
180
  8
1
  6
________________
 62
     7
 10
67.16487883719161
 20
213.6789646667647
 30
0.0
 70
    32
  0
VERTEX
  5
181
  8
1
  6
________________
 62
     7
 10
67.09560099476785
 20
213.5971008752538
 30
0.0
 70
    32
  0
SEQEND
  5
189
  8
1
  6
________________
 62
     7
  0
ARC
  5
182
  8
1
  6
________________
 62
     7
 10
68.06871117339155
 20
212.8706803021807
 30
0.0
 40
1.214343554652014
 50
143.2588941462921
 51
170.4874368164307
  0
POLYLINE
  5
183
  8
1
  6
________________
 62
     7
 10
0.0
 20
0.0
 30
0.0
 66
     1
 70
     8
  0
VERTEX
  5
184
  8
1
  6
________________
 62
     7
 10
66.87106558577257
 20
213.0713674098426
 30
0.0
 70
    32
  0
VERTEX
  5
185
  8
1
  6
________________
 62
     7
 10
66.85906557035891
 20
212.958883597277
 30
0.0
 70
    32
  0
VERTEX
  5
186
  8
1
  6
________________
 62
     7
 10
66.86122303274719
 20
212.844467189041
 30
0.0
 70
    32
  0
VERTEX
  5
187
  8
1
  6
________________
 62
     7
 10
66.86419305316271
 20
212.8177927107613
 30
0.0
 70
    32
  0
SEQEND
  5
188
  8
1
  6
________________
 62
     7
  0
POLYLINE
  5
18A
  8
1
  6
________________
 62
     7
 10
0.0
 20
0.0
 30
0.0
 66
     1
 70
     8
  0
VERTEX
  5
18B
  8
1
  6
________________
 62
     7
 10
69.28326046019271
 20
216.4381829323987
 30
0.0
 70
    32
  0
VERTEX
  5
18C
  8
1
  6
________________
 62
     7
 10
69.1691707491627
 20
216.397291216036
 30
0.0
 70
    32
  0
VERTEX
  5
18D
  8
1
  6
________________
 62
     7
 10
69.07383845176903
 20
216.3481704171309
 30
0.0
 70
    32
  0
SEQEND
  5
195
  8
1
  6
________________
 62
     7
  0
ARC
  5
18E
  8
1
  6
________________
 62
     7
 10
69.69488591043365
 20
215.3046521744484
 30
0.0
 40
1.214343554651999
 50
120.7588941462931
 51
147.9874368164329
  0
POLYLINE
  5
18F
  8
1
  6
________________
 62
     7
 10
0.0
 20
0.0
 30
0.0
 66
     1
 70
     8
  0
VERTEX
  5
190
  8
1
  6
________________
 62
     7
 10
68.6652052960215
 20
215.948382009883
 30
0.0
 70
    32
  0
VERTEX
  5
191
  8
1
  6
________________
 62
     7
 10
68.6110730359129
 20
215.8490527248018
 30
0.0
 70
    32
  0
VERTEX
  5
192
  8
1
  6
________________
 62
     7
 10
68.56928100743293
 20
215.7425201219371
 30
0.0
 70
    32
  0
VERTEX
  5
193
  8
1
  6
________________
 62
     7
 10
68.56181706760134
 20
215.7167395398073
 30
0.0
 70
    32
  0
SEQEND
  5
194
  8
1
  6
________________
 62
     7
  0
POLYLINE
  5
196
  8
1
  6
________________
 62
     7
 10
0.0
 20
0.0
 30
0.0
 66
     1
 70
     8
  0
VERTEX
  5
197
  8
1
  6
________________
 62
     7
 10
72.1822072892387
 20
218.1358069468373
 30
0.0
 70
    32
  0
VERTEX
  5
198
  8
1
  6
________________
 62
     7
 10
72.06115355797499
 20
218.141688169255
 30
0.0
 70
    32
  0
VERTEX
  5
199
  8
1
  6
________________
 62
     7
 10
71.95428028370019
 20
218.1327885593079
 30
0.0
 70
    32
  0
SEQEND
  5
1A1
  8
1
  6
________________
 62
     7
  0
ARC
  5
19A
  8
1
  6
________________
 62
     7
 10
72.12871617663316
 20
216.9310388399481
 30
0.0
 40
1.214343554651925
 50
98.25889414628851
 51
125.4874368164293
  0
POLYLINE
  5
19B
  8
1
  6
________________
 62
     7
 10
0.0
 20
0.0
 30
0.0
 66
     1
 70
     8
  0
VERTEX
  5
19C
  8
1
  6
________________
 62
     7
 10
71.42376007489415
 20
217.919809371136
 30
0.0
 70
    32
  0
VERTEX
  5
19D
  8
1
  6
________________
 62
     7
 10
71.33573671598198
 20
217.8487565967705
 30
0.0
 70
    32
  0
VERTEX
  5
19E
  8
1
  6
________________
 62
     7
 10
71.25635765412419
 20
217.7663264223429
 30
0.0
 70
    32
  0
VERTEX
  5
19F
  8
1
  6
________________
 62
     7
 10
71.23959607122406
 20
217.7453645962906
 30
0.0
 70
    32
  0
SEQEND
  5
1A0
  8
1
  6
________________
 62
     7
  0
POLYLINE
  5
1A2
  8
1
  6
________________
 62
     7
 10
0.0
 20
0.0
 30
0.0
 66
     1
 70
     8
  0
VERTEX
  5
1A3
  8
1
  6
________________
 62
     7
 10
75.51013751514358
 20
218.5948281048936
 30
0.0
 70
    32
  0
VERTEX
  5
1A4
  8
1
  6
________________
 62
     7
 10
75.4006271416711
 20
218.6465584774101
 30
0.0
 70
    32
  0
VERTEX
  5
1A5
  8
1
  6
________________
 62
     7
 10
75.2984860829804
 20
218.679243597756
 30
0.0
 70
    32
  0
SEQEND
  5
1AD
  8
1
  6
________________
 62
     7
  0
ARC
  5
1A6
  8
1
  6
________________
 62
     7
 10
74.99967106496115
 20
217.5022484174053
 30
0.0
 40
1.214334414221471
 50
75.75474130129827
 51
102.9832170984831
  0
POLYLINE
  5
1A7
  8
1
  6
________________
 62
     7
 10
0.0
 20
0.0
 30
0.0
 66
     1
 70
     8
  0
VERTEX
  5
1A8
  8
1
  6
________________
 62
     7
 10
74.72685185238548
 20
218.6855394833786
 30
0.0
 70
    32
  0
VERTEX
  5
1A9
  8
1
  6
________________
 62
     7
 10
74.61848884008309
 20
218.6536498895107
 30
0.0
 70
    32
  0
VERTEX
  5
1AA
  8
1
  6
________________
 62
     7
 10
74.5136553927648
 20
218.6079372927757
 30
0.0
 70
    32
  0
VERTEX
  5
1AB
  8
1
  6
________________
 62
     7
 10
74.48986248485642
 20
218.5948281048936
 30
0.0
 70
    32
  0
SEQEND
  5
1AC
  8
1
  6
________________
 62
     7
  0
POLYLINE
  5
1AE
  8
1
  6
________________
 62
     7
 10
0.0
 20
0.0
 30
0.0
 66
     1
 70
     8
  0
VERTEX
  5
1AF
  8
1
  6
________________
 62
     7
 10
78.76040392877593
 20
217.7453645962906
 30
0.0
 70
    32
  0
VERTEX
  5
1B0
  8
1
  6
________________
 62
     7
 10
78.6789646667647
 20
217.8351211628084
 30
0.0
 70
    32
  0
VERTEX
  5
1B1
  8
1
  6
________________
 62
     7
 10
78.5971008752538
 20
217.9043990052321
 30
0.0
 70
    32
  0
SEQEND
  5
1B9
  8
1
  6
________________
 62
     7
  0
ARC
  5
1B2
  8
1
  6
________________
 62
     7
 10
77.8706803021806
 20
216.9312888266082
 30
0.0
 40
1.214343554652259
 50
53.2588941462942
 51
80.48743681642733
  0
POLYLINE
  5
1B3
  8
1
  6
________________
 62
     7
 10
0.0
 20
0.0
 30
0.0
 66
     1
 70
     8
  0
VERTEX
  5
1B4
  8
1
  6
________________
 62
     7
 10
78.0713674098426
 20
218.1289344142274
 30
0.0
 70
    32
  0
VERTEX
  5
1B5
  8
1
  6
________________
 62
     7
 10
77.95888359727702
 20
218.1409344296411
 30
0.0
 70
    32
  0
VERTEX
  5
1B6
  8
1
  6
________________
 62
     7
 10
77.844467189041
 20
218.1387769672528
 30
0.0
 70
    32
  0
VERTEX
  5
1B7
  8
1
  6
________________
 62
     7
 10
77.8177927107613
 20
218.1358069468373
 30
0.0
 70
    32
  0
SEQEND
  5
1B8
  8
1
  6
________________
 62
     7
  0
POLYLINE
  5
1BA
  8
1
  6
________________
 62
     7
 10
0.0
 20
0.0
 30
0.0
 66
     1
 70
     8
  0
VERTEX
  5
1BB
  8
1
  6
________________
 62
     7
 10
81.43818293239866
 20
215.7167395398073
 30
0.0
 70
    32
  0
VERTEX
  5
1BC
  8
1
  6
________________
 62
     7
 10
81.397291216036
 20
215.8308292508373
 30
0.0
 70
    32
  0
VERTEX
  5
1BD
  8
1
  6
________________
 62
     7
 10
81.34817041713087
 20
215.926161548231
 30
0.0
 70
    32
  0
SEQEND
  5
1C5
  8
1
  6
________________
 62
     7
  0
ARC
  5
1BE
  8
1
  6
________________
 62
     7
 10
80.30465217444835
 20
215.3051140895663
 30
0.0
 40
1.214343554652073
 50
30.75889414629255
 51
57.9874368164303
  0
POLYLINE
  5
1BF
  8
1
  6
________________
 62
     7
 10
0.0
 20
0.0
 30
0.0
 66
     1
 70
     8
  0
VERTEX
  5
1C0
  8
1
  6
________________
 62
     7
 10
80.94838200988302
 20
216.3347947039785
 30
0.0
 70
    32
  0
VERTEX
  5
1C1
  8
1
  6
________________
 62
     7
 10
80.84905272480181
 20
216.3889269640871
 30
0.0
 70
    32
  0
VERTEX
  5
1C2
  8
1
  6
________________
 62
     7
 10
80.74252012193713
 20
216.4307189925671
 30
0.0
 70
    32
  0
VERTEX
  5
1C3
  8
1
  6
________________
 62
     7
 10
80.71673953980729
 20
216.4381829323986
 30
0.0
 70
    32
  0
SEQEND
  5
1C4
  8
1
  6
________________
 62
     7
  0
POLYLINE
  5
1C6
  8
1
  6
________________
 62
     7
 10
0.0
 20
0.0
 30
0.0
 66
     1
 70
     8
  0
VERTEX
  5
1C7
  8
1
  6
________________
 62
     7
 10
83.13580694683729
 20
212.8177927107613
 30
0.0
 70
    32
  0
VERTEX
  5
1C8
  8
1
  6
________________
 62
     7
 10
83.14168816925508
 20
212.938846442025
 30
0.0
 70
    32
  0
VERTEX
  5
1C9
  8
1
  6
________________
 62
     7
 10
83.13278855930787
 20
213.0457197162998
 30
0.0
 70
    32
  0
SEQEND
  5
1D1
  8
1
  6
________________
 62
     7
  0
ARC
  5
1CA
  8
1
  6
________________
 62
     7
 10
81.93103883994824
 20
212.8712838233669
 30
0.0
 40
1.214343554651756
 50
8.258894146288275
 51
35.48743681643306
  0
POLYLINE
  5
1CB
  8
1
  6
________________
 62
     7
 10
0.0
 20
0.0
 30
0.0
 66
     1
 70
     8
  0
VERTEX
  5
1CC
  8
1
  6
________________
 62
     7
 10
82.91980937113597
 20
213.5762399251059
 30
0.0
 70
    32
  0
VERTEX
  5
1CD
  8
1
  6
________________
 62
     7
 10
82.84875659677049
 20
213.664263284018
 30
0.0
 70
    32
  0
VERTEX
  5
1CE
  8
1
  6
________________
 62
     7
 10
82.76632642234287
 20
213.7436423458758
 30
0.0
 70
    32
  0
VERTEX
  5
1CF
  8
1
  6
________________
 62
     7
 10
82.74536459629061
 20
213.7604039287759
 30
0.0
 70
    32
  0
SEQEND
  5
1D0
  8
1
  6
________________
 62
     7
  0
POLYLINE
  5
1D2
  8
1
  6
________________
 62
     7
 10
0.0
 20
0.0
 30
0.0
 66
     1
 70
     8
  0
VERTEX
  5
1D3
  8
1
  6
________________
 62
     7
 10
83.5948281048936
 20
209.4898624848564
 30
0.0
 70
    32
  0
VERTEX
  5
1D4
  8
1
  6
________________
 62
     7
 10
83.64658690329212
 20
209.5994509031237
 30
0.0
 70
    32
  0
VERTEX
  5
1D5
  8
1
  6
________________
 62
     7
 10
83.67926336724216
 20
209.70159466708
 30
0.0
 70
    32
  0
SEQEND
  5
1DD
  8
1
  6
________________
 62
     7
  0
ARC
  5
1D6
  8
1
  6
________________
 62
     7
 10
82.50223767208932
 20
210.0003266233122
 30
0.0
 40
1.214343554651793
 50
345.7588941462894
 51
12.98743681643253
  0
POLYLINE
  5
1D7
  8
1
  6
________________
 62
     7
 10
0.0
 20
0.0
 30
0.0
 66
     1
 70
     8
  0
VERTEX
  5
1D8
  8
1
  6
________________
 62
     7
 10
83.68551754888419
 20
210.2732350363315
 30
0.0
 70
    32
  0
VERTEX
  5
1D9
  8
1
  6
________________
 62
     7
 10
83.65364988951075
 20
210.3815111599169
 30
0.0
 70
    32
  0
VERTEX
  5
1DA
  8
1
  6
________________
 62
     7
 10
83.60793729277567
 20
210.4863446072352
 30
0.0
 70
    32
  0
VERTEX
  5
1DB
  8
1
  6
________________
 62
     7
 10
83.5948281048936
 20
210.5101375151436
 30
0.0
 70
    32
  0
SEQEND
  5
1DC
  8
1
  6
________________
 62
     7
  0
POLYLINE
  5
1DE
  8
1
  6
________________
 62
     7
 10
0.0
 20
0.0
 30
0.0
 66
     1
 70
     8
  0
VERTEX
  5
1DF
  8
1
  6
________________
 62
     7
 10
82.74536459629061
 20
206.239596071224
 30
0.0
 70
    32
  0
VERTEX
  5
1E0
  8
1
  6
________________
 62
     7
 10
82.83512116280839
 20
206.3210353332353
 30
0.0
 70
    32
  0
VERTEX
  5
1E1
  8
1
  6
________________
 62
     7
 10
82.90439900523215
 20
206.4028991247462
 30
0.0
 70
    32
  0
SEQEND
  5
1E9
  8
1
  6
________________
 62
     7
  0
ARC
  5
1E2
  8
1
  6
________________
 62
     7
 10
81.93128882660845
 20
207.1293196978193
 30
0.0
 40
1.214343554652014
 50
323.2588941462921
 51
350.4874368164307
  0
POLYLINE
  5
1E3
  8
1
  6
________________
 62
     7
 10
0.0
 20
0.0
 30
0.0
 66
     1
 70
     8
  0
VERTEX
  5
1E4
  8
1
  6
________________
 62
     7
 10
83.12893441422743
 20
206.9286325901574
 30
0.0
 70
    32
  0
VERTEX
  5
1E5
  8
1
  6
________________
 62
     7
 10
83.14093442964109
 20
207.041116402723
 30
0.0
 70
    32
  0
VERTEX
  5
1E6
  8
1
  6
________________
 62
     7
 10
83.13877696725281
 20
207.155532810959
 30
0.0
 70
    32
  0
VERTEX
  5
1E7
  8
1
  6
________________
 62
     7
 10
83.13580694683729
 20
207.1822072892387
 30
0.0
 70
    32
  0
SEQEND
  5
1E8
  8
1
  6
________________
 62
     7
  0
POLYLINE
  5
1EA
  8
1
  6
________________
 62
     7
 10
0.0
 20
0.0
 30
0.0
 66
     1
 70
     8
  0
VERTEX
  5
1EB
  8
1
  6
________________
 62
     7
 10
80.71673953980729
 20
203.5618170676013
 30
0.0
 70
    32
  0
VERTEX
  5
1EC
  8
1
  6
________________
 62
     7
 10
80.8308292508373
 20
203.602708783964
 30
0.0
 70
    32
  0
VERTEX
  5
1ED
  8
1
  6
________________
 62
     7
 10
80.92616154823095
 20
203.6518295828691
 30
0.0
 70
    32
  0
SEQEND
  5
1F5
  8
1
  6
________________
 62
     7
  0
ARC
  5
1EE
  8
1
  6
________________
 62
     7
 10
80.30511408956623
 20
204.6953478255517
 30
0.0
 40
1.214343554652199
 50
300.7588941462935
 51
327.9874368164294
  0
POLYLINE
  5
1EF
  8
1
  6
________________
 62
     7
 10
0.0
 20
0.0
 30
0.0
 66
     1
 70
     8
  0
VERTEX
  5
1F0
  8
1
  6
________________
 62
     7
 10
81.33479470397852
 20
204.051617990117
 30
0.0
 70
    32
  0
VERTEX
  5
1F1
  8
1
  6
________________
 62
     7
 10
81.38892696408712
 20
204.1509472751982
 30
0.0
 70
    32
  0
VERTEX
  5
1F2
  8
1
  6
________________
 62
     7
 10
81.43071899256707
 20
204.2574798780629
 30
0.0
 70
    32
  0
VERTEX
  5
1F3
  8
1
  6
________________
 62
     7
 10
81.43818293239866
 20
204.2832604601927
 30
0.0
 70
    32
  0
SEQEND
  5
1F4
  8
1
  6
________________
 62
     7
  0
POLYLINE
  5
1F6
  8
1
  6
________________
 62
     7
 10
0.0
 20
0.0
 30
0.0
 66
     1
 70
     8
  0
VERTEX
  5
1F7
  8
1
  6
________________
 62
     7
 10
77.8177927107613
 20
201.8641930531627
 30
0.0
 70
    32
  0
VERTEX
  5
1F8
  8
1
  6
________________
 62
     7
 10
77.93884644202501
 20
201.8583118307449
 30
0.0
 70
    32
  0
VERTEX
  5
1F9
  8
1
  6
________________
 62
     7
 10
78.04571971629983
 20
201.8672114406921
 30
0.0
 70
    32
  0
SEQEND
  5
201
  8
1
  6
________________
 62
     7
  0
ARC
  5
1FA
  8
1
  6
________________
 62
     7
 10
77.87128382336691
 20
203.0689611600516
 30
0.0
 40
1.214343554651586
 50
278.2588941462875
 51
305.4874368164365
  0
POLYLINE
  5
1FB
  8
1
  6
________________
 62
     7
 10
0.0
 20
0.0
 30
0.0
 66
     1
 70
     8
  0
VERTEX
  5
1FC
  8
1
  6
________________
 62
     7
 10
78.57623992510585
 20
202.080190628864
 30
0.0
 70
    32
  0
VERTEX
  5
1FD
  8
1
  6
________________
 62
     7
 10
78.66426328401802
 20
202.1512434032295
 30
0.0
 70
    32
  0
VERTEX
  5
1FE
  8
1
  6
________________
 62
     7
 10
78.74364234587581
 20
202.2336735776571
 30
0.0
 70
    32
  0
VERTEX
  5
1FF
  8
1
  6
________________
 62
     7
 10
78.76040392877593
 20
202.2546354037094
 30
0.0
 70
    32
  0
SEQEND
  5
200
  8
1
  6
________________
 62
     7
  0
POLYLINE
  5
202
  8
1
  6
________________
 62
     7
 10
0.0
 20
0.0
 30
0.0
 66
     1
 70
     8
  0
VERTEX
  5
203
  8
1
  6
________________
 62
     7
 10
74.48986248485642
 20
201.4051718951064
 30
0.0
 70
    32
  0
VERTEX
  5
204
  8
1
  6
________________
 62
     7
 10
74.59937285832892
 20
201.3534415225899
 30
0.0
 70
    32
  0
VERTEX
  5
205
  8
1
  6
________________
 62
     7
 10
74.7015139170196
 20
201.320756402244
 30
0.0
 70
    32
  0
SEQEND
  5
20D
  8
1
  6
________________
 62
     7
  0
ARC
  5
206
  8
1
  6
________________
 62
     7
 10
75.0003289350389
 20
202.4977515825941
 30
0.0
 40
1.214334414220893
 50
255.7547413012886
 51
282.9832170984866
  0
POLYLINE
  5
207
  8
1
  6
________________
 62
     7
 10
0.0
 20
0.0
 30
0.0
 66
     1
 70
     8
  0
VERTEX
  5
208
  8
1
  6
________________
 62
     7
 10
75.27314814761452
 20
201.3144605166214
 30
0.0
 70
    32
  0
VERTEX
  5
209
  8
1
  6
________________
 62
     7
 10
75.38151115991691
 20
201.3463501104892
 30
0.0
 70
    32
  0
VERTEX
  5
20A
  8
1
  6
________________
 62
     7
 10
75.4863446072352
 20
201.3920627072243
 30
0.0
 70
    32
  0
VERTEX
  5
20B
  8
1
  6
________________
 62
     7
 10
75.51013751514358
 20
201.4051718951064
 30
0.0
 70
    32
  0
SEQEND
  5
20C
  8
1
  6
________________
 62
     7
  0
ARC
  5
20E
  8
1
  6
________________
 62
     7
 10
-75.0
 20
210.0
 30
0.0
 40
8.649999999999997
 50
93.46241836090668
 51
109.0460209810217
210
0.0
220
0.0
230
-1.0
  0
ARC
  5
20F
  8
1
  6
________________
 62
     7
 10
-75.0
 20
210.0
 30
0.0
 40
8.650000000000015
 50
115.9551903243799
 51
131.5389115381137
210
0.0
220
0.0
230
-1.0
  0
ARC
  5
210
  8
1
  6
________________
 62
     7
 10
-75.0
 20
210.0
 30
0.0
 40
8.650000000000004
 50
138.4624183609067
 51
154.0460209810217
210
0.0
220
0.0
230
-1.0
  0
ARC
  5
211
  8
1
  6
________________
 62
     7
 10
-75.0
 20
210.0
 30
0.0
 40
8.650000000000002
 50
160.95519032438
 51
176.5389115381138
210
0.0
220
0.0
230
-1.0
  0
ARC
  5
212
  8
1
  6
________________
 62
     7
 10
-75.0
 20
210.0
 30
0.0
 40
8.649999999999997
 50
183.4624183609067
 51
199.0460209810217
210
0.0
220
0.0
230
-1.0
  0
ARC
  5
213
  8
1
  6
________________
 62
     7
 10
-75.0
 20
210.0
 30
0.0
 40
8.649999999999991
 50
205.95519032438
 51
221.5389115381137
210
0.0
220
0.0
230
-1.0
  0
ARC
  5
214
  8
1
  6
________________
 62
     7
 10
-75.0
 20
210.0
 30
0.0
 40
8.650000000000004
 50
228.4624183609068
 51
244.0460209810215
210
0.0
220
0.0
230
-1.0
  0
ARC
  5
215
  8
1
  6
________________
 62
     7
 10
-75.0
 20
210.0
 30
0.0
 40
8.650000000000004
 50
250.9551903243799
 51
266.5389115381136
210
0.0
220
0.0
230
-1.0
  0
ARC
  5
216
  8
1
  6
________________
 62
     7
 10
-75.0
 20
210.0
 30
0.0
 40
8.649999999999997
 50
273.4624183609066
 51
289.0460209810213
210
0.0
220
0.0
230
-1.0
  0
ARC
  5
217
  8
1
  6
________________
 62
     7
 10
-75.0
 20
210.0
 30
0.0
 40
8.65000000000001
 50
295.9551903243799
 51
311.5389115381134
210
0.0
220
0.0
230
-1.0
  0
ARC
  5
218
  8
1
  6
________________
 62
     7
 10
-75.0
 20
210.0
 30
0.0
 40
8.649999999999995
 50
318.4624183609066
 51
334.0460209810213
210
0.0
220
0.0
230
-1.0
  0
ARC
  5
219
  8
1
  6
________________
 62
     7
 10
-75.0
 20
210.0
 30
0.0
 40
8.65000000000001
 50
340.9551903243799
 51
356.5389115381135
210
0.0
220
0.0
230
-1.0
  0
ARC
  5
21A
  8
1
  6
________________
 62
     7
 10
-75.0
 20
210.0
 30
0.0
 40
8.649999999999999
 50
3.462418360906999
 51
19.04602098102174
210
0.0
220
0.0
230
-1.0
  0
ARC
  5
21B
  8
1
  6
________________
 62
     7
 10
-75.0
 20
210.0
 30
0.0
 40
8.650000000000002
 50
25.95519032438016
 51
41.53891153811377
210
0.0
220
0.0
230
-1.0
  0
ARC
  5
21C
  8
1
  6
________________
 62
     7
 10
-75.0
 20
210.0
 30
0.0
 40
8.649999999999999
 50
48.46241836090719
 51
64.04602098102187
210
0.0
220
0.0
230
-1.0
  0
ARC
  5
21D
  8
1
  6
________________
 62
     7
 10
-75.0
 20
210.0
 30
0.0
 40
8.650000000000004
 50
70.95519032438048
 51
86.53891153811398
210
0.0
220
0.0
230
-1.0
  0
CIRCLE
  5
21E
  8
1
  6
________________
 62
     7
 10
-75.00000000000001
 20
210.0
 30
0.0
 40
6.900000000008579
210
0.0
220
0.0
230
-1.0
  0
ARC
  5
21F
  8
1
  6
________________
 62
     7
 10
-75.00000000000001
 20
210.0
 30
0.0
 40
7.950000000000013
 50
90.0
 51
270.0
210
0.0
220
0.0
230
-1.0
  0
ARC
  5
220
  8
1
  6
________________
 62
     7
 10
-75.00000000000001
 20
210.0
 30
0.0
 40
7.950000000000013
 50
270.0
 51
90.0
210
0.0
220
0.0
230
-1.0
  0
CIRCLE
  5
221
  8
1
  6
________________
 62
     7
 10
75.00000000000001
 20
210.0
 30
0.0
 40
5.299999999999999
  0
CIRCLE
  5
222
  8
1
  6
________________
 62
     7
 10
-75.0
 20
210.0
 30
0.0
 40
4.899999999999988
210
0.0
220
0.0
230
-1.0
  0
CIRCLE
  5
223
  8
1
  6
________________
 62
     7
 10
-75.0
 20
210.0
 30
0.0
 40
4.599999999999993
210
0.0
220
0.0
230
-1.0
  0
CIRCLE
  5
224
  8
1
  6
________________
 62
     7
 10
75.0
 20
210.0
 30
0.0
 40
8.599999999999996
  0
ENDBLK
  8
0
  0
ENDSEC
  0
SECTION
  2
ENTITIES
  0
INSERT
  5
B3
  8
1
  6
________________0
 62
     7
  2
_1482
 10
0.0
 20
0.0
 30
0.0
  0
INSERT
  5
123
  8
1
  6
________________0
 62
     7
  2
_1716
 10
0.0
 20
0.0
 30
0.0
  0
INSERT
  5
225
  8
1
  6
________________0
 62
     7
  2
_1796
 10
0.0
 20
0.0
 30
0.0
  0
TEXT
  5
226
  8
1
 62
     7
 10
94.98336363636363
 20
79.68636363636365
 30
0.0
 40
3.0
  1
SORM-16H-15G
  7
EXPLODED0
  0
LINE
  5
227
  8
1
  6
________________1
 62
     1
 10
55.99999999999996
 20
210.0
 30
0.0
 11
94.00000000000003
 21
210.0
 31
0.0
  0
LINE
  5
229
  8
1
  6
________________1
 62
     1
 10
75.0
 20
190.9999999999999
 30
0.0
 11
75.0
 21
229.0
 31
0.0
  0
LINE
  5
22A
  8
1
  6
________________1
 62
     1
 10
75.0
 20
180.0
 30
0.0
 11
75.0
 21
90.00000000000001
 31
0.0
  0
LINE
  5
22B
  8
1
  6
________________1
 62
     1
 10
140.0
 20
90.00000000000001
 30
0.0
 11
140.0
 21
180.0
 31
0.0
  0
ENDSEC
  0
EOF
