  0
SECTION
  2
HEADER
  9
$ACADVER
  1
AC1006
  9
$DWGCODEPAGE
  3
ansi_932
  9
$INSBASE
 10
0.0
 20
0.0
 30
0.0
  9
$EXTMIN
 10
0.0
 20
0.0
  9
$EXTMAX
 10
427.5000000000001
 20
262.8636081319378
  9
$LIMMIN
 10
0.0
 20
0.0
  9
$LIMMAX
 10
12.0
 20
9.0
  9
$ORTHOMODE
 70
     0
  9
$REGENMODE
 70
     1
  9
$FILLMODE
 70
     1
  9
$QTEXTMODE
 70
     0
  9
$MIRRTEXT
 70
     1
  9
$DRAGMODE
 70
     2
  9
$LTSCALE
 40
1.0
  9
$OSMODE
 70
    37
  9
$ATTMODE
 70
     1
  9
$TEXTSIZE
 40
0.2
  9
$TRACEWID
 40
0.05
  9
$TEXTSTYLE
  7
STANDARD
  9
$CLAYER
  8
0
  9
$CELTYPE
  6
BYLAYER
  9
$CECOLOR
 62
   256
  9
$DIMSCALE
 40
1.0
  9
$DIMASZ
 40
3.0
  9
$DIMEXO
 40
0.0625
  9
$DIMDLI
 40
0.38
  9
$DIMRND
 40
0.0
  9
$DIMDLE
 40
0.0
  9
$DIMEXE
 40
1.5
  9
$DIMTP
 40
0.0
  9
$DIMTM
 40
0.0
  9
$DIMTXT
 40
3.0
  9
$DIMCEN
 40
0.09
  9
$DIMTSZ
 40
0.0
  9
$DIMTOL
 70
     0
  9
$DIMLIM
 70
     0
  9
$DIMTIH
 70
     1
  9
$DIMTOH
 70
     1
  9
$DIMSE1
 70
     0
  9
$DIMSE2
 70
     0
  9
$DIMTAD
 70
     1
  9
$DIMZIN
 70
     0
  9
$DIMBLK
  1

  9
$DIMASO
 70
     1
  9
$DIMSHO
 70
     1
  9
$DIMPOST
  1

  9
$DIMAPOST
  1

  9
$DIMALT
 70
     0
  9
$DIMALTD
 70
     2
  9
$DIMALTF
 40
25.4
  9
$DIMLFAC
 40
1.0
  9
$DIMTOFL
 70
     0
  9
$DIMTVP
 40
0.0
  9
$DIMTIX
 70
     0
  9
$DIMSOXD
 70
     0
  9
$DIMSAH
 70
     0
  9
$DIMBLK1
  1

  9
$DIMBLK2
  1

  9
$LUNITS
 70
     2
  9
$LUPREC
 70
     4
  9
$SKETCHINC
 40
0.1
  9
$FILLETRAD
 40
0.5
  9
$AUNITS
 70
     0
  9
$AUPREC
 70
     0
  9
$MENU
  1
.
  9
$ELEVATION
 40
0.0
  9
$THICKNESS
 40
0.0
  9
$LIMCHECK
 70
     0
  9
$CHAMFERA
 40
0.0
  9
$CHAMFERB
 40
0.0
  9
$SKPOLY
 70
     0
  9
$TDCREATE
 40
2460628.453370544
  9
$TDUPDATE
 40
2460628.453370764
  9
$TDINDWG
 40
0.0000000116
  9
$TDUSRTIMER
 40
0.0000000116
  9
$USRTIMER
 70
     1
  9
$ANGBASE
 50
0.0
  9
$ANGDIR
 70
     0
  9
$PDMODE
 70
     0
  9
$PDSIZE
 40
0.0
  9
$PLINEWID
 40
0.0
  9
$COORDS
 70
     1
  9
$SPLFRAME
 70
     0
  9
$SPLINETYPE
 70
     6
  9
$SPLINESEGS
 70
     8
  9
$ATTDIA
 70
     0
  9
$ATTREQ
 70
     1
  9
$HANDLING
 70
     1
  9
$HANDSEED
  5
19C
  9
$SURFTAB1
 70
     6
  9
$SURFTAB2
 70
     6
  9
$SURFTYPE
 70
     6
  9
$SURFU
 70
     6
  9
$SURFV
 70
     6
  9
$UCSNAME
  2

  9
$UCSORG
 10
0.0
 20
0.0
 30
0.0
  9
$UCSXDIR
 10
1.0
 20
0.0
 30
0.0
  9
$UCSYDIR
 10
0.0
 20
1.0
 30
0.0
  9
$USERI1
 70
     0
  9
$USERI2
 70
     0
  9
$USERI3
 70
     0
  9
$USERI4
 70
     0
  9
$USERI5
 70
     0
  9
$USERR1
 40
0.0
  9
$USERR2
 40
0.0
  9
$USERR3
 40
0.0
  9
$USERR4
 40
0.0
  9
$USERR5
 40
0.0
  9
$WORLDVIEW
 70
     1
  0
ENDSEC
  0
SECTION
  2
TABLES
  0
TABLE
  2
VPORT
 70
     1
  0
VPORT
  2
*ACTIVE
 70
     0
 10
0.0
 20
0.0
 11
1.0
 21
1.0
 12
213.75
 22
131.4318040659689
 13
0.0
 23
0.0
 14
0.5
 24
0.5
 15
0.5
 25
0.5
 16
0.0
 26
0.0
 36
1.0
 17
0.0
 27
0.0
 37
0.0
 40
262.8636081319378
 41
1.6
 42
50.0
 43
0.0
 44
0.0
 50
0.0
 51
0.0
 71
     0
 72
   100
 73
     1
 74
     3
 75
     0
 76
     0
 77
     0
 78
     0
  0
ENDTAB
  0
TABLE
  2
LTYPE
 70
     2
  0
LTYPE
  2
CONTINUOUS
 70
     0
  3
Solid line
 72
    65
 73
     0
 40
0.0
  0
LTYPE
  2
CENTER
 70
     0
  3

 72
    65
 73
     0
 40
0.0
  0
ENDTAB
  0
TABLE
  2
LAYER
 70
     1
  0
LAYER
  2
0
 70
     0
 62
     7
  6
CONTINUOUS
  0
ENDTAB
  0
TABLE
  2
STYLE
 70
     2
  0
STYLE
  2
STANDARD
 70
     0
 40
0.0
 41
1.0
 50
0.0
 71
     0
 42
0.2
  3
txt
  4

  0
STYLE
  2
ＭＳ_ゴシック
 70
     0
 40
0.0
 41
1.0
 50
0.0
 71
     0
 42
0.2
  3
ＭＳ ゴシック.shx
  4

  0
ENDTAB
  0
TABLE
  2
VIEW
 70
     0
  0
ENDTAB
  0
TABLE
  2
UCS
 70
     0
  0
ENDTAB
  0
ENDSEC
  0
SECTION
  2
BLOCKS
  0
BLOCK
  8
0
  2
D_FRAME_VIEW_1288
 70
     0
 10
0.0
 20
0.0
 30
0.0
  0
LINE
  5
74
  8
0
  6
CONTINUOUS
 62
     7
 10
352.2636081319378
 20
220.8
 30
0.0
 11
353.8636081319378
 21
220.8
 31
0.0
  0
LINE
  5
75
  8
0
  6
CONTINUOUS
 62
     7
 10
353.8636081319378
 20
215.8
 30
0.0
 11
352.2636081319378
 21
215.8
 31
0.0
  0
LINE
  5
76
  8
0
  6
CONTINUOUS
 62
     7
 10
353.8636081319378
 20
220.8
 30
0.0
 11
353.8636081319378
 21
215.8
 31
0.0
  0
LINE
  5
77
  8
0
  6
CONTINUOUS
 62
     7
 10
352.2636081319378
 20
215.8
 30
0.0
 11
352.2636081319378
 21
220.8
 31
0.0
  0
LINE
  5
78
  8
0
  6
CONTINUOUS
 62
     7
 10
345.1363918680622
 20
128.7331956916197
 30
0.0
 11
346.7354171912928
 21
128.7890348863437
 31
0.0
  0
LINE
  5
79
  8
0
  6
CONTINUOUS
 62
     7
 10
346.9099146748052
 20
123.7920807512482
 30
0.0
 11
345.3108893515747
 21
123.7362415565242
 31
0.0
  0
LINE
  5
7A
  8
0
  6
CONTINUOUS
 62
     7
 10
345.3108893515747
 20
123.7362415565242
 30
0.0
 11
345.1363918680622
 21
128.7331956916197
 31
0.0
  0
LINE
  5
7B
  8
0
  6
CONTINUOUS
 62
     7
 10
346.7354171912928
 20
128.7890348863437
 30
0.0
 11
346.9099146748052
 21
123.7920807512482
 31
0.0
  0
ARC
  5
7C
  8
0
  6
CONTINUOUS
 62
     7
 10
347.8464525193413
 20
111.3
 30
0.0
 40
0.5000000000000004
 50
182.0000000000001
 51
270.0
  0
ARC
  5
7D
  8
0
  6
CONTINUOUS
 62
     7
 10
351.7636081319378
 20
111.3
 30
0.0
 40
0.5000000000000004
 50
270.0000000000001
 51
0.0
  0
ARC
  5
7E
  8
0
  6
CONTINUOUS
 62
     7
 10
347.8464525193413
 20
111.3
 30
0.0
 40
2.100000000000011
 50
181.9999999999999
 51
270.0
  0
LINE
  5
7F
  8
0
  6
CONTINUOUS
 62
     7
 10
347.8464525193413
 20
110.8
 30
0.0
 11
351.7636081319378
 21
110.8
 31
0.0
  0
LINE
  5
80
  8
0
  6
CONTINUOUS
 62
     7
 10
345.7477317826012
 20
111.2267110569247
 30
0.0
 11
345.3108893515747
 21
123.7362415565242
 31
0.0
  0
LINE
  5
81
  8
0
  6
CONTINUOUS
 62
     7
 10
351.7636081319378
 20
109.2
 30
0.0
 11
347.8464525193413
 21
109.2
 31
0.0
  0
ARC
  5
82
  8
0
  6
CONTINUOUS
 62
     7
 10
351.7636081319378
 20
111.3
 30
0.0
 40
2.100000000000005
 50
270.0
 51
0.0000000000001137
  0
LINE
  5
83
  8
0
  6
CONTINUOUS
 62
     7
 10
346.9099146748052
 20
123.7920807512482
 30
0.0
 11
347.3467571058318
 21
111.2825502516487
 31
0.0
  0
LINE
  5
84
  8
0
  6
CONTINUOUS
 62
     7
 10
353.8636081319378
 20
215.8
 30
0.0
 11
353.8636081319378
 21
111.3
 31
0.0
  0
LINE
  5
85
  8
0
  6
CONTINUOUS
 62
     7
 10
352.2636081319378
 20
111.3
 30
0.0
 11
352.2636081319378
 21
215.8
 31
0.0
  0
LINE
  5
86
  8
0
  6
CONTINUOUS
 62
     7
 10
354.8636081319378
 20
123.8
 30
0.0
 11
354.8636081319378
 21
122.3
 31
0.0
  0
LINE
  5
87
  8
0
  6
CONTINUOUS
 62
     7
 10
354.8636081319378
 20
212.8
 30
0.0
 11
354.8636081319378
 21
211.3
 31
0.0
  0
LINE
  5
88
  8
0
  6
CONTINUOUS
 62
     7
 10
354.8636081319378
 20
211.3
 30
0.0
 11
354.8636081319378
 21
123.8
 31
0.0
  0
ARC
  5
89
  8
0
  6
CONTINUOUS
 62
     7
 10
353.8636081319378
 20
122.3
 30
0.0
 40
1.000000000000001
 50
270.0
 51
0.0
  0
ARC
  5
8A
  8
0
  6
CONTINUOUS
 62
     7
 10
353.8636081319378
 20
212.8
 30
0.0
 40
1.000000000000001
 50
0.0
 51
89.99999999999999
  0
ENDBLK
  8
0
  0
BLOCK
  8
0
  2
D_FRAME_VIEW_1377
 70
     0
 10
0.0
 20
0.0
 30
0.0
  0
LINE
  5
90
  8
0
  6
CONTINUOUS
 62
     7
 10
396.5
 20
211.3
 30
0.0
 11
396.5
 21
123.8
 31
0.0
  0
ARC
  5
91
  8
0
  6
CONTINUOUS
 62
     7
 10
399.0
 20
211.3
 30
0.0
 40
2.500000000000002
 50
0.0
 51
180.0
  0
LINE
  5
92
  8
0
  6
CONTINUOUS
 62
     7
 10
401.5
 20
123.8
 30
0.0
 11
401.5
 21
211.3
 31
0.0
  0
ARC
  5
93
  8
0
  6
CONTINUOUS
 62
     7
 10
421.0000000000001
 20
211.3
 30
0.0
 40
2.500000000000002
 50
0.0
 51
180.0
  0
LINE
  5
94
  8
0
  6
CONTINUOUS
 62
     7
 10
418.5000000000001
 20
123.8
 30
0.0
 11
418.5000000000001
 21
211.3
 31
0.0
  0
LINE
  5
95
  8
0
  6
CONTINUOUS
 62
     7
 10
423.5000000000001
 20
211.3
 30
0.0
 11
423.5000000000001
 21
123.8
 31
0.0
  0
ARC
  5
96
  8
0
  6
CONTINUOUS
 62
     7
 10
399.0
 20
123.8
 30
0.0
 40
2.500000000000002
 50
180.0
 51
0.0
  0
ARC
  5
97
  8
0
  6
CONTINUOUS
 62
     7
 10
421.0000000000001
 20
123.8
 30
0.0
 40
2.500000000000002
 50
180.0
 51
0.0
  0
LINE
  5
98
  8
0
  6
CONTINUOUS
 62
     7
 10
407.1005050633884
 20
150.3
 30
0.0
 11
403.0
 21
146.1994949366116
 31
0.0
  0
LINE
  5
99
  8
0
  6
CONTINUOUS
 62
     7
 10
403.0
 20
146.1994949366116
 30
0.0
 11
403.0
 21
140.4005050633884
 31
0.0
  0
LINE
  5
9A
  8
0
  6
CONTINUOUS
 62
     7
 10
403.0
 20
140.4005050633884
 30
0.0
 11
407.1005050633884
 21
136.3
 31
0.0
  0
LINE
  5
9B
  8
0
  6
CONTINUOUS
 62
     7
 10
407.1005050633884
 20
136.3
 30
0.0
 11
412.8994949366117
 21
136.3
 31
0.0
  0
LINE
  5
9C
  8
0
  6
CONTINUOUS
 62
     7
 10
412.8994949366117
 20
136.3
 30
0.0
 11
416.9999999999999
 21
140.4005050633882
 31
0.0
  0
LINE
  5
9D
  8
0
  6
CONTINUOUS
 62
     7
 10
416.9999999999999
 20
140.4005050633882
 30
0.0
 11
417.0000000000001
 21
146.1994949366117
 31
0.0
  0
LINE
  5
9E
  8
0
  6
CONTINUOUS
 62
     7
 10
417.0000000000001
 20
146.1994949366117
 30
0.0
 11
412.8994949366117
 21
150.3
 31
0.0
  0
LINE
  5
9F
  8
0
  6
CONTINUOUS
 62
     7
 10
412.8994949366117
 20
150.3
 30
0.0
 11
407.1005050633884
 21
150.3
 31
0.0
  0
LINE
  5
A0
  8
0
  6
CONTINUOUS
 62
     7
 10
397.5
 20
220.8
 30
0.0
 11
392.5
 21
215.8
 31
0.0
  0
LINE
  5
A1
  8
0
  6
CONTINUOUS
 62
     7
 10
422.5000000000001
 20
220.8
 30
0.0
 11
397.5
 21
220.8
 31
0.0
  0
LINE
  5
A2
  8
0
  6
CONTINUOUS
 62
     7
 10
427.5000000000001
 20
215.8
 30
0.0
 11
422.5000000000001
 21
220.8
 31
0.0
  0
LINE
  5
A3
  8
0
  6
CONTINUOUS
 62
     7
 10
427.5000000000001
 20
215.8
 30
0.0
 11
427.5000000000001
 21
111.3
 31
0.0
  0
LINE
  5
A4
  8
0
  6
CONTINUOUS
 62
     7
 10
392.5
 20
215.8
 30
0.0
 11
392.5
 21
111.3
 31
0.0
  0
CIRCLE
  5
A5
  8
0
  6
CONTINUOUS
 62
     7
 10
410.0
 20
122.3
 30
0.0
 40
3.250000000000003
  0
ARC
  5
A6
  8
0
  6
CONTINUOUS
 62
     7
 10
410.0
 20
203.8
 30
0.0
 40
2.75000000000003
 50
180.0
 51
0.0
  0
LINE
  5
A7
  8
0
  6
CONTINUOUS
 62
     7
 10
412.75
 20
203.8
 30
0.0
 11
412.7500000000001
 21
210.8
 31
0.0
  0
ARC
  5
A8
  8
0
  6
CONTINUOUS
 62
     7
 10
410.0
 20
210.8
 30
0.0
 40
2.75000000000003
 50
359.9999999999997
 51
180.0
  0
LINE
  5
A9
  8
0
  6
CONTINUOUS
 62
     7
 10
407.25
 20
210.8
 30
0.0
 11
407.25
 21
203.8
 31
0.0
  0
ARC
  5
AA
  8
0
  6
CONTINUOUS
 62
     7
 10
410.0
 20
165.8
 30
0.0
 40
2.75000000000003
 50
179.9999999999994
 51
0.0000000000003411
  0
LINE
  5
AB
  8
0
  6
CONTINUOUS
 62
     7
 10
412.75
 20
165.8
 30
0.0
 11
412.7500000000001
 21
172.8
 31
0.0
  0
ARC
  5
AC
  8
0
  6
CONTINUOUS
 62
     7
 10
410.0
 20
172.8
 30
0.0
 40
2.75000000000003
 50
0.0000000000002891
 51
180.0
  0
LINE
  5
AD
  8
0
  6
CONTINUOUS
 62
     7
 10
407.2500000000001
 20
172.8
 30
0.0
 11
407.25
 21
165.8000000000001
 31
0.0
  0
LINE
  5
AE
  8
0
  6
CONTINUOUS
 62
     7
 10
407.1005050633884
 20
195.2999999999999
 30
0.0
 11
403.0
 21
191.1994949366116
 31
0.0
  0
LINE
  5
AF
  8
0
  6
CONTINUOUS
 62
     7
 10
403.0
 20
191.1994949366116
 30
0.0
 11
403.0
 21
185.4005050633884
 31
0.0
  0
LINE
  5
B0
  8
0
  6
CONTINUOUS
 62
     7
 10
403.0
 20
185.4005050633884
 30
0.0
 11
407.1005050633884
 21
181.3
 31
0.0
  0
LINE
  5
B1
  8
0
  6
CONTINUOUS
 62
     7
 10
407.1005050633884
 20
181.3
 30
0.0
 11
412.8994949366117
 21
181.3
 31
0.0
  0
LINE
  5
B2
  8
0
  6
CONTINUOUS
 62
     7
 10
412.8994949366117
 20
181.3
 30
0.0
 11
416.9999999999999
 21
185.4005050633882
 31
0.0
  0
LINE
  5
B3
  8
0
  6
CONTINUOUS
 62
     7
 10
416.9999999999999
 20
185.4005050633882
 30
0.0
 11
417.0000000000001
 21
191.1994949366116
 31
0.0
  0
LINE
  5
B4
  8
0
  6
CONTINUOUS
 62
     7
 10
417.0000000000001
 20
191.1994949366116
 30
0.0
 11
412.8994949366117
 21
195.3
 31
0.0
  0
LINE
  5
B5
  8
0
  6
CONTINUOUS
 62
     7
 10
412.8994949366117
 20
195.3
 30
0.0
 11
407.1005050633884
 21
195.2999999999999
 31
0.0
  0
LINE
  5
B6
  8
0
  6
CONTINUOUS
 62
     7
 10
427.5000000000001
 20
109.2
 30
0.0
 11
392.5
 21
109.2
 31
0.0
  0
LINE
  5
B7
  8
0
  6
CONTINUOUS
 62
     7
 10
427.5000000000001
 20
111.3
 30
0.0
 11
427.5000000000001
 21
109.2
 31
0.0
  0
LINE
  5
B8
  8
0
  6
CONTINUOUS
 62
     7
 10
392.5
 20
109.2
 30
0.0
 11
392.5
 21
111.3
 31
0.0
  0
ENDBLK
  8
0
  0
BLOCK
  8
0
  2
D_FRAME_VIEW_1448
 70
     0
 10
0.0
 20
0.0
 30
0.0
  0
LINE
  5
BD
  8
0
  6
CONTINUOUS
 62
     7
 10
302.5
 20
128.7331956916197
 30
0.0
 11
302.5
 21
128.7890348863437
 31
0.0
  0
LINE
  5
BE
  8
0
  6
CONTINUOUS
 62
     7
 10
302.5
 20
128.7890348863437
 30
0.0
 11
307.5
 21
123.7920807512482
 31
0.0
  0
LINE
  5
BF
  8
0
  6
CONTINUOUS
 62
     7
 10
307.5
 20
123.7920807512482
 30
0.0
 11
307.5
 21
123.7362415565242
 31
0.0
  0
LINE
  5
C0
  8
0
  6
CONTINUOUS
 62
     7
 10
307.5
 20
123.7362415565242
 30
0.0
 11
302.5
 21
128.7331956916197
 31
0.0
  0
LINE
  5
C1
  8
0
  6
CONTINUOUS
 62
     7
 10
277.4999999999999
 20
128.7331956916197
 30
0.0
 11
272.4999999999999
 21
123.7362415565242
 31
0.0
  0
LINE
  5
C2
  8
0
  6
CONTINUOUS
 62
     7
 10
277.4999999999999
 20
128.7331956916197
 30
0.0
 11
302.5
 21
128.7331956916197
 31
0.0
  0
LINE
  5
C3
  8
0
  6
CONTINUOUS
 62
     7
 10
307.5
 20
111.2267110569247
 30
0.0
 11
307.5
 21
123.7362415565242
 31
0.0
  0
LINE
  5
C4
  8
0
  6
CONTINUOUS
 62
     7
 10
272.4999999999999
 20
111.2267110569247
 30
0.0
 11
272.4999999999999
 21
123.7362415565242
 31
0.0
  0
POLYLINE
  5
C5
  8
0
  6
CONTINUOUS
 62
     7
 66
     1
 10
0.0
 20
0.0
 30
0.0
  0
VERTEX
  5
136
  8
0
  6
CONTINUOUS
 62
     7
 10
293.25
 20
122.5589461471064
 30
0.0
  0
VERTEX
  5
137
  8
0
  6
CONTINUOUS
 62
     7
 10
293.1875521613105
 20
123.1926034514616
 30
0.0
  0
VERTEX
  5
138
  8
0
  6
CONTINUOUS
 62
     7
 10
293.0026084806616
 20
123.8019096609694
 30
0.0
  0
VERTEX
  5
139
  8
0
  6
CONTINUOUS
 62
     7
 10
292.7022762399832
 20
124.3634494797015
 30
0.0
  0
VERTEX
  5
13A
  8
0
  6
CONTINUOUS
 62
     7
 10
292.2980970388563
 20
124.8556432473391
 30
0.0
  0
VERTEX
  5
13B
  8
0
  6
CONTINUOUS
 62
     7
 10
291.8056032573137
 20
125.2595762334173
 30
0.0
  0
VERTEX
  5
13C
  8
0
  6
CONTINUOUS
 62
     7
 10
291.2437211551865
 20
125.5597255198094
 30
0.0
  0
VERTEX
  5
13D
  8
0
  6
CONTINUOUS
 62
     7
 10
290.6340435465524
 20
125.744556537765
 30
0.0
  0
VERTEX
  5
13E
  8
0
  6
CONTINUOUS
 62
     7
 10
290.0
 20
125.8069663349184
 30
0.0
  0
SEQEND
  5
192
  8
0
  6
CONTINUOUS
 62
     7
  0
POLYLINE
  5
C6
  8
0
  6
CONTINUOUS
 62
     7
 66
     1
 10
0.0
 20
0.0
 30
0.0
  0
VERTEX
  5
13F
  8
0
  6
CONTINUOUS
 62
     7
 10
290.0
 20
125.8069663349184
 30
0.0
  0
VERTEX
  5
140
  8
0
  6
CONTINUOUS
 62
     7
 10
289.3659564534476
 20
125.744556537765
 30
0.0
  0
VERTEX
  5
141
  8
0
  6
CONTINUOUS
 62
     7
 10
288.7562788448135
 20
125.5597255198094
 30
0.0
  0
VERTEX
  5
142
  8
0
  6
CONTINUOUS
 62
     7
 10
288.1943967426863
 20
125.2595762334173
 30
0.0
  0
VERTEX
  5
143
  8
0
  6
CONTINUOUS
 62
     7
 10
287.7019029611437
 20
124.8556432473391
 30
0.0
  0
VERTEX
  5
144
  8
0
  6
CONTINUOUS
 62
     7
 10
287.2977237600168
 20
124.3634494797015
 30
0.0
  0
VERTEX
  5
145
  8
0
  6
CONTINUOUS
 62
     7
 10
286.9973915193384
 20
123.8019096609694
 30
0.0
  0
VERTEX
  5
146
  8
0
  6
CONTINUOUS
 62
     7
 10
286.8124478386895
 20
123.1926034514616
 30
0.0
  0
VERTEX
  5
147
  8
0
  6
CONTINUOUS
 62
     7
 10
286.75
 20
122.5589461471064
 30
0.0
  0
SEQEND
  5
193
  8
0
  6
CONTINUOUS
 62
     7
  0
LINE
  5
C7
  8
0
  6
CONTINUOUS
 62
     7
 10
286.75
 20
121.5595553200873
 30
0.0
 11
286.75
 21
122.5589461471064
 31
0.0
  0
POLYLINE
  5
C8
  8
0
  6
CONTINUOUS
 62
     7
 66
     1
 10
0.0
 20
0.0
 30
0.0
  0
VERTEX
  5
148
  8
0
  6
CONTINUOUS
 62
     7
 10
286.75
 20
121.5595553200873
 30
0.0
  0
VERTEX
  5
149
  8
0
  6
CONTINUOUS
 62
     7
 10
286.8124478386895
 20
120.9258980157322
 30
0.0
  0
VERTEX
  5
14A
  8
0
  6
CONTINUOUS
 62
     7
 10
286.9973915193384
 20
120.3165918062243
 30
0.0
  0
VERTEX
  5
14B
  8
0
  6
CONTINUOUS
 62
     7
 10
287.2977237600168
 20
119.7550519874922
 30
0.0
  0
VERTEX
  5
14C
  8
0
  6
CONTINUOUS
 62
     7
 10
287.7019029611437
 20
119.2628582198546
 30
0.0
  0
VERTEX
  5
14D
  8
0
  6
CONTINUOUS
 62
     7
 10
288.1943967426863
 20
118.8589252337764
 30
0.0
  0
VERTEX
  5
14E
  8
0
  6
CONTINUOUS
 62
     7
 10
288.7562788448135
 20
118.5587759473843
 30
0.0
  0
VERTEX
  5
14F
  8
0
  6
CONTINUOUS
 62
     7
 10
289.3659564534476
 20
118.3739449294287
 30
0.0
  0
VERTEX
  5
150
  8
0
  6
CONTINUOUS
 62
     7
 10
290.0
 20
118.3115351322753
 30
0.0
  0
SEQEND
  5
194
  8
0
  6
CONTINUOUS
 62
     7
  0
POLYLINE
  5
C9
  8
0
  6
CONTINUOUS
 62
     7
 66
     1
 10
0.0
 20
0.0
 30
0.0
  0
VERTEX
  5
151
  8
0
  6
CONTINUOUS
 62
     7
 10
290.0
 20
118.3115351322753
 30
0.0
  0
VERTEX
  5
152
  8
0
  6
CONTINUOUS
 62
     7
 10
290.6340435465524
 20
118.3739449294287
 30
0.0
  0
VERTEX
  5
153
  8
0
  6
CONTINUOUS
 62
     7
 10
291.2437211551866
 20
118.5587759473843
 30
0.0
  0
VERTEX
  5
154
  8
0
  6
CONTINUOUS
 62
     7
 10
291.8056032573137
 20
118.8589252337764
 30
0.0
  0
VERTEX
  5
155
  8
0
  6
CONTINUOUS
 62
     7
 10
292.2980970388563
 20
119.2628582198546
 30
0.0
  0
VERTEX
  5
156
  8
0
  6
CONTINUOUS
 62
     7
 10
292.7022762399832
 20
119.7550519874922
 30
0.0
  0
VERTEX
  5
157
  8
0
  6
CONTINUOUS
 62
     7
 10
293.0026084806616
 20
120.3165918062243
 30
0.0
  0
VERTEX
  5
158
  8
0
  6
CONTINUOUS
 62
     7
 10
293.1875521613105
 20
120.9258980157322
 30
0.0
  0
VERTEX
  5
159
  8
0
  6
CONTINUOUS
 62
     7
 10
293.25
 20
121.5595553200873
 30
0.0
  0
SEQEND
  5
195
  8
0
  6
CONTINUOUS
 62
     7
  0
LINE
  5
CA
  8
0
  6
CONTINUOUS
 62
     7
 10
293.2499999999999
 20
121.5595553200873
 30
0.0
 11
293.2499999999999
 21
122.5589461471064
 31
0.0
  0
LINE
  5
CB
  8
0
  6
CONTINUOUS
 62
     7
 10
277.4999999999999
 20
128.7890348863437
 30
0.0
 11
277.4999999999999
 21
128.7331956916197
 31
0.0
  0
LINE
  5
CC
  8
0
  6
CONTINUOUS
 62
     7
 10
277.4999999999999
 20
128.7890348863437
 30
0.0
 11
302.5
 21
128.7890348863437
 31
0.0
  0
LINE
  5
CD
  8
0
  6
CONTINUOUS
 62
     7
 10
272.4999999999999
 20
123.7362415565242
 30
0.0
 11
272.4999999999999
 21
123.7920807512482
 31
0.0
  0
LINE
  5
CE
  8
0
  6
CONTINUOUS
 62
     7
 10
272.4999999999999
 20
123.7920807512482
 30
0.0
 11
277.4999999999999
 21
128.7890348863437
 31
0.0
  0
POLYLINE
  5
CF
  8
0
  6
CONTINUOUS
 62
     7
 66
     1
 10
0.0
 20
0.0
 30
0.0
  0
VERTEX
  5
15A
  8
0
  6
CONTINUOUS
 62
     7
 10
290.0
 20
118.3673743269993
 30
0.0
  0
VERTEX
  5
15B
  8
0
  6
CONTINUOUS
 62
     7
 10
290.6340435465524
 20
118.4297841241527
 30
0.0
  0
VERTEX
  5
15C
  8
0
  6
CONTINUOUS
 62
     7
 10
291.2437211551866
 20
118.6146151421083
 30
0.0
  0
VERTEX
  5
15D
  8
0
  6
CONTINUOUS
 62
     7
 10
291.8056032573137
 20
118.9147644285004
 30
0.0
  0
VERTEX
  5
15E
  8
0
  6
CONTINUOUS
 62
     7
 10
292.2980970388563
 20
119.3186974145786
 30
0.0
  0
VERTEX
  5
15F
  8
0
  6
CONTINUOUS
 62
     7
 10
292.7022762399832
 20
119.8108911822162
 30
0.0
  0
VERTEX
  5
160
  8
0
  6
CONTINUOUS
 62
     7
 10
293.0026084806616
 20
120.3724310009483
 30
0.0
  0
VERTEX
  5
161
  8
0
  6
CONTINUOUS
 62
     7
 10
293.1875521613105
 20
120.9817372104562
 30
0.0
  0
VERTEX
  5
162
  8
0
  6
CONTINUOUS
 62
     7
 10
293.25
 20
121.6153945148113
 30
0.0
  0
SEQEND
  5
196
  8
0
  6
CONTINUOUS
 62
     7
  0
POLYLINE
  5
D0
  8
0
  6
CONTINUOUS
 62
     7
 66
     1
 10
0.0
 20
0.0
 30
0.0
  0
VERTEX
  5
163
  8
0
  6
CONTINUOUS
 62
     7
 10
286.75
 20
121.6153945148113
 30
0.0
  0
VERTEX
  5
164
  8
0
  6
CONTINUOUS
 62
     7
 10
286.8124478386895
 20
120.9817372104562
 30
0.0
  0
VERTEX
  5
165
  8
0
  6
CONTINUOUS
 62
     7
 10
286.9973915193384
 20
120.3724310009483
 30
0.0
  0
VERTEX
  5
166
  8
0
  6
CONTINUOUS
 62
     7
 10
287.2977237600168
 20
119.8108911822162
 30
0.0
  0
VERTEX
  5
167
  8
0
  6
CONTINUOUS
 62
     7
 10
287.7019029611437
 20
119.3186974145786
 30
0.0
  0
VERTEX
  5
168
  8
0
  6
CONTINUOUS
 62
     7
 10
288.1943967426863
 20
118.9147644285004
 30
0.0
  0
VERTEX
  5
169
  8
0
  6
CONTINUOUS
 62
     7
 10
288.7562788448135
 20
118.6146151421083
 30
0.0
  0
VERTEX
  5
16A
  8
0
  6
CONTINUOUS
 62
     7
 10
289.3659564534476
 20
118.4297841241527
 30
0.0
  0
VERTEX
  5
16B
  8
0
  6
CONTINUOUS
 62
     7
 10
290.0
 20
118.3673743269993
 30
0.0
  0
SEQEND
  5
197
  8
0
  6
CONTINUOUS
 62
     7
  0
LINE
  5
D1
  8
0
  6
CONTINUOUS
 62
     7
 10
307.5
 20
109.2
 30
0.0
 11
272.4999999999999
 21
109.2
 31
0.0
  0
LINE
  5
D2
  8
0
  6
CONTINUOUS
 62
     7
 10
272.4999999999999
 20
109.2
 30
0.0
 11
272.4999999999999
 21
111.2267110569247
 31
0.0
  0
LINE
  5
D3
  8
0
  6
CONTINUOUS
 62
     7
 10
307.5
 20
111.2267110569247
 30
0.0
 11
307.5
 21
109.2
 31
0.0
  0
LINE
  5
D4
  8
0
  6
CONTINUOUS
 62
     7
 10
287.1005050633883
 20
150.3
 30
0.0
 11
283.0
 21
146.1994949366117
 31
0.0
  0
LINE
  5
D5
  8
0
  6
CONTINUOUS
 62
     7
 10
283.0
 20
146.1994949366117
 30
0.0
 11
283.0
 21
140.4005050633882
 31
0.0
  0
LINE
  5
D6
  8
0
  6
CONTINUOUS
 62
     7
 10
283.0
 20
140.4005050633882
 30
0.0
 11
287.1005050633883
 21
136.3
 31
0.0
  0
LINE
  5
D7
  8
0
  6
CONTINUOUS
 62
     7
 10
287.1005050633883
 20
136.3
 30
0.0
 11
292.8994949366116
 21
136.3
 31
0.0
  0
LINE
  5
D8
  8
0
  6
CONTINUOUS
 62
     7
 10
292.8994949366116
 20
136.3
 30
0.0
 11
297.0
 21
140.4005050633884
 31
0.0
  0
LINE
  5
D9
  8
0
  6
CONTINUOUS
 62
     7
 10
297.0
 20
140.4005050633884
 30
0.0
 11
297.0
 21
146.1994949366116
 31
0.0
  0
LINE
  5
DA
  8
0
  6
CONTINUOUS
 62
     7
 10
297.0
 20
146.1994949366116
 30
0.0
 11
292.8994949366116
 21
150.3
 31
0.0
  0
LINE
  5
DB
  8
0
  6
CONTINUOUS
 62
     7
 10
292.8994949366116
 20
150.3
 30
0.0
 11
287.1005050633883
 21
150.3
 31
0.0
  0
LINE
  5
DC
  8
0
  6
CONTINUOUS
 62
     7
 10
279.4999999999999
 20
128.7890348863437
 30
0.0
 11
279.4999999999999
 21
211.3
 31
0.0
  0
ARC
  5
DD
  8
0
  6
CONTINUOUS
 62
     7
 10
278.9999999999999
 20
211.3
 30
0.0
 40
0.5000000000000004
 50
0.0
 51
180.0
  0
LINE
  5
DE
  8
0
  6
CONTINUOUS
 62
     7
 10
278.4999999999999
 20
211.3
 30
0.0
 11
278.4999999999999
 21
128.7890348863437
 31
0.0
  0
ARC
  5
DF
  8
0
  6
CONTINUOUS
 62
     7
 10
290.0
 20
172.8
 30
0.0
 40
2.749999999999975
 50
0.0
 51
179.9999999999997
  0
LINE
  5
E0
  8
0
  6
CONTINUOUS
 62
     7
 10
287.25
 20
172.8
 30
0.0
 11
287.25
 21
165.8
 31
0.0
  0
ARC
  5
E1
  8
0
  6
CONTINUOUS
 62
     7
 10
290.0
 20
165.8
 30
0.0
 40
2.749999999999975
 50
179.9999999999997
 51
0.0000000000005684
  0
LINE
  5
E2
  8
0
  6
CONTINUOUS
 62
     7
 10
292.7499999999999
 20
165.8000000000001
 30
0.0
 11
292.7499999999999
 21
172.8
 31
0.0
  0
ARC
  5
E3
  8
0
  6
CONTINUOUS
 62
     7
 10
290.0
 20
210.8
 30
0.0
 40
2.749999999999975
 50
0.0
 51
180.0000000000003
  0
LINE
  5
E4
  8
0
  6
CONTINUOUS
 62
     7
 10
287.25
 20
210.8
 30
0.0
 11
287.25
 21
203.8
 31
0.0
  0
ARC
  5
E5
  8
0
  6
CONTINUOUS
 62
     7
 10
290.0
 20
203.8
 30
0.0
 40
2.749999999999975
 50
180.0
 51
0.0000000000001137
  0
LINE
  5
E6
  8
0
  6
CONTINUOUS
 62
     7
 10
292.7499999999999
 20
203.8
 30
0.0
 11
292.7499999999999
 21
210.8
 31
0.0
  0
ARC
  5
E7
  8
0
  6
CONTINUOUS
 62
     7
 10
290.0
 20
122.3
 30
0.0
 40
3.250000000000003
 50
0.0
 51
90.0
  0
ARC
  5
E8
  8
0
  6
CONTINUOUS
 62
     7
 10
290.0
 20
122.3
 30
0.0
 40
3.249999999999975
 50
180.0
 51
0.0
  0
ARC
  5
E9
  8
0
  6
CONTINUOUS
 62
     7
 10
290.0
 20
122.3
 30
0.0
 40
3.249999999999975
 50
90.0
 51
180.0
  0
LINE
  5
EA
  8
0
  6
CONTINUOUS
 62
     7
 10
277.4999999999999
 20
220.8
 30
0.0
 11
272.4999999999999
 21
215.8
 31
0.0
  0
LINE
  5
EB
  8
0
  6
CONTINUOUS
 62
     7
 10
277.4999999999999
 20
220.8
 30
0.0
 11
302.5
 21
220.8
 31
0.0
  0
LINE
  5
EC
  8
0
  6
CONTINUOUS
 62
     7
 10
307.5
 20
215.8
 30
0.0
 11
302.5
 21
220.8
 31
0.0
  0
ARC
  5
ED
  8
0
  6
CONTINUOUS
 62
     7
 10
301.0
 20
211.3
 30
0.0
 40
0.5000000000000004
 50
0.0
 51
180.0
  0
LINE
  5
EE
  8
0
  6
CONTINUOUS
 62
     7
 10
300.5
 20
128.7890348863437
 30
0.0
 11
300.5
 21
211.3
 31
0.0
  0
LINE
  5
EF
  8
0
  6
CONTINUOUS
 62
     7
 10
301.5
 20
211.3
 30
0.0
 11
301.5
 21
128.7890348863437
 31
0.0
  0
LINE
  5
F0
  8
0
  6
CONTINUOUS
 62
     7
 10
287.1005050633883
 20
195.3
 30
0.0
 11
282.9999999999999
 21
191.1994949366116
 31
0.0
  0
LINE
  5
F1
  8
0
  6
CONTINUOUS
 62
     7
 10
282.9999999999999
 20
191.1994949366116
 30
0.0
 11
283.0
 21
185.4005050633882
 31
0.0
  0
LINE
  5
F2
  8
0
  6
CONTINUOUS
 62
     7
 10
283.0
 20
185.4005050633882
 30
0.0
 11
287.1005050633883
 21
181.3
 31
0.0
  0
LINE
  5
F3
  8
0
  6
CONTINUOUS
 62
     7
 10
287.1005050633883
 20
181.3
 30
0.0
 11
292.8994949366116
 21
181.3
 31
0.0
  0
LINE
  5
F4
  8
0
  6
CONTINUOUS
 62
     7
 10
292.8994949366116
 20
181.3
 30
0.0
 11
297.0
 21
185.4005050633884
 31
0.0
  0
LINE
  5
F5
  8
0
  6
CONTINUOUS
 62
     7
 10
297.0
 20
185.4005050633884
 30
0.0
 11
297.0
 21
191.1994949366116
 31
0.0
  0
LINE
  5
F6
  8
0
  6
CONTINUOUS
 62
     7
 10
297.0
 20
191.1994949366116
 30
0.0
 11
292.8994949366116
 21
195.2999999999999
 31
0.0
  0
LINE
  5
F7
  8
0
  6
CONTINUOUS
 62
     7
 10
292.8994949366116
 20
195.2999999999999
 30
0.0
 11
287.1005050633883
 21
195.3
 31
0.0
  0
LINE
  5
F8
  8
0
  6
CONTINUOUS
 62
     7
 10
272.4999999999999
 20
123.7920807512482
 30
0.0
 11
272.4999999999999
 21
215.8
 31
0.0
  0
LINE
  5
F9
  8
0
  6
CONTINUOUS
 62
     7
 10
307.5
 20
123.7920807512482
 30
0.0
 11
307.5
 21
215.8
 31
0.0
  0
ENDBLK
  8
0
  0
BLOCK
  8
0
  2
D_FRAME_VIEW_1494
 70
     0
 10
0.0
 20
0.0
 30
0.0
  0
LINE
  5
FE
  8
0
  6
CONTINUOUS
 62
     7
 10
397.5
 20
252.7363918680622
 30
0.0
 11
397.5
 21
251.1363918680622
 31
0.0
  0
LINE
  5
FF
  8
0
  6
CONTINUOUS
 62
     7
 10
392.5
 20
251.1363918680622
 30
0.0
 11
392.5
 21
252.7363918680622
 31
0.0
  0
LINE
  5
100
  8
0
  6
CONTINUOUS
 62
     7
 10
397.5
 20
251.1363918680622
 30
0.0
 11
392.5
 21
251.1363918680622
 31
0.0
  0
LINE
  5
101
  8
0
  6
CONTINUOUS
 62
     7
 10
392.5
 20
252.7363918680622
 30
0.0
 11
397.5
 21
252.7363918680622
 31
0.0
  0
LINE
  5
102
  8
0
  6
CONTINUOUS
 62
     7
 10
422.5000000000001
 20
251.1363918680622
 30
0.0
 11
422.5000000000001
 21
252.7363918680622
 31
0.0
  0
LINE
  5
103
  8
0
  6
CONTINUOUS
 62
     7
 10
422.5000000000001
 20
251.1363918680622
 30
0.0
 11
397.5
 21
251.1363918680622
 31
0.0
  0
LINE
  5
104
  8
0
  6
CONTINUOUS
 62
     7
 10
422.5000000000001
 20
252.7363918680622
 30
0.0
 11
397.5
 21
252.7363918680622
 31
0.0
  0
LINE
  5
105
  8
0
  6
CONTINUOUS
 62
     7
 10
427.5000000000001
 20
252.7363918680622
 30
0.0
 11
427.5000000000001
 21
251.1363918680622
 31
0.0
  0
LINE
  5
106
  8
0
  6
CONTINUOUS
 62
     7
 10
427.5000000000001
 20
251.1363918680622
 30
0.0
 11
422.5000000000001
 21
251.1363918680622
 31
0.0
  0
LINE
  5
107
  8
0
  6
CONTINUOUS
 62
     7
 10
422.5000000000001
 20
252.7363918680622
 30
0.0
 11
427.5000000000001
 21
252.7363918680622
 31
0.0
  0
ARC
  5
108
  8
0
  6
CONTINUOUS
 62
     7
 10
422.5000000000001
 20
251.1363918680622
 30
0.0
 40
1.000000000000001
 50
270.0
 51
0.0
  0
LINE
  5
109
  8
0
  6
CONTINUOUS
 62
     7
 10
419.5000000000001
 20
250.1363918680622
 30
0.0
 11
422.5000000000001
 21
250.1363918680622
 31
0.0
  0
ARC
  5
10A
  8
0
  6
CONTINUOUS
 62
     7
 10
419.5000000000001
 20
251.1363918680622
 30
0.0
 40
1.000000000000001
 50
180.0
 51
270.0
  0
LINE
  5
10B
  8
0
  6
CONTINUOUS
 62
     7
 10
400.5
 20
250.1363918680622
 30
0.0
 11
397.5
 21
250.1363918680622
 31
0.0
  0
ARC
  5
10C
  8
0
  6
CONTINUOUS
 62
     7
 10
397.5
 20
251.1363918680622
 30
0.0
 40
1.000000000000001
 50
180.0
 51
270.0
  0
ARC
  5
10D
  8
0
  6
CONTINUOUS
 62
     7
 10
400.5
 20
251.1363918680622
 30
0.0
 40
1.000000000000001
 50
270.0
 51
0.0
  0
POLYLINE
  5
10E
  8
0
  6
CONTINUOUS
 62
     7
 66
     1
 10
0.0
 20
0.0
 30
0.0
  0
VERTEX
  5
16C
  8
0
  6
CONTINUOUS
 62
     7
 10
410.0
 20
257.9006504025932
 30
0.0
  0
VERTEX
  5
16D
  8
0
  6
CONTINUOUS
 62
     7
 10
410.6340435465524
 20
257.9028298007336
 30
0.0
  0
VERTEX
  5
16E
  8
0
  6
CONTINUOUS
 62
     7
 10
411.2437211551865
 20
257.9092842421065
 30
0.0
  0
VERTEX
  5
16F
  8
0
  6
CONTINUOUS
 62
     7
 10
411.8056032573137
 20
257.9197656861497
 30
0.0
  0
VERTEX
  5
170
  8
0
  6
CONTINUOUS
 62
     7
 10
412.2980970388563
 20
257.9338713368467
 30
0.0
  0
VERTEX
  5
171
  8
0
  6
CONTINUOUS
 62
     7
 10
412.7022762399832
 20
257.9510591219516
 30
0.0
  0
VERTEX
  5
172
  8
0
  6
CONTINUOUS
 62
     7
 10
413.0026084806616
 20
257.970668524522
 30
0.0
  0
VERTEX
  5
173
  8
0
  6
CONTINUOUS
 62
     7
 10
413.1875521613105
 20
257.9919459662141
 30
0.0
  0
VERTEX
  5
174
  8
0
  6
CONTINUOUS
 62
     7
 10
413.25
 20
258.0140737668763
 30
0.0
  0
SEQEND
  5
198
  8
0
  6
CONTINUOUS
 62
     7
  0
LINE
  5
10F
  8
0
  6
CONTINUOUS
 62
     7
 10
413.25
 20
258.0489732635788
 30
0.0
 11
413.25
 21
258.0140737668763
 31
0.0
  0
POLYLINE
  5
110
  8
0
  6
CONTINUOUS
 62
     7
 66
     1
 10
0.0
 20
0.0
 30
0.0
  0
VERTEX
  5
175
  8
0
  6
CONTINUOUS
 62
     7
 10
413.25
 20
258.0489732635788
 30
0.0
  0
VERTEX
  5
176
  8
0
  6
CONTINUOUS
 62
     7
 10
413.1875521613105
 20
258.0711010642409
 30
0.0
  0
VERTEX
  5
177
  8
0
  6
CONTINUOUS
 62
     7
 10
413.0026084806616
 20
258.092378505933
 30
0.0
  0
VERTEX
  5
178
  8
0
  6
CONTINUOUS
 62
     7
 10
412.7022762399832
 20
258.1119879085034
 30
0.0
  0
VERTEX
  5
179
  8
0
  6
CONTINUOUS
 62
     7
 10
412.2980970388563
 20
258.1291756936084
 30
0.0
  0
VERTEX
  5
17A
  8
0
  6
CONTINUOUS
 62
     7
 10
411.8056032573137
 20
258.1432813443053
 30
0.0
  0
VERTEX
  5
17B
  8
0
  6
CONTINUOUS
 62
     7
 10
411.2437211551865
 20
258.1537627883485
 30
0.0
  0
VERTEX
  5
17C
  8
0
  6
CONTINUOUS
 62
     7
 10
410.6340435465524
 20
258.1602172297215
 30
0.0
  0
VERTEX
  5
17D
  8
0
  6
CONTINUOUS
 62
     7
 10
410.0
 20
258.1623966278619
 30
0.0
  0
SEQEND
  5
199
  8
0
  6
CONTINUOUS
 62
     7
  0
POLYLINE
  5
111
  8
0
  6
CONTINUOUS
 62
     7
 66
     1
 10
0.0
 20
0.0
 30
0.0
  0
VERTEX
  5
17E
  8
0
  6
CONTINUOUS
 62
     7
 10
410.0
 20
258.1623966278619
 30
0.0
  0
VERTEX
  5
17F
  8
0
  6
CONTINUOUS
 62
     7
 10
409.3659564534476
 20
258.1602172297215
 30
0.0
  0
VERTEX
  5
180
  8
0
  6
CONTINUOUS
 62
     7
 10
408.7562788448135
 20
258.1537627883485
 30
0.0
  0
VERTEX
  5
181
  8
0
  6
CONTINUOUS
 62
     7
 10
408.1943967426863
 20
258.1432813443053
 30
0.0
  0
VERTEX
  5
182
  8
0
  6
CONTINUOUS
 62
     7
 10
407.7019029611437
 20
258.1291756936084
 30
0.0
  0
VERTEX
  5
183
  8
0
  6
CONTINUOUS
 62
     7
 10
407.2977237600168
 20
258.1119879085034
 30
0.0
  0
VERTEX
  5
184
  8
0
  6
CONTINUOUS
 62
     7
 10
406.9973915193384
 20
258.092378505933
 30
0.0
  0
VERTEX
  5
185
  8
0
  6
CONTINUOUS
 62
     7
 10
406.8124478386895
 20
258.0711010642409
 30
0.0
  0
VERTEX
  5
186
  8
0
  6
CONTINUOUS
 62
     7
 10
406.75
 20
258.0489732635788
 30
0.0
  0
SEQEND
  5
19A
  8
0
  6
CONTINUOUS
 62
     7
  0
LINE
  5
112
  8
0
  6
CONTINUOUS
 62
     7
 10
406.7500000000001
 20
258.0489732635788
 30
0.0
 11
406.7500000000001
 21
258.0140737668763
 31
0.0
  0
POLYLINE
  5
113
  8
0
  6
CONTINUOUS
 62
     7
 66
     1
 10
0.0
 20
0.0
 30
0.0
  0
VERTEX
  5
187
  8
0
  6
CONTINUOUS
 62
     7
 10
406.75
 20
258.0140737668763
 30
0.0
  0
VERTEX
  5
188
  8
0
  6
CONTINUOUS
 62
     7
 10
406.8124478386895
 20
257.9919459662141
 30
0.0
  0
VERTEX
  5
189
  8
0
  6
CONTINUOUS
 62
     7
 10
406.9973915193384
 20
257.970668524522
 30
0.0
  0
VERTEX
  5
18A
  8
0
  6
CONTINUOUS
 62
     7
 10
407.2977237600168
 20
257.9510591219516
 30
0.0
  0
VERTEX
  5
18B
  8
0
  6
CONTINUOUS
 62
     7
 10
407.7019029611437
 20
257.9338713368467
 30
0.0
  0
VERTEX
  5
18C
  8
0
  6
CONTINUOUS
 62
     7
 10
408.1943967426863
 20
257.9197656861497
 30
0.0
  0
VERTEX
  5
18D
  8
0
  6
CONTINUOUS
 62
     7
 10
408.7562788448134
 20
257.9092842421065
 30
0.0
  0
VERTEX
  5
18E
  8
0
  6
CONTINUOUS
 62
     7
 10
409.3659564534476
 20
257.9028298007336
 30
0.0
  0
VERTEX
  5
18F
  8
0
  6
CONTINUOUS
 62
     7
 10
410.0
 20
257.9006504025932
 30
0.0
  0
SEQEND
  5
19B
  8
0
  6
CONTINUOUS
 62
     7
  0
LINE
  5
114
  8
0
  6
CONTINUOUS
 62
     7
 10
397.5
 20
258.2645828087073
 30
0.0
 11
392.5
 21
258.0900853251948
 31
0.0
  0
LINE
  5
115
  8
0
  6
CONTINUOUS
 62
     7
 10
422.5000000000001
 20
258.2645828087073
 30
0.0
 11
397.5
 21
258.2645828087073
 31
0.0
  0
LINE
  5
116
  8
0
  6
CONTINUOUS
 62
     7
 10
427.5000000000001
 20
258.0900853251948
 30
0.0
 11
422.5000000000001
 21
258.2645828087073
 31
0.0
  0
LINE
  5
117
  8
0
  6
CONTINUOUS
 62
     7
 10
392.5
 20
258.0900853251948
 30
0.0
 11
392.5
 21
257.6532428941682
 31
0.0
  0
LINE
  5
118
  8
0
  6
CONTINUOUS
 62
     7
 10
427.5000000000001
 20
258.0900853251948
 30
0.0
 11
427.5000000000001
 21
257.6532428941682
 31
0.0
  0
LINE
  5
119
  8
0
  6
CONTINUOUS
 62
     7
 10
397.5
 20
259.8636081319378
 30
0.0
 11
397.5
 21
258.2645828087073
 31
0.0
  0
LINE
  5
11A
  8
0
  6
CONTINUOUS
 62
     7
 10
392.5
 20
259.6891106484253
 30
0.0
 11
397.5
 21
259.8636081319378
 31
0.0
  0
LINE
  5
11B
  8
0
  6
CONTINUOUS
 62
     7
 10
392.5
 20
258.0900853251948
 30
0.0
 11
392.5
 21
259.6891106484253
 31
0.0
  0
LINE
  5
11C
  8
0
  6
CONTINUOUS
 62
     7
 10
422.5000000000001
 20
259.8636081319378
 30
0.0
 11
397.5
 21
259.8636081319378
 31
0.0
  0
LINE
  5
11D
  8
0
  6
CONTINUOUS
 62
     7
 10
422.5000000000001
 20
258.2645828087073
 30
0.0
 11
422.5000000000001
 21
259.8636081319378
 31
0.0
  0
LINE
  5
11E
  8
0
  6
CONTINUOUS
 62
     7
 10
422.5000000000001
 20
259.8636081319378
 30
0.0
 11
427.5000000000001
 21
259.6891106484253
 31
0.0
  0
LINE
  5
11F
  8
0
  6
CONTINUOUS
 62
     7
 10
427.5000000000001
 20
259.6891106484253
 30
0.0
 11
427.5000000000001
 21
258.0900853251948
 31
0.0
  0
LINE
  5
120
  8
0
  6
CONTINUOUS
 62
     7
 10
392.5
 20
253.2363918680622
 30
0.0
 11
392.5
 21
252.7363918680622
 31
0.0
  0
LINE
  5
121
  8
0
  6
CONTINUOUS
 62
     7
 10
427.5000000000001
 20
252.7363918680622
 30
0.0
 11
427.5000000000001
 21
253.2363918680622
 31
0.0
  0
LINE
  5
122
  8
0
  6
CONTINUOUS
 62
     7
 10
392.5
 20
257.6532428941682
 30
0.0
 11
392.5
 21
257.1535474806587
 31
0.0
  0
LINE
  5
123
  8
0
  6
CONTINUOUS
 62
     7
 10
427.5000000000001
 20
257.1535474806587
 30
0.0
 11
427.5000000000001
 21
257.6532428941682
 31
0.0
  0
LINE
  5
124
  8
0
  6
CONTINUOUS
 62
     7
 10
392.5
 20
257.1535474806587
 30
0.0
 11
392.5
 21
253.2363918680622
 31
0.0
  0
LINE
  5
125
  8
0
  6
CONTINUOUS
 62
     7
 10
427.5000000000001
 20
257.1535474806587
 30
0.0
 11
427.5000000000001
 21
253.2363918680622
 31
0.0
  0
ENDBLK
  8
0
  0
BLOCK
  8
0
  2
D_FRAME_DRAWING_17
 70
     0
 10
0.0
 20
0.0
 30
0.0
  0
LINE
  5
12B
  8
0
  6
CONTINUOUS
 62
     7
 10
0.0
 20
0.0
 30
0.0
 11
210.0
 21
0.0
 31
0.0
  0
LINE
  5
12C
  8
0
  6
CONTINUOUS
 62
     7
 10
210.0
 20
0.0
 30
0.0
 11
210.0
 21
297.0
 31
0.0
  0
LINE
  5
12D
  8
0
  6
CONTINUOUS
 62
     7
 10
210.0
 20
297.0
 30
0.0
 11
0.0
 21
297.0
 31
0.0
  0
LINE
  5
12E
  8
0
  6
CONTINUOUS
 62
     7
 10
0.0
 20
297.0
 30
0.0
 11
0.0
 21
0.0
 31
0.0
  0
ENDBLK
  8
0
  0
ENDSEC
  0
SECTION
  2
ENTITIES
  0
LINE
  5
6F
  8
0
  6
CENTER
 62
     1
 10
290.0
 20
106.2
 30
0.0
 11
290.0
 21
223.8
 31
0.0
  0
LINE
  5
71
  8
0
  6
CENTER
 62
     1
 10
410.0
 20
247.1363918680622
 30
0.0
 11
410.0
 21
262.8636081319378
 31
0.0
  0
LINE
  5
72
  8
0
  6
CENTER
 62
     1
 10
410.0
 20
106.2
 30
0.0
 11
410.0
 21
223.8
 31
0.0
  0
INSERT
  5
8B
  8
0
  6
CONTINUOUS
 62
     7
  2
D_FRAME_VIEW_1288
 10
0.0
 20
0.0
 30
0.0
  0
TEXT
  5
8C
  8
0
  6
CONTINUOUS
 62
     4
 10
405.0514880580218
 20
94.68523821433037
 30
0.0
 40
3.0
  1
SRM-BKS1
  0
INSERT
  5
B9
  8
0
  6
CONTINUOUS
 62
     7
  2
D_FRAME_VIEW_1377
 10
0.0
 20
0.0
 30
0.0
  0
INSERT
  5
FA
  8
0
  6
CONTINUOUS
 62
     7
  2
D_FRAME_VIEW_1448
 10
0.0
 20
0.0
 30
0.0
  0
INSERT
  5
126
  8
0
  6
CONTINUOUS
 62
     7
  2
D_FRAME_VIEW_1494
 10
0.0
 20
0.0
 30
0.0
  0
INSERT
  5
128
  8
0
 62
     7
  2
D_FRAME_DRAWING_17
 10
0.0
 20
0.0
 30
0.0
  0
ENDSEC
  0
EOF
