  0
SECTION
  2
HEADER
  9
$ACADVER
  1
AC1006
  9
$DWGCODEPAGE
  3
ansi_932
  9
$INSBASE
 10
0.0
 20
0.0
 30
0.0
  9
$EXTMIN
 10
48.08828040139456
 20
85.05454545454546
  9
$EXTMAX
 10
156.0
 20
179.0
  9
$LIMMIN
 10
0.0
 20
0.0
  9
$LIMMAX
 10
12.0
 20
9.0
  9
$ORTHOMODE
 70
     0
  9
$REGENMODE
 70
     1
  9
$FILLMODE
 70
     1
  9
$QTEXTMODE
 70
     0
  9
$MIRRTEXT
 70
     1
  9
$DRAGMODE
 70
     2
  9
$LTSCALE
 40
1.0
  9
$OSMODE
 70
    37
  9
$ATTMODE
 70
     1
  9
$TEXTSIZE
 40
0.2
  9
$TRACEWID
 40
0.05
  9
$TEXTSTYLE
  7
STANDARD
  9
$CLAYER
  8
0
  9
$CELTYPE
  6
BYLAYER
  9
$CECOLOR
 62
   256
  9
$DIMSCALE
 40
1.0
  9
$DIMASZ
 40
3.0
  9
$DIMEXO
 40
0.0625
  9
$DIMDLI
 40
0.38
  9
$DIMRND
 40
0.0
  9
$DIMDLE
 40
0.0
  9
$DIMEXE
 40
1.5
  9
$DIMTP
 40
0.0
  9
$DIMTM
 40
0.0
  9
$DIMTXT
 40
3.0
  9
$DIMCEN
 40
0.09
  9
$DIMTSZ
 40
0.0
  9
$DIMTOL
 70
     0
  9
$DIMLIM
 70
     0
  9
$DIMTIH
 70
     1
  9
$DIMTOH
 70
     1
  9
$DIMSE1
 70
     0
  9
$DIMSE2
 70
     0
  9
$DIMTAD
 70
     1
  9
$DIMZIN
 70
     0
  9
$DIMBLK
  1

  9
$DIMASO
 70
     1
  9
$DIMSHO
 70
     1
  9
$DIMPOST
  1

  9
$DIMAPOST
  1

  9
$DIMALT
 70
     0
  9
$DIMALTD
 70
     2
  9
$DIMALTF
 40
25.4
  9
$DIMLFAC
 40
1.0
  9
$DIMTOFL
 70
     0
  9
$DIMTVP
 40
0.0
  9
$DIMTIX
 70
     0
  9
$DIMSOXD
 70
     0
  9
$DIMSAH
 70
     0
  9
$DIMBLK1
  1

  9
$DIMBLK2
  1

  9
$LUNITS
 70
     2
  9
$LUPREC
 70
     4
  9
$SKETCHINC
 40
0.1
  9
$FILLETRAD
 40
0.5
  9
$AUNITS
 70
     0
  9
$AUPREC
 70
     0
  9
$MENU
  1
.
  9
$ELEVATION
 40
0.0
  9
$THICKNESS
 40
0.0
  9
$LIMCHECK
 70
     0
  9
$CHAMFERA
 40
0.0
  9
$CHAMFERB
 40
0.0
  9
$SKPOLY
 70
     0
  9
$TDCREATE
 40
2460290.593268611
  9
$TDUPDATE
 40
2460290.593268704
  9
$TDINDWG
 40
0.0000000116
  9
$TDUSRTIMER
 40
0.0000000116
  9
$USRTIMER
 70
     1
  9
$ANGBASE
 50
0.0
  9
$ANGDIR
 70
     0
  9
$PDMODE
 70
     0
  9
$PDSIZE
 40
0.0
  9
$PLINEWID
 40
0.0
  9
$COORDS
 70
     1
  9
$SPLFRAME
 70
     0
  9
$SPLINETYPE
 70
     6
  9
$SPLINESEGS
 70
     8
  9
$ATTDIA
 70
     0
  9
$ATTREQ
 70
     1
  9
$HANDLING
 70
     1
  9
$HANDSEED
  5
191
  9
$SURFTAB1
 70
     6
  9
$SURFTAB2
 70
     6
  9
$SURFTYPE
 70
     6
  9
$SURFU
 70
     6
  9
$SURFV
 70
     6
  9
$UCSNAME
  2

  9
$UCSORG
 10
0.0
 20
0.0
 30
0.0
  9
$UCSXDIR
 10
1.0
 20
0.0
 30
0.0
  9
$UCSYDIR
 10
0.0
 20
1.0
 30
0.0
  9
$USERI1
 70
     0
  9
$USERI2
 70
     0
  9
$USERI3
 70
     0
  9
$USERI4
 70
     0
  9
$USERI5
 70
     0
  9
$USERR1
 40
0.0
  9
$USERR2
 40
0.0
  9
$USERR3
 40
0.0
  9
$USERR4
 40
0.0
  9
$USERR5
 40
0.0
  9
$WORLDVIEW
 70
     1
  0
ENDSEC
  0
SECTION
  2
TABLES
  0
TABLE
  2
VPORT
 70
     1
  0
VPORT
  2
*ACTIVE
 70
     0
 10
0.0
 20
0.0
 11
1.0
 21
1.0
 12
102.0441402006973
 22
132.0272727272728
 13
0.0
 23
0.0
 14
0.5
 24
0.5
 15
0.5
 25
0.5
 16
0.0
 26
0.0
 36
1.0
 17
0.0
 27
0.0
 37
0.0
 40
93.94545454545457
 41
1.6
 42
50.0
 43
0.0
 44
0.0
 50
0.0
 51
0.0
 71
     0
 72
   100
 73
     1
 74
     3
 75
     0
 76
     0
 77
     0
 78
     0
  0
ENDTAB
  0
TABLE
  2
LTYPE
 70
     2
  0
LTYPE
  2
CONTINUOUS
 70
     0
  3
Solid line
 72
    65
 73
     0
 40
0.0
  0
LTYPE
  2
CENTER
 70
     0
  3

 72
    65
 73
     0
 40
0.0
  0
ENDTAB
  0
TABLE
  2
LAYER
 70
     1
  0
LAYER
  2
0
 70
     0
 62
     7
  6
CONTINUOUS
  0
ENDTAB
  0
TABLE
  2
STYLE
 70
     2
  0
STYLE
  2
STANDARD
 70
     0
 40
0.0
 41
1.0
 50
0.0
 71
     0
 42
0.2
  3
txt
  4

  0
STYLE
  2
ＭＳ_ゴシック
 70
     0
 40
0.0
 41
1.0
 50
0.0
 71
     0
 42
0.2
  3
ＭＳ ゴシック.shx
  4

  0
ENDTAB
  0
TABLE
  2
VIEW
 70
     0
  0
ENDTAB
  0
TABLE
  2
UCS
 70
     0
  0
ENDTAB
  0
ENDSEC
  0
SECTION
  2
BLOCKS
  0
BLOCK
  8
0
  2
D_FRAME_VIEW_1744
 70
     0
 10
0.0
 20
0.0
 30
0.0
  0
LINE
  5
79
  8
0
  6
CONTINUOUS
 62
     7
 10
99.3132161640838
 20
159.0
 30
0.0
 11
96.37181415711093
 21
159.0
 31
0.0
  0
LINE
  5
7A
  8
0
  6
CONTINUOUS
 62
     7
 10
53.62818584288907
 20
159.0
 30
0.0
 11
50.68678383591631
 21
159.0
 31
0.0
  0
LINE
  5
7B
  8
0
  6
CONTINUOUS
 62
     7
 10
98.82335080347747
 20
176.0
 30
0.0
 11
99.41171959860542
 21
176.0
 31
0.0
  0
LINE
  5
7C
  8
0
  6
CONTINUOUS
 62
     7
 10
99.90158495921175
 20
159.0
 30
0.0
 11
99.3132161640838
 21
159.0
 31
0.0
  0
LINE
  5
7D
  8
0
  6
CONTINUOUS
 62
     7
 10
50.58828040139456
 20
176.0
 30
0.0
 11
51.17664919652253
 21
176.0
 31
0.0
  0
LINE
  5
7E
  8
0
  6
CONTINUOUS
 62
     7
 10
50.68678383591631
 20
159.0
 30
0.0
 11
50.09841504078834
 21
159.0
 31
0.0
  0
LINE
  5
7F
  8
0
  6
CONTINUOUS
 62
     7
 10
50.09841504078834
 20
159.0
 30
0.0
 11
48.08828040139456
 21
159.0
 31
0.0
  0
LINE
  5
80
  8
0
  6
CONTINUOUS
 62
     7
 10
101.9117195986054
 20
159.0
 30
0.0
 11
99.90158495921175
 21
159.0
 31
0.0
  0
POLYLINE
  5
81
  8
0
  6
CONTINUOUS
 62
     7
 66
     1
 10
0.0
 20
0.0
 30
0.0
  0
VERTEX
  5
108
  8
0
  6
CONTINUOUS
 62
     7
 10
94.1025633290375
 20
176.0
 30
0.0
  0
VERTEX
  5
109
  8
0
  6
CONTINUOUS
 62
     7
 10
93.70265311896954
 20
175.9519632010081
 30
0.0
  0
VERTEX
  5
10A
  8
0
  6
CONTINUOUS
 62
     7
 10
93.31811123400226
 20
175.8096988312782
 30
0.0
  0
VERTEX
  5
10B
  8
0
  6
CONTINUOUS
 62
     7
 10
92.9637154031214
 20
175.5786740307564
 30
0.0
  0
VERTEX
  5
10C
  8
0
  6
CONTINUOUS
 62
     7
 10
92.6530848593602
 20
175.2677669529664
 30
0.0
  0
VERTEX
  5
10D
  8
0
  6
CONTINUOUS
 62
     7
 10
92.39815696031182
 20
174.888925582549
 30
0.0
  0
VERTEX
  5
10E
  8
0
  6
CONTINUOUS
 62
     7
 10
92.20872844217146
 20
174.4567085809127
 30
0.0
  0
VERTEX
  5
10F
  8
0
  6
CONTINUOUS
 62
     7
 10
92.09207893665852
 20
173.9877258050403
 30
0.0
  0
VERTEX
  5
110
  8
0
  6
CONTINUOUS
 62
     7
 10
92.05269121885206
 20
173.5
 30
0.0
  0
SEQEND
  5
188
  8
0
  6
CONTINUOUS
 62
     7
  0
LINE
  5
82
  8
0
  6
CONTINUOUS
 62
     7
 10
94.1025633290375
 20
176.0
 30
0.0
 11
98.82335080347747
 21
176.0
 31
0.0
  0
LINE
  5
83
  8
0
  6
CONTINUOUS
 62
     7
 10
92.05269121885208
 20
173.5
 30
0.0
 11
92.05269121885206
 21
154.0
 31
0.0
  0
LINE
  5
84
  8
0
  6
CONTINUOUS
 62
     7
 10
93.42431422854969
 20
157.0
 30
0.0
 11
93.42431422854969
 21
159.0
 31
0.0
  0
POLYLINE
  5
85
  8
0
  6
CONTINUOUS
 62
     7
 66
     1
 10
0.0
 20
0.0
 30
0.0
  0
VERTEX
  5
111
  8
0
  6
CONTINUOUS
 62
     7
 10
92.83647579582212
 20
154.0
 30
0.0
  0
VERTEX
  5
112
  8
0
  6
CONTINUOUS
 62
     7
 10
92.9511573849564
 20
154.0576441587903
 30
0.0
  0
VERTEX
  5
113
  8
0
  6
CONTINUOUS
 62
     7
 10
93.06143182493442
 20
154.2283614024661
 30
0.0
  0
VERTEX
  5
114
  8
0
  6
CONTINUOUS
 62
     7
 10
93.16306133087045
 20
154.5055911630924
 30
0.0
  0
VERTEX
  5
115
  8
0
  6
CONTINUOUS
 62
     7
 10
93.25214033784584
 20
154.8786796564404
 30
0.0
  0
VERTEX
  5
116
  8
0
  6
CONTINUOUS
 62
     7
 10
93.32524558957864
 20
155.3332893009412
 30
0.0
  0
VERTEX
  5
117
  8
0
  6
CONTINUOUS
 62
     7
 10
93.37956769224262
 20
155.8519497029047
 30
0.0
  0
VERTEX
  5
118
  8
0
  6
CONTINUOUS
 62
     7
 10
93.4130190778966
 20
156.4147290339516
 30
0.0
  0
VERTEX
  5
119
  8
0
  6
CONTINUOUS
 62
     7
 10
93.42431422854968
 20
157.0
 30
0.0
  0
SEQEND
  5
189
  8
0
  6
CONTINUOUS
 62
     7
  0
LINE
  5
86
  8
0
  6
CONTINUOUS
 62
     7
 10
92.83647579582212
 20
154.0
 30
0.0
 11
92.05269121885206
 21
154.0
 31
0.0
  0
LINE
  5
87
  8
0
  6
CONTINUOUS
 62
     7
 10
96.37181415711093
 20
159.0
 30
0.0
 11
93.42431422854969
 21
159.0
 31
0.0
  0
POLYLINE
  5
88
  8
0
  6
CONTINUOUS
 62
     7
 66
     1
 10
0.0
 20
0.0
 30
0.0
  0
VERTEX
  5
11A
  8
0
  6
CONTINUOUS
 62
     7
 10
57.94730878114792
 20
173.5
 30
0.0
  0
VERTEX
  5
11B
  8
0
  6
CONTINUOUS
 62
     7
 10
57.90792106334148
 20
173.9877258050403
 30
0.0
  0
VERTEX
  5
11C
  8
0
  6
CONTINUOUS
 62
     7
 10
57.79127155782854
 20
174.4567085809127
 30
0.0
  0
VERTEX
  5
11D
  8
0
  6
CONTINUOUS
 62
     7
 10
57.60184303968818
 20
174.888925582549
 30
0.0
  0
VERTEX
  5
11E
  8
0
  6
CONTINUOUS
 62
     7
 10
57.34691514063979
 20
175.2677669529664
 30
0.0
  0
VERTEX
  5
11F
  8
0
  6
CONTINUOUS
 62
     7
 10
57.0362845968786
 20
175.5786740307564
 30
0.0
  0
VERTEX
  5
120
  8
0
  6
CONTINUOUS
 62
     7
 10
56.68188876599773
 20
175.8096988312782
 30
0.0
  0
VERTEX
  5
121
  8
0
  6
CONTINUOUS
 62
     7
 10
56.29734688103046
 20
175.9519632010081
 30
0.0
  0
VERTEX
  5
122
  8
0
  6
CONTINUOUS
 62
     7
 10
55.8974366709625
 20
176.0
 30
0.0
  0
SEQEND
  5
18A
  8
0
  6
CONTINUOUS
 62
     7
  0
LINE
  5
89
  8
0
  6
CONTINUOUS
 62
     7
 10
51.17664919652253
 20
176.0
 30
0.0
 11
55.8974366709625
 21
176.0
 31
0.0
  0
LINE
  5
8A
  8
0
  6
CONTINUOUS
 62
     7
 10
57.94730878114792
 20
173.5
 30
0.0
 11
57.94730878114792
 21
154.0
 31
0.0
  0
LINE
  5
8B
  8
0
  6
CONTINUOUS
 62
     7
 10
57.16352420417786
 20
154.0
 30
0.0
 11
57.94730878114792
 21
154.0
 31
0.0
  0
POLYLINE
  5
8C
  8
0
  6
CONTINUOUS
 62
     7
 66
     1
 10
0.0
 20
0.0
 30
0.0
  0
VERTEX
  5
123
  8
0
  6
CONTINUOUS
 62
     7
 10
56.57568577145031
 20
157.0
 30
0.0
  0
VERTEX
  5
124
  8
0
  6
CONTINUOUS
 62
     7
 10
56.58698092210337
 20
156.4147290339516
 30
0.0
  0
VERTEX
  5
125
  8
0
  6
CONTINUOUS
 62
     7
 10
56.62043230775736
 20
155.8519497029047
 30
0.0
  0
VERTEX
  5
126
  8
0
  6
CONTINUOUS
 62
     7
 10
56.67475441042135
 20
155.3332893009412
 30
0.0
  0
VERTEX
  5
127
  8
0
  6
CONTINUOUS
 62
     7
 10
56.74785966215413
 20
154.8786796564404
 30
0.0
  0
VERTEX
  5
128
  8
0
  6
CONTINUOUS
 62
     7
 10
56.83693866912954
 20
154.5055911630924
 30
0.0
  0
VERTEX
  5
129
  8
0
  6
CONTINUOUS
 62
     7
 10
56.93856817506557
 20
154.2283614024661
 30
0.0
  0
VERTEX
  5
12A
  8
0
  6
CONTINUOUS
 62
     7
 10
57.04884261504358
 20
154.0576441587903
 30
0.0
  0
VERTEX
  5
12B
  8
0
  6
CONTINUOUS
 62
     7
 10
57.16352420417786
 20
154.0
 30
0.0
  0
SEQEND
  5
18B
  8
0
  6
CONTINUOUS
 62
     7
  0
LINE
  5
8D
  8
0
  6
CONTINUOUS
 62
     7
 10
56.5756857714503
 20
157.0
 30
0.0
 11
56.5756857714503
 21
159.0
 31
0.0
  0
LINE
  5
8E
  8
0
  6
CONTINUOUS
 62
     7
 10
56.5756857714503
 20
159.0
 30
0.0
 11
53.62818584288907
 21
159.0
 31
0.0
  0
LINE
  5
8F
  8
0
  6
CONTINUOUS
 62
     7
 10
57.16352420417786
 20
154.0
 30
0.0
 11
55.69260221635793
 21
154.0
 31
0.0
  0
LINE
  5
90
  8
0
  6
CONTINUOUS
 62
     7
 10
94.30739778364206
 20
154.0
 30
0.0
 11
92.83647579582212
 21
154.0
 31
0.0
  0
ARC
  5
91
  8
0
  6
CONTINUOUS
 62
     7
 10
75.0
 20
162.235
 30
0.0
 40
9.999999999999995
 50
0.0
 51
180.0
  0
LINE
  5
92
  8
0
  6
CONTINUOUS
 62
     7
 10
65.0
 20
157.0
 30
0.0
 11
65.0
 21
162.235
 31
0.0
  0
ARC
  5
93
  8
0
  6
CONTINUOUS
 62
     7
 10
62.0
 20
157.0
 30
0.0
 40
3.000000000000003
 50
269.9999999999999
 51
0.0
  0
ARC
  5
94
  8
0
  6
CONTINUOUS
 62
     7
 10
88.0
 20
157.0
 30
0.0
 40
3.000000000000003
 50
180.0
 51
270.0
  0
LINE
  5
95
  8
0
  6
CONTINUOUS
 62
     7
 10
84.99999999999999
 20
162.235
 30
0.0
 11
84.99999999999999
 21
157.0
 31
0.0
  0
LINE
  5
96
  8
0
  6
CONTINUOUS
 62
     7
 10
92.05269121885206
 20
154.0
 30
0.0
 11
88.0
 21
154.0
 31
0.0
  0
LINE
  5
97
  8
0
  6
CONTINUOUS
 62
     7
 10
57.94730878114792
 20
154.0
 30
0.0
 11
61.99999999999999
 21
154.0
 31
0.0
  0
LINE
  5
98
  8
0
  6
CONTINUOUS
 62
     7
 10
55.8974366709625
 20
176.0
 30
0.0
 11
94.1025633290375
 21
176.0
 31
0.0
  0
ARC
  5
99
  8
0
  6
CONTINUOUS
 62
     7
 10
50.58828040139456
 20
173.5
 30
0.0
 40
2.500000000000002
 50
90.0
 51
180.0
  0
LINE
  5
9A
  8
0
  6
CONTINUOUS
 62
     7
 10
48.08828040139456
 20
173.5
 30
0.0
 11
48.08828040139456
 21
159.0
 31
0.0
  0
ARC
  5
9B
  8
0
  6
CONTINUOUS
 62
     7
 10
99.41171959860542
 20
173.5
 30
0.0
 40
2.500000000000002
 50
0.0
 51
90.00000000000009
  0
LINE
  5
9C
  8
0
  6
CONTINUOUS
 62
     7
 10
101.9117195986054
 20
159.0
 30
0.0
 11
101.9117195986054
 21
173.5
 31
0.0
  0
LINE
  5
9D
  8
0
  6
CONTINUOUS
 62
     7
 10
95.29726314424835
 20
157.0
 30
0.0
 11
95.29726314424835
 21
159.0
 31
0.0
  0
POLYLINE
  5
9E
  8
0
  6
CONTINUOUS
 62
     7
 66
     1
 10
0.0
 20
0.0
 30
0.0
  0
VERTEX
  5
12C
  8
0
  6
CONTINUOUS
 62
     7
 10
94.30739778364206
 20
154.0
 30
0.0
  0
VERTEX
  5
12D
  8
0
  6
CONTINUOUS
 62
     7
 10
94.41943828806178
 20
154.0106109457087
 30
0.0
  0
VERTEX
  5
12E
  8
0
  6
CONTINUOUS
 62
     7
 10
94.52731649440938
 20
154.0418003359871
 30
0.0
  0
VERTEX
  5
12F
  8
0
  6
CONTINUOUS
 62
     7
 10
94.62840798110327
 20
154.0923454514405
 30
0.0
  0
VERTEX
  5
130
  8
0
  6
CONTINUOUS
 62
     7
 10
94.72327351909873
 20
154.1630524993572
 30
0.0
  0
VERTEX
  5
131
  8
0
  6
CONTINUOUS
 62
     7
 10
94.81670529742658
 20
154.2623590407011
 30
0.0
  0
VERTEX
  5
132
  8
0
  6
CONTINUOUS
 62
     7
 10
94.88451979091047
 20
154.3601511048425
 30
0.0
  0
SEQEND
  5
18C
  8
0
  6
CONTINUOUS
 62
     7
  0
ARC
  5
9F
  8
0
  6
CONTINUOUS
 62
     7
 10
88.65905255118538
 20
156.6857008241371
 30
0.0
 40
6.645646985042275
 50
339.5166122822996
 51
2.710757318485208
  0
ARC
  5
A0
  8
0
  6
CONTINUOUS
 62
     7
 10
61.41089672436082
 20
156.6773189872359
 30
0.0
 40
6.715916308205266
 50
177.2460375957151
 51
199.8473987753923
  0
POLYLINE
  5
A1
  8
0
  6
CONTINUOUS
 62
     7
 66
     1
 10
0.0
 20
0.0
 30
0.0
  0
VERTEX
  5
133
  8
0
  6
CONTINUOUS
 62
     7
 10
55.0939043598991
 20
154.3971568600726
 30
0.0
  0
VERTEX
  5
134
  8
0
  6
CONTINUOUS
 62
     7
 10
55.17197014068856
 20
154.2769551413984
 30
0.0
  0
VERTEX
  5
135
  8
0
  6
CONTINUOUS
 62
     7
 10
55.23957274164896
 20
154.1984335892411
 30
0.0
  0
VERTEX
  5
136
  8
0
  6
CONTINUOUS
 62
     7
 10
55.33619113331208
 20
154.115765876901
 30
0.0
  0
VERTEX
  5
137
  8
0
  6
CONTINUOUS
 62
     7
 10
55.43490594256927
 20
154.0580661343648
 30
0.0
  0
VERTEX
  5
138
  8
0
  6
CONTINUOUS
 62
     7
 10
55.54523689144209
 20
154.0184594336494
 30
0.0
  0
VERTEX
  5
139
  8
0
  6
CONTINUOUS
 62
     7
 10
55.66073556934776
 20
154.0008524487951
 30
0.0
  0
VERTEX
  5
13A
  8
0
  6
CONTINUOUS
 62
     7
 10
55.69260221635793
 20
154.0
 30
0.0
  0
SEQEND
  5
18D
  8
0
  6
CONTINUOUS
 62
     7
  0
LINE
  5
A2
  8
0
  6
CONTINUOUS
 62
     7
 10
54.70273685575163
 20
159.0
 30
0.0
 11
54.70273685575163
 21
157.0
 31
0.0
  0
ENDBLK
  8
0
  0
BLOCK
  8
0
  2
D_FRAME_VIEW_2061
 70
     0
 10
0.0
 20
0.0
 30
0.0
  0
LINE
  5
A7
  8
0
  6
CONTINUOUS
 62
     7
 10
139.0
 20
126.505183667545
 30
0.0
 11
139.0
 21
129.4465856745178
 31
0.0
  0
LINE
  5
A8
  8
0
  6
CONTINUOUS
 62
     7
 10
156.0
 20
126.9950490281513
 30
0.0
 11
156.0
 21
104.575896382394
 31
0.0
  0
LINE
  5
A9
  8
0
  6
CONTINUOUS
 62
     7
 10
139.0
 20
104.0860310217877
 30
0.0
 11
139.0
 21
126.505183667545
 31
0.0
  0
LINE
  5
AA
  8
0
  6
CONTINUOUS
 62
     7
 10
156.0
 20
127.1126167146968
 30
0.0
 11
156.0
 21
126.9950490281513
 31
0.0
  0
LINE
  5
AB
  8
0
  6
CONTINUOUS
 62
     7
 10
139.0
 20
129.4465856745178
 30
0.0
 11
139.0
 21
129.5641533610633
 31
0.0
  0
LINE
  5
AC
  8
0
  6
CONTINUOUS
 62
     7
 10
139.0
 20
129.5641533610633
 30
0.0
 11
139.0
 21
129.6126167146968
 31
0.0
  0
ARC
  5
AD
  8
0
  6
CONTINUOUS
 62
     7
 10
153.5
 20
102.8873832853032
 30
0.0
 40
2.500000000000002
 50
270.0
 51
0.0
  0
LINE
  5
AE
  8
0
  6
CONTINUOUS
 62
     7
 10
156.0
 20
104.575896382394
 30
0.0
 11
156.0
 21
102.8873832853032
 31
0.0
  0
LINE
  5
AF
  8
0
  6
CONTINUOUS
 62
     7
 10
153.5
 20
100.3873832853032
 30
0.0
 11
139.0
 21
100.3873832853032
 31
0.0
  0
LINE
  5
B0
  8
0
  6
CONTINUOUS
 62
     7
 10
139.0
 20
100.3873832853032
 30
0.0
 11
139.0
 21
104.0860310217877
 31
0.0
  0
LINE
  5
B1
  8
0
  6
CONTINUOUS
 62
     7
 10
137.0
 20
112.8516858951295
 30
0.0
 11
139.0
 21
112.8516858951296
 31
0.0
  0
LINE
  5
B2
  8
0
  6
CONTINUOUS
 62
     7
 10
134.0
 20
109.615922703126
 30
0.0
 11
134.0
 21
109.9098419194897
 31
0.0
  0
POLYLINE
  5
B3
  8
0
  6
CONTINUOUS
 62
     7
 66
     1
 10
0.0
 20
0.0
 30
0.0
  0
VERTEX
  5
13B
  8
0
  6
CONTINUOUS
 62
     7
 10
137.0
 20
112.8516858951295
 30
0.0
  0
VERTEX
  5
13C
  8
0
  6
CONTINUOUS
 62
     7
 10
136.4147290339516
 20
112.7951591880402
 30
0.0
  0
VERTEX
  5
13D
  8
0
  6
CONTINUOUS
 62
     7
 10
135.8519497029047
 20
112.627751356425
 30
0.0
  0
VERTEX
  5
13E
  8
0
  6
CONTINUOUS
 62
     7
 10
135.3332893009412
 20
112.3558957893695
 30
0.0
  0
VERTEX
  5
13F
  8
0
  6
CONTINUOUS
 62
     7
 10
134.8786796564403
 20
111.9900397438574
 30
0.0
  0
VERTEX
  5
140
  8
0
  6
CONTINUOUS
 62
     7
 10
134.5055911630924
 20
111.5442428625432
 30
0.0
  0
VERTEX
  5
141
  8
0
  6
CONTINUOUS
 62
     7
 10
134.2283614024661
 20
111.0356368695701
 30
0.0
  0
VERTEX
  5
142
  8
0
  6
CONTINUOUS
 62
     7
 10
134.0576441587903
 20
110.4837672080185
 30
0.0
  0
VERTEX
  5
143
  8
0
  6
CONTINUOUS
 62
     7
 10
134.0
 20
109.9098419194897
 30
0.0
  0
SEQEND
  5
18E
  8
0
  6
CONTINUOUS
 62
     7
  0
LINE
  5
B4
  8
0
  6
CONTINUOUS
 62
     7
 10
134.0
 20
104.889410213182
 30
0.0
 11
134.0
 21
109.615922703126
 31
0.0
  0
LINE
  5
B5
  8
0
  6
CONTINUOUS
 62
     7
 10
139.0
 20
103.9873832853033
 30
0.0
 11
134.5
 21
103.9873832853033
 31
0.0
  0
ARC
  5
B6
  8
0
  6
CONTINUOUS
 62
     7
 10
134.5
 20
104.4873832853033
 30
0.0
 40
0.5000000000000004
 50
180.0
 51
270.0
  0
LINE
  5
B7
  8
0
  6
CONTINUOUS
 62
     7
 10
134.0
 20
104.4873832853033
 30
0.0
 11
134.0
 21
104.889410213182
 31
0.0
  0
ARC
  5
B8
  8
0
  6
CONTINUOUS
 62
     7
 10
153.5
 20
127.1126167146968
 30
0.0
 40
2.500000000000002
 50
0.0000000000003976
 51
90.0
  0
LINE
  5
B9
  8
0
  6
CONTINUOUS
 62
     7
 10
153.5
 20
129.6126167146968
 30
0.0
 11
139.0
 21
129.6126167146968
 31
0.0
  0
ENDBLK
  8
0
  0
BLOCK
  8
0
  2
D_FRAME_VIEW_1490
 70
     0
 10
0.0
 20
0.0
 30
0.0
  0
ARC
  5
BE
  8
0
  6
CONTINUOUS
 62
     7
 10
57.12735993707375
 20
104.9873832853033
 30
0.0
 40
1.000000000000001
 50
191.3000000000013
 51
270.0000000000002
  0
LINE
  5
BF
  8
0
  6
CONTINUOUS
 62
     7
 10
94.79770511291535
 20
109.5179496310047
 30
0.0
 11
93.85325472147284
 21
104.7914371410607
 31
0.0
  0
LINE
  5
C0
  8
0
  6
CONTINUOUS
 62
     7
 10
62.0
 20
103.9873832853033
 30
0.0
 11
57.12735993707376
 21
103.9873832853033
 31
0.0
  0
LINE
  5
C1
  8
0
  6
CONTINUOUS
 62
     7
 10
88.0
 20
103.9873832853033
 30
0.0
 11
85.49999999999999
 21
103.9873832853033
 31
0.0
  0
ARC
  5
C2
  8
0
  6
CONTINUOUS
 62
     7
 10
85.49999999999999
 20
104.4873832853033
 30
0.0
 40
0.5000000000000004
 50
180.0
 51
269.9999999999998
  0
ARC
  5
C3
  8
0
  6
CONTINUOUS
 62
     7
 10
94.79726314424835
 20
112.0674593494925
 30
0.0
 40
0.5000000000000022
 50
348.6999999999999
 51
78.7000000000017
  0
LINE
  5
C4
  8
0
  6
CONTINUOUS
 62
     7
 10
95.28757047352165
 20
111.9694862773712
 30
0.0
 11
94.79770511291535
 21
109.5179496310047
 31
0.0
  0
LINE
  5
C5
  8
0
  6
CONTINUOUS
 62
     7
 10
92.87264006292624
 20
103.9873832853033
 30
0.0
 11
88.0
 21
103.9873832853033
 31
0.0
  0
LINE
  5
C6
  8
0
  6
CONTINUOUS
 62
     7
 10
55.20229488708462
 20
109.5179496310047
 30
0.0
 11
54.71242952647832
 21
111.9694862773712
 31
0.0
  0
ARC
  5
C7
  8
0
  6
CONTINUOUS
 62
     7
 10
55.20273685575163
 20
112.0674593494925
 30
0.0
 40
0.5000000000000008
 50
101.2999999999999
 51
191.3
  0
ARC
  5
C8
  8
0
  6
CONTINUOUS
 62
     7
 10
92.87264006292622
 20
104.9873832853033
 30
0.0
 40
1.000000000000012
 50
270.0000000000005
 51
348.6999999999998
  0
LINE
  5
C9
  8
0
  6
CONTINUOUS
 62
     7
 10
56.14674527852714
 20
104.7914371410607
 30
0.0
 11
55.20229488708462
 21
109.5179496310047
 31
0.0
  0
LINE
  5
CA
  8
0
  6
CONTINUOUS
 62
     7
 10
56.5756857714503
 20
112.8516858951295
 30
0.0
 11
57.16352420417786
 21
109.9098419194897
 31
0.0
  0
LINE
  5
CB
  8
0
  6
CONTINUOUS
 62
     7
 10
55.10476378363037
 20
112.5577666787658
 30
0.0
 11
56.5756857714503
 21
112.8516858951295
 31
0.0
  0
LINE
  5
CC
  8
0
  6
CONTINUOUS
 62
     7
 10
92.83647579582212
 20
109.9098419194897
 30
0.0
 11
93.42431422854969
 21
112.8516858951295
 31
0.0
  0
LINE
  5
CD
  8
0
  6
CONTINUOUS
 62
     7
 10
93.42431422854969
 20
112.8516858951295
 30
0.0
 11
94.8952362163696
 21
112.5577666787658
 31
0.0
  0
ARC
  5
CE
  8
0
  6
CONTINUOUS
 62
     7
 10
64.5
 20
104.4873832853033
 30
0.0
 40
0.5000000000000004
 50
270.0000000000002
 51
0.0
  0
LINE
  5
CF
  8
0
  6
CONTINUOUS
 62
     7
 10
64.5
 20
103.9873832853033
 30
0.0
 11
62.0
 21
103.9873832853033
 31
0.0
  0
LINE
  5
D0
  8
0
  6
CONTINUOUS
 62
     7
 10
57.16352420417786
 20
109.9098419194897
 30
0.0
 11
57.94730878114792
 21
105.9873832853033
 31
0.0
  0
LINE
  5
D1
  8
0
  6
CONTINUOUS
 62
     7
 10
57.94730878114792
 20
105.9873832853033
 30
0.0
 11
61.99999999999999
 21
105.9873832853033
 31
0.0
  0
LINE
  5
D2
  8
0
  6
CONTINUOUS
 62
     7
 10
65.0
 20
105.9873832853033
 30
0.0
 11
65.0
 21
104.4873832853033
 31
0.0
  0
LINE
  5
D3
  8
0
  6
CONTINUOUS
 62
     7
 10
61.99999999999999
 20
105.9873832853033
 30
0.0
 11
65.0
 21
105.9873832853033
 31
0.0
  0
LINE
  5
D4
  8
0
  6
CONTINUOUS
 62
     7
 10
92.83647579582212
 20
109.9098419194897
 30
0.0
 11
92.05269121885206
 21
105.9873832853033
 31
0.0
  0
LINE
  5
D5
  8
0
  6
CONTINUOUS
 62
     7
 10
92.05269121885206
 20
105.9873832853033
 30
0.0
 11
88.0
 21
105.9873832853033
 31
0.0
  0
LINE
  5
D6
  8
0
  6
CONTINUOUS
 62
     7
 10
84.99999999999999
 20
104.4873832853033
 30
0.0
 11
84.99999999999999
 21
105.9873832853033
 31
0.0
  0
LINE
  5
D7
  8
0
  6
CONTINUOUS
 62
     7
 10
84.99999999999999
 20
105.9873832853033
 30
0.0
 11
88.0
 21
105.9873832853033
 31
0.0
  0
LINE
  5
D8
  8
0
  6
CONTINUOUS
 62
     7
 10
62.87867965644035
 20
100.3873832853033
 30
0.0
 11
60.75735931288071
 21
100.3873832853033
 31
0.0
  0
ARC
  5
D9
  8
0
  6
CONTINUOUS
 62
     7
 10
98.82335080347747
 20
127.1126167146968
 30
0.0
 40
2.500000000000022
 50
78.69999999999928
 51
168.7
  0
LINE
  5
DA
  8
0
  6
CONTINUOUS
 62
     7
 10
99.90158495921175
 20
129.4465856745178
 30
0.0
 11
99.3132161640838
 21
129.5641533610633
 31
0.0
  0
ARC
  5
DB
  8
0
  6
CONTINUOUS
 62
     7
 10
99.41171959860542
 20
126.9950490281512
 30
0.0
 40
2.500000000000011
 50
348.7
 51
78.69999999999925
  0
LINE
  5
DC
  8
0
  6
CONTINUOUS
 62
     7
 10
97.38346749224064
 20
104.0860310217877
 30
0.0
 11
101.863256244972
 21
126.505183667545
 31
0.0
  0
ARC
  5
DD
  8
0
  6
CONTINUOUS
 62
     7
 10
92.87264006292624
 20
104.9873832853032
 30
0.0
 40
4.599999999999979
 50
270.0000000000001
 51
348.7000000000006
  0
LINE
  5
DE
  8
0
  6
CONTINUOUS
 62
     7
 10
89.24264068711929
 20
100.3873832853033
 30
0.0
 11
92.87264006292625
 21
100.3873832853032
 31
0.0
  0
LINE
  5
DF
  8
0
  6
CONTINUOUS
 62
     7
 10
96.37181415711093
 20
127.6024820753031
 30
0.0
 11
93.42431422854969
 21
112.8516858951296
 31
0.0
  0
LINE
  5
E0
  8
0
  6
CONTINUOUS
 62
     7
 10
57.12735993707378
 20
100.3873832853033
 30
0.0
 11
60.75735931288071
 21
100.3873832853033
 31
0.0
  0
ARC
  5
E1
  8
0
  6
CONTINUOUS
 62
     7
 10
57.12735993707376
 20
104.9873832853033
 30
0.0
 40
4.600000000000001
 50
191.3000000000006
 51
270.0000000000002
  0
LINE
  5
E2
  8
0
  6
CONTINUOUS
 62
     7
 10
48.13674375502803
 20
126.5051836675449
 30
0.0
 11
52.61653250775935
 21
104.0860310217876
 31
0.0
  0
ARC
  5
E3
  8
0
  6
CONTINUOUS
 62
     7
 10
50.58828040139456
 20
126.9950490281512
 30
0.0
 40
2.500000000000001
 50
101.2999999999984
 51
191.3
  0
LINE
  5
E4
  8
0
  6
CONTINUOUS
 62
     7
 10
50.68678383591631
 20
129.5641533610633
 30
0.0
 11
50.09841504078834
 21
129.4465856745178
 31
0.0
  0
ARC
  5
E5
  8
0
  6
CONTINUOUS
 62
     7
 10
51.17664919652253
 20
127.1126167146967
 30
0.0
 40
2.500000000000003
 50
11.29999999999987
 51
101.2999999999983
  0
LINE
  5
E6
  8
0
  6
CONTINUOUS
 62
     7
 10
56.5756857714503
 20
112.8516858951295
 30
0.0
 11
53.62818584288907
 21
127.602482075303
 31
0.0
  0
LINE
  5
E7
  8
0
  6
CONTINUOUS
 62
     7
 10
98.33304347420416
 20
127.210589786818
 30
0.0
 11
95.28757047352165
 21
111.9694862773713
 31
0.0
  0
ARC
  5
E8
  8
0
  6
CONTINUOUS
 62
     7
 10
51.17664919652254
 20
127.1126167146967
 30
0.0
 40
0.4999999999999912
 50
11.29999999999991
 51
101.2999999999983
  0
ARC
  5
E9
  8
0
  6
CONTINUOUS
 62
     7
 10
98.82335080347745
 20
127.1126167146967
 30
0.0
 40
0.5000000000000212
 50
78.69999999999928
 51
168.7
  0
LINE
  5
EA
  8
0
  6
CONTINUOUS
 62
     7
 10
89.24264068711929
 20
100.3873832853032
 30
0.0
 11
87.12132034355965
 21
100.3873832853033
 31
0.0
  0
LINE
  5
EB
  8
0
  6
CONTINUOUS
 62
     7
 10
54.71242952647832
 20
111.9694862773712
 30
0.0
 11
51.66695652579584
 21
127.2105897868179
 31
0.0
  0
ARC
  5
EC
  8
0
  6
CONTINUOUS
 62
     7
 10
92.87264006292622
 20
104.9873832853033
 30
0.0
 40
2.600000000000005
 50
270.0
 51
348.7000000000004
  0
LINE
  5
ED
  8
0
  6
CONTINUOUS
 62
     7
 10
88.92104809301304
 20
102.3873832853033
 30
0.0
 11
92.87264006292622
 21
102.3873832853032
 31
0.0
  0
LINE
  5
EE
  8
0
  6
CONTINUOUS
 62
     7
 10
95.42223817514743
 20
104.4779233102727
 30
0.0
 11
99.90202692787874
 21
126.89707595603
 31
0.0
  0
LINE
  5
EF
  8
0
  6
CONTINUOUS
 62
     7
 10
50.09797307212126
 20
126.89707595603
 30
0.0
 11
54.57776182485258
 21
104.4779233102727
 31
0.0
  0
ARC
  5
F0
  8
0
  6
CONTINUOUS
 62
     7
 10
57.12735993707376
 20
104.9873832853033
 30
0.0
 40
2.600000000000001
 50
191.3000000000011
 51
270.0000000000001
  0
POLYLINE
  5
F1
  8
0
  6
CONTINUOUS
 62
     7
 66
     1
 10
0.0
 20
0.0
 30
0.0
  0
VERTEX
  5
146
  8
0
  6
CONTINUOUS
 62
     7
 10
50.49030732927332
 20
127.4853563574245
 30
0.0
  0
VERTEX
  5
147
  8
0
  6
CONTINUOUS
 62
     7
 10
50.46636710177628
 20
127.4799584499778
 30
0.0
  0
VERTEX
  5
148
  8
0
  6
CONTINUOUS
 62
     7
 10
50.44272057409635
 20
127.4733923532608
 30
0.0
  0
VERTEX
  5
149
  8
0
  6
CONTINUOUS
 62
     7
 10
50.41942471278993
 20
127.4656738855757
 30
0.0
  0
VERTEX
  5
14A
  8
0
  6
CONTINUOUS
 62
     7
 10
50.39653563962737
 20
127.4568216413872
 30
0.0
  0
VERTEX
  5
14B
  8
0
  6
CONTINUOUS
 62
     7
 10
50.37410849639075
 20
127.446856946527
 30
0.0
  0
VERTEX
  5
14C
  8
0
  6
CONTINUOUS
 62
     7
 10
50.35219731203254
 20
127.4358038068176
 30
0.0
  0
VERTEX
  5
14D
  8
0
  6
CONTINUOUS
 62
     7
 10
50.33085487251504
 20
127.4236888502409
 30
0.0
  0
VERTEX
  5
14E
  8
0
  6
CONTINUOUS
 62
     7
 10
50.31013259364442
 20
127.4105412627884
 30
0.0
  0
VERTEX
  5
14F
  8
0
  6
CONTINUOUS
 62
     7
 10
50.29008039720554
 20
127.3963927181498
 30
0.0
  0
VERTEX
  5
150
  8
0
  6
CONTINUOUS
 62
     7
 10
50.270746590696
 20
127.3812773014084
 30
0.0
  0
VERTEX
  5
151
  8
0
  6
CONTINUOUS
 62
     7
 10
50.25217775094909
 20
127.3652314269272
 30
0.0
  0
VERTEX
  5
152
  8
0
  6
CONTINUOUS
 62
     7
 10
50.23441861192623
 20
127.3482937506231
 30
0.0
  0
VERTEX
  5
153
  8
0
  6
CONTINUOUS
 62
     7
 10
50.21751195694883
 20
127.3305050768421
 30
0.0
  0
VERTEX
  5
154
  8
0
  6
CONTINUOUS
 62
     7
 10
50.20149851562957
 20
127.3119082600572
 30
0.0
  0
VERTEX
  5
155
  8
0
  6
CONTINUOUS
 62
     7
 10
50.18641686575123
 20
127.2925481016291
 30
0.0
  0
VERTEX
  5
156
  8
0
  6
CONTINUOUS
 62
     7
 10
50.17230334032933
 20
127.2724712418752
 30
0.0
  0
VERTEX
  5
157
  8
0
  6
CONTINUOUS
 62
     7
 10
50.15919194008282
 20
127.2517260477091
 30
0.0
  0
VERTEX
  5
158
  8
0
  6
CONTINUOUS
 62
     7
 10
50.14711425152333
 20
127.2303624961206
 30
0.0
  0
VERTEX
  5
159
  8
0
  6
CONTINUOUS
 62
     7
 10
50.13609937086047
 20
127.2084320537768
 30
0.0
  0
VERTEX
  5
15A
  8
0
  6
CONTINUOUS
 62
     7
 10
50.12617383390654
 20
127.185987553034
 30
0.0
  0
VERTEX
  5
15B
  8
0
  6
CONTINUOUS
 62
     7
 10
50.11736155214945
 20
127.1630830646606
 30
0.0
  0
VERTEX
  5
15C
  8
0
  6
CONTINUOUS
 62
     7
 10
50.10968375514781
 20
127.1397737675752
 30
0.0
  0
VERTEX
  5
15D
  8
0
  6
CONTINUOUS
 62
     7
 10
50.10315893938709
 20
127.1161158159162
 30
0.0
  0
VERTEX
  5
15E
  8
0
  6
CONTINUOUS
 62
     7
 10
50.09780282371997
 20
127.0921662037612
 30
0.0
  0
VERTEX
  5
15F
  8
0
  6
CONTINUOUS
 62
     7
 10
50.09362831149823
 20
127.0679826278237
 30
0.0
  0
VERTEX
  5
160
  8
0
  6
CONTINUOUS
 62
     7
 10
50.09064545948745
 20
127.0436233484564
 30
0.0
  0
VERTEX
  5
161
  8
0
  6
CONTINUOUS
 62
     7
 10
50.08886145363942
 20
127.0191470492968
 30
0.0
  0
VERTEX
  5
162
  8
0
  6
CONTINUOUS
 62
     7
 10
50.08828059178044
 20
126.9946126958936
 30
0.0
  0
VERTEX
  5
163
  8
0
  6
CONTINUOUS
 62
     7
 10
50.08890427325764
 20
126.970079393653
 30
0.0
  0
VERTEX
  5
164
  8
0
  6
CONTINUOUS
 62
     7
 10
50.09073099556771
 20
126.945606245449
 30
0.0
  0
VERTEX
  5
165
  8
0
  6
CONTINUOUS
 62
     7
 10
50.09375635797659
 20
126.9212522092391
 30
0.0
  0
VERTEX
  5
166
  8
0
  6
CONTINUOUS
 62
     7
 10
50.09797307212126
 20
126.89707595603
 30
0.0
  0
SEQEND
  5
18F
  8
0
  6
CONTINUOUS
 62
     7
  0
LINE
  5
F2
  8
0
  6
CONTINUOUS
 62
     7
 10
57.12735993707377
 20
102.3873832853033
 30
0.0
 11
61.07895190698694
 21
102.3873832853033
 31
0.0
  0
POLYLINE
  5
F3
  8
0
  6
CONTINUOUS
 62
     7
 66
     1
 10
0.0
 20
0.0
 30
0.0
  0
VERTEX
  5
167
  8
0
  6
CONTINUOUS
 62
     7
 10
99.90202692787874
 20
126.89707595603
 30
0.0
  0
VERTEX
  5
168
  8
0
  6
CONTINUOUS
 62
     7
 10
99.9062436420234
 20
126.9212522092392
 30
0.0
  0
VERTEX
  5
169
  8
0
  6
CONTINUOUS
 62
     7
 10
99.90926900443228
 20
126.945606245449
 30
0.0
  0
VERTEX
  5
16A
  8
0
  6
CONTINUOUS
 62
     7
 10
99.91109572674235
 20
126.970079393653
 30
0.0
  0
VERTEX
  5
16B
  8
0
  6
CONTINUOUS
 62
     7
 10
99.91171940821955
 20
126.9946126958936
 30
0.0
  0
VERTEX
  5
16C
  8
0
  6
CONTINUOUS
 62
     7
 10
99.91113854636058
 20
127.0191470492968
 30
0.0
  0
VERTEX
  5
16D
  8
0
  6
CONTINUOUS
 62
     7
 10
99.90935454051252
 20
127.0436233484564
 30
0.0
  0
VERTEX
  5
16E
  8
0
  6
CONTINUOUS
 62
     7
 10
99.90637168850176
 20
127.0679826278237
 30
0.0
  0
VERTEX
  5
16F
  8
0
  6
CONTINUOUS
 62
     7
 10
99.90219717628001
 20
127.0921662037612
 30
0.0
  0
VERTEX
  5
170
  8
0
  6
CONTINUOUS
 62
     7
 10
99.8968410606129
 20
127.1161158159162
 30
0.0
  0
VERTEX
  5
171
  8
0
  6
CONTINUOUS
 62
     7
 10
99.89031624485219
 20
127.1397737675752
 30
0.0
  0
VERTEX
  5
172
  8
0
  6
CONTINUOUS
 62
     7
 10
99.88263844785054
 20
127.1630830646606
 30
0.0
  0
VERTEX
  5
173
  8
0
  6
CONTINUOUS
 62
     7
 10
99.87382616609345
 20
127.1859875530341
 30
0.0
  0
VERTEX
  5
174
  8
0
  6
CONTINUOUS
 62
     7
 10
99.86390062913952
 20
127.2084320537768
 30
0.0
  0
VERTEX
  5
175
  8
0
  6
CONTINUOUS
 62
     7
 10
99.85288574847667
 20
127.2303624961206
 30
0.0
  0
VERTEX
  5
176
  8
0
  6
CONTINUOUS
 62
     7
 10
99.84080805991717
 20
127.2517260477091
 30
0.0
  0
VERTEX
  5
177
  8
0
  6
CONTINUOUS
 62
     7
 10
99.82769665967066
 20
127.2724712418752
 30
0.0
  0
VERTEX
  5
178
  8
0
  6
CONTINUOUS
 62
     7
 10
99.81358313424877
 20
127.2925481016292
 30
0.0
  0
VERTEX
  5
179
  8
0
  6
CONTINUOUS
 62
     7
 10
99.79850148437042
 20
127.3119082600572
 30
0.0
  0
VERTEX
  5
17A
  8
0
  6
CONTINUOUS
 62
     7
 10
99.78248804305117
 20
127.3305050768421
 30
0.0
  0
VERTEX
  5
17B
  8
0
  6
CONTINUOUS
 62
     7
 10
99.76558138807377
 20
127.3482937506231
 30
0.0
  0
VERTEX
  5
17C
  8
0
  6
CONTINUOUS
 62
     7
 10
99.7478222490509
 20
127.3652314269272
 30
0.0
  0
VERTEX
  5
17D
  8
0
  6
CONTINUOUS
 62
     7
 10
99.72925340930401
 20
127.3812773014084
 30
0.0
  0
VERTEX
  5
17E
  8
0
  6
CONTINUOUS
 62
     7
 10
99.70991960279446
 20
127.3963927181498
 30
0.0
  0
VERTEX
  5
17F
  8
0
  6
CONTINUOUS
 62
     7
 10
99.68986740635559
 20
127.4105412627884
 30
0.0
  0
VERTEX
  5
180
  8
0
  6
CONTINUOUS
 62
     7
 10
99.66914512748497
 20
127.4236888502409
 30
0.0
  0
VERTEX
  5
181
  8
0
  6
CONTINUOUS
 62
     7
 10
99.64780268796747
 20
127.4358038068176
 30
0.0
  0
VERTEX
  5
182
  8
0
  6
CONTINUOUS
 62
     7
 10
99.62589150360925
 20
127.446856946527
 30
0.0
  0
VERTEX
  5
183
  8
0
  6
CONTINUOUS
 62
     7
 10
99.60346436037266
 20
127.4568216413873
 30
0.0
  0
VERTEX
  5
184
  8
0
  6
CONTINUOUS
 62
     7
 10
99.58057528721008
 20
127.4656738855757
 30
0.0
  0
VERTEX
  5
185
  8
0
  6
CONTINUOUS
 62
     7
 10
99.55727942590366
 20
127.4733923532608
 30
0.0
  0
VERTEX
  5
186
  8
0
  6
CONTINUOUS
 62
     7
 10
99.53363289822374
 20
127.4799584499778
 30
0.0
  0
VERTEX
  5
187
  8
0
  6
CONTINUOUS
 62
     7
 10
99.5096926707267
 20
127.4853563574245
 30
0.0
  0
SEQEND
  5
190
  8
0
  6
CONTINUOUS
 62
     7
  0
LINE
  5
F4
  8
0
  6
CONTINUOUS
 62
     7
 10
88.76293421000463
 20
102.3873832853033
 30
0.0
 11
88.92104809301304
 21
102.3873832853033
 31
0.0
  0
LINE
  5
F5
  8
0
  6
CONTINUOUS
 62
     7
 10
61.07895190698694
 20
102.3873832853033
 30
0.0
 11
61.23706578999537
 21
102.3873832853033
 31
0.0
  0
LINE
  5
F6
  8
0
  6
CONTINUOUS
 62
     7
 10
85.23071894028334
 20
102.3873832853033
 30
0.0
 11
88.76293421000463
 21
102.3873832853033
 31
0.0
  0
LINE
  5
F7
  8
0
  6
CONTINUOUS
 62
     7
 10
61.23706578999536
 20
102.3873832853033
 30
0.0
 11
64.76928105971666
 21
102.3873832853033
 31
0.0
  0
LINE
  5
F8
  8
0
  6
CONTINUOUS
 62
     7
 10
64.16380361916733
 20
100.3873832853033
 30
0.0
 11
62.87867965644035
 21
100.3873832853033
 31
0.0
  0
LINE
  5
F9
  8
0
  6
CONTINUOUS
 62
     7
 10
87.12132034355965
 20
100.3873832853033
 30
0.0
 11
85.83619638083267
 21
100.3873832853033
 31
0.0
  0
LINE
  5
FA
  8
0
  6
CONTINUOUS
 62
     7
 10
65.03267944277513
 20
100.3873832853033
 30
0.0
 11
64.16380361916733
 21
100.3873832853033
 31
0.0
  0
LINE
  5
FB
  8
0
  6
CONTINUOUS
 62
     7
 10
85.83619638083267
 20
100.3873832853032
 30
0.0
 11
84.96732055722487
 21
100.3873832853032
 31
0.0
  0
LINE
  5
FC
  8
0
  6
CONTINUOUS
 62
     7
 10
84.99999999999999
 20
105.9873832853033
 30
0.0
 11
65.0
 21
105.9873832853033
 31
0.0
  0
LINE
  5
FD
  8
0
  6
CONTINUOUS
 62
     7
 10
64.5
 20
103.9873832853033
 30
0.0
 11
85.49999999999999
 21
103.9873832853033
 31
0.0
  0
LINE
  5
FE
  8
0
  6
CONTINUOUS
 62
     7
 10
65.03267944277515
 20
100.3873832853033
 30
0.0
 11
84.96732055722485
 21
100.3873832853033
 31
0.0
  0
LINE
  5
FF
  8
0
  6
CONTINUOUS
 62
     7
 10
85.23071894028334
 20
102.3873832853033
 30
0.0
 11
64.76928105971666
 21
102.3873832853033
 31
0.0
  0
ENDBLK
  8
0
  0
ENDSEC
  0
SECTION
  2
ENTITIES
  0
LINE
  5
6F
  8
0
  6
CENTER
 62
     1
 10
75.0
 20
97.38738328530324
 30
0.0
 11
75.0
 21
132.6126167146968
 31
0.0
  0
LINE
  5
71
  8
0
  6
CENTER
 62
     1
 10
75.0
 20
151.0
 30
0.0
 11
75.0
 21
179.0
 31
0.0
  0
LINE
  5
72
  8
0
  6
CONTINUOUS
 62
     7
 10
99.50969267072627
 20
127.4853563574246
 30
0.0
 11
98.92132387559872
 21
127.60292404397
 31
0.0
  0
LINE
  5
73
  8
0
  6
CONTINUOUS
 62
     7
 10
51.07867612440129
 20
127.60292404397
 30
0.0
 11
50.49030732927344
 21
127.4853563574245
 31
0.0
  0
LINE
  5
74
  8
0
  6
CONTINUOUS
 62
     9
 10
84.96732055722487
 20
100.3873832853033
 30
0.0
 11
84.96732055722487
 21
102.3873832853033
 31
0.0
  0
LINE
  5
75
  8
0
  6
CONTINUOUS
 62
     9
 10
65.03267944277513
 20
102.3873832853033
 30
0.0
 11
65.03267944277513
 21
100.3873832853033
 31
0.0
  0
LINE
  5
76
  8
0
  6
CENTER
 62
     1
 10
63.0
 20
162.235
 30
0.0
 11
86.99999999999999
 21
162.235
 31
0.0
  0
TEXT
  5
77
  8
0
  6
CONTINUOUS
 62
     7
 10
95.10297611604352
 20
84.37047642866077
 30
0.0
 40
6.0
  1
SRM6-HGC
  0
INSERT
  5
A3
  8
0
  6
CONTINUOUS
 62
     7
  2
D_FRAME_VIEW_1744
 10
0.0
 20
0.0
 30
0.0
  0
INSERT
  5
BA
  8
0
  6
CONTINUOUS
 62
     7
  2
D_FRAME_VIEW_2061
 10
0.0
 20
0.0
 30
0.0
  0
INSERT
  5
100
  8
0
  6
CONTINUOUS
 62
     7
  2
D_FRAME_VIEW_1490
 10
0.0
 20
0.0
 30
0.0
  0
ENDSEC
  0
EOF
