  0
SECTION
  2
HEADER
  9
$ACADVER
  1
AC1006
  9
$DWGCODEPAGE
  3
ansi_932
  9
$INSBASE
 10
0.0
 20
0.0
 30
0.0
  9
$EXTMIN
 10
0.0
 20
-1726.879004181818
  9
$EXTMAX
 10
23728.6966505747
 20
10.0
  9
$LIMMIN
 10
0.0
 20
0.0
  9
$LIMMAX
 10
12.0
 20
9.0
  9
$ORTHOMODE
 70
     0
  9
$REGENMODE
 70
     1
  9
$FILLMODE
 70
     1
  9
$QTEXTMODE
 70
     0
  9
$MIRRTEXT
 70
     1
  9
$DRAGMODE
 70
     2
  9
$LTSCALE
 40
1.0
  9
$OSMODE
 70
    37
  9
$ATTMODE
 70
     1
  9
$TEXTSIZE
 40
0.2
  9
$TRACEWID
 40
0.05
  9
$TEXTSTYLE
  7
STANDARD
  9
$CLAYER
  8
0
  9
$CELTYPE
  6
BYLAYER
  9
$CECOLOR
 62
   256
  9
$DIMSCALE
 40
1.0
  9
$DIMASZ
 40
2.5
  9
$DIMEXO
 40
0.0625
  9
$DIMDLI
 40
0.38
  9
$DIMRND
 40
0.0
  9
$DIMDLE
 40
0.0
  9
$DIMEXE
 40
1.25
  9
$DIMTP
 40
0.0
  9
$DIMTM
 40
0.0
  9
$DIMTXT
 40
3.5
  9
$DIMCEN
 40
0.09
  9
$DIMTSZ
 40
0.0
  9
$DIMTOL
 70
     0
  9
$DIMLIM
 70
     0
  9
$DIMTIH
 70
     1
  9
$DIMTOH
 70
     1
  9
$DIMSE1
 70
     0
  9
$DIMSE2
 70
     0
  9
$DIMTAD
 70
     1
  9
$DIMZIN
 70
     0
  9
$DIMBLK
  1

  9
$DIMASO
 70
     1
  9
$DIMSHO
 70
     1
  9
$DIMPOST
  1

  9
$DIMAPOST
  1

  9
$DIMALT
 70
     0
  9
$DIMALTD
 70
     2
  9
$DIMALTF
 40
25.4
  9
$DIMLFAC
 40
1.0
  9
$DIMTOFL
 70
     0
  9
$DIMTVP
 40
0.0
  9
$DIMTIX
 70
     0
  9
$DIMSOXD
 70
     0
  9
$DIMSAH
 70
     0
  9
$DIMBLK1
  1

  9
$DIMBLK2
  1

  9
$LUNITS
 70
     2
  9
$LUPREC
 70
     4
  9
$SKETCHINC
 40
0.1
  9
$FILLETRAD
 40
0.5
  9
$AUNITS
 70
     0
  9
$AUPREC
 70
     0
  9
$MENU
  1
.
  9
$ELEVATION
 40
0.0
  9
$THICKNESS
 40
0.0
  9
$LIMCHECK
 70
     0
  9
$CHAMFERA
 40
0.0
  9
$CHAMFERB
 40
0.0
  9
$SKPOLY
 70
     0
  9
$TDCREATE
 40
2460805.653124989
  9
$TDUPDATE
 40
2460805.653125463
  9
$TDINDWG
 40
0.0000000116
  9
$TDUSRTIMER
 40
0.0000000116
  9
$USRTIMER
 70
     1
  9
$ANGBASE
 50
0.0
  9
$ANGDIR
 70
     0
  9
$PDMODE
 70
     0
  9
$PDSIZE
 40
0.0
  9
$PLINEWID
 40
0.0
  9
$COORDS
 70
     1
  9
$SPLFRAME
 70
     0
  9
$SPLINETYPE
 70
     6
  9
$SPLINESEGS
 70
     8
  9
$ATTDIA
 70
     0
  9
$ATTREQ
 70
     1
  9
$HANDLING
 70
     1
  9
$HANDSEED
  5
38C
  9
$SURFTAB1
 70
     6
  9
$SURFTAB2
 70
     6
  9
$SURFTYPE
 70
     6
  9
$SURFU
 70
     6
  9
$SURFV
 70
     6
  9
$UCSNAME
  2

  9
$UCSORG
 10
0.0
 20
0.0
 30
0.0
  9
$UCSXDIR
 10
1.0
 20
0.0
 30
0.0
  9
$UCSYDIR
 10
0.0
 20
1.0
 30
0.0
  9
$USERI1
 70
     0
  9
$USERI2
 70
     0
  9
$USERI3
 70
     0
  9
$USERI4
 70
     0
  9
$USERI5
 70
     0
  9
$USERR1
 40
0.0
  9
$USERR2
 40
0.0
  9
$USERR3
 40
0.0
  9
$USERR4
 40
0.0
  9
$USERR5
 40
0.0
  9
$WORLDVIEW
 70
     1
  0
ENDSEC
  0
SECTION
  2
TABLES
  0
TABLE
  2
VPORT
 70
     1
  0
VPORT
  2
*ACTIVE
 70
     0
 10
0.0
 20
0.0
 11
1.0
 21
1.0
 12
11864.34832528735
 22
-858.4395020909092
 13
0.0
 23
0.0
 14
0.5
 24
0.5
 15
0.5
 25
0.5
 16
0.0
 26
0.0
 36
1.0
 17
0.0
 27
0.0
 37
0.0
 40
1736.879004181818
 41
1.6
 42
50.0
 43
0.0
 44
0.0
 50
0.0
 51
0.0
 71
     0
 72
   100
 73
     1
 74
     3
 75
     0
 76
     0
 77
     0
 78
     0
  0
ENDTAB
  0
TABLE
  2
LTYPE
 70
     2
  0
LTYPE
  2
CONTINUOUS
 70
     0
  3
Solid line
 72
    65
 73
     0
 40
0.0
  0
LTYPE
  2
CENTER
 70
     0
  3

 72
    65
 73
     0
 40
0.0
  0
ENDTAB
  0
TABLE
  2
LAYER
 70
     2
  0
LAYER
  2
0
 70
     0
 62
     7
  6
CONTINUOUS
  0
LAYER
  2
1
 70
     0
 62
     7
  6
CONTINUOUS
  0
ENDTAB
  0
TABLE
  2
STYLE
 70
     2
  0
STYLE
  2
STANDARD
 70
     0
 40
0.0
 41
1.0
 50
0.0
 71
     0
 42
0.2
  3
txt
  4

  0
STYLE
  2
ＭＳ_ゴシック
 70
     0
 40
0.0
 41
1.0
 50
0.0
 71
     0
 42
0.2
  3
ＭＳ ゴシック.shx
  4

  0
ENDTAB
  0
TABLE
  2
VIEW
 70
     0
  0
ENDTAB
  0
TABLE
  2
UCS
 70
     0
  0
ENDTAB
  0
ENDSEC
  0
SECTION
  2
BLOCKS
  0
BLOCK
  8
0
  2
D_FRAME_DRAWING_21
 70
     0
 10
0.0
 20
0.0
 30
0.0
  0
LINE
  5
7E
  8
0
  6
CONTINUOUS
 62
     7
 10
0.0
 20
0.0
 30
0.0
 11
420.0
 21
0.0
 31
0.0
  0
LINE
  5
7F
  8
0
  6
CONTINUOUS
 62
     7
 10
420.0
 20
0.0
 30
0.0
 11
420.0
 21
297.0
 31
0.0
  0
LINE
  5
80
  8
0
  6
CONTINUOUS
 62
     7
 10
420.0
 20
297.0
 30
0.0
 11
0.0
 21
297.0
 31
0.0
  0
LINE
  5
81
  8
0
  6
CONTINUOUS
 62
     7
 10
0.0
 20
297.0
 30
0.0
 11
0.0
 21
0.0
 31
0.0
  0
LINE
  5
82
  8
0
  6
CONTINUOUS
 62
     7
 10
10.0
 20
10.0
 30
0.0
 11
409.9999999999999
 21
10.0
 31
0.0
  0
LINE
  5
83
  8
0
  6
CONTINUOUS
 62
     7
 10
409.9999999999999
 20
10.0
 30
0.0
 11
409.9999999999999
 21
286.9999999999999
 31
0.0
  0
LINE
  5
84
  8
0
  6
CONTINUOUS
 62
     7
 10
409.9999999999999
 20
286.9999999999999
 30
0.0
 11
10.00000000000006
 21
286.9999999999999
 31
0.0
  0
LINE
  5
85
  8
0
  6
CONTINUOUS
 62
     7
 10
10.0
 20
286.9999999999999
 30
0.0
 11
10.0
 21
10.00000000000001
 31
0.0
  0
LINE
  5
86
  8
0
  6
CONTINUOUS
 62
     7
 10
210.0
 20
0.0
 30
0.0
 11
210.0
 21
10.0
 31
0.0
  0
LINE
  5
87
  8
0
  6
CONTINUOUS
 62
     7
 10
420.0
 20
148.5
 30
0.0
 11
409.9999999999999
 21
148.5
 31
0.0
  0
LINE
  5
88
  8
0
  6
CONTINUOUS
 62
     7
 10
210.0
 20
297.0
 30
0.0
 11
210.0
 21
286.9999999999999
 31
0.0
  0
LINE
  5
89
  8
0
  6
CONTINUOUS
 62
     7
 10
0.0
 20
148.5
 30
0.0
 11
10.0
 21
148.5
 31
0.0
  0
POLYLINE
  5
8A
  8
0
  6
CONTINUOUS
 62
     7
 66
     1
 10
0.0
 20
0.0
 30
0.0
 70
     1
  0
VERTEX
  5
35D
  8
0
  6
CONTINUOUS
 62
     7
 10
11.0
 20
152.5
 30
0.0
  0
VERTEX
  5
35E
  8
0
  6
CONTINUOUS
 62
     7
 10
0.0
 20
148.5
 30
0.0
  0
VERTEX
  5
35F
  8
0
  6
CONTINUOUS
 62
     7
 10
11.0
 20
144.5
 30
0.0
  0
VERTEX
  5
360
  8
0
  6
CONTINUOUS
 62
     7
 10
11.0
 20
152.5
 30
0.0
  0
SEQEND
  5
38A
  8
0
  6
CONTINUOUS
 62
     7
  0
INSERT
  5
8B
  8
0
 62
     7
  2
*U2
 10
0.0
 20
0.0
 30
0.0
  0
POLYLINE
  5
8C
  8
0
  6
CONTINUOUS
 62
     7
 66
     1
 10
0.0
 20
0.0
 30
0.0
 70
     1
  0
VERTEX
  5
363
  8
0
  6
CONTINUOUS
 62
     7
 10
206.0
 20
11.0
 30
0.0
  0
VERTEX
  5
364
  8
0
  6
CONTINUOUS
 62
     7
 10
210.0
 20
0.0
 30
0.0
  0
VERTEX
  5
365
  8
0
  6
CONTINUOUS
 62
     7
 10
214.0
 20
11.0
 30
0.0
  0
VERTEX
  5
366
  8
0
  6
CONTINUOUS
 62
     7
 10
206.0
 20
11.0
 30
0.0
  0
SEQEND
  5
38B
  8
0
  6
CONTINUOUS
 62
     7
  0
INSERT
  5
8D
  8
0
 62
     7
  2
*U3
 10
0.0
 20
0.0
 30
0.0
  0
LINE
  5
8E
  8
0
  6
CONTINUOUS
 62
     7
 10
367.5
 20
286.9999999999999
 30
0.0
 11
367.5
 21
292.0
 31
0.0
  0
TEXT
  5
8F
  8
0
  6
CONTINUOUS
 62
     7
 10
391.6340909090909
 20
291.8324293485057
 30
0.0
 40
3.5
  1
A
 50
270.0
  0
LINE
  5
90
  8
0
  6
CONTINUOUS
 62
     7
 10
367.5
 20
10.0
 30
0.0
 11
367.5
 21
5.0
 31
0.0
  0
TEXT
  5
91
  8
0
  6
CONTINUOUS
 62
     7
 10
392.9868888333125
 20
4.602272727272727
 30
0.0
 40
3.5
  1
A
  0
LINE
  5
92
  8
0
  6
CONTINUOUS
 62
     7
 10
315.0
 20
286.9999999999999
 30
0.0
 11
315.0
 21
292.0
 31
0.0
  0
TEXT
  5
93
  8
0
  6
CONTINUOUS
 62
     7
 10
339.1340909090909
 20
291.9745607727899
 30
0.0
 40
3.5
  1
B
 50
270.0
  0
LINE
  5
94
  8
0
  6
CONTINUOUS
 62
     7
 10
315.0
 20
10.0
 30
0.0
 11
315.0
 21
5.0
 31
0.0
  0
TEXT
  5
95
  8
0
  6
CONTINUOUS
 62
     7
 10
340.3447574090284
 20
4.602272727272727
 30
0.0
 40
3.5
  1
B
  0
LINE
  5
96
  8
0
  6
CONTINUOUS
 62
     7
 10
262.5
 20
286.9999999999999
 30
0.0
 11
262.5
 21
292.0
 31
0.0
  0
TEXT
  5
97
  8
0
  6
CONTINUOUS
 62
     7
 10
286.6327779167187
 20
291.9399305989747
 30
0.0
 40
3.5
  1
C
 50
270.0
  0
LINE
  5
98
  8
0
  6
CONTINUOUS
 62
     7
 10
262.5
 20
10.0
 30
0.0
 11
262.5
 21
5.0
 31
0.0
  0
TEXT
  5
99
  8
0
  6
CONTINUOUS
 62
     7
 10
287.8793875828435
 20
4.600959734900587
 30
0.0
 40
3.5
  1
C
  0
LINE
  5
9A
  8
0
  6
CONTINUOUS
 62
     7
 10
210.0
 20
286.9999999999999
 30
0.0
 11
210.0
 21
292.0
 31
0.0
  0
TEXT
  5
9B
  8
0
  6
CONTINUOUS
 62
     7
 10
234.1340909090909
 20
291.9745607727898
 30
0.0
 40
3.5
  1
D
 50
270.0
  0
LINE
  5
9C
  8
0
  6
CONTINUOUS
 62
     7
 10
157.5
 20
286.9999999999999
 30
0.0
 11
157.5
 21
292.0
 31
0.0
  0
TEXT
  5
9D
  8
0
  6
CONTINUOUS
 62
     7
 10
181.6327779167188
 20
292.027463423784
 30
0.0
 40
3.5
  1
E
 50
270.0
  0
LINE
  5
9E
  8
0
  6
CONTINUOUS
 62
     7
 10
157.5
 20
10.0
 30
0.0
 11
157.5
 21
5.0
 31
0.0
  0
LINE
  5
9F
  8
0
  6
CONTINUOUS
 62
     7
 10
105.0
 20
286.9999999999999
 30
0.0
 11
105.0
 21
292.0
 31
0.0
  0
TEXT
  5
A0
  8
0
  6
CONTINUOUS
 62
     7
 10
129.1327779167188
 20
291.9924502938602
 30
0.0
 40
3.5
  1
F
 50
270.0
  0
LINE
  5
A1
  8
0
  6
CONTINUOUS
 62
     7
 10
105.0
 20
10.0
 30
0.0
 11
105.0
 21
5.0
 31
0.0
  0
TEXT
  5
A2
  8
0
  6
CONTINUOUS
 62
     7
 10
130.326867887958
 20
4.600959734900587
 30
0.0
 40
3.5
  1
F
  0
LINE
  5
A3
  8
0
  6
CONTINUOUS
 62
     7
 10
52.50000000000004
 20
286.9999999999999
 30
0.0
 11
52.50000000000004
 21
292.0
 31
0.0
  0
TEXT
  5
A4
  8
0
  6
CONTINUOUS
 62
     7
 10
76.6327779167188
 20
291.9399305989746
 30
0.0
 40
3.5
  1
G
 50
270.0
  0
LINE
  5
A5
  8
0
  6
CONTINUOUS
 62
     7
 10
52.50000000000004
 20
10.0
 30
0.0
 11
52.50000000000004
 21
5.0
 31
0.0
  0
TEXT
  5
A6
  8
0
  6
CONTINUOUS
 62
     7
 10
77.8793875828436
 20
4.600959734900587
 30
0.0
 40
3.5
  1
G
  0
TEXT
  5
A7
  8
0
  6
CONTINUOUS
 62
     7
 10
24.13277791671879
 20
291.9749437288983
 30
0.0
 40
3.5
  1
H
 50
270.0
  0
TEXT
  5
A8
  8
0
  6
CONTINUOUS
 62
     7
 10
25.34437445291988
 20
4.600959734900587
 30
0.0
 40
3.5
  1
H
  0
LINE
  5
A9
  8
0
  6
CONTINUOUS
 62
     7
 10
409.9999999999999
 20
74.25
 30
0.0
 11
414.9999999999999
 21
74.25
 31
0.0
  0
TEXT
  5
AA
  8
0
  6
CONTINUOUS
 62
     7
 10
412.9326059772414
 20
35.00777791671877
 30
0.0
 40
3.5
  1
1
  0
LINE
  5
AB
  8
0
  6
CONTINUOUS
 62
     7
 10
10.0
 20
74.25
 30
0.0
 11
5.0
 21
74.25
 31
0.0
  0
TEXT
  5
AC
  8
0
  6
CONTINUOUS
 62
     7
 10
4.600959734900584
 20
38.26171220457671
 30
0.0
 40
3.5
  1
1
 50
270.0
  0
LINE
  5
AD
  8
0
  6
CONTINUOUS
 62
     7
 10
409.9999999999999
 20
148.5
 30
0.0
 11
414.9999999999999
 21
148.5
 31
0.0
  0
TEXT
  5
AE
  8
0
  6
CONTINUOUS
 62
     7
 10
413.163692634738
 20
109.2577779167188
 30
0.0
 40
3.5
  1
2
  0
LINE
  5
AF
  8
0
  6
CONTINUOUS
 62
     7
 10
10.0
 20
148.5
 30
0.0
 11
5.0
 21
148.5
 31
0.0
  0
TEXT
  5
B0
  8
0
  6
CONTINUOUS
 62
     7
 10
4.600959734900599
 20
112.2806255470802
 30
0.0
 40
3.5
  1
2
 50
270.0
  0
LINE
  5
B1
  8
0
  6
CONTINUOUS
 62
     7
 10
409.9999999999999
 20
222.75
 30
0.0
 11
414.9999999999999
 21
222.75
 31
0.0
  0
TEXT
  5
B2
  8
0
  6
CONTINUOUS
 62
     7
 10
413.1811991996998
 20
183.5077779167188
 30
0.0
 40
3.5
  1
3
  0
LINE
  5
B3
  8
0
  6
CONTINUOUS
 62
     7
 10
10.0
 20
222.75
 30
0.0
 11
5.0
 21
222.75
 31
0.0
  0
TEXT
  5
B4
  8
0
  6
CONTINUOUS
 62
     7
 10
4.600959734900584
 20
186.5131189821183
 30
0.0
 40
3.5
  1
3
 50
270.0
  0
TEXT
  5
B5
  8
0
  6
CONTINUOUS
 62
     7
 10
413.2351413029886
 20
257.7590909090909
 30
0.0
 40
3.5
  1
4
  0
TEXT
  5
B6
  8
0
  6
CONTINUOUS
 62
     7
 10
4.60227272727272
 20
260.7091768788295
 30
0.0
 40
3.5
  1
4
 50
270.0
  0
LINE
  5
B7
  8
0
  6
CONTINUOUS
 62
     7
 10
220.0
 20
10.0
 30
0.0
 11
220.0
 21
7.0
 31
0.0
  0
LINE
  5
B8
  8
0
  6
CONTINUOUS
 62
     7
 10
200.0
 20
10.0
 30
0.0
 11
200.0
 21
7.0
 31
0.0
  0
LINE
  5
B9
  8
0
  6
CONTINUOUS
 62
     7
 10
230.0
 20
10.0
 30
0.0
 11
230.0
 21
7.0
 31
0.0
  0
LINE
  5
BA
  8
0
  6
CONTINUOUS
 62
     7
 10
190.0
 20
10.0
 30
0.0
 11
190.0
 21
7.0
 31
0.0
  0
LINE
  5
BB
  8
0
  6
CONTINUOUS
 62
     7
 10
240.0
 20
10.0
 30
0.0
 11
240.0
 21
7.0
 31
0.0
  0
LINE
  5
BC
  8
0
  6
CONTINUOUS
 62
     7
 10
180.0
 20
10.0
 30
0.0
 11
180.0
 21
7.0
 31
0.0
  0
LINE
  5
BD
  8
0
  6
CONTINUOUS
 62
     7
 10
250.0
 20
10.0
 30
0.0
 11
250.0
 21
7.0
 31
0.0
  0
LINE
  5
BE
  8
0
  6
CONTINUOUS
 62
     7
 10
170.0
 20
10.0
 30
0.0
 11
170.0
 21
7.0
 31
0.0
  0
LINE
  5
BF
  8
0
  6
CONTINUOUS
 62
     7
 10
260.0
 20
10.0
 30
0.0
 11
260.0
 21
5.0
 31
0.0
  0
LINE
  5
C0
  8
0
  6
CONTINUOUS
 62
     7
 10
160.0
 20
10.0
 30
0.0
 11
160.0
 21
5.0
 31
0.0
  0
LINE
  5
C1
  8
0
  6
CONTINUOUS
 62
     7
 10
260.0
 20
10.0
 30
0.0
 11
160.0
 21
10.0
 31
0.0
  0
LINE
  5
C2
  8
0
  6
CONTINUOUS
 62
     7
 10
260.0
 20
7.0
 30
0.0
 11
160.0
 21
7.0
 31
0.0
  0
INSERT
  5
C3
  8
0
 62
     7
  2
*U4
 10
0.0
 20
0.0
 30
0.0
  0
INSERT
  5
C4
  8
0
 62
     7
  2
*U5
 10
0.0
 20
0.0
 30
0.0
  0
INSERT
  5
C5
  8
0
 62
     7
  2
*U6
 10
0.0
 20
0.0
 30
0.0
  0
INSERT
  5
C6
  8
0
 62
     7
  2
*U7
 10
0.0
 20
0.0
 30
0.0
  0
ENDBLK
  8
0
  0
BLOCK
  8
0
  2
*U2
 70
     1
 10
0.0
 20
0.0
 30
0.0
  0
SOLID
  5
362
  8
0
  6
CONTINUOUS
 62
     7
 10
11.0
 20
144.5
 30
0.0
 11
6.999999999999999
 21
148.5
 31
0.0
 12
11.0
 22
152.5
 32
0.0
 13
11.0
 23
152.5
 33
0.0
  0
ENDBLK
  8
0
  0
BLOCK
  8
0
  2
*U3
 70
     1
 10
0.0
 20
0.0
 30
0.0
  0
SOLID
  5
368
  8
0
  6
CONTINUOUS
 62
     7
 10
210.0
 20
6.999999999999999
 30
0.0
 11
206.0
 21
11.0
 31
0.0
 12
210.0
 22
11.0
 32
0.0
 13
210.0
 23
11.0
 33
0.0
  0
SOLID
  5
369
  8
0
  6
CONTINUOUS
 62
     7
 10
210.0
 20
6.999999999999999
 30
0.0
 11
210.0
 21
11.0
 31
0.0
 12
214.0
 22
11.0
 32
0.0
 13
214.0
 23
11.0
 33
0.0
  0
ENDBLK
  8
0
  0
BLOCK
  8
0
  2
*U4
 70
     1
 10
0.0
 20
0.0
 30
0.0
  0
SOLID
  5
36B
  8
0
  6
CONTINUOUS
 62
     7
 10
0.0
 20
0.0
 30
0.0
 11
0.0
 21
10.0
 31
0.0
 12
2.0
 22
0.0
 32
0.0
 13
2.0
 23
0.0
 33
0.0
  0
SOLID
  5
36C
  8
0
  6
CONTINUOUS
 62
     7
 10
2.0
 20
0.0
 30
0.0
 11
0.0
 21
10.0
 31
0.0
 12
2.0
 22
10.0
 32
0.0
 13
2.0
 23
10.0
 33
0.0
  0
SOLID
  5
36D
  8
0
  6
CONTINUOUS
 62
     7
 10
2.0
 20
0.0
 30
0.0
 11
2.0
 21
2.0
 31
0.0
 12
10.0
 22
0.0
 32
0.0
 13
10.0
 23
0.0
 33
0.0
  0
SOLID
  5
36E
  8
0
  6
CONTINUOUS
 62
     7
 10
10.0
 20
0.0
 30
0.0
 11
2.0
 21
2.0
 31
0.0
 12
10.0
 22
2.0
 32
0.0
 13
10.0
 23
2.0
 33
0.0
  0
ENDBLK
  8
0
  0
BLOCK
  8
0
  2
*U5
 70
     1
 10
0.0
 20
0.0
 30
0.0
  0
SOLID
  5
370
  8
0
  6
CONTINUOUS
 62
     7
 10
409.9999999999999
 20
0.0
 30
0.0
 11
409.9999999999999
 21
2.0
 31
0.0
 12
418.0
 22
0.0
 32
0.0
 13
418.0
 23
0.0
 33
0.0
  0
SOLID
  5
371
  8
0
  6
CONTINUOUS
 62
     7
 10
418.0
 20
0.0
 30
0.0
 11
409.9999999999999
 21
2.0
 31
0.0
 12
418.0
 22
2.0
 32
0.0
 13
418.0
 23
2.0
 33
0.0
  0
SOLID
  5
372
  8
0
  6
CONTINUOUS
 62
     7
 10
418.0
 20
0.0
 30
0.0
 11
418.0
 21
10.0
 31
0.0
 12
420.0
 22
0.0
 32
0.0
 13
420.0
 23
0.0
 33
0.0
  0
SOLID
  5
373
  8
0
  6
CONTINUOUS
 62
     7
 10
420.0
 20
0.0
 30
0.0
 11
418.0
 21
10.0
 31
0.0
 12
420.0
 22
10.0
 32
0.0
 13
420.0
 23
10.0
 33
0.0
  0
ENDBLK
  8
0
  0
BLOCK
  8
0
  2
*U6
 70
     1
 10
0.0
 20
0.0
 30
0.0
  0
SOLID
  5
375
  8
0
  6
CONTINUOUS
 62
     7
 10
409.9999999999999
 20
295.0
 30
0.0
 11
409.9999999999999
 21
297.0
 31
0.0
 12
418.0
 22
295.0
 32
0.0
 13
418.0
 23
295.0
 33
0.0
  0
SOLID
  5
376
  8
0
  6
CONTINUOUS
 62
     7
 10
418.0
 20
295.0
 30
0.0
 11
409.9999999999999
 21
297.0
 31
0.0
 12
418.0
 22
297.0
 32
0.0
 13
418.0
 23
297.0
 33
0.0
  0
SOLID
  5
377
  8
0
  6
CONTINUOUS
 62
     7
 10
418.0
 20
286.9999999999999
 30
0.0
 11
418.0
 21
297.0
 31
0.0
 12
420.0
 22
286.9999999999999
 32
0.0
 13
420.0
 23
286.9999999999999
 33
0.0
  0
SOLID
  5
378
  8
0
  6
CONTINUOUS
 62
     7
 10
420.0
 20
286.9999999999999
 30
0.0
 11
418.0
 21
297.0
 31
0.0
 12
420.0
 22
297.0
 32
0.0
 13
420.0
 23
297.0
 33
0.0
  0
ENDBLK
  8
0
  0
BLOCK
  8
0
  2
*U7
 70
     1
 10
0.0
 20
0.0
 30
0.0
  0
SOLID
  5
37A
  8
0
  6
CONTINUOUS
 62
     7
 10
0.0
 20
286.9999999999999
 30
0.0
 11
0.0
 21
297.0
 31
0.0
 12
2.0
 22
286.9999999999999
 32
0.0
 13
2.0
 23
286.9999999999999
 33
0.0
  0
SOLID
  5
37B
  8
0
  6
CONTINUOUS
 62
     7
 10
2.0
 20
286.9999999999999
 30
0.0
 11
0.0
 21
297.0
 31
0.0
 12
2.0
 22
297.0
 32
0.0
 13
2.0
 23
297.0
 33
0.0
  0
SOLID
  5
37C
  8
0
  6
CONTINUOUS
 62
     7
 10
2.0
 20
295.0
 30
0.0
 11
2.0
 21
297.0
 31
0.0
 12
10.0
 22
295.0
 32
0.0
 13
10.0
 23
295.0
 33
0.0
  0
SOLID
  5
37D
  8
0
  6
CONTINUOUS
 62
     7
 10
10.0
 20
295.0
 30
0.0
 11
2.0
 21
297.0
 31
0.0
 12
10.0
 22
297.0
 32
0.0
 13
10.0
 23
297.0
 33
0.0
  0
ENDBLK
  8
0
  0
ENDSEC
  0
SECTION
  2
ENTITIES
  0
ARC
  5
70
  8
0
  6
CONTINUOUS
 62
     7
 10
22212.542526232
 20
-710.1584894214647
 30
0.0
 40
8.0
 50
0.0
 51
86.9999999999975
  0
LINE
  5
71
  8
0
  6
CONTINUOUS
 62
     7
 10
22170.7781057762
 20
-695.752966271158
 30
0.0
 11
22170.55829475998
 21
-699.9472103171273
 31
0.0
  0
ARC
  5
72
  8
0
  6
CONTINUOUS
 62
     7
 10
22170.2541528049
 20
-694.7241347134863
 30
0.0
 40
0.9999999999999898
 50
199.0243128371137
 51
266.999999999921
  0
ARC
  5
73
  8
0
  6
CONTINUOUS
 62
     7
 10
22170.41116067363
 20
-691.7282461092226
 30
0.0
 40
0.9999999999999898
 50
86.99999999992097
 51
154.975687162902
  0
ARC
  5
74
  8
0
  6
CONTINUOUS
 62
     7
 10
22175.66292858021
 20
-695.0075966405101
 30
0.0
 40
0.9999999999999898
 50
266.999999999921
 51
334.9756871629881
  0
LINE
  5
75
  8
0
  6
CONTINUOUS
 62
     7
 10
22170.55829475998
 20
-699.9472103171273
 30
0.0
 11
22212.96121388194
 21
-702.1694531434281
 31
0.0
  0
LINE
  5
76
  8
0
  6
CONTINUOUS
 62
     7
 10
22176.33945754575
 20
-695.7440126634128
 30
0.0
 11
22212.72289366315
 21
-697.6507877530124
 31
0.0
  0
ARC
  5
77
  8
0
  6
CONTINUOUS
 62
     7
 10
22175.81993644894
 20
-692.0117080362464
 30
0.0
 40
0.9999999999999898
 50
19.02431283698104
 51
86.99999999992097
  0
LINE
  5
78
  8
0
  6
CONTINUOUS
 62
     7
 10
22170.46349662988
 20
-690.7296165744681
 30
0.0
 11
22175.87227240519
 21
-691.0130785014918
 31
0.0
  0
ARC
  5
79
  8
0
  6
CONTINUOUS
 62
     7
 10
22174.03567416167
 20
-693.4202573311094
 30
0.0
 40
4.999999999999683
 50
154.9756871629453
 51
199.0243128370462
  0
LINE
  5
7A
  8
0
  6
CONTINUOUS
 62
     7
 10
22170.20181684866
 20
-695.7227642482409
 30
0.0
 11
22175.61059262397
 21
-696.0062261752646
 31
0.0
  0
ARC
  5
7B
  8
0
  6
CONTINUOUS
 62
     7
 10
22172.03841509217
 20
-693.3155854186234
 30
0.0
 40
4.999999999999683
 50
334.9756871629468
 51
19.02431283704768
  0
INSERT
  5
7D
  8
0
 62
     7
  2
D_FRAME_DRAWING_21
 10
0.0
 20
0.0
 30
0.0
  0
TEXT
  5
C7
  8
1
  6
CONTINUOUS
 62
     7
 10
22199.40945121862
 20
-1460.239634090909
 30
0.0
 40
3.5
  1
ＳＲＭ６Ｌ－Ｋ３０
 41
0.742522
 51
14.999825
  0
TEXT
  5
C8
  8
1
  6
CONTINUOUS
 62
     7
 10
22724.99957490286
 20
-1726.890941470801
 30
0.0
 40
3.5
  1
注）実施工では接続部に，SRM6-JNで11mm，SRM6-JKで5mmの隙間が開きます。
 41
0.940418
 51
15.0
  0
LINE
  5
C9
  8
1
  6
CONTINUOUS
 62
     7
 10
22225.042526232
 20
-714.6559998265
 30
0.0
 11
22225.042526232
 21
-760.6559998262
 31
0.0
  0
LINE
  5
CA
  8
1
  6
CONTINUOUS
 62
     7
 10
22225.042526232
 20
-764.6559998262
 30
0.0
 11
22225.042526232
 21
-810.6559998262
 31
0.0
  0
LINE
  5
CB
  8
1
  6
CONTINUOUS
 62
     7
 10
22225.042526232
 20
-814.6559998263
 30
0.0
 11
22225.042526232
 21
-860.6559998262
 31
0.0
  0
LINE
  5
CC
  8
1
  6
CONTINUOUS
 62
     7
 10
22225.042526232
 20
-914.6559998263
 30
0.0
 11
22225.042526232
 21
-960.6559998284
 31
0.0
  0
LINE
  5
CD
  8
1
  6
CONTINUOUS
 62
     7
 10
22225.042526232
 20
-864.6559998263
 30
0.0
 11
22225.042526232
 21
-910.6559998262
 31
0.0
  0
LINE
  5
CE
  8
1
  6
CONTINUOUS
 62
     7
 10
21579.6339733792
 20
-966.8060514948
 30
0.0
 11
21564.6339733792
 21
-966.8060116811
 31
0.0
  0
LINE
  5
CF
  8
1
  6
CONTINUOUS
 62
     7
 10
21567.9840120448
 20
-968.6560009586
 30
0.0
 11
21569.5840109779
 21
-968.6560029659
 31
0.0
  0
LINE
  5
D0
  8
1
  6
CONTINUOUS
 62
     7
 10
21567.9840109774
 20
-946.655998575
 30
0.0
 11
21576.2840109779
 21
-946.655998575
 31
0.0
  0
LINE
  5
D1
  8
1
  6
CONTINUOUS
 62
     7
 10
21567.9840109774
 20
-946.655998575
 30
0.0
 11
21567.9840147915
 21
-956.6559985763
 31
0.0
  0
LINE
  5
D2
  8
1
  6
CONTINUOUS
 62
     7
 10
21564.6339733792
 20
-958.5059854268
 30
0.0
 11
21564.6339733792
 21
-966.8060116811
 31
0.0
  0
LINE
  5
D3
  8
1
  6
CONTINUOUS
 62
     7
 10
21569.5840109779
 20
-956.655998575
 30
0.0
 11
21567.9840147915
 21
-956.655998575
 31
0.0
  0
LINE
  5
D4
  8
1
  6
CONTINUOUS
 62
     7
 10
21569.5840109779
 20
-968.6560029659
 30
0.0
 11
21569.5840109779
 21
-966.8060514948
 31
0.0
  0
LINE
  5
D5
  8
1
  6
CONTINUOUS
 62
     7
 10
21574.6840109779
 20
-956.6559985726
 30
0.0
 11
21576.2840109779
 21
-956.656000003
 31
0.0
  0
LINE
  5
D6
  8
1
  6
CONTINUOUS
 62
     7
 10
21576.2840109779
 20
-968.6559985763
 30
0.0
 11
21576.2840109779
 21
-978.655998575
 31
0.0
  0
LINE
  5
D7
  8
1
  6
CONTINUOUS
 62
     7
 10
21564.6339733792
 20
-958.5059854264
 30
0.0
 11
21579.6339733792
 21
-958.5060258569
 31
0.0
  0
LINE
  5
D8
  8
1
  6
CONTINUOUS
 62
     7
 10
21569.5840109784
 20
-958.50600534
 30
0.0
 11
21569.5840108794
 21
-956.655998575
 31
0.0
  0
LINE
  5
D9
  8
1
  6
CONTINUOUS
 62
     7
 10
21567.9840109407
 20
-968.6560009586
 30
0.0
 11
21567.9840109224
 21
-978.655998575
 31
0.0
  0
LINE
  5
DA
  8
1
  6
CONTINUOUS
 62
     7
 10
21576.2840109779
 20
-946.655998575
 30
0.0
 11
21576.2840109779
 21
-956.6560056952
 31
0.0
  0
LINE
  5
DB
  8
1
  6
CONTINUOUS
 62
     7
 10
21579.6339733792
 20
-958.5059854689
 30
0.0
 11
21579.6339733792
 21
-966.8060117236
 31
0.0
  0
LINE
  5
DC
  8
0
  6
CONTINUOUS
 62
     7
 10
22170.46349662992
 20
-984.5823830780869
 30
0.0
 11
22175.87227240523
 21
-984.2989211510614
 31
0.0
  0
LINE
  5
DD
  8
0
  6
CONTINUOUS
 62
     7
 10
22170.2018168487
 20
-979.5892354043141
 30
0.0
 11
22175.61059262401
 21
-979.3057734772887
 31
0.0
  0
ARC
  5
DE
  8
0
  6
CONTINUOUS
 62
     7
 10
22174.03567416172
 20
-981.8917423214444
 30
0.0
 40
4.999999999999758
 50
160.9756871629704
 51
205.0243128370712
  0
ARC
  5
DF
  8
0
  6
CONTINUOUS
 62
     7
 10
22212.04252623204
 20
-964.6790279477204
 30
0.0
 40
13.00000000000012
 50
273.0000000000163
 51
0.1015609616301845
  0
ARC
  5
E0
  8
0
  6
CONTINUOUS
 62
     7
 10
22175.81993644899
 20
-983.3002916163068
 30
0.0
 40
0.9999999999999898
 50
273.000000000079
 51
340.9756871630189
  0
ARC
  5
E1
  8
0
  6
CONTINUOUS
 62
     7
 10
22170.25415280495
 20
-980.5878649390687
 30
0.0
 40
1.000000000000176
 50
93.0000000002823
 51
160.9756871630895
  0
LINE
  5
E2
  8
0
  6
CONTINUOUS
 62
     7
 10
22170.55829476002
 20
-975.3647893354275
 30
0.0
 11
22212.96121388199
 21
-973.1425465091141
 31
0.0
  0
LINE
  5
E3
  8
0
  6
CONTINUOUS
 62
     7
 10
22176.33945754579
 20
-979.5679869891402
 30
0.0
 11
22212.7228936632
 21
-977.6612118995298
 31
0.0
  0
ARC
  5
E4
  8
0
  6
CONTINUOUS
 62
     7
 10
22170.41116067368
 20
-983.5837535433324
 30
0.0
 40
0.999999999999879
 50
205.0243128370984
 51
273.0000000000794
  0
ARC
  5
E5
  8
0
  6
CONTINUOUS
 62
     7
 10
22212.54252623204
 20
-965.1535102310776
 30
0.0
 40
8.000000000000101
 50
273.000000000028
 51
0.0000000000254659
  0
ARC
  5
E6
  8
0
  6
CONTINUOUS
 62
     7
 10
22172.03841509222
 20
-981.9964142339309
 30
0.0
 40
4.999999999999758
 50
340.9756871629689
 51
25.02431283706971
  0
ARC
  5
E7
  8
0
  6
CONTINUOUS
 62
     7
 10
22175.66292858026
 20
-980.3044030120432
 30
0.0
 40
0.999999999999879
 50
25.02431283701225
 51
93.00000000007934
  0
LINE
  5
E8
  8
0
  6
CONTINUOUS
 62
     7
 10
22170.77810577624
 20
-979.5590333813968
 30
0.0
 11
22170.55829476002
 21
-975.3647893354274
 31
0.0
  0
LINE
  5
E9
  8
1
  6
CONTINUOUS
 62
     7
 10
21721.4132014996
 20
-1009.0557321793
 30
0.0
 11
21724.9487354055
 21
-1012.5912660853
 31
0.0
  0
LINE
  5
EA
  8
1
  6
CONTINUOUS
 62
     7
 10
21417.9840029787
 20
-828.6559892343
 30
0.0
 11
21426.2840019118
 21
-828.6559892343
 31
0.0
  0
LINE
  5
EB
  8
1
  6
CONTINUOUS
 62
     7
 10
21424.6840019118
 20
-818.6559892343
 30
0.0
 11
21426.2840019118
 21
-818.6559892343
 31
0.0
  0
LINE
  5
EC
  8
1
  6
CONTINUOUS
 62
     7
 10
21417.9840029787
 20
-818.6559916179
 30
0.0
 11
21419.5840019118
 21
-818.6559936251
 31
0.0
  0
LINE
  5
ED
  8
1
  6
CONTINUOUS
 62
     7
 10
21419.5840019123
 20
-808.5059959993
 30
0.0
 11
21419.5840018133
 21
-806.6559892343
 31
0.0
  0
LINE
  5
EE
  8
1
  6
CONTINUOUS
 62
     7
 10
21708.2257641558
 20
-1034.0518415721
 30
0.0
 11
21711.6904753841
 21
-1037.5167768039
 31
0.0
  0
LINE
  5
EF
  8
1
  6
CONTINUOUS
 62
     7
 10
21574.634011308
 20
-708.1559984252
 30
0.0
 11
21574.634011625
 21
-710.1559992136
 31
0.0
  0
LINE
  5
F0
  8
1
  6
CENTER
 62
     7
 10
21312.155500919
 20
-702.677499081
 30
0.0
 11
21709.2373322889
 21
-1099.7593304509
 31
0.0
  0
LINE
  5
F2
  8
1
  6
CONTINUOUS
 62
     7
 10
21419.5840019118
 20
-818.6559936251
 30
0.0
 11
21419.5840019118
 21
-816.8060421541
 31
0.0
  0
LINE
  5
F3
  8
1
  6
CONTINUOUS
 62
     7
 10
21417.9840019113
 20
-796.6559892343
 30
0.0
 11
21426.2840019118
 21
-796.6559892343
 31
0.0
  0
LINE
  5
F4
  8
1
  6
CONTINUOUS
 62
     7
 10
21519.6339857941
 20
-710.1559992122
 30
0.0
 11
21519.6339854747
 21
-708.1559992164
 31
0.0
  0
LINE
  5
F5
  8
1
  6
CONTINUOUS
 62
     7
 10
21519.6339855832
 20
-708.1559992164
 30
0.0
 11
21524.6339855465
 21
-708.1559984238
 31
0.0
  0
LINE
  5
F6
  8
1
  6
CONTINUOUS
 62
     7
 10
21424.6840019118
 20
-816.8060421328
 30
0.0
 11
21424.6840019118
 21
-818.6559892343
 31
0.0
  0
LINE
  5
F7
  8
1
  6
CONTINUOUS
 62
     7
 10
21707.4478381705
 20
-1041.7594140174
 30
0.0
 11
21711.6904753841
 21
-1037.5167768039
 31
0.0
  0
LINE
  5
F8
  8
1
  6
CONTINUOUS
 62
     7
 10
21424.6840019118
 20
-806.6559892318
 30
0.0
 11
21426.2840019118
 21
-806.6559906622
 31
0.0
  0
LINE
  5
F9
  8
1
  6
CONTINUOUS
 62
     7
 10
21697.1547491963
 20
-1019.0587209382
 30
0.0
 11
21699.0358328731
 21
-1020.939804615
 31
0.0
  0
LINE
  5
FA
  8
1
  6
CONTINUOUS
 62
     7
 10
21707.8013903633
 20
-1032.2134736648
 30
0.0
 11
21708.9327612132
 21
-1033.3448445147
 31
0.0
  0
LINE
  5
FB
  8
1
  6
CONTINUOUS
 62
     7
 10
21574.6340124176
 20
-715.1559992219
 30
0.0
 11
21574.6340195511
 21
-760.1559992133
 31
0.0
  0
LINE
  5
FC
  8
1
  6
CONTINUOUS
 62
     7
 10
21689.8007089455
 20
-1025.4654177411
 30
0.0
 11
21695.6604567463
 21
-1019.6056699403
 31
0.0
  0
LINE
  5
FD
  8
1
  6
CONTINUOUS
 62
     7
 10
21469.6339857941
 20
-710.1559998223
 30
0.0
 11
21469.6339854747
 21
-708.1559998265
 31
0.0
  0
ARC
  5
FE
  8
1
  6
CONTINUOUS
 62
     7
 10
21745.812933853
 20
-984.6559998264
 30
0.0
 40
5.0
 50
90.0
 51
135.0
  0
LINE
  5
FF
  8
1
  6
CONTINUOUS
 62
     7
 10
21419.5840019118
 20
-806.6559892343
 30
0.0
 11
21417.9840057254
 21
-806.6559892343
 31
0.0
  0
LINE
  5
100
  8
1
  6
CONTINUOUS
 62
     7
 10
21687.2952937089
 20
-1052.7195703192
 30
0.0
 11
21677.7493521629
 21
-1043.1736287732
 31
0.0
  0
LINE
  5
101
  8
1
  6
CONTINUOUS
 62
     7
 10
21417.9840019113
 20
-796.6559892343
 30
0.0
 11
21417.9840057254
 21
-806.6559892356
 31
0.0
  0
LINE
  5
102
  8
1
  6
CONTINUOUS
 62
     7
 10
21424.6840019118
 20
-806.6559956971
 30
0.0
 11
21424.6840019118
 21
-808.506015259
 31
0.0
  0
LINE
  5
103
  8
1
  6
CONTINUOUS
 62
     7
 10
21417.9840018746
 20
-818.6559916179
 30
0.0
 11
21417.9840018563
 21
-828.6559892343
 31
0.0
  0
LINE
  5
104
  8
1
  6
CONTINUOUS
 62
     7
 10
21374.6340213152
 20
-765.1559992202
 30
0.0
 11
21374.6340218304
 21
-768.4059937248
 31
0.0
  0
LINE
  5
105
  8
1
  6
CONTINUOUS
 62
     7
 10
21469.6339937779
 20
-760.155999822
 30
0.0
 11
21469.6339865925
 21
-715.1559998306
 31
0.0
  0
LINE
  5
106
  8
1
  6
CONTINUOUS
 62
     7
 10
21594.1340016644
 20
-1143.4059998269
 30
0.0
 11
21686.057768747
 21
-1051.4820453573
 31
0.0
  0
LINE
  5
107
  8
1
  6
CONTINUOUS
 62
     7
 10
21524.6339866561
 20
-715.1559992205
 30
0.0
 11
21524.6339937896
 21
-760.1559992119
 31
0.0
  0
LINE
  5
108
  8
1
  6
CONTINUOUS
 62
     7
 10
21569.6340195394
 20
-760.1559992133
 30
0.0
 11
21569.634012354
 21
-715.1559992219
 31
0.0
  0
LINE
  5
109
  8
1
  6
CONTINUOUS
 62
     7
 10
21569.6340113448
 20
-708.1559992177
 30
0.0
 11
21574.634011308
 21
-708.1559984251
 31
0.0
  0
LINE
  5
10A
  8
1
  6
CONTINUOUS
 62
     7
 10
21369.6340218283
 20
-768.4059947744
 30
0.0
 11
21369.6340213093
 21
-765.1559992202
 31
0.0
  0
LINE
  5
10B
  8
1
  6
CONTINUOUS
 62
     7
 10
21524.6339855465
 20
-708.1559984238
 30
0.0
 11
21524.6339858635
 21
-710.1559992122
 31
0.0
  0
LINE
  5
10C
  8
1
  6
CONTINUOUS
 62
     7
 10
21474.6339855465
 20
-708.1559990339
 30
0.0
 11
21474.6339858635
 21
-710.1559998223
 31
0.0
  0
LINE
  5
10D
  8
1
  6
CONTINUOUS
 62
     7
 10
21474.6339945821
 20
-765.1559998304
 30
0.0
 11
21474.6339950973
 21
-768.4059943349
 31
0.0
  0
LINE
  5
10E
  8
1
  6
CONTINUOUS
 62
     7
 10
21569.6338981606
 20
-766.6559998284
 30
0.0
 11
21569.6340203378
 21
-765.1559992216
 31
0.0
  0
LINE
  5
10F
  8
1
  6
CONTINUOUS
 62
     7
 10
21374.6340122801
 20
-708.1593867379
 30
0.0
 11
21374.6340205226
 21
-760.1559992119
 31
0.0
  0
LINE
  5
110
  8
1
  6
CONTINUOUS
 62
     7
 10
21569.6340115556
 20
-710.1559992136
 30
0.0
 11
21569.6340112363
 21
-708.1559992178
 31
0.0
  0
LINE
  5
111
  8
1
  6
CONTINUOUS
 62
     7
 10
21469.6339855832
 20
-708.1559998265
 30
0.0
 11
21474.6339855465
 21
-708.1559990339
 31
0.0
  0
LINE
  5
112
  8
1
  6
CONTINUOUS
 62
     7
 10
21519.6339950952
 20
-768.4059947744
 30
0.0
 11
21519.6339945763
 21
-765.1559992202
 31
0.0
  0
LINE
  5
113
  8
1
  6
CONTINUOUS
 62
     7
 10
21424.6339945821
 20
-765.1559998304
 30
0.0
 11
21424.6339950973
 21
-768.4059943349
 31
0.0
  0
LINE
  5
114
  8
1
  6
CONTINUOUS
 62
     7
 10
21713.1046912222
 20
-1007.8182897139
 30
0.0
 11
21722.6506327682
 21
-1017.3642312599
 31
0.0
  0
LINE
  5
115
  8
1
  6
CONTINUOUS
 62
     7
 10
21677.7493521629
 20
-1043.1736287732
 30
0.0
 11
21713.1046912222
 21
-1007.8182897139
 31
0.0
  0
LINE
  5
116
  8
1
  6
CONTINUOUS
 62
     7
 10
21708.9327612132
 20
-1033.3448445147
 30
0.0
 11
21703.2759069637
 21
-1039.0016987642
 31
0.0
  0
LINE
  5
117
  8
1
  6
CONTINUOUS
 62
     7
 10
21369.6340205109
 20
-760.1559992119
 30
0.0
 11
21369.6340122083
 21
-708.1593867379
 31
0.0
  0
LINE
  5
118
  8
1
  6
CONTINUOUS
 62
     7
 10
21707.4478381705
 20
-1041.7594140174
 30
0.0
 11
21703.982956158
 21
-1038.2946495699
 31
0.0
  0
LINE
  5
119
  8
1
  6
CONTINUOUS
 62
     7
 10
21702.1445361138
 20
-1037.8703279143
 30
0.0
 11
21703.2759069637
 21
-1039.0016987642
 31
0.0
  0
LINE
  5
11A
  8
1
  6
CONTINUOUS
 62
     7
 10
21690.870867064
 20
-1029.1047704242
 30
0.0
 11
21688.9897833872
 21
-1027.2236867475
 31
0.0
  0
LINE
  5
11B
  8
1
  6
CONTINUOUS
 62
     7
 10
21694.6398360201
 20
-1020.6262906664
 30
0.0
 11
21697.4682631449
 21
-1023.4547177912
 31
0.0
  0
LINE
  5
11C
  8
1
  6
CONTINUOUS
 62
     7
 10
21419.6339855832
 20
-708.1559998265
 30
0.0
 11
21424.6339855464
 21
-708.1559990339
 31
0.0
  0
LINE
  5
11D
  8
1
  6
CONTINUOUS
 62
     7
 10
21469.6339950952
 20
-768.4059953845
 30
0.0
 11
21469.6339945763
 21
-765.1559998304
 31
0.0
  0
LINE
  5
11E
  8
1
  6
CONTINUOUS
 62
     7
 10
21519.6339937779
 20
-760.1559992119
 30
0.0
 11
21519.6339865925
 21
-715.1559992205
 31
0.0
  0
LINE
  5
11F
  8
1
  6
CONTINUOUS
 62
     7
 10
21524.6339945822
 20
-765.1559992202
 30
0.0
 11
21524.6339950973
 21
-768.4059937248
 31
0.0
  0
LINE
  5
120
  8
1
  6
CONTINUOUS
 62
     7
 10
21574.6340203437
 20
-765.1559992216
 30
0.0
 11
21574.6338990512
 21
-766.6559998284
 31
0.0
  0
LINE
  5
121
  8
1
  6
CONTINUOUS
 62
     7
 10
21369.6340123163
 20
-708.1559992164
 30
0.0
 11
21374.6340122795
 21
-708.1559984238
 31
0.0
  0
LINE
  5
122
  8
1
  6
CONTINUOUS
 62
     7
 10
21722.6506327682
 20
-1017.3642312599
 30
0.0
 11
21687.2952937089
 21
-1052.7195703192
 31
0.0
  0
LINE
  5
123
  8
1
  6
CONTINUOUS
 62
     7
 10
21693.3857802403
 20
-1027.5372006958
 30
0.0
 11
21690.5573531155
 21
-1024.7087735711
 31
0.0
  0
ARC
  5
124
  8
1
  6
CONTINUOUS
 62
     7
 10
21676.1583798248
 20
-1051.8357047684
 30
0.0
 40
2.2500000043
 50
353.9424412302
 51
276.0575587697999
  0
LINE
  5
125
  8
1
  6
CONTINUOUS
 62
     7
 10
21745.812933853
 20
-984.6559998264
 30
0.0
 11
21717.8776675939
 21
-1012.5912660855
 31
0.0
  0
LINE
  5
126
  8
1
  6
CONTINUOUS
 62
     7
 10
21474.6339866561
 20
-715.1559998306
 30
0.0
 11
21474.6339937895
 21
-760.155999822
 31
0.0
  0
LINE
  5
127
  8
1
  6
CONTINUOUS
 62
     7
 10
21682.5223285343
 20
-1047.9466051446
 30
0.0
 11
21592.0629338524
 21
-1138.405999827
 31
0.0
  0
LINE
  5
128
  8
1
  6
CONTINUOUS
 62
     7
 10
21721.4132014996
 20
-1016.1267999912
 30
0.0
 11
21724.9487354055
 21
-1012.5912660853
 31
0.0
  0
LINE
  5
129
  8
1
  6
CONTINUOUS
 62
     7
 10
21742.2773999471
 20
-981.1204659204
 30
0.0
 11
21714.342133688
 21
-1009.0557321796
 31
0.0
  0
LINE
  5
12A
  8
1
  6
CONTINUOUS
 62
     7
 10
21426.2840019118
 20
-818.6559892356
 30
0.0
 11
21426.2840019118
 21
-828.6559892343
 31
0.0
  0
LINE
  5
12B
  8
1
  6
CONTINUOUS
 62
     7
 10
21426.2840019118
 20
-796.6559892343
 30
0.0
 11
21426.2840019118
 21
-806.6559963545
 31
0.0
  0
LINE
  5
12C
  8
1
  6
CONTINUOUS
 62
     7
 10
21429.6339643131
 20
-816.8060421541
 30
0.0
 11
21414.6339643131
 21
-816.8060023403
 31
0.0
  0
LINE
  5
12D
  8
1
  6
CONTINUOUS
 62
     7
 10
21429.6339643131
 20
-808.5059761282
 30
0.0
 11
21429.6339643131
 21
-816.8060023828
 31
0.0
  0
LINE
  5
12E
  8
1
  6
CONTINUOUS
 62
     7
 10
21414.6339643131
 20
-808.5059760857
 30
0.0
 11
21429.6339643131
 21
-808.5060165162
 31
0.0
  0
LINE
  5
12F
  8
1
  6
CONTINUOUS
 62
     7
 10
21567.9840120448
 20
-978.655998575
 30
0.0
 11
21576.2840109779
 21
-978.655998575
 31
0.0
  0
LINE
  5
130
  8
1
  6
CONTINUOUS
 62
     7
 10
21574.6840109779
 20
-968.655998575
 30
0.0
 11
21576.2840109779
 21
-968.655998575
 31
0.0
  0
LINE
  5
131
  8
1
  6
CONTINUOUS
 62
     7
 10
21574.6840109779
 20
-956.6560050378
 30
0.0
 11
21574.6840109779
 21
-958.5060245997
 31
0.0
  0
LINE
  5
132
  8
1
  6
CONTINUOUS
 62
     7
 10
21574.6840109779
 20
-966.8060514735
 30
0.0
 11
21574.6840109779
 21
-968.655998575
 31
0.0
  0
LINE
  5
133
  8
1
  6
CONTINUOUS
 62
     7
 10
21414.6339643131
 20
-808.505976086
 30
0.0
 11
21414.6339643131
 21
-816.8060023403
 31
0.0
  0
LINE
  5
134
  8
1
  6
CONTINUOUS
 62
     7
 10
21507.3840014488
 20
-715.1559998286
 30
0.0
 11
21627.8839969679
 21
-715.1559998286
 31
0.0
  0
LINE
  5
135
  8
1
  6
CONTINUOUS
 62
     7
 10
21626.1340016668
 20
-960.1560169434
 30
0.0
 11
21579.6339733792
 21
-960.1560102237
 31
0.0
  0
LINE
  5
136
  8
1
  6
CONTINUOUS
 62
     7
 10
21632.3840014507
 20
-945.1560831098
 30
0.0
 11
21632.3840014501
 21
-697.4059998352
 31
0.0
  0
LINE
  5
137
  8
1
  6
CENTER
 62
     7
 10
22020.2630016644
 20
-837.6559998263
 30
0.0
 11
21351.5079716317
 21
-837.6559998264
 31
0.0
  0
ARC
  5
138
  8
1
  6
CONTINUOUS
 62
     7
 10
21630.1340014539
 20
-697.4059998352
 30
0.0
 40
2.2500000043
 50
128.9424412302
 51
51.05755876979998
  0
LINE
  5
139
  8
1
  6
CONTINUOUS
 62
     7
 10
21757.3840014517
 20
-977.9059998221
 30
0.0
 11
21757.3840014516
 21
-697.4059998306001
 31
0.0
  0
LINE
  5
13A
  8
1
  6
CONTINUOUS
 62
     7
 10
21745.812933853
 20
-979.6559998264
 30
0.0
 11
22007.3839714211
 21
-979.6559998263
 31
0.0
  0
LINE
  5
13B
  8
1
  6
CONTINUOUS
 62
     7
 10
21877.8839718449
 20
-865.1559998262
 30
0.0
 11
21757.3839718423
 21
-865.1559998262
 31
0.0
  0
LINE
  5
13C
  8
1
  6
CONTINUOUS
 62
     7
 10
21757.3839718423
 20
-860.1559998241
 30
0.0
 11
21877.8839718449
 21
-860.1559998241
 31
0.0
  0
LINE
  5
13D
  8
1
  6
CONTINUOUS
 62
     7
 10
21882.3839716317
 20
-710.1559998243
 30
0.0
 11
22002.8839716343
 21
-710.1559998243
 31
0.0
  0
LINE
  5
13E
  8
1
  6
CONTINUOUS
 62
     7
 10
21375.1340016645
 20
-695.6559998264
 30
0.0
 11
22007.3839714207
 21
-695.6559998263
 31
0.0
  0
LINE
  5
13F
  8
1
  6
CONTINUOUS
 62
     7
 10
21382.3840014476
 20
-915.1559998304
 30
0.0
 11
21502.8839969667
 21
-915.1559998304
 31
0.0
  0
LINE
  5
140
  8
1
  6
CONTINUOUS
 62
     7
 10
21564.6339733792
 20
-960.156008056
 30
0.0
 11
21509.1340014488
 21
-960.1560000356
 31
0.0
  0
LINE
  5
141
  8
1
  6
CONTINUOUS
 62
     7
 10
21752.8839972262
 20
-710.1559998244
 30
0.0
 11
21632.38400145
 21
-710.1559997809
 31
0.0
  0
LINE
  5
142
  8
1
  6
CONTINUOUS
 62
     7
 10
21501.1340014488
 20
-960.1560002018
 30
0.0
 11
21384.1340016644
 21
-960.1560251728
 31
0.0
  0
LINE
  5
143
  8
1
  6
CONTINUOUS
 62
     7
 10
21377.8840016609
 20
-697.4059998353
 30
0.0
 11
21377.8840016608
 21
-945.1560792694
 31
0.0
  0
LINE
  5
144
  8
1
  6
CONTINUOUS
 62
     7
 10
21882.3839716317
 20
-910.1559998241
 30
0.0
 11
22002.8839716343
 21
-910.1559998241
 31
0.0
  0
LINE
  5
145
  8
1
  6
CONTINUOUS
 62
     7
 10
22007.3839714211
 20
-979.6559998263
 30
0.0
 11
22007.3839714211
 21
-984.6559998263
 31
0.0
  0
LINE
  5
146
  8
1
  6
CONTINUOUS
 62
     7
 10
21632.3840014501
 20
-915.1559998263
 30
0.0
 11
21752.8839969692
 21
-915.1559998262
 31
0.0
  0
LINE
  5
147
  8
1
  6
CONTINUOUS
 62
     7
 10
22002.8839716343
 20
-697.4059998306
 30
0.0
 11
22002.8839716343
 21
-977.905999822
 31
0.0
  0
LINE
  5
148
  8
1
  6
CONTINUOUS
 62
     7
 10
21627.8840016633
 20
-697.4059998352
 30
0.0
 11
21627.8840016632
 21
-945.1560831098
 31
0.0
  0
ARC
  5
149
  8
1
  6
CONTINUOUS
 62
     7
 10
21505.1340014527
 20
-697.4059994828
 30
0.0
 40
2.2500000043
 50
128.9424412302
 51
51.05755876979998
  0
LINE
  5
14A
  8
1
  6
CONTINUOUS
 62
     7
 10
21375.1340016645
 20
-690.6559998264
 30
0.0
 11
22007.3839714207
 21
-690.6559998263
 31
0.0
  0
LINE
  5
14B
  8
1
  6
CONTINUOUS
 62
     7
 10
21502.8840016621
 20
-697.4059998353
 30
0.0
 11
21502.884001662
 21
-945.1560811896
 31
0.0
  0
LINE
  5
14C
  8
1
  6
CONTINUOUS
 62
     7
 10
21502.8839972237
 20
-910.1559998283
 30
0.0
 11
21382.3840014476
 21
-910.1559997848
 31
0.0
  0
ARC
  5
14D
  8
1
  6
CONTINUOUS
 62
     7
 10
21880.1339714156
 20
-697.4059998306
 30
0.0
 40
2.2500000043
 50
128.9424412302
 51
51.05755876979998
  0
ARC
  5
14E
  8
1
  6
CONTINUOUS
 62
     7
 10
21755.1340014474
 20
-697.4059998307
 30
0.0
 40
2.2500000043
 50
128.9424412302
 51
51.05755876979998
  0
LINE
  5
14F
  8
1
  6
CONTINUOUS
 62
     7
 10
21752.8839972262
 20
-860.1559998241
 30
0.0
 11
21632.3840014501
 21
-860.1559997806
 31
0.0
  0
LINE
  5
150
  8
1
  6
CONTINUOUS
 62
     7
 10
22002.8839716343
 20
-915.1559998262
 30
0.0
 11
21882.3839716317
 21
-915.1559998262
 31
0.0
  0
LINE
  5
151
  8
1
  6
CONTINUOUS
 62
     7
 10
22002.8839716343
 20
-865.1559998262
 30
0.0
 11
21882.3839716317
 21
-865.1559998262
 31
0.0
  0
LINE
  5
152
  8
1
  6
CONTINUOUS
 62
     7
 10
21632.38400145
 20
-715.1559998265
 30
0.0
 11
21752.8839969692
 21
-715.1559998265
 31
0.0
  0
LINE
  5
153
  8
1
  6
CONTINUOUS
 62
     7
 10
21882.3839716317
 20
-860.1559998241
 30
0.0
 11
22002.8839716343
 21
-860.1559998241
 31
0.0
  0
LINE
  5
154
  8
1
  6
CONTINUOUS
 62
     7
 10
21627.8839972249
 20
-710.1559998264
 30
0.0
 11
21507.3840014488
 21
-710.155999783
 31
0.0
  0
LINE
  5
155
  8
1
  6
CONTINUOUS
 62
     7
 10
21507.3840014488
 20
-915.1559998283
 30
0.0
 11
21627.883996968
 21
-915.1559998283
 31
0.0
  0
ARC
  5
156
  8
1
  6
CONTINUOUS
 62
     7
 10
22005.1339714168
 20
-697.4059998306
 30
0.0
 40
2.2500000043
 50
128.9424412302
 51
51.05755876969999
  0
LINE
  5
157
  8
1
  6
CONTINUOUS
 62
     7
 10
21507.3840014495
 20
-945.1560811896
 30
0.0
 11
21507.3840014488
 21
-697.4059998353
 31
0.0
  0
LINE
  5
158
  8
1
  6
CONTINUOUS
 62
     7
 10
22007.3839714211
 20
-977.905999822
 30
0.0
 11
22007.383971421
 21
-697.4059998306
 31
0.0
  0
LINE
  5
159
  8
1
  6
CONTINUOUS
 62
     7
 10
21752.8840016649
 20
-697.4059998306
 30
0.0
 11
21752.8840016649
 21
-977.9059998220998
 31
0.0
  0
LINE
  5
15A
  8
1
  6
CONTINUOUS
 62
     7
 10
21877.8839718449
 20
-915.1559998262
 30
0.0
 11
21757.3839718423
 21
-915.1559998262
 31
0.0
  0
LINE
  5
15B
  8
1
  6
CONTINUOUS
 62
     7
 10
21752.8839972262
 20
-910.1559998241
 30
0.0
 11
21632.3840014501
 21
-910.1559997806
 31
0.0
  0
LINE
  5
15C
  8
1
  6
CONTINUOUS
 62
     7
 10
21632.3840014501
 20
-865.1559998262
 30
0.0
 11
21752.8839969692
 21
-865.1559998262
 31
0.0
  0
LINE
  5
15D
  8
1
  6
CONTINUOUS
 62
     7
 10
21507.3840014488
 20
-865.1559998283
 30
0.0
 11
21627.883996968
 21
-865.1559998283
 31
0.0
  0
LINE
  5
15E
  8
1
  6
CONTINUOUS
 62
     7
 10
21502.8839972237
 20
-860.1559998283
 30
0.0
 11
21382.3840014476
 21
-860.1559997848
 31
0.0
  0
LINE
  5
15F
  8
1
  6
CONTINUOUS
 62
     7
 10
21382.3840014476
 20
-865.1559998304
 30
0.0
 11
21502.8839969667
 21
-865.1559998304
 31
0.0
  0
LINE
  5
160
  8
1
  6
CONTINUOUS
 62
     7
 10
21382.3840014482
 20
-945.1560792694
 30
0.0
 11
21382.3840014476
 21
-697.4059998353
 31
0.0
  0
ARC
  5
161
  8
1
  6
CONTINUOUS
 62
     7
 10
22005.1339714169
 20
-977.905999822
 30
0.0
 40
2.2500000043
 50
308.9424412303
 51
231.0575587697
  0
LINE
  5
162
  8
1
  6
CONTINUOUS
 62
     7
 10
21502.8839972237
 20
-710.1559998285
 30
0.0
 11
21382.3840014476
 21
-710.155999785
 31
0.0
  0
LINE
  5
163
  8
1
  6
CONTINUOUS
 62
     7
 10
21382.3840014476
 20
-715.1559998307
 30
0.0
 11
21502.8839969667
 21
-715.1559998306
 31
0.0
  0
LINE
  5
164
  8
1
  6
CONTINUOUS
 62
     7
 10
22002.8839716343
 20
-715.1559998265
 30
0.0
 11
21882.3839716317
 21
-715.1559998265
 31
0.0
  0
LINE
  5
165
  8
1
  6
CONTINUOUS
 62
     7
 10
21877.8839718449
 20
-715.1559998265
 30
0.0
 11
21757.3839718423
 21
-715.1559998265
 31
0.0
  0
ARC
  5
166
  8
1
  6
CONTINUOUS
 62
     7
 10
21380.1340014515
 20
-697.405999833
 30
0.0
 40
2.2500000043
 50
128.9424412302
 51
51.05755876979998
  0
LINE
  5
167
  8
1
  6
CONTINUOUS
 62
     7
 10
21757.3839718423
 20
-910.1559998241
 30
0.0
 11
21877.8839718449
 21
-910.1559998241
 31
0.0
  0
LINE
  5
168
  8
1
  6
CONTINUOUS
 62
     7
 10
21882.3839714199
 20
-977.9059998221
 30
0.0
 11
21882.3839714198
 21
-697.4059998306001
 31
0.0
  0
LINE
  5
169
  8
1
  6
CONTINUOUS
 62
     7
 10
22007.3839714211
 20
-695.6559998263
 30
0.0
 11
22007.3839714211
 21
-690.6559998263
 31
0.0
  0
LINE
  5
16A
  8
1
  6
CONTINUOUS
 62
     7
 10
21627.883997225
 20
-860.1559998262
 30
0.0
 11
21507.3840014488
 21
-860.1559997827
 31
0.0
  0
LINE
  5
16B
  8
1
  6
CONTINUOUS
 62
     7
 10
21757.3839718423
 20
-710.1559998243
 30
0.0
 11
21877.8839718449
 21
-710.1559998243
 31
0.0
  0
LINE
  5
16C
  8
1
  6
CONTINUOUS
 62
     7
 10
21627.883997225
 20
-910.1559998262
 30
0.0
 11
21507.3840014488
 21
-910.1559997827
 31
0.0
  0
LINE
  5
16D
  8
1
  6
CONTINUOUS
 62
     7
 10
21745.8129338531
 20
-984.6559998264
 30
0.0
 11
22007.3839714211
 21
-984.6559998263
 31
0.0
  0
LINE
  5
16E
  8
1
  6
CONTINUOUS
 62
     7
 10
21877.8839716331
 20
-697.4059998306
 30
0.0
 11
21877.8839716331
 21
-977.9059998220998
 31
0.0
  0
ARC
  5
16F
  8
1
  6
CONTINUOUS
 62
     7
 10
21880.1339714156
 20
-977.9059998221
 30
0.0
 40
2.2500000043
 50
308.9424412302
 51
231.0575587698
  0
LINE
  5
170
  8
1
  6
CONTINUOUS
 62
     7
 10
21752.8839972262
 20
-810.1559998241
 30
0.0
 11
21632.3840014501
 21
-810.1559997806
 31
0.0
  0
LINE
  5
171
  8
1
  6
CONTINUOUS
 62
     7
 10
21757.3839718423
 20
-760.1559998241
 30
0.0
 11
21877.8839718449
 21
-760.155999824
 31
0.0
  0
LINE
  5
172
  8
1
  6
CONTINUOUS
 62
     7
 10
21306.8840016733
 20
-1018.4059998253
 30
0.0
 11
21554.6340783064
 21
-1018.4059998272
 31
0.0
  0
LINE
  5
173
  8
1
  6
CONTINUOUS
 62
     7
 10
21757.3839718423
 20
-810.1559998241
 30
0.0
 11
21877.8839718449
 21
-810.1559998241
 31
0.0
  0
LINE
  5
174
  8
1
  6
CONTINUOUS
 62
     7
 10
21507.3840014488
 20
-765.1559998283
 30
0.0
 11
21627.8839969679
 21
-765.1559998283
 31
0.0
  0
LINE
  5
175
  8
1
  6
CONTINUOUS
 62
     7
 10
21519.6340016642
 20
-1018.4059953869
 30
0.0
 11
21519.6339826763
 21
-965.1559962494
 31
0.0
  0
LINE
  5
176
  8
1
  6
CONTINUOUS
 62
     7
 10
21626.1340016668
 20
-965.156000277
 30
0.0
 11
21579.6339733792
 21
-965.1560631106
 31
0.0
  0
LINE
  5
177
  8
1
  6
CONTINUOUS
 62
     7
 10
21377.8840016609
 20
-897.9059982282
 30
0.0
 11
21306.8840016733
 21
-897.9059996109
 31
0.0
  0
LINE
  5
178
  8
1
  6
CONTINUOUS
 62
     7
 10
21519.6340016663
 20
-893.4059953857
 30
0.0
 11
21519.6340010796
 21
-865.1559998284
 31
0.0
  0
LINE
  5
179
  8
1
  6
CONTINUOUS
 62
     7
 10
21519.6340104857
 20
-860.1560007216
 30
0.0
 11
21519.6340059146
 21
-815.1559998283
 31
0.0
  0
LINE
  5
17A
  8
1
  6
CONTINUOUS
 62
     7
 10
21524.6340016684
 20
-772.9059996096
 30
0.0
 11
21524.6340018965
 21
-810.1560007216
 31
0.0
  0
LINE
  5
17B
  8
1
  6
CONTINUOUS
 62
     7
 10
21524.634001662
 20
-815.1559998283
 30
0.0
 11
21524.6340016688
 21
-860.1560007216
 31
0.0
  0
LINE
  5
17C
  8
1
  6
CONTINUOUS
 62
     7
 10
21377.8840016609
 20
-772.9059982257
 30
0.0
 11
21306.8840016733
 21
-772.9059996096
 31
0.0
  0
LINE
  5
17D
  8
1
  6
CONTINUOUS
 62
     7
 10
21382.384001449
 20
-768.4059998229
 30
0.0
 11
21502.8840016621
 21
-768.4059998229
 31
0.0
  0
LINE
  5
17E
  8
1
  6
CONTINUOUS
 62
     7
 10
21507.3840014502
 20
-768.4059998229
 30
0.0
 11
21554.634073189
 21
-768.4059998247
 31
0.0
  0
ARC
  5
17F
  8
1
  6
CONTINUOUS
 62
     7
 10
21306.884001671
 20
-770.6559996135
 30
0.0
 40
2.2500000043
 50
218.9424412302
 51
141.0575587698
  0
LINE
  5
180
  8
1
  6
CONTINUOUS
 62
     7
 10
21757.3839718423
 20
-960.1559998241
 30
0.0
 11
21877.8839718449
 21
-960.1559998241
 31
0.0
  0
LINE
  5
181
  8
1
  6
CONTINUOUS
 62
     7
 10
21632.3840014501
 20
-765.1559998262
 30
0.0
 11
21752.8839969692
 21
-765.1559998262
 31
0.0
  0
LINE
  5
182
  8
1
  6
CONTINUOUS
 62
     7
 10
21501.1340014488
 20
-965.1559959652
 30
0.0
 11
21384.1340016644
 21
-965.1559941679
 31
0.0
  0
LINE
  5
183
  8
1
  6
CONTINUOUS
 62
     7
 10
21382.3840014476
 20
-815.1559998304
 30
0.0
 11
21414.6339643131
 21
-815.155999838
 31
0.0
  0
LINE
  5
184
  8
1
  6
CONTINUOUS
 62
     7
 10
21382.3840014476
 20
-765.1559998304
 30
0.0
 11
21502.8839969667
 21
-765.1559998304
 31
0.0
  0
LINE
  5
185
  8
1
  6
CONTINUOUS
 62
     7
 10
21519.6340016622
 20
-1143.4059953881
 30
0.0
 11
21519.6340016187
 21
-1022.905999612
 31
0.0
  0
LINE
  5
186
  8
1
  6
CONTINUOUS
 62
     7
 10
21305.1340016644
 20
-765.6559998265
 30
0.0
 11
21305.1340016644
 21
-1397.9059695827
 31
0.0
  0
LINE
  5
187
  8
1
  6
CONTINUOUS
 62
     7
 10
21524.6340016664
 20
-897.9059996108
 30
0.0
 11
21524.6340016056
 21
-910.1560007216
 31
0.0
  0
LINE
  5
188
  8
1
  6
CONTINUOUS
 62
     7
 10
21382.384001449
 20
-893.4059998241
 30
0.0
 11
21502.8840016621
 21
-893.4059998241
 31
0.0
  0
LINE
  5
189
  8
1
  6
CONTINUOUS
 62
     7
 10
21306.8840016733
 20
-893.4059998241
 30
0.0
 11
21377.8840016609
 21
-893.4059998241
 31
0.0
  0
LINE
  5
18A
  8
1
  6
CONTINUOUS
 62
     7
 10
21882.3839716317
 20
-960.1559998241
 30
0.0
 11
22002.8839716343
 21
-960.1559998241
 31
0.0
  0
LINE
  5
18B
  8
1
  6
CONTINUOUS
 62
     7
 10
21507.3840014502
 20
-893.4059998241
 30
0.0
 11
21554.6340626273
 21
-893.4059998261
 31
0.0
  0
LINE
  5
18C
  8
1
  6
CONTINUOUS
 62
     7
 10
21502.8840016621
 20
-772.9060003275
 30
0.0
 11
21382.384001449
 21
-772.9059995724
 31
0.0
  0
LINE
  5
18D
  8
1
  6
CONTINUOUS
 62
     7
 10
21752.8840014513
 20
-965.1559998325
 30
0.0
 11
21634.1340016668
 21
-965.1559980083
 31
0.0
  0
LINE
  5
18E
  8
1
  6
CONTINUOUS
 62
     7
 10
21414.6339643131
 20
-810.1560010992
 30
0.0
 11
21382.3840014476
 21
-810.1559997848
 31
0.0
  0
LINE
  5
18F
  8
1
  6
CONTINUOUS
 62
     7
 10
21519.6340125613
 20
-910.1560007216
 30
0.0
 11
21519.6340016207
 21
-897.9059996108
 31
0.0
  0
LINE
  5
190
  8
1
  6
CONTINUOUS
 62
     7
 10
21752.8839972262
 20
-760.1559998241
 30
0.0
 11
21632.3840014501
 21
-760.1559997806
 31
0.0
  0
ARC
  5
191
  8
1
  6
CONTINUOUS
 62
     7
 10
21755.1340014474
 20
-977.9059998221
 30
0.0
 40
2.2500000043
 50
308.9424412302
 51
231.0575587699
  0
LINE
  5
192
  8
1
  6
CONTINUOUS
 62
     7
 10
21502.8839972237
 20
-760.1559998282
 30
0.0
 11
21382.3840014476
 21
-760.1559997848
 31
0.0
  0
LINE
  5
193
  8
1
  6
CONTINUOUS
 62
     7
 10
21502.8839972237
 20
-810.1559998282
 30
0.0
 11
21429.6339643131
 21
-810.1560012585
 31
0.0
  0
LINE
  5
194
  8
1
  6
CONTINUOUS
 62
     7
 10
21554.6340626273
 20
-897.9059988393
 30
0.0
 11
21507.3840014502
 21
-897.9059996082
 31
0.0
  0
LINE
  5
195
  8
1
  6
CONTINUOUS
 62
     7
 10
21524.6340016684
 20
-865.1559998284
 30
0.0
 11
21524.6340016684
 21
-893.4059951287
 31
0.0
  0
LINE
  5
196
  8
1
  6
CONTINUOUS
 62
     7
 10
21554.634073189
 20
-772.9059988372
 30
0.0
 11
21507.3840014502
 21
-772.905999607
 31
0.0
  0
LINE
  5
197
  8
1
  6
CONTINUOUS
 62
     7
 10
21564.6339733792
 20
-965.1559969406
 30
0.0
 11
21509.1340014488
 21
-965.1559960881
 31
0.0
  0
LINE
  5
198
  8
1
  6
CONTINUOUS
 62
     7
 10
22002.8839716343
 20
-765.1559998262
 30
0.0
 11
21882.3839716317
 21
-765.1559998262
 31
0.0
  0
LINE
  5
199
  8
1
  6
CONTINUOUS
 62
     7
 10
21877.8839718449
 20
-765.1559998262
 30
0.0
 11
21757.3839718423
 21
-765.1559998262
 31
0.0
  0
LINE
  5
19A
  8
1
  6
CONTINUOUS
 62
     7
 10
21519.6340010325
 20
-960.156001553
 30
0.0
 11
21519.6340170269
 21
-915.1559998284
 31
0.0
  0
LINE
  5
19B
  8
1
  6
CONTINUOUS
 62
     7
 10
21524.634001667
 20
-915.1559998284
 30
0.0
 11
21524.6340016663
 21
-960.1560022756
 31
0.0
  0
LINE
  5
19C
  8
1
  6
CONTINUOUS
 62
     7
 10
21306.8840016733
 20
-768.4059998229
 30
0.0
 11
21377.8840016609
 21
-768.4059998229
 31
0.0
  0
LINE
  5
19D
  8
1
  6
CENTER
 62
     7
 10
21447.1340016644
 20
-1408.8768274251
 30
0.0
 11
21447.1340016644
 21
-742.0299697937
 31
0.0
  0
LINE
  5
19E
  8
1
  6
CONTINUOUS
 62
     7
 10
21507.3840014488
 20
-815.1559998283
 30
0.0
 11
21627.883996968
 21
-815.1559998283
 31
0.0
  0
LINE
  5
19F
  8
1
  6
CONTINUOUS
 62
     7
 10
21877.8839718449
 20
-965.1559998262
 30
0.0
 11
21757.3839718423
 21
-965.1559998262
 31
0.0
  0
LINE
  5
1A0
  8
1
  6
CONTINUOUS
 62
     7
 10
21429.6339643131
 20
-815.1559998268
 30
0.0
 11
21502.8839969667
 21
-815.1559998304
 31
0.0
  0
LINE
  5
1A1
  8
1
  6
CONTINUOUS
 62
     7
 10
21502.8840016621
 20
-897.9060003281
 30
0.0
 11
21382.384001449
 21
-897.9059995736
 31
0.0
  0
LINE
  5
1A2
  8
1
  6
CONTINUOUS
 62
     7
 10
21877.8839718449
 20
-815.1559998262
 30
0.0
 11
21757.3839718423
 21
-815.1559998262
 31
0.0
  0
LINE
  5
1A3
  8
1
  6
CONTINUOUS
 62
     7
 10
22002.8839716343
 20
-965.1559998262
 30
0.0
 11
21882.3839716317
 21
-965.1559998262
 31
0.0
  0
LINE
  5
1A4
  8
1
  6
CONTINUOUS
 62
     7
 10
21634.1340016668
 20
-960.1560170034
 30
0.0
 11
21752.8840014513
 21
-960.1559997869
 31
0.0
  0
LINE
  5
1A5
  8
1
  6
CONTINUOUS
 62
     7
 10
21627.8839972249
 20
-760.1559998261
 30
0.0
 11
21507.3840014488
 21
-760.1559997827
 31
0.0
  0
LINE
  5
1A6
  8
1
  6
CONTINUOUS
 62
     7
 10
21524.6340016643
 20
-1022.905999612
 30
0.0
 11
21524.6340016643
 21
-1143.4059951311
 31
0.0
  0
LINE
  5
1A7
  8
1
  6
CONTINUOUS
 62
     7
 10
21300.1340016644
 20
-765.6559998265
 30
0.0
 11
21300.1340016644
 21
-1397.9059695827
 31
0.0
  0
LINE
  5
1A8
  8
1
  6
CONTINUOUS
 62
     7
 10
21882.3839716317
 20
-760.1559998241
 30
0.0
 11
22002.8839716343
 21
-760.155999824
 31
0.0
  0
LINE
  5
1A9
  8
1
  6
CONTINUOUS
 62
     7
 10
21554.6340783064
 20
-1022.9059996342
 30
0.0
 11
21306.8840016733
 21
-1022.9059996121
 31
0.0
  0
LINE
  5
1AA
  8
1
  6
CONTINUOUS
 62
     7
 10
21524.6340016656
 20
-965.1559963262
 30
0.0
 11
21524.6340016664
 21
-1018.4059951299
 31
0.0
  0
LINE
  5
1AB
  8
1
  6
CONTINUOUS
 62
     7
 10
21519.6340054067
 20
-810.1560007216
 30
0.0
 11
21519.6340016228
 21
-772.9059996096
 31
0.0
  0
LINE
  5
1AC
  8
1
  6
CONTINUOUS
 62
     7
 10
21632.3840014501
 20
-815.1559998262
 30
0.0
 11
21752.8839969692
 21
-815.1559998262
 31
0.0
  0
LINE
  5
1AD
  8
1
  6
CONTINUOUS
 62
     7
 10
21627.883997225
 20
-810.1559998262
 30
0.0
 11
21507.3840014488
 21
-810.1559997827
 31
0.0
  0
LINE
  5
1AE
  8
1
  6
CONTINUOUS
 62
     7
 10
22002.8839716343
 20
-815.1559998262
 30
0.0
 11
21882.3839716317
 21
-815.1559998262
 31
0.0
  0
LINE
  5
1AF
  8
1
  6
CONTINUOUS
 62
     7
 10
21882.3839716317
 20
-810.1559998241
 30
0.0
 11
22002.8839716343
 21
-810.1559998241
 31
0.0
  0
LINE
  5
1B0
  8
1
  6
CONTINUOUS
 62
     7
 10
21324.6340014317
 20
-965.1560256391
 30
0.0
 11
21324.6340016666
 21
-1018.4059951299
 31
0.0
  0
LINE
  5
1B1
  8
1
  6
CONTINUOUS
 62
     7
 10
21469.6340104857
 20
-860.1560007216
 30
0.0
 11
21469.6340059145
 21
-815.1559998304
 31
0.0
  0
ARC
  5
1B2
  8
1
  6
CONTINUOUS
 62
     7
 10
21306.8840016733
 20
-1020.6559996159
 30
0.0
 40
2.2500000043
 50
218.9424412302
 51
141.0575587698
  0
LINE
  5
1B3
  8
1
  6
CONTINUOUS
 62
     7
 10
21474.6340016663
 20
-897.9059996108
 30
0.0
 11
21474.6340016055
 21
-910.1560007216
 31
0.0
  0
LINE
  5
1B4
  8
1
  6
CONTINUOUS
 62
     7
 10
21594.1340016644
 20
-1143.4059998269
 30
0.0
 11
21594.1340016644
 21
-1397.9059695831
 31
0.0
  0
ARC
  5
1B5
  8
1
  6
CONTINUOUS
 62
     7
 10
21306.8840013208
 20
-895.6559996147
 30
0.0
 40
2.2500000043
 50
218.9424412302
 51
141.0575587698
  0
LINE
  5
1B6
  8
1
  6
CONTINUOUS
 62
     7
 10
21324.6340011761
 20
-865.1559998776
 30
0.0
 11
21324.6340016687
 21
-893.4059951287
 31
0.0
  0
LINE
  5
1B7
  8
1
  6
CONTINUOUS
 62
     7
 10
21324.6340016646
 20
-1393.4059697963
 30
0.0
 11
21324.6340016645
 21
-1272.9059697937
 31
0.0
  0
LINE
  5
1B8
  8
1
  6
CONTINUOUS
 62
     7
 10
21569.6340187815
 20
-1016.6559998308
 30
0.0
 11
21569.63401329
 21
-978.655998575
 31
0.0
  0
LINE
  5
1B9
  8
1
  6
CONTINUOUS
 62
     7
 10
21474.6340016619
 20
-815.1559998304
 30
0.0
 11
21474.6340016688
 21
-860.1560007216
 31
0.0
  0
LINE
  5
1BA
  8
1
  6
CONTINUOUS
 62
     7
 10
21469.6340010324
 20
-960.1560069248
 30
0.0
 11
21469.6340170268
 21
-915.1559998304
 31
0.0
  0
LINE
  5
1BB
  8
1
  6
CONTINUOUS
 62
     7
 10
21569.6340086657
 20
-946.655998575
 30
0.0
 11
21569.6340041136
 21
-915.1559998284
 31
0.0
  0
LINE
  5
1BC
  8
1
  6
CONTINUOUS
 62
     7
 10
21474.6340016643
 20
-1393.4059697963
 30
0.0
 11
21474.6340016643
 21
-1272.9059697937
 31
0.0
  0
LINE
  5
1BD
  8
1
  6
CONTINUOUS
 62
     7
 10
21524.6340016643
 20
-1393.4059697963
 30
0.0
 11
21524.6340016643
 21
-1272.9059697937
 31
0.0
  0
LINE
  5
1BE
  8
1
  6
CONTINUOUS
 62
     7
 10
21319.6340016624
 20
-1272.9059697937
 30
0.0
 11
21319.6340016624
 21
-1393.4059697963
 31
0.0
  0
LINE
  5
1BF
  8
1
  6
CONTINUOUS
 62
     7
 10
21324.6340016645
 20
-1268.4059700069
 30
0.0
 11
21324.6340016645
 21
-1147.9059700043
 31
0.0
  0
LINE
  5
1C0
  8
1
  6
CONTINUOUS
 62
     7
 10
21306.8840016687
 20
-1268.4059697951
 30
0.0
 11
21587.3840016601
 21
-1268.4059697951
 31
0.0
  0
LINE
  5
1C1
  8
1
  6
CONTINUOUS
 62
     7
 10
21589.1340016644
 20
-1397.9059695831
 30
0.0
 11
21594.1340016644
 21
-1397.9059695831
 31
0.0
  0
LINE
  5
1C2
  8
1
  6
CONTINUOUS
 62
     7
 10
21519.6340016622
 20
-1147.9059700043
 30
0.0
 11
21519.6340016622
 21
-1268.4059700069
 31
0.0
  0
LINE
  5
1C3
  8
1
  6
CONTINUOUS
 62
     7
 10
21306.8840016687
 20
-1143.4059998269
 30
0.0
 11
21587.3840016601
 21
-1143.4059998269
 31
0.0
  0
LINE
  5
1C4
  8
1
  6
CONTINUOUS
 62
     7
 10
21474.6340016643
 20
-1268.4059700069
 30
0.0
 11
21474.6340016643
 21
-1147.9059700043
 31
0.0
  0
LINE
  5
1C5
  8
1
  6
CONTINUOUS
 62
     7
 10
21324.6340016645
 20
-1022.9059996121
 30
0.0
 11
21324.6340016645
 21
-1143.4059951312
 31
0.0
  0
LINE
  5
1C6
  8
1
  6
CONTINUOUS
 62
     7
 10
21319.6340016665
 20
-893.4059953857
 30
0.0
 11
21319.6339144141
 21
-865.1559998776
 31
0.0
  0
LINE
  5
1C7
  8
1
  6
CONTINUOUS
 62
     7
 10
21324.6340016686
 20
-772.9059996096
 30
0.0
 11
21324.6340016686
 21
-810.156
 31
0.0
  0
LINE
  5
1C8
  8
1
  6
CONTINUOUS
 62
     7
 10
21469.6340016642
 20
-1018.4059953869
 30
0.0
 11
21469.6339826763
 21
-965.1559954813
 31
0.0
  0
LINE
  5
1C9
  8
1
  6
CONTINUOUS
 62
     7
 10
21474.634001667
 20
-915.1559998304
 30
0.0
 11
21474.6340016663
 21
-960.1560058576
 31
0.0
  0
ARC
  5
1CA
  8
1
  6
CONTINUOUS
 62
     7
 10
21587.3840016601
 20
-1270.6559695776
 30
0.0
 40
2.2500000043
 50
38.94244123009999
 51
321.0575587698
  0
ARC
  5
1CB
  8
1
  6
CONTINUOUS
 62
     7
 10
21587.3840016601
 20
-1395.6559695788
 30
0.0
 40
2.2500000043
 50
38.9424412302
 51
321.0575587697
  0
LINE
  5
1CC
  8
1
  6
CONTINUOUS
 62
     7
 10
21474.6340016655
 20
-965.1559955581
 30
0.0
 11
21474.6340016663
 21
-1018.4059951299
 31
0.0
  0
LINE
  5
1CD
  8
1
  6
CONTINUOUS
 62
     7
 10
21319.6340016624
 20
-1143.4059953882
 30
0.0
 11
21319.6340016189
 21
-1022.9059996121
 31
0.0
  0
LINE
  5
1CE
  8
1
  6
CONTINUOUS
 62
     7
 10
21569.6340020398
 20
-891.6559996126
 30
0.0
 11
21569.6340076956
 21
-865.1559998283
 31
0.0
  0
ARC
  5
1CF
  8
1
  6
CONTINUOUS
 62
     7
 10
21306.8840016687
 20
-1145.6559996094
 30
0.0
 40
2.2500000043
 50
218.9424412301
 51
141.0575587698
  0
LINE
  5
1D0
  8
1
  6
CONTINUOUS
 62
     7
 10
21319.6340016624
 20
-1147.9059700043
 30
0.0
 11
21319.6340016624
 21
-1268.4059700069
 31
0.0
  0
LINE
  5
1D1
  8
1
  6
CONTINUOUS
 62
     7
 10
21324.6340019841
 20
-815.1559998776
 30
0.0
 11
21324.634001665
 21
-860.156
 31
0.0
  0
LINE
  5
1D2
  8
1
  6
CONTINUOUS
 62
     7
 10
21587.3840016601
 20
-1397.9059695831
 30
0.0
 11
21306.8840016687
 21
-1397.905969583
 31
0.0
  0
LINE
  5
1D3
  8
1
  6
CONTINUOUS
 62
     7
 10
21587.3840016601
 20
-1147.9059996137
 30
0.0
 11
21306.8840016687
 21
-1147.9059996136
 31
0.0
  0
ARC
  5
1D4
  8
1
  6
CONTINUOUS
 62
     7
 10
21306.8840016687
 20
-1270.6559695776
 30
0.0
 40
2.2500000043
 50
218.9424412302
 51
141.0575587698
  0
LINE
  5
1D5
  8
1
  6
CONTINUOUS
 62
     7
 10
21319.6340016645
 20
-1018.405995387
 30
0.0
 11
21319.6339307687
 21
-965.1560256391
 31
0.0
  0
LINE
  5
1D6
  8
1
  6
CONTINUOUS
 62
     7
 10
21319.6340000003
 20
-910.156
 30
0.0
 11
21319.634001621
 21
-897.9059996108
 31
0.0
  0
LINE
  5
1D7
  8
1
  6
CONTINUOUS
 62
     7
 10
21324.6340016666
 20
-897.9059996108
 30
0.0
 11
21324.6340016665
 21
-910.156
 31
0.0
  0
LINE
  5
1D8
  8
1
  6
CONTINUOUS
 62
     7
 10
21324.6340019274
 20
-915.1559998776
 30
0.0
 11
21324.6340016636
 21
-960.1560257615
 31
0.0
  0
LINE
  5
1D9
  8
1
  6
CONTINUOUS
 62
     7
 10
21319.6340010199
 20
-860.156
 30
0.0
 11
21319.6339144141
 21
-815.1559998776
 31
0.0
  0
LINE
  5
1DA
  8
1
  6
CONTINUOUS
 62
     7
 10
21474.6340016643
 20
-1022.905999612
 30
0.0
 11
21474.6340016643
 21
-1143.4059951312
 31
0.0
  0
LINE
  5
1DB
  8
1
  6
CONTINUOUS
 62
     7
 10
21569.634003391
 20
-910.1560007216
 30
0.0
 11
21569.6340018736
 21
-899.6559996126
 31
0.0
  0
LINE
  5
1DC
  8
1
  6
CONTINUOUS
 62
     7
 10
21569.6340087628
 20
-860.1560007216
 30
0.0
 11
21569.634018367
 21
-815.1559998283
 31
0.0
  0
LINE
  5
1DD
  8
1
  6
CONTINUOUS
 62
     7
 10
21469.6340125613
 20
-910.1560007216
 30
0.0
 11
21469.6340016207
 21
-897.9059996108
 31
0.0
  0
LINE
  5
1DE
  8
1
  6
CONTINUOUS
 62
     7
 10
21569.6340194341
 20
-810.1560007216
 30
0.0
 11
21569.6340270108
 21
-774.6559998284
 31
0.0
  0
LINE
  5
1DF
  8
1
  6
CONTINUOUS
 62
     7
 10
21305.1340016644
 20
-1397.9059695831
 30
0.0
 11
21300.1340016644
 21
-1397.9059695831
 31
0.0
  0
LINE
  5
1E0
  8
1
  6
CONTINUOUS
 62
     7
 10
21319.6340000475
 20
-810.156
 30
0.0
 11
21319.634001623
 21
-772.9059996096
 31
0.0
  0
LINE
  5
1E1
  8
1
  6
CONTINUOUS
 62
     7
 10
21574.6340016643
 20
-1393.4059697963
 30
0.0
 11
21574.6340016643
 21
-1272.9059697937
 31
0.0
  0
LINE
  5
1E2
  8
1
  6
CONTINUOUS
 62
     7
 10
21469.6340016622
 20
-1272.9059697937
 30
0.0
 11
21469.6340016622
 21
-1393.4059697963
 31
0.0
  0
LINE
  5
1E3
  8
1
  6
CONTINUOUS
 62
     7
 10
21587.3840016601
 20
-1272.9059695819
 30
0.0
 11
21306.8840016687
 21
-1272.9059695818
 31
0.0
  0
LINE
  5
1E4
  8
1
  6
CONTINUOUS
 62
     7
 10
21469.6340016663
 20
-893.4059953857
 30
0.0
 11
21469.6340010796
 21
-865.1559998304
 31
0.0
  0
LINE
  5
1E5
  8
1
  6
CONTINUOUS
 62
     7
 10
21519.6340016622
 20
-1272.9059697937
 30
0.0
 11
21519.6340016622
 21
-1393.4059697963
 31
0.0
  0
LINE
  5
1E6
  8
1
  6
CONTINUOUS
 62
     7
 10
21524.6340016643
 20
-1268.4059700069
 30
0.0
 11
21524.6340016643
 21
-1147.9059700043
 31
0.0
  0
LINE
  5
1E7
  8
1
  6
CONTINUOUS
 62
     7
 10
21306.8840016687
 20
-1393.4059697963
 30
0.0
 11
21587.3840016601
 21
-1393.4059697963
 31
0.0
  0
ARC
  5
1E8
  8
1
  6
CONTINUOUS
 62
     7
 10
21306.8840016687
 20
-1395.6559695788
 30
0.0
 40
2.2500000043
 50
218.9424412303
 51
141.0575587698
  0
LINE
  5
1E9
  8
1
  6
CONTINUOUS
 62
     7
 10
21589.1340016644
 20
-1145.4770676388
 30
0.0
 11
21589.1340016644
 21
-1397.9059695831
 31
0.0
  0
LINE
  5
1EA
  8
1
  6
CONTINUOUS
 62
     7
 10
21469.6340016622
 20
-1143.4059953882
 30
0.0
 11
21469.6340016187
 21
-1022.905999612
 31
0.0
  0
LINE
  5
1EB
  8
1
  6
CONTINUOUS
 62
     7
 10
21469.6340054066
 20
-810.1560007216
 30
0.0
 11
21469.6340016228
 21
-772.9059996096
 31
0.0
  0
LINE
  5
1EC
  8
1
  6
CONTINUOUS
 62
     7
 10
21474.6340016684
 20
-772.9059996096
 30
0.0
 11
21474.6340019009
 21
-810.1560007216
 31
0.0
  0
LINE
  5
1ED
  8
1
  6
CONTINUOUS
 62
     7
 10
21474.6340016684
 20
-865.1559998304
 30
0.0
 11
21474.6340016684
 21
-893.4059951287
 31
0.0
  0
LINE
  5
1EE
  8
1
  6
CONTINUOUS
 62
     7
 10
21469.6340016621
 20
-1147.9059700043
 30
0.0
 11
21469.6340016622
 21
-1268.4059700069
 31
0.0
  0
LINE
  5
1EF
  8
1
  6
CONTINUOUS
 62
     7
 10
21319.634000769
 20
-960.1560257615
 30
0.0
 11
21319.6339307686
 21
-915.1559998776
 31
0.0
  0
LINE
  5
1F0
  8
1
  6
CONTINUOUS
 62
     7
 10
21574.6339997234
 20
-1016.6559998308
 30
0.0
 11
21574.6339991397
 21
-978.655998575
 31
0.0
  0
LINE
  5
1F1
  8
1
  6
CONTINUOUS
 62
     7
 10
21369.6340010196
 20
-860.156
 30
0.0
 11
21369.6339144139
 21
-815.1559998776
 31
0.0
  0
LINE
  5
1F2
  8
1
  6
CONTINUOUS
 62
     7
 10
21376.1340016644
 20
-960.1560009434
 30
0.0
 11
21317.6340016686
 21
-960.1560255674
 31
0.0
  0
LINE
  5
1F3
  8
1
  6
CONTINUOUS
 62
     7
 10
21574.6339973193
 20
-860.1560007216
 30
0.0
 11
21574.633996628
 21
-815.1559998283
 31
0.0
  0
LINE
  5
1F4
  8
1
  6
CONTINUOUS
 62
     7
 10
21419.6340016663
 20
-893.4059953857
 30
0.0
 11
21419.6340010796
 21
-865.1559998304
 31
0.0
  0
LINE
  5
1F5
  8
1
  6
CONTINUOUS
 62
     7
 10
21419.6340104856
 20
-860.1560007216
 30
0.0
 11
21419.6340072859
 21
-828.6559892343
 31
0.0
  0
LINE
  5
1F6
  8
1
  6
CONTINUOUS
 62
     7
 10
21419.6340016622
 20
-1272.9059697937
 30
0.0
 11
21419.6340016622
 21
-1393.4059697963
 31
0.0
  0
LINE
  5
1F7
  8
1
  6
CONTINUOUS
 62
     7
 10
21374.6340011797
 20
-865.1559998776
 30
0.0
 11
21374.6340016684
 21
-893.4059951287
 31
0.0
  0
LINE
  5
1F8
  8
1
  6
CONTINUOUS
 62
     7
 10
21574.6340016705
 20
-1143.4059996133
 30
0.0
 11
21574.6339998463
 21
-1024.6559998308
 31
0.0
  0
LINE
  5
1F9
  8
1
  6
CONTINUOUS
 62
     7
 10
21374.6340016663
 20
-897.9059996108
 30
0.0
 11
21374.6340016662
 21
-910.156
 31
0.0
  0
ARC
  5
1FA
  8
1
  6
CONTINUOUS
 62
     7
 10
21587.3840016601
 20
-1145.6559996094
 30
0.0
 40
2.2500000043
 50
38.9424412302
 51
321.0575587698
  0
LINE
  5
1FB
  8
1
  6
CONTINUOUS
 62
     7
 10
21419.6340016642
 20
-1018.4059953869
 30
0.0
 11
21419.6339826763
 21
-965.1559947132
 31
0.0
  0
LINE
  5
1FC
  8
1
  6
CONTINUOUS
 62
     7
 10
21369.6340016662
 20
-893.4059953857
 30
0.0
 11
21369.6339144139
 21
-865.1559998776
 31
0.0
  0
LINE
  5
1FD
  8
1
  6
CONTINUOUS
 62
     7
 10
21369.6340016621
 20
-1143.4059953882
 30
0.0
 11
21369.6340016186
 21
-1022.9059996121
 31
0.0
  0
LINE
  5
1FE
  8
1
  6
CONTINUOUS
 62
     7
 10
21424.6340016655
 20
-965.15599479
 30
0.0
 11
21424.6340016663
 21
-1018.4059951299
 31
0.0
  0
LINE
  5
1FF
  8
1
  6
CONTINUOUS
 62
     7
 10
21569.6340016622
 20
-1147.9059700043
 30
0.0
 11
21569.6340016622
 21
-1268.4059700069
 31
0.0
  0
LINE
  5
200
  8
1
  6
CONTINUOUS
 62
     7
 10
21424.6340016684
 20
-865.1559998304
 30
0.0
 11
21424.6340016684
 21
-893.4059951287
 31
0.0
  0
LINE
  5
201
  8
1
  6
CONTINUOUS
 62
     7
 10
21424.6340016643
 20
-1022.905999612
 30
0.0
 11
21424.6340016643
 21
-1143.4059951312
 31
0.0
  0
LINE
  5
202
  8
1
  6
CONTINUOUS
 62
     7
 10
21369.6340007687
 20
-960.1560257615
 30
0.0
 11
21369.6339307684
 21
-915.1559998776
 31
0.0
  0
LINE
  5
203
  8
1
  6
CONTINUOUS
 62
     7
 10
21419.6340016621
 20
-1147.9059700043
 30
0.0
 11
21419.6340016621
 21
-1268.4059700069
 31
0.0
  0
LINE
  5
204
  8
1
  6
CONTINUOUS
 62
     7
 10
21574.6339978032
 20
-891.6559996126
 30
0.0
 11
21574.6339973961
 21
-865.1559998283
 31
0.0
  0
LINE
  5
205
  8
1
  6
CONTINUOUS
 62
     7
 10
21374.6340019813
 20
-815.1559998776
 30
0.0
 11
21374.6340016647
 21
-860.156
 31
0.0
  0
LINE
  5
206
  8
1
  6
CONTINUOUS
 62
     7
 10
21574.6338292629
 20
-946.655998575
 30
0.0
 11
21574.6339981642
 21
-915.1559998284
 31
0.0
  0
LINE
  5
207
  8
1
  6
CONTINUOUS
 62
     7
 10
21369.6340000472
 20
-810.156
 30
0.0
 11
21369.6340016227
 21
-772.9059996096
 31
0.0
  0
LINE
  5
208
  8
1
  6
CONTINUOUS
 62
     7
 10
21374.6340016643
 20
-1268.4059700069
 30
0.0
 11
21374.6340016642
 21
-1147.9059700043
 31
0.0
  0
LINE
  5
209
  8
1
  6
CONTINUOUS
 62
     7
 10
21569.6340016622
 20
-1272.9059697937
 30
0.0
 11
21569.6340016622
 21
-1393.4059697963
 31
0.0
  0
LINE
  5
20A
  8
1
  6
CONTINUOUS
 62
     7
 10
21317.6340016645
 20
-765.1559998775
 30
0.0
 11
21377.8839969655
 21
-765.1559998775
 31
0.0
  0
LINE
  5
20B
  8
1
  6
CONTINUOUS
 62
     7
 10
21574.6340016643
 20
-1268.4059700069
 30
0.0
 11
21574.6340016643
 21
-1147.9059700043
 31
0.0
  0
LINE
  5
20C
  8
1
  6
CONTINUOUS
 62
     7
 10
21569.6340188414
 20
-1024.6559998308
 30
0.0
 11
21569.6340016249
 21
-1143.4059996133
 31
0.0
  0
LINE
  5
20D
  8
1
  6
CONTINUOUS
 62
     7
 10
21574.6339980874
 20
-910.1560007216
 30
0.0
 11
21574.6339841058
 21
-899.6559996126
 31
0.0
  0
LINE
  5
20E
  8
1
  6
CONTINUOUS
 62
     7
 10
21419.6340010324
 20
-960.1560175961
 30
0.0
 11
21419.6340170268
 21
-915.1559998305
 31
0.0
  0
LINE
  5
20F
  8
1
  6
CONTINUOUS
 62
     7
 10
21424.6340016684
 20
-772.9059996096
 30
0.0
 11
21424.633935218
 21
-796.6559892343
 31
0.0
  0
LINE
  5
210
  8
1
  6
CONTINUOUS
 62
     7
 10
21374.6340014315
 20
-965.1560256391
 30
0.0
 11
21374.6340016663
 21
-1018.4059951299
 31
0.0
  0
LINE
  5
211
  8
1
  6
CONTINUOUS
 62
     7
 10
21424.6340016643
 20
-1393.4059697963
 30
0.0
 11
21424.6340016643
 21
-1272.9059697937
 31
0.0
  0
LINE
  5
212
  8
1
  6
CONTINUOUS
 62
     7
 10
21369.634
 20
-910.156
 30
0.0
 11
21369.6340016207
 21
-897.9059996108
 31
0.0
  0
LINE
  5
213
  8
1
  6
CONTINUOUS
 62
     7
 10
21374.6340016684
 20
-772.9059996096
 30
0.0
 11
21374.6340016683
 21
-810.156
 31
0.0
  0
LINE
  5
214
  8
1
  6
CONTINUOUS
 62
     7
 10
21377.8839972225
 20
-810.1559998754
 30
0.0
 11
21317.6340016645
 21
-810.1559998058
 31
0.0
  0
LINE
  5
215
  8
1
  6
CONTINUOUS
 62
     7
 10
21574.6339728564
 20
-810.1560007216
 30
0.0
 11
21574.6339924587
 21
-774.6559998284
 31
0.0
  0
LINE
  5
216
  8
1
  6
CONTINUOUS
 62
     7
 10
21374.6340016643
 20
-1393.4059697963
 30
0.0
 11
21374.6340016643
 21
-1272.9059697937
 31
0.0
  0
LINE
  5
217
  8
1
  6
CONTINUOUS
 62
     7
 10
21424.6340016663
 20
-897.9059996108
 30
0.0
 11
21424.6340016056
 21
-910.1560007216
 31
0.0
  0
LINE
  5
218
  8
1
  6
CONTINUOUS
 62
     7
 10
21317.6340016645
 20
-760.1559999143
 30
0.0
 11
21317.6340016645
 21
-765.1559998775
 31
0.0
  0
LINE
  5
219
  8
1
  6
CONTINUOUS
 62
     7
 10
21317.6340016645
 20
-810.1559999143
 30
0.0
 11
21317.6340016645
 21
-815.1559998776
 31
0.0
  0
LINE
  5
21A
  8
1
  6
CONTINUOUS
 62
     7
 10
21419.6340125613
 20
-910.1560007216
 30
0.0
 11
21419.6340016207
 21
-897.9059996108
 31
0.0
  0
ARC
  5
21B
  8
1
  6
CONTINUOUS
 62
     7
 10
21375.133913978
 20
-765.6559121419
 30
0.0
 40
74.9999123156
 50
89.99993301240002
 51
180.0000669862
  0
LINE
  5
21C
  8
1
  6
CONTINUOUS
 62
     7
 10
21377.8839972225
 20
-860.1559998754
 30
0.0
 11
21317.6340016645
 21
-860.1559998058
 31
0.0
  0
LINE
  5
21D
  8
1
  6
CONTINUOUS
 62
     7
 10
21317.6340016645
 20
-860.1559999144
 30
0.0
 11
21317.6340016645
 21
-865.1559998776
 31
0.0
  0
LINE
  5
21E
  8
1
  6
CONTINUOUS
 62
     7
 10
21377.8839972225
 20
-910.1559998755
 30
0.0
 11
21317.6340016645
 21
-910.1559998059
 31
0.0
  0
LINE
  5
21F
  8
1
  6
CONTINUOUS
 62
     7
 10
21377.8839972225
 20
-760.1559998754
 30
0.0
 11
21317.6340016645
 21
-760.1559998058
 31
0.0
  0
LINE
  5
220
  8
1
  6
CONTINUOUS
 62
     7
 10
21317.6340016645
 20
-915.1559998776
 30
0.0
 11
21377.8839969655
 21
-915.1559998776
 31
0.0
  0
LINE
  5
221
  8
1
  6
CONTINUOUS
 62
     7
 10
21317.6340016645
 20
-910.1559999144
 30
0.0
 11
21317.6340016645
 21
-915.1559998776
 31
0.0
  0
LINE
  5
222
  8
1
  6
CONTINUOUS
 62
     7
 10
21317.6340016686
 20
-965.1560256391
 30
0.0
 11
21376.1340016644
 21
-965.1560256389
 31
0.0
  0
LINE
  5
223
  8
1
  6
CONTINUOUS
 62
     7
 10
21317.6340016645
 20
-865.1559998776
 30
0.0
 11
21377.8839969655
 21
-865.1559998776
 31
0.0
  0
LINE
  5
224
  8
1
  6
CONTINUOUS
 62
     7
 10
21419.6340016621
 20
-1143.4059953882
 30
0.0
 11
21419.6340016187
 21
-1022.905999612
 31
0.0
  0
LINE
  5
225
  8
1
  6
CONTINUOUS
 62
     7
 10
21419.6340040353
 20
-796.6559892343
 30
0.0
 11
21419.6340016228
 21
-772.9059996096
 31
0.0
  0
LINE
  5
226
  8
1
  6
CONTINUOUS
 62
     7
 10
21374.6340016642
 20
-1022.9059996121
 30
0.0
 11
21374.6340016643
 21
-1143.4059951312
 31
0.0
  0
LINE
  5
227
  8
1
  6
CONTINUOUS
 62
     7
 10
21369.6340016642
 20
-1018.4059953869
 30
0.0
 11
21369.6339307684
 21
-965.1560256391
 31
0.0
  0
LINE
  5
228
  8
1
  6
CONTINUOUS
 62
     7
 10
21374.6340019271
 20
-915.1559998776
 30
0.0
 11
21374.6340016633
 21
-960.1560257615
 31
0.0
  0
LINE
  5
229
  8
1
  6
CONTINUOUS
 62
     7
 10
21369.6340016621
 20
-1272.9059697937
 30
0.0
 11
21369.6340016621
 21
-1393.4059697963
 31
0.0
  0
LINE
  5
22A
  8
1
  6
CONTINUOUS
 62
     7
 10
21424.6340016643
 20
-1268.4059700069
 30
0.0
 11
21424.6340016643
 21
-1147.9059700043
 31
0.0
  0
LINE
  5
22B
  8
1
  6
CONTINUOUS
 62
     7
 10
21369.6340016621
 20
-1147.9059700043
 30
0.0
 11
21369.6340016621
 21
-1268.4059700069
 31
0.0
  0
LINE
  5
22C
  8
1
  6
CONTINUOUS
 62
     7
 10
21424.634001667
 20
-915.1559998305
 30
0.0
 11
21424.6340016663
 21
-960.156016529
 31
0.0
  0
LINE
  5
22D
  8
1
  6
CONTINUOUS
 62
     7
 10
21424.6340000224
 20
-828.6559892343
 30
0.0
 11
21424.6340016688
 21
-860.1560007216
 31
0.0
  0
ARC
  5
22E
  8
1
  6
CONTINUOUS
 62
     7
 10
21375.133913978
 20
-765.6559121419
 30
0.0
 40
69.9999123156
 50
89.99993301240002
 51
180.0000669862
  0
LINE
  5
22F
  8
1
  6
CONTINUOUS
 62
     7
 10
21317.6340016645
 20
-815.1559998776
 30
0.0
 11
21377.8839969655
 21
-815.1559998776
 31
0.0
  0
LINE
  5
230
  8
1
  6
CONTINUOUS
 62
     7
 10
21419.6339937779
 20
-760.155999822
 30
0.0
 11
21419.6339865924
 21
-715.1559998306
 31
0.0
  0
LINE
  5
231
  8
1
  6
CONTINUOUS
 62
     7
 10
21317.6340016686
 20
-960.1560256759
 30
0.0
 11
21317.6340016686
 21
-965.1560256391
 31
0.0
  0
LINE
  5
232
  8
1
  6
CONTINUOUS
 62
     7
 10
21419.6339857941
 20
-710.1559998223
 30
0.0
 11
21419.6339854747
 21
-708.1559998265
 31
0.0
  0
LINE
  5
233
  8
1
  6
CONTINUOUS
 62
     7
 10
21424.6339855464
 20
-708.1559990339
 30
0.0
 11
21424.6339858635
 21
-710.1559998223
 31
0.0
  0
LINE
  5
234
  8
1
  6
CONTINUOUS
 62
     7
 10
21424.6339866561
 20
-715.1559998306
 30
0.0
 11
21424.6339937895
 21
-760.155999822
 31
0.0
  0
LINE
  5
235
  8
1
  6
CONTINUOUS
 62
     7
 10
21419.6339950952
 20
-768.4059953845
 30
0.0
 11
21419.6339945762
 21
-765.1559998304
 31
0.0
  0
LINE
  5
236
  8
1
  6
CONTINUOUS
 62
     7
 10
22229.0425245358
 20
-978.6559892629
 30
0.0
 11
22229.0425224719
 21
-1020.6559998308
 31
0.0
  0
LINE
  5
237
  8
1
  6
CONTINUOUS
 62
     7
 10
22182.0425262823
 20
-1272.9059998284
 30
0.0
 11
22226.7925262341
 21
-1272.905999828
 31
0.0
  0
ARC
  5
238
  8
1
  6
CONTINUOUS
 62
     7
 10
22227.7925265044
 20
-895.655999826
 30
0.0
 40
2.25
 50
56.2510205762
 51
303.7489794334
  0
ARC
  5
239
  8
1
  6
CONTINUOUS
 62
     7
 10
22227.7925265044
 20
-770.6559998248
 30
0.0
 40
2.25
 50
56.2510205762
 51
303.7489794334
  0
LINE
  5
23A
  8
1
  6
CONTINUOUS
 62
     7
 10
22227.4425261082
 20
-956.6559892623
 30
0.0
 11
22237.04516366
 21
-956.6533468288
 31
0.0
  0
LINE
  5
23B
  8
1
  6
CONTINUOUS
 62
     7
 10
22227.4425261082
 20
-960.1059892619
 30
0.0
 11
22225.042526232
 21
-960.1059892619
 31
0.0
  0
LINE
  5
23C
  8
1
  6
CONTINUOUS
 62
     7
 10
22227.4425261082
 20
-965.2059892619
 30
0.0
 11
22225.0424301185
 21
-965.2059892619
 31
0.0
  0
LINE
  5
23D
  8
1
  6
CONTINUOUS
 62
     7
 10
22229.0425262317
 20
-708.1574033565
 30
0.0
 11
22234.0425261644
 21
-708.1594472295
 31
0.0
  0
LINE
  5
23E
  8
1
  6
CONTINUOUS
 62
     7
 10
22227.4425261082
 20
-946.6559892619
 30
0.0
 11
22237.0425212122
 21
-946.6559892619
 31
0.0
  0
LINE
  5
23F
  8
1
  6
CONTINUOUS
 62
     7
 10
22227.4425261082
 20
-958.5059892619
 30
0.0
 11
22225.042526232
 21
-958.5059397409
 31
0.0
  0
ARC
  5
240
  8
1
  6
CONTINUOUS
 62
     7
 10
22227.7925265044
 20
-1020.6559998272
 30
0.0
 40
2.25
 50
56.2510202547
 51
303.7489797482
  0
ARC
  5
241
  8
1
  6
CONTINUOUS
 62
     7
 10
22227.4425261082
 20
-958.5059892619
 30
0.0
 40
1.6
 50
270.0
 51
0.0
  0
ARC
  5
242
  8
1
  6
CONTINUOUS
 62
     7
 10
22227.4425261082
 20
-966.8059892619
 30
0.0
 40
1.6
 50
0.0
 51
90.0
  0
LINE
  5
243
  8
1
  6
CONTINUOUS
 62
     7
 10
22237.042521227
 20
-968.6559892619
 30
0.0
 11
22238.042521227
 21
-969.6559892619
 31
0.0
  0
LINE
  5
244
  8
1
  6
CONTINUOUS
 62
     7
 10
22174.0425262815
 20
-1397.9059998459
 30
0.0
 11
22174.0425263064
 21
-1143.4060033706
 31
0.0
  0
ARC
  5
245
  8
1
  6
CONTINUOUS
 62
     7
 10
22226.7925262341
 20
-1270.655999828
 30
0.0
 40
2.25
 50
270.0
 51
90.00000000019998
  0
LINE
  5
246
  8
1
  6
CONTINUOUS
 62
     7
 10
22238.0425212156
 20
-977.6559892619
 30
0.0
 11
22237.0425212122
 21
-978.6559892619
 31
0.0
  0
LINE
  5
247
  8
1
  6
CONTINUOUS
 62
     7
 10
22238.0425212156
 20
-947.6559892619
 30
0.0
 11
22237.0425212122
 21
-946.6559892619
 31
0.0
  0
LINE
  5
248
  8
1
  6
CONTINUOUS
 62
     7
 10
22227.4425261082
 20
-965.2059892619
 30
0.0
 11
22227.4425261082
 21
-978.6559892619
 31
0.0
  0
CIRCLE
  5
249
  8
1
  6
CONTINUOUS
 62
     7
 10
22226.542526232
 20
-962.6559998284
 30
0.0
 40
2.5
  0
LINE
  5
24A
  8
1
  6
CONTINUOUS
 62
     7
 10
22235.1425236431
 20
-946.6559892619
 30
0.0
 11
22235.142519829
 21
-956.6559892632
 31
0.0
  0
LINE
  5
24B
  8
1
  6
CONTINUOUS
 62
     7
 10
22238.042521227
 20
-955.6559892619
 30
0.0
 11
22238.0425236426
 21
-947.6559916889
 31
0.0
  0
LINE
  5
24C
  8
1
  6
CONTINUOUS
 62
     7
 10
22235.1425236798
 20
-968.6559916455
 30
0.0
 11
22235.1425236981
 21
-978.6559892619
 31
0.0
  0
CIRCLE
  5
24D
  8
1
  6
CONTINUOUS
 62
     7
 10
22226.542526232
 20
-862.6559998262
 30
0.0
 40
2.5
  0
LINE
  5
24E
  8
1
  6
CONTINUOUS
 62
     7
 10
22227.4425261082
 20
-796.6559892596
 30
0.0
 11
22227.4425261082
 21
-810.1059892596
 31
0.0
  0
CIRCLE
  5
24F
  8
1
  6
CONTINUOUS
 62
     7
 10
22226.542526232
 20
-762.6559998262
 30
0.0
 40
2.5
  0
LINE
  5
250
  8
1
  6
CONTINUOUS
 62
     7
 10
22182.0425261067
 20
-1143.405972816
 30
0.0
 11
22182.0425262877
 21
-1397.9059998459
 31
0.0
  0
LINE
  5
251
  8
1
  6
CONTINUOUS
 62
     7
 10
22234.0425262097
 20
-956.6541730882
 30
0.0
 11
22234.0425263856
 21
-968.6578054362
 31
0.0
  0
LINE
  5
252
  8
1
  6
CONTINUOUS
 62
     7
 10
22229.0425256169
 20
-956.6555489778
 30
0.0
 11
22229.0425250271
 21
-968.6564295459
 31
0.0
  0
LINE
  5
253
  8
1
  6
CONTINUOUS
 62
     7
 10
22234.0425265321
 20
-978.6559892629
 30
0.0
 11
22234.0425326751
 21
-1397.9059998459
 31
0.0
  0
LINE
  5
254
  8
1
  6
CONTINUOUS
 62
     7
 10
22229.0425261618
 20
-708.1574033564
 30
0.0
 11
22229.0425319046
 21
-946.6559892613
 31
0.0
  0
LINE
  5
255
  8
1
  6
CONTINUOUS
 62
     7
 10
22182.0425262687
 20
-1147.9060024386
 30
0.0
 11
22226.792525745
 21
-1147.90599983
 31
0.0
  0
ARC
  5
256
  8
1
  6
CONTINUOUS
 62
     7
 10
22226.7925256146
 20
-1145.65599983
 30
0.0
 40
2.25
 50
270.0000033213
 51
90.00000329039999
  0
LINE
  5
257
  8
1
  6
CONTINUOUS
 62
     7
 10
22226.7925254854
 20
-1143.40599983
 30
0.0
 11
22182.042527613
 21
-1143.4060024142
 31
0.0
  0
LINE
  5
258
  8
1
  6
CONTINUOUS
 62
     7
 10
22227.4425261082
 20
-946.6559892619
 30
0.0
 11
22227.4425261082
 21
-960.1059892619
 31
0.0
  0
LINE
  5
259
  8
1
  6
CONTINUOUS
 62
     7
 10
22227.4425261082
 20
-966.8059892619
 30
0.0
 11
22224.9373909022
 21
-966.8059892619
 31
0.0
  0
LINE
  5
25A
  8
1
  6
CONTINUOUS
 62
     7
 10
22174.0425262822
 20
-1397.9059998284
 30
0.0
 11
22226.7925262341
 21
-1397.905999828
 31
0.0
  0
CIRCLE
  5
25B
  8
1
  6
CONTINUOUS
 62
     7
 10
22226.542526232
 20
-812.6559998262
 30
0.0
 40
2.5
  0
LINE
  5
25C
  8
1
  6
CONTINUOUS
 62
     7
 10
22238.042521227
 20
-969.6559892619
 30
0.0
 11
22238.0425236426
 21
-977.6559868348
 31
0.0
  0
LINE
  5
25D
  8
1
  6
CONTINUOUS
 62
     7
 10
22237.042521227
 20
-956.6559892619
 30
0.0
 11
22238.042521227
 21
-955.6559892619
 31
0.0
  0
CIRCLE
  5
25E
  8
1
  6
CONTINUOUS
 62
     7
 10
22226.542526232
 20
-912.6559998263
 30
0.0
 40
2.5
  0
CIRCLE
  5
25F
  8
1
  6
CONTINUOUS
 62
     7
 10
22226.542526232
 20
-712.6559998265
 30
0.0
 40
2.5
  0
LINE
  5
260
  8
1
  6
CONTINUOUS
 62
     7
 10
22227.4425261082
 20
-978.6559892619
 30
0.0
 11
22237.0425212122
 21
-978.6559892619
 31
0.0
  0
LINE
  5
261
  8
1
  6
CONTINUOUS
 62
     7
 10
22227.4425261082
 20
-968.6559892614
 30
0.0
 11
22237.045163661
 21
-968.6586316959
 31
0.0
  0
LINE
  5
262
  8
1
  6
CONTINUOUS
 62
     7
 10
22234.0425225685
 20
-708.1594472281
 30
0.0
 11
22234.0425260632
 21
-946.6559892613
 31
0.0
  0
LINE
  5
263
  8
1
  6
CONTINUOUS
 62
     7
 10
22229.0425231411
 20
-1020.6559998308
 30
0.0
 11
22229.0425262364
 21
-1397.9059998459
 31
0.0
  0
LINE
  5
264
  8
1
  6
CONTINUOUS
 62
     7
 10
22226.7925262341
 20
-1393.4059998278
 30
0.0
 11
22182.0425262823
 21
-1393.4059998282
 31
0.0
  0
LINE
  5
265
  8
1
  6
CONTINUOUS
 62
     7
 10
22226.792526234
 20
-1268.405999828
 30
0.0
 11
22182.0425262824
 21
-1268.4059998284
 31
0.0
  0
ARC
  5
266
  8
1
  6
CONTINUOUS
 62
     7
 10
22177.7637760002
 20
-1021.3722670107
 30
0.0
 40
2.8304039762
 50
272.146792187
 51
291.5131472605
  0
LINE
  5
267
  8
1
  6
CONTINUOUS
 62
     7
 10
22235.1425236798
 20
-818.6559916433
 30
0.0
 11
22235.1425236981
 21
-828.6559892596
 31
0.0
  0
LINE
  5
268
  8
1
  6
CONTINUOUS
 62
     7
 10
22234.0425295999
 20
-806.6559900447
 30
0.0
 11
22237.0425200852
 21
-806.6559904014
 31
0.0
  0
LINE
  5
269
  8
1
  6
CONTINUOUS
 62
     7
 10
22227.4425261082
 20
-816.8059892596
 30
0.0
 11
22224.9373909022
 21
-816.8059892596
 31
0.0
  0
ARC
  5
26A
  8
1
  6
CONTINUOUS
 62
     7
 10
22227.4425261082
 20
-816.8059892596
 30
0.0
 40
1.6
 50
0.0
 51
90.0
  0
LINE
  5
26B
  8
1
  6
CONTINUOUS
 62
     7
 10
22237.042521227
 20
-806.6559892596
 30
0.0
 11
22238.042521227
 21
-805.6559892596
 31
0.0
  0
ARC
  5
26C
  8
1
  6
CONTINUOUS
 62
     7
 10
22175.0956498602
 20
-1044.6571949355
 30
0.0
 40
1.1717696076
 50
126.8633662415
 51
146.2746895109
  0
ARC
  5
26D
  8
1
  6
CONTINUOUS
 62
     7
 10
22174.7238645039
 20
-1024.8127133969
 30
0.0
 40
1.5948290101
 50
236.8215853071
 51
252.6156387563
  0
ARC
  5
26E
  8
1
  6
CONTINUOUS
 62
     7
 10
22178.3479299513
 20
-1022.4005853091
 30
0.0
 40
1.6360312043
 50
307.1382641296
 51
326.5475114557
  0
ARC
  5
26F
  8
1
  6
CONTINUOUS
 62
     7
 10
22170.7665390903
 20
-1051.3755430492
 30
0.0
 40
1.2464999654
 50
218.1228461996
 51
237.5320935225
  0
LINE
  5
270
  8
1
  6
CONTINUOUS
 62
     7
 10
22169.5962274009
 20
-1051.6376184512
 30
0.0
 11
22168.5004639621
 21
-1016.2992504298
 31
0.0
  0
ARC
  5
271
  8
1
  6
CONTINUOUS
 62
     7
 10
22178.786535745
 20
-1022.6701170917
 30
0.0
 40
1.1216325897
 50
325.6843190431
 51
1.166940210000007
  0
ARC
  5
272
  8
1
  6
CONTINUOUS
 62
     7
 10
22175.0820818989
 20
-1044.2482309184
 30
0.0
 40
1.1717696078
 50
217.5256541057
 51
236.936977375
  0
LINE
  5
273
  8
1
  6
CONTINUOUS
 62
     7
 10
22238.042521227
 20
-819.6559892596
 30
0.0
 11
22238.0425236426
 21
-827.6559868326
 31
0.0
  0
LINE
  5
274
  8
1
  6
CONTINUOUS
 62
     7
 10
22227.4425261082
 20
-815.2059892596
 30
0.0
 11
22227.4425261082
 21
-828.6559892596
 31
0.0
  0
LINE
  5
275
  8
1
  6
CONTINUOUS
 62
     7
 10
22227.4425261082
 20
-815.2059892596
 30
0.0
 11
22225.0424301185
 21
-815.2059892596
 31
0.0
  0
ARC
  5
276
  8
1
  6
CONTINUOUS
 62
     7
 10
22171.1428304856
 20
-1050.5851979445
 30
0.0
 40
2.1298621446
 50
253.0388298253
 51
272.4051848999999
  0
LINE
  5
277
  8
1
  6
CONTINUOUS
 62
     7
 10
22227.4425261082
 20
-818.6559892592
 30
0.0
 11
22229.0425288225
 21
-818.6586435459
 31
0.0
  0
ARC
  5
278
  8
1
  6
CONTINUOUS
 62
     7
 10
22174.9108096269
 20
-1026.2996099176
 30
0.0
 40
2.0115447735
 50
91.71294420910002
 51
111.1821449023
  0
ARC
  5
279
  8
1
  6
CONTINUOUS
 62
     7
 10
22174.8081581575
 20
-1044.4717128959
 30
0.0
 40
0.8296956155
 50
145.9051150264
 51
181.2315689284
  0
ARC
  5
27A
  8
1
  6
CONTINUOUS
 62
     7
 10
22174.7603024896
 20
-1025.9110232018
 30
0.0
 40
1.5948290099
 50
111.1847048598
 51
126.9787583113
  0
ARC
  5
27B
  8
1
  6
CONTINUOUS
 62
     7
 10
22178.8517261825
 20
-1050.1977504327
 30
0.0
 40
2.2373535894
 50
291.5148991840999
 51
307.2570435613001
  0
LINE
  5
27C
  8
1
  6
CONTINUOUS
 62
     7
 10
22174.8532440874
 20
-1024.2969387434
 30
0.0
 11
22177.8577721173
 21
-1024.2011505382
 31
0.0
  0
LINE
  5
27D
  8
1
  6
CONTINUOUS
 62
     7
 10
22238.042521227
 20
-805.6559892596
 30
0.0
 11
22238.0425236426
 21
-797.6559916867
 31
0.0
  0
ARC
  5
27E
  8
1
  6
CONTINUOUS
 62
     7
 10
22175.4390604728
 20
-1043.5045064335
 30
0.0
 40
2.0047927418
 50
252.585850295
 51
272.0550509886
  0
LINE
  5
27F
  8
1
  6
CONTINUOUS
 62
     7
 10
22185.4136537775
 20
-1026.0826574848
 30
0.0
 11
22188.4778749793
 21
-1028.1073643262
 31
0.0
  0
LINE
  5
280
  8
1
  6
CONTINUOUS
 62
     7
 10
22234.0425295999
 20
-818.6559884746
 30
0.0
 11
22237.0425200852
 21
-818.6559881179
 31
0.0
  0
LINE
  5
281
  8
1
  6
CONTINUOUS
 62
     7
 10
22227.4425261082
 20
-808.5059892596
 30
0.0
 11
22225.042526232
 21
-808.5059397387
 31
0.0
  0
LINE
  5
282
  8
1
  6
CONTINUOUS
 62
     7
 10
22238.0425212156
 20
-827.6559892596
 30
0.0
 11
22237.0425212122
 21
-828.6559892596
 31
0.0
  0
ARC
  5
283
  8
1
  6
CONTINUOUS
 62
     7
 10
22175.3155767628
 20
-1043.8954321285
 30
0.0
 40
1.59482901
 50
236.8215853071
 51
252.6156387566
  0
LINE
  5
284
  8
1
  6
CONTINUOUS
 62
     7
 10
22234.0425295999
 20
-796.6559892596
 30
0.0
 11
22237.0425212122
 21
-796.6559892596
 31
0.0
  0
LINE
  5
285
  8
1
  6
CONTINUOUS
 62
     7
 10
22227.4425261082
 20
-810.1059892596
 30
0.0
 11
22225.042526232
 21
-810.1059892596
 31
0.0
  0
LINE
  5
286
  8
1
  6
CONTINUOUS
 62
     7
 10
22235.1425236431
 20
-796.6559892596
 30
0.0
 11
22235.142519829
 21
-806.655989261
 31
0.0
  0
ARC
  5
287
  8
1
  6
CONTINUOUS
 62
     7
 10
22174.49036964
 20
-1025.1655121873
 30
0.0
 40
1.1717696076
 50
217.5256540953999
 51
236.936977365
  0
LINE
  5
288
  8
1
  6
CONTINUOUS
 62
     7
 10
22227.4425261082
 20
-828.6559892596
 30
0.0
 11
22229.0425290632
 21
-828.6559892596
 31
0.0
  0
ARC
  5
289
  8
1
  6
CONTINUOUS
 62
     7
 10
22179.2184634757
 20
-1050.6743090328
 30
0.0
 40
1.6360312047
 50
307.1382641232
 51
326.5475114467001
  0
LINE
  5
28A
  8
1
  6
CONTINUOUS
 62
     7
 10
22185.4136537775
 20
-1026.0826574848
 30
0.0
 11
22174.9189898939
 21
-1026.4172408246
 31
0.0
  0
LINE
  5
28B
  8
1
  6
CONTINUOUS
 62
     7
 10
22175.5107021528
 20
-1045.4999595561
 30
0.0
 11
22178.672345034
 21
-1045.3991623275
 31
0.0
  0
ARC
  5
28C
  8
1
  6
CONTINUOUS
 62
     7
 10
22175.5025218858
 20
-1045.3823286488
 30
0.0
 40
2.0115447732
 50
91.71294421069999
 51
111.182144904
  0
LINE
  5
28D
  8
1
  6
CONTINUOUS
 62
     7
 10
22188.8723498185
 20
-1040.8291768138
 30
0.0
 11
22185.9396202298
 21
-1043.0450741351
 31
0.0
  0
LINE
  5
28E
  8
1
  6
CONTINUOUS
 62
     7
 10
22227.4425261082
 20
-796.6559892596
 30
0.0
 11
22229.0425282927
 21
-796.6559892596
 31
0.0
  0
ARC
  5
28F
  8
1
  6
CONTINUOUS
 62
     7
 10
22171.0154661919
 20
-1050.9909052861
 30
0.0
 40
1.7046503542
 50
237.4133141036
 51
253.1554584789
  0
ARC
  5
290
  8
1
  6
CONTINUOUS
 62
     7
 10
22177.981192658
 20
-1021.9240267084
 30
0.0
 40
2.2373535895
 50
291.5148991843
 51
307.2570435607
  0
ARC
  5
291
  8
1
  6
CONTINUOUS
 62
     7
 10
22174.6878000619
 20
-1023.6819083661
 30
0.0
 40
1.5948290101
 50
236.8215853071
 51
252.6156387563
  0
ARC
  5
292
  8
1
  6
CONTINUOUS
 62
     7
 10
22174.8112837719
 20
-1023.2909826712
 30
0.0
 40
2.0047927418
 50
252.5858502952
 51
272.0550509886
  0
LINE
  5
293
  8
1
  6
CONTINUOUS
 62
     7
 10
22227.4425261082
 20
-806.6559892601
 30
0.0
 11
22229.0425285334
 21
-806.6533349742
 31
0.0
  0
ARC
  5
294
  8
1
  6
CONTINUOUS
 62
     7
 10
22174.4359702373
 20
-1024.0543594299
 30
0.0
 40
1.1453061815
 50
222.8361398915
 51
237.1693255966001
  0
ARC
  5
295
  8
1
  6
CONTINUOUS
 62
     7
 10
22227.4425261082
 20
-808.5059892596
 30
0.0
 40
1.6
 50
270.0
 51
0.0
  0
ARC
  5
296
  8
1
  6
CONTINUOUS
 62
     7
 10
22174.2158038393
 20
-1025.3696412815
 30
0.0
 40
0.8296956155
 50
182.568774691
 51
217.8952285943
  0
LINE
  5
297
  8
1
  6
CONTINUOUS
 62
     7
 10
22185.3775893354
 20
-1024.951852454
 30
0.0
 11
22174.8829254519
 21
-1025.2864357939
 31
0.0
  0
ARC
  5
298
  8
1
  6
CONTINUOUS
 62
     7
 10
22170.4720321303
 20
-1051.5992268647
 30
0.0
 40
0.8767429647
 50
183.0221490256
 51
218.5047701900999
  0
LINE
  5
299
  8
1
  6
CONTINUOUS
 62
     7
 10
22237.042521227
 20
-818.6559892596
 30
0.0
 11
22238.042521227
 21
-819.6559892596
 31
0.0
  0
LINE
  5
29A
  8
1
  6
CONTINUOUS
 62
     7
 10
22234.0425295999
 20
-828.6559892596
 30
0.0
 11
22237.0425212122
 21
-828.6559892596
 31
0.0
  0
LINE
  5
29B
  8
1
  6
CONTINUOUS
 62
     7
 10
22171.2321417483
 20
-1052.7110260203
 30
0.0
 11
22178.8442162699
 21
-1052.4683433251
 31
0.0
  0
ARC
  5
29C
  8
1
  6
CONTINUOUS
 62
     7
 10
22178.6343095247
 20
-1049.6459907348
 30
0.0
 40
2.8304039763
 50
272.1467921871
 51
291.5131472603
  0
ARC
  5
29D
  8
1
  6
CONTINUOUS
 62
     7
 10
22174.5039376013
 20
-1025.574476204
 30
0.0
 40
1.1717696076
 50
126.8633662412
 51
146.2746895109
  0
ARC
  5
29E
  8
1
  6
CONTINUOUS
 62
     7
 10
22174.8075160981
 20
-1044.4523600132
 30
0.0
 40
0.8296956154
 50
182.56877468
 51
217.8952285834
  0
ARC
  5
29F
  8
1
  6
CONTINUOUS
 62
     7
 10
22174.847348214
 20
-1024.4217877017
 30
0.0
 40
2.0047927422
 50
252.5858502964
 51
272.0550509895
  0
LINE
  5
2A0
  8
1
  6
CONTINUOUS
 62
     7
 10
22188.4778749793
 20
-1028.1073643262
 30
0.0
 11
22188.8723498185
 21
-1040.8291768138
 31
0.0
  0
LINE
  5
2A1
  8
1
  6
CONTINUOUS
 62
     7
 10
22185.9396202298
 20
-1043.0450741351
 30
0.0
 11
22175.4449563462
 21
-1043.3796574749
 31
0.0
  0
ARC
  5
2A2
  8
1
  6
CONTINUOUS
 62
     7
 10
22179.6570692696
 20
-1050.9438408159
 30
0.0
 40
1.1216325897
 50
325.6843190431
 51
1.166940210000007
  0
LINE
  5
2A3
  8
1
  6
CONTINUOUS
 62
     7
 10
22238.0425212156
 20
-797.6559892596
 30
0.0
 11
22237.0425212122
 21
-796.6559892596
 31
0.0
  0
ARC
  5
2A4
  8
1
  6
CONTINUOUS
 62
     7
 10
22174.2164458986
 20
-1025.3889941644
 30
0.0
 40
0.8296956154
 50
145.9051150251
 51
181.2315689287
  0
ARC
  5
2A5
  8
1
  6
CONTINUOUS
 62
     7
 10
22175.3520147485
 20
-1044.9937419333
 30
0.0
 40
1.5948290099
 50
111.18470486
 51
126.9787583113
  0
LINE
  5
2A6
  8
1
  6
CONTINUOUS
 62
     7
 10
22170.0830480737
 20
-1016.2424125595
 30
0.0
 11
22169.8881465898
 21
-1010.1290613364
 31
0.0
  0
ARC
  5
2A7
  8
1
  6
CONTINUOUS
 62
     7
 10
22169.6707756479
 20
-1016.037175028
 30
0.0
 40
1.2464999652
 50
218.1228461983
 51
237.5320935238
  0
ARC
  5
2A8
  8
1
  6
CONTINUOUS
 62
     7
 10
22177.6249087375
 20
-1015.461408023
 30
0.0
 40
0.5327032354
 50
291.5148991795
 51
307.2570435596
  0
ARC
  5
2A9
  8
1
  6
CONTINUOUS
 62
     7
 10
22177.7559627402
 20
-1014.8593824113
 30
0.0
 40
2.2373535895
 50
291.5148991843
 51
307.2570435607
  0
LINE
  5
2AA
  8
1
  6
CONTINUOUS
 62
     7
 10
22179.5382072854
 20
-1011.1655741422
 30
0.0
 11
22181.935155263
 21
-1011.0891563675
 31
0.0
  0
ARC
  5
2AB
  8
1
  6
CONTINUOUS
 62
     7
 10
22179.4859340652
 20
-1010.1705109218
 30
0.0
 40
2.1298621447
 50
253.0388298255
 51
272.4051848999
  0
LINE
  5
2AC
  8
1
  6
CONTINUOUS
 62
     7
 10
22180.5561284643
 20
-1043.8562636067
 30
0.0
 11
22180.7775679426
 21
-1050.9976861751
 31
0.0
  0
LINE
  5
2AD
  8
1
  6
CONTINUOUS
 62
     7
 10
22179.8377886043
 20
-1020.4945743003
 30
0.0
 11
22182.232577961
 21
-1020.4182259153
 31
0.0
  0
LINE
  5
2AE
  8
1
  6
CONTINUOUS
 62
     7
 10
22175.4746377107
 20
-1044.3691545254
 30
0.0
 11
22178.5330167118
 21
-1044.2716494817
 31
0.0
  0
ARC
  5
2AF
  8
1
  6
CONTINUOUS
 62
     7
 10
22178.8676346374
 20
-1013.4606796487
 30
0.0
 40
0.8545772112
 50
145.684319046
 51
181.166940215
  0
ARC
  5
2B0
  8
1
  6
CONTINUOUS
 62
     7
 10
22179.6468801574
 20
-1014.4495178059
 30
0.0
 40
2.1564982679
 50
92.1467921839
 51
111.5131472574
  0
ARC
  5
2B1
  8
1
  6
CONTINUOUS
 62
     7
 10
22177.5385460824
 20
-1014.3076227136
 30
0.0
 40
2.8304039762
 50
272.146792187
 51
291.5131472605
  0
ARC
  5
2B2
  8
1
  6
CONTINUOUS
 62
     7
 10
22179.4319567112
 20
-1043.879192208
 30
0.0
 40
1.1216325899
 50
325.6843190457
 51
1.166940212200018
  0
ARC
  5
2B3
  8
1
  6
CONTINUOUS
 62
     7
 10
22179.1096426699
 20
-1010.9608560262
 30
0.0
 40
1.2464999655
 50
218.1228462079
 51
237.532093533
  0
LINE
  5
2B4
  8
1
  6
CONTINUOUS
 62
     7
 10
22179.6854775803
 20
-1015.5825441933
 30
0.0
 11
22179.9069170586
 21
-1022.7239667617
 31
0.0
  0
ARC
  5
2B5
  8
1
  6
CONTINUOUS
 62
     7
 10
22179.3585697719
 20
-1010.5762182639
 30
0.0
 40
1.7046503539
 50
237.4133140865
 51
253.1554584634
  0
LINE
  5
2B6
  8
1
  6
CONTINUOUS
 62
     7
 10
22182.2325905848
 20
-1020.418216377
 30
0.0
 11
22183.2101671143
 21
-1019.6795839366
 31
0.0
  0
ARC
  5
2B7
  8
1
  6
CONTINUOUS
 62
     7
 10
22170.0470670433
 20
-1015.2468299232
 30
0.0
 40
2.1298621447
 50
253.0388298255
 51
272.4051848999
  0
LINE
  5
2B8
  8
1
  6
CONTINUOUS
 62
     7
 10
22188.4778749793
 20
-1028.1073643262
 30
0.0
 11
22188.1734742448
 21
-1018.5628417412
 31
0.0
  0
LINE
  5
2B9
  8
1
  6
CONTINUOUS
 62
     7
 10
22181.935155263
 20
-1011.0891563675
 30
0.0
 11
22182.957795838
 21
-1011.7640193222
 31
0.0
  0
LINE
  5
2BA
  8
1
  6
CONTINUOUS
 62
     7
 10
22177.8826547756
 20
-1009.8293104049
 30
0.0
 11
22178.0704800507
 21
-1015.7207069479
 31
0.0
  0
ARC
  5
2BB
  8
1
  6
CONTINUOUS
 62
     7
 10
22175.2795123207
 20
-1042.7646270976
 30
0.0
 40
1.5948290101
 50
236.8215853071
 51
252.6156387563
  0
LINE
  5
2BC
  8
1
  6
CONTINUOUS
 62
     7
 10
22182.0072709414
 20
-1013.3507577143
 30
0.0
 11
22183.0299115164
 21
-1014.025620669
 31
0.0
  0
ARC
  5
2BD
  8
1
  6
CONTINUOUS
 62
     7
 10
22177.8166570913
 20
-1015.6390485903
 30
0.0
 40
0.2670553786
 50
325.6843190409
 51
1.166940204100001
  0
ARC
  5
2BE
  8
1
  6
CONTINUOUS
 62
     7
 10
22178.4437937503
 20
-1043.6037560794
 30
0.0
 40
0.673905709
 50
272.1467921875999
 51
291.5131472592
  0
LINE
  5
2BF
  8
1
  6
CONTINUOUS
 62
     7
 10
22180.7084394883
 20
-1048.7682937138
 30
0.0
 11
22183.103228845
 21
-1048.6919453287
 31
0.0
  0
ARC
  5
2C0
  8
1
  6
CONTINUOUS
 62
     7
 10
22175.4029960307
 20
-1042.3737014027
 30
0.0
 40
2.0047927419
 50
252.5858502953
 51
272.0550509886
  0
ARC
  5
2C1
  8
1
  6
CONTINUOUS
 62
     7
 10
22169.9197027495
 20
-1015.6525372649
 30
0.0
 40
1.704650354
 50
237.4133141029
 51
253.1554584797
  0
LINE
  5
2C2
  8
1
  6
CONTINUOUS
 62
     7
 10
22179.5752453279
 20
-1012.2963389976
 30
0.0
 11
22182.9735174426
 21
-1012.1879977256
 31
0.0
  0
LINE
  5
2C3
  8
1
  6
CONTINUOUS
 62
     7
 10
22185.4136537775
 20
-1026.0826574848
 30
0.0
 11
22185.3775893354
 21
-1024.951852454
 31
0.0
  0
ARC
  5
2C4
  8
1
  6
CONTINUOUS
 62
     7
 10
22179.4812293705
 20
-1014.0291294644
 30
0.0
 40
1.7046503539
 50
111.514899185
 51
127.257043562
  0
LINE
  5
2C5
  8
1
  6
CONTINUOUS
 62
     7
 10
22179.4676035168
 20
-1009.0100536365
 30
0.0
 11
22179.5382072854
 21
-1011.1655741422
 31
0.0
  0
ARC
  5
2C6
  8
1
  6
CONTINUOUS
 62
     7
 10
22177.7122271404
 20
-1015.5748743562
 30
0.0
 40
0.3895312393
 50
307.1382641244001
 51
326.5475114378999
  0
LINE
  5
2C7
  8
1
  6
CONTINUOUS
 62
     7
 10
22170.0993402635
 20
-1016.2418931436
 30
0.0
 11
22177.5955287507
 21
-1016.0029050438
 31
0.0
  0
ARC
  5
2C8
  8
1
  6
CONTINUOUS
 62
     7
 10
22178.6266136245
 20
-1043.1331018248
 30
0.0
 40
2.2373535893
 50
291.5148991762001
 51
307.2570435525
  0
LINE
  5
2C9
  8
1
  6
CONTINUOUS
 62
     7
 10
22182.0072577357
 20
-1013.3507489996
 30
0.0
 11
22181.935155263
 21
-1011.0891563675
 31
0.0
  0
LINE
  5
2CA
  8
1
  6
CONTINUOUS
 62
     7
 10
22183.2101671143
 20
-1019.6795839366
 30
0.0
 11
22182.957795838
 21
-1011.7640193222
 31
0.0
  0
ARC
  5
2CB
  8
1
  6
CONTINUOUS
 62
     7
 10
22178.4955596214
 20
-1043.7351274363
 30
0.0
 40
0.5327032356
 50
291.5148991824
 51
307.2570435565
  0
LINE
  5
2CC
  8
1
  6
CONTINUOUS
 62
     7
 10
22168.2617209871
 20
-1009.013578515
 30
0.0
 11
22168.500153386
 21
-1016.2928772716
 31
0.0
  0
LINE
  5
2CD
  8
1
  6
CONTINUOUS
 62
     7
 10
22170.136378306
 20
-1017.372657999
 30
0.0
 11
22177.7484528277
 21
-1017.1299753038
 31
0.0
  0
ARC
  5
2CE
  8
1
  6
CONTINUOUS
 62
     7
 10
22169.376268688
 20
-1016.2608588435
 30
0.0
 40
0.8767429645
 50
183.0221490138
 51
218.5047701815
  0
LINE
  5
2CF
  8
1
  6
CONTINUOUS
 62
     7
 10
22178.0837002616
 20
-1015.6336084865
 30
0.0
 11
22178.013096493
 21
-1013.4780879809
 31
0.0
  0
LINE
  5
2D0
  8
1
  6
CONTINUOUS
 62
     7
 10
22180.5535380231
 20
-1043.8563437721
 30
0.0
 11
22180.5326113614
 21
-1043.2174565101
 31
0.0
  0
ARC
  5
2D1
  8
1
  6
CONTINUOUS
 62
     7
 10
22178.9933509175
 20
-1043.6096604251
 30
0.0
 40
1.6360312046
 50
307.1382641228
 51
326.5475114476
  0
LINE
  5
2D2
  8
1
  6
CONTINUOUS
 62
     7
 10
22179.6122833705
 20
-1013.427103853
 30
0.0
 11
22182.0072577357
 21
-1013.3507489996
 31
0.0
  0
ARC
  5
2D3
  8
1
  6
CONTINUOUS
 62
     7
 10
22169.6872108359
 20
-1008.9691370727
 30
0.0
 40
1.1479581448
 50
82.7460884705
 51
119.1140744085
  0
ARC
  5
2D4
  8
1
  6
CONTINUOUS
 62
     7
 10
22169.7255590273
 20
-1009.5629539902
 30
0.0
 40
1.704650354
 50
110.4966303303
 51
126.2387747068
  0
ARC
  5
2D5
  8
1
  6
CONTINUOUS
 62
     7
 10
22169.4526368517
 20
-1009.1949534513
 30
0.0
 40
1.2464999653
 50
126.1199952833
 51
145.529242608
  0
ARC
  5
2D6
  8
1
  6
CONTINUOUS
 62
     7
 10
22169.1444797955
 20
-1008.9904833374
 30
0.0
 40
0.8767429646
 50
145.1473186205
 51
180.6299397855
  0
ARC
  5
2D7
  8
1
  6
CONTINUOUS
 62
     7
 10
22179.2018104804
 20
-1013.6660371976
 30
0.0
 40
1.2464999654
 50
127.1382641239
 51
146.5475114492
  0
LINE
  5
2D8
  8
1
  6
CONTINUOUS
 62
     7
 10
22184.0808179983
 20
-1047.95330335
 30
0.0
 11
22183.9263757409
 21
-1043.1092589505
 31
0.0
  0
ARC
  5
2D9
  8
1
  6
CONTINUOUS
 62
     7
 10
22177.5731428663
 20
-1015.3300366659
 30
0.0
 40
0.673905709
 50
272.1467921886
 51
291.5131472588
  0
ARC
  5
2DA
  8
1
  6
CONTINUOUS
 62
     7
 10
22178.8151357099
 20
-1011.184539842
 30
0.0
 40
0.8767429645
 50
183.0221490138
 51
218.5047701815
  0
LINE
  5
2DB
  8
1
  6
CONTINUOUS
 62
     7
 10
22185.3775893354
 20
-1024.951852454
 30
0.0
 11
22188.4418105372
 21
-1026.9765592954
 31
0.0
  0
LINE
  5
2DC
  8
1
  6
CONTINUOUS
 62
     7
 10
22177.8935035449
 20
-1009.8269365335
 30
0.0
 11
22177.9390204079
 21
-1011.2165582701
 31
0.0
  0
LINE
  5
2DD
  8
1
  6
CONTINUOUS
 62
     7
 10
22178.9543511456
 20
-1043.9073278999
 30
0.0
 11
22178.9334244839
 21
-1043.2684406381
 31
0.0
  0
ARC
  5
2DE
  8
1
  6
CONTINUOUS
 62
     7
 10
22175.0276824961
 20
-1043.1370781613
 30
0.0
 40
1.1453061816
 50
222.8361398916
 51
237.1693255966001
  0
LINE
  5
2DF
  8
1
  6
CONTINUOUS
 62
     7
 10
22179.6828871391
 20
-1015.5826243587
 30
0.0
 11
22179.6122833705
 21
-1013.427103853
 31
0.0
  0
ARC
  5
2E0
  8
1
  6
CONTINUOUS
 62
     7
 10
22178.6873079753
 20
-1043.9127680037
 30
0.0
 40
0.2670553786
 50
325.6843190449
 51
1.166940203000024
  0
ARC
  5
2E1
  8
1
  6
CONTINUOUS
 62
     7
 10
22178.1227000335
 20
-1015.3359410116
 30
0.0
 40
1.6360312046
 50
307.1382641228
 51
326.5475114476
  0
ARC
  5
2E2
  8
1
  6
CONTINUOUS
 62
     7
 10
22178.4091969661
 20
-1042.581342127
 30
0.0
 40
2.8304039763
 50
272.1467921929
 51
291.5131472664
  0
LINE
  5
2E3
  8
1
  6
CONTINUOUS
 62
     7
 10
22183.1032414688
 20
-1048.6919357905
 30
0.0
 11
22184.0808179983
 21
-1047.95330335
 31
0.0
  0
ARC
  5
2E4
  8
1
  6
CONTINUOUS
 62
     7
 10
22178.5828780244
 20
-1043.8485937699
 30
0.0
 40
0.3895312392
 50
307.1382641457
 51
326.5475114765
  0
ARC
  5
2E5
  8
1
  6
CONTINUOUS
 62
     7
 10
22178.5613058273
 20
-1015.6054727945
 30
0.0
 40
1.1216325897
 50
325.6843190435
 51
1.166940209100005
  0
LINE
  5
2E6
  8
1
  6
CONTINUOUS
 62
     7
 10
22185.1093645086
 20
-1016.5382085516
 30
0.0
 11
22188.1735857104
 21
-1018.5629153929
 31
0.0
  0
ARC
  5
2E7
  8
1
  6
CONTINUOUS
 62
     7
 10
22178.3202218015
 20
-1009.0714054593
 30
0.0
 40
1.1545566124
 50
3.007131214300001
 51
37.4457871501
  0
LINE
  5
2E8
  8
1
  6
CONTINUOUS
 62
     7
 10
22185.0733000665
 20
-1015.4074035208
 30
0.0
 11
22183.0759877524
 21
-1015.4710803981
 31
0.0
  0
LINE
  5
2E9
  8
1
  6
CONTINUOUS
 62
     7
 10
22178.8825583685
 20
-1034.7804608368
 30
0.0
 11
22178.9726869004
 21
-1037.6074654599
 31
0.0
  0
ARC
  5
2EA
  8
1
  6
CONTINUOUS
 62
     7
 10
21555.6340626273
 20
-898.6559996126
 30
0.0
 40
1.0
 50
180.0
 51
270.0
  0
ARC
  5
2EB
  8
1
  6
CONTINUOUS
 62
     7
 10
21555.6340626273
 20
-892.6559996126
 30
0.0
 40
1.0
 50
90.0
 51
180.0
  0
ARC
  5
2EC
  8
1
  6
CONTINUOUS
 62
     7
 10
21576.1340626273
 20
-893.6559996126
 30
0.0
 40
2.0
 50
0.0
 51
90.0
  0
ARC
  5
2ED
  8
1
  6
CONTINUOUS
 62
     7
 10
21576.1340626273
 20
-897.6559996126
 30
0.0
 40
2.0
 50
270.0
 51
0.0
  0
LINE
  5
2EE
  8
1
  6
CONTINUOUS
 62
     7
 10
21554.6340783064
 20
-1017.6559998308
 30
0.0
 11
21554.6340783064
 21
-1023.6559998308
 31
0.0
  0
LINE
  5
2EF
  8
1
  6
CONTINUOUS
 62
     7
 10
22169.042526232
 20
-982.1559899764
 30
0.0
 11
22170.0994532782
 21
-1016.2418895406
 31
0.0
  0
ARC
  5
2F0
  8
1
  6
CONTINUOUS
 62
     7
 10
22168.2902231461
 20
-1009.0065201203
 30
0.0
 40
0.0233277402
 50
164.0827440236
 51
199.565365204
  0
ARC
  5
2F1
  8
1
  6
CONTINUOUS
 62
     7
 10
22177.9320644163
 20
-1009.3563942599
 30
0.0
 40
1.6360312049
 50
37.1045773538
 51
56.51382467829999
  0
LINE
  5
2F2
  8
1
  6
CONTINUOUS
 62
     7
 10
22185.1093645086
 20
-1016.5382085516
 30
0.0
 11
22183.1120411247
 21
-1016.6018857818
 31
0.0
  0
ARC
  5
2F3
  8
1
  6
CONTINUOUS
 62
     7
 10
21599.1340016643
 20
-1145.4770676388
 30
0.0
 40
10.0
 50
135.0000000002
 51
180.0
  0
LINE
  5
2F4
  8
1
  6
CONTINUOUS
 62
     7
 10
21576.134073189
 20
-774.6559998284
 30
0.0
 11
21555.634073189
 21
-774.6559998284
 31
0.0
  0
LINE
  5
2F5
  8
1
  6
CONTINUOUS
 62
     7
 10
21576.134073189
 20
-766.6559998284
 30
0.0
 11
21555.634073189
 21
-766.6559998284
 31
0.0
  0
ARC
  5
2F6
  8
1
  6
CONTINUOUS
 62
     7
 10
21576.134073189
 20
-772.6559998284
 30
0.0
 40
2.0
 50
270.0
 51
0.0
  0
LINE
  5
2F7
  8
1
  6
CONTINUOUS
 62
     7
 10
21554.6340626273
 20
-892.6559996126
 30
0.0
 11
21554.6340626273
 21
-898.6559996126
 31
0.0
  0
LINE
  5
2F8
  8
1
  6
CONTINUOUS
 62
     7
 10
21576.1340626273
 20
-899.6559996126
 30
0.0
 11
21555.6340626273
 21
-899.6559996126
 31
0.0
  0
LINE
  5
2F9
  8
1
  6
CONTINUOUS
 62
     7
 10
22182.0425261067
 20
-1143.405972816
 30
0.0
 11
22179.2223805789
 21
-1052.4562869621
 31
0.0
  0
LINE
  5
2FA
  8
1
  6
CONTINUOUS
 62
     7
 10
22185.1093645086
 20
-1016.5382085516
 30
0.0
 11
22185.0733000665
 21
-1015.4074035208
 31
0.0
  0
ARC
  5
2FB
  8
1
  6
CONTINUOUS
 62
     7
 10
22177.729932574
 20
-1009.0505886049
 30
0.0
 40
1.4354462408
 50
67.35056774059998
 51
86.71692281339999
  0
LINE
  5
2FC
  8
1
  6
CONTINUOUS
 62
     7
 10
22184.8795114426
 20
-1034.5892702841
 30
0.0
 11
22184.9696399745
 21
-1037.4162749073
 31
0.0
  0
LINE
  5
2FD
  8
1
  6
CONTINUOUS
 62
     7
 10
22171.2302809779
 20
-1052.7110853441
 30
0.0
 11
22174.0425263064
 21
-1143.4060033706
 31
0.0
  0
ARC
  5
2FE
  8
1
  6
CONTINUOUS
 62
     7
 10
21555.634073189
 20
-773.6559998284
 30
0.0
 40
1.0
 50
180.0
 51
270.0
  0
LINE
  5
2FF
  8
1
  6
CONTINUOUS
 62
     7
 10
22185.0733000665
 20
-1015.4074035208
 30
0.0
 11
22188.1375212683
 21
-1017.4321103621
 31
0.0
  0
LINE
  5
300
  8
1
  6
CONTINUOUS
 62
     7
 10
22188.1735857104
 20
-1018.5629153929
 30
0.0
 11
22188.1375212683
 21
-1017.4321103621
 31
0.0
  0
LINE
  5
301
  8
1
  6
CONTINUOUS
 62
     7
 10
22178.0817487296
 20
-1015.670912824
 30
0.0
 11
22177.042526231
 21
-982.1559899764
 31
0.0
  0
ARC
  5
302
  8
1
  6
CONTINUOUS
 62
     7
 10
21555.634073189
 20
-767.6559998284
 30
0.0
 40
1.0
 50
90.0
 51
180.0
  0
LINE
  5
303
  8
1
  6
CONTINUOUS
 62
     7
 10
21576.1340626273
 20
-891.6559996126
 30
0.0
 11
21555.6340626273
 21
-891.6559996126
 31
0.0
  0
LINE
  5
304
  8
1
  6
CONTINUOUS
 62
     7
 10
21554.634073189
 20
-767.6559998284
 30
0.0
 11
21554.634073189
 21
-773.6559998284
 31
0.0
  0
LINE
  5
305
  8
1
  6
CONTINUOUS
 62
     7
 10
21578.1340626273
 20
-897.6559996126
 30
0.0
 11
21578.1340626273
 21
-893.6559996126
 31
0.0
  0
ARC
  5
306
  8
1
  6
CONTINUOUS
 62
     7
 10
21576.134073189
 20
-768.6559998284
 30
0.0
 40
2.0
 50
0.0
 51
90.0
  0
LINE
  5
307
  8
1
  6
CONTINUOUS
 62
     7
 10
21578.134073189
 20
-772.6559998284
 30
0.0
 11
21578.134073189
 21
-768.6559998284
 31
0.0
  0
ARC
  5
308
  8
1
  6
CONTINUOUS
 62
     7
 10
22177.5964276262
 20
-1009.855345446
 30
0.0
 40
2.237353589
 50
56.3950452461
 51
72.1371896227
  0
LINE
  5
309
  8
1
  6
CONTINUOUS
 62
     7
 10
21627.1340016668
 20
-945.1560831098
 30
0.0
 11
21633.1340016668
 21
-945.1560831098
 31
0.0
  0
LINE
  5
30A
  8
1
  6
CONTINUOUS
 62
     7
 10
21377.1340016644
 20
-945.1560792694
 30
0.0
 11
21383.1340016644
 21
-945.1560792694
 31
0.0
  0
ARC
  5
30B
  8
1
  6
CONTINUOUS
 62
     7
 10
21555.6340783064
 20
-1023.6559998308
 30
0.0
 40
1.0
 50
180.0
 51
270.0
  0
LINE
  5
30C
  8
1
  6
CONTINUOUS
 62
     7
 10
21501.1340014488
 20
-966.6560811896
 30
0.0
 11
21501.1340014488
 21
-946.1560811896
 31
0.0
  0
ARC
  5
30D
  8
1
  6
CONTINUOUS
 62
     7
 10
21502.1340014488
 20
-946.1560811896
 30
0.0
 40
1.0
 50
90.0
 51
180.0
  0
ARC
  5
30E
  8
1
  6
CONTINUOUS
 62
     7
 10
21632.1340016668
 20
-966.6560831098
 30
0.0
 40
2.0
 50
270.0
 51
0.0
  0
LINE
  5
30F
  8
1
  6
CONTINUOUS
 62
     7
 10
22227.7925263744
 20
-1018.4060001304
 30
0.0
 11
22188.2402330578
 21
-1018.4060024145
 31
0.0
  0
LINE
  5
310
  8
1
  6
CONTINUOUS
 62
     7
 10
22171.042526232
 20
-772.9060027862
 30
0.0
 11
22220.542526232
 21
-772.9059999007
 31
0.0
  0
LINE
  5
311
  8
1
  6
CONTINUOUS
 62
     7
 10
22171.042526232
 20
-893.4060025429
 30
0.0
 11
22171.042526232
 21
-897.9060025705
 31
0.0
  0
ARC
  5
312
  8
1
  6
CONTINUOUS
 62
     7
 10
21628.1340016668
 20
-966.6560831098
 30
0.0
 40
2.0
 50
180.0
 51
270.0
  0
LINE
  5
313
  8
1
  6
CONTINUOUS
 62
     7
 10
22177.042526231
 20
-893.4060021964
 30
0.0
 11
22177.042526231
 21
-772.9060024365
 31
0.0
  0
LINE
  5
314
  8
1
  6
CONTINUOUS
 62
     7
 10
21688.9897833872
 20
-1027.2236867472
 30
0.0
 11
21689.7705640697
 21
-1025.5307786122
 31
0.0
  0
LINE
  5
315
  8
1
  6
CONTINUOUS
 62
     7
 10
21690.870867064
 20
-1029.1047704242
 30
0.0
 11
21692.3651595141
 21
-1028.557821422
 31
0.0
  0
LINE
  5
316
  8
1
  6
CONTINUOUS
 62
     7
 10
21699.042312025
 20
-1021.0757311424
 30
0.0
 11
21698.4888838711
 21
-1022.434097065
 31
0.0
  0
ARC
  5
317
  8
1
  6
CONTINUOUS
 62
     7
 10
22182.0049614715
 20
-1038.5719917293
 30
0.0
 40
3.1819805152
 50
21.2972650279
 51
162.3548237778
  0
LINE
  5
318
  8
1
  6
CONTINUOUS
 62
     7
 10
22948.6683732156
 20
-1465.8475124091
 30
0.0
 11
23242.6683732156
 21
-1465.8475124091
 31
0.0
  0
LINE
  5
319
  8
1
  6
CONTINUOUS
 62
     7
 10
23242.6683732156
 20
-1465.8475124091
 30
0.0
 11
23242.6683732156
 21
-1213.5975124115
 31
0.0
  0
LINE
  5
31A
  8
1
  6
CONTINUOUS
 62
     7
 10
23401.418049606
 20
-1054.8475124091
 30
0.0
 11
23653.6683732156
 21
-1054.8475124091
 31
0.0
  0
LINE
  5
31B
  8
1
  6
CONTINUOUS
 62
     7
 10
22169.042526232
 20
-693.1560096763
 30
0.0
 11
22169.042526232
 21
-982.1559899764
 31
0.0
  0
LINE
  5
31C
  8
1
  6
CONTINUOUS
 62
     7
 10
21634.1340016668
 20
-966.6560831098
 30
0.0
 11
21634.1340016668
 21
-946.1560831098
 31
0.0
  0
LINE
  5
31D
  8
1
  6
CONTINUOUS
 62
     7
 10
22171.042526232
 20
-768.4060027586
 30
0.0
 11
22171.042526232
 21
-772.9060027862
 31
0.0
  0
LINE
  5
31E
  8
1
  6
CONTINUOUS
 62
     7
 10
21695.6604567463
 20
-1019.6056699403
 30
0.0
 11
21697.1547491962
 21
-1019.0587209381
 31
0.0
  0
ARC
  5
31F
  8
1
  6
CONTINUOUS
 62
     7
 10
22181.9373654034
 20
-1036.4517486373
 30
0.0
 40
3.1819805154
 50
201.2972650374
 51
342.3548237685
  0
ARC
  5
320
  8
1
  6
CONTINUOUS
 62
     7
 10
21378.1340016644
 20
-966.6560792694
 30
0.0
 40
2.0
 50
180.0
 51
270.0
  0
ARC
  5
321
  8
1
  6
CONTINUOUS
 62
     7
 10
21507.1340014488
 20
-966.6560811896
 30
0.0
 40
2.0
 50
270.0
 51
0.0
  0
LINE
  5
322
  8
1
  6
CONTINUOUS
 62
     7
 10
22948.6683732156
 20
-835.8474247246
 30
0.0
 11
22948.6683732156
 21
-1465.8475124091
 31
0.0
  0
LINE
  5
323
  8
1
  6
CENTER
 62
     7
 10
23095.6683732156
 20
-682.2184116861
 30
0.0
 11
23095.6683732156
 21
-1542.9892195322
 31
0.0
  0
ARC
  5
324
  8
1
  6
CONTINUOUS
 62
     7
 10
23023.6682855311
 20
-835.8474247246
 30
0.0
 40
74.9999123156
 50
89.99993301240002
 51
180.0000669862
  0
ARC
  5
325
  8
1
  6
CONTINUOUS
 62
     7
 10
21383.1340016644
 20
-946.1560792694
 30
0.0
 40
1.0
 50
0.0
 51
90.0
  0
LINE
  5
326
  8
1
  6
CONTINUOUS
 62
     7
 10
23653.6683732156
 20
-1054.8475124091
 30
0.0
 11
23653.6683732156
 21
-760.8475124091
 31
0.0
  0
ARC
  5
327
  8
1
  6
CONTINUOUS
 62
     7
 10
21627.1340016668
 20
-946.1560831098
 30
0.0
 40
1.0
 50
90.0
 51
180.0
  0
ARC
  5
328
  8
1
  6
CONTINUOUS
 62
     7
 10
21508.1340014488
 20
-946.1560811896
 30
0.0
 40
1.0
 50
0.0
 51
90.0
  0
LINE
  5
329
  8
1
  6
CONTINUOUS
 62
     7
 10
21632.1340016668
 20
-968.6560831098
 30
0.0
 11
21628.1340016668
 21
-968.6560831098
 31
0.0
  0
LINE
  5
32A
  8
1
  6
CONTINUOUS
 62
     7
 10
22220.542526232
 20
-768.4059999
 30
0.0
 11
22171.042526232
 21
-768.4060027586
 31
0.0
  0
LINE
  5
32B
  8
1
  6
CONTINUOUS
 62
     7
 10
23653.6683732156
 20
-760.8475124091
 30
0.0
 11
23023.6682855311
 21
-760.8475124091
 31
0.0
  0
LINE
  5
32C
  8
1
  6
CONTINUOUS
 62
     7
 10
23220.6683732156
 20
-840.8475124091
 30
0.0
 11
23220.6683732156
 21
-1215.8475124091
 31
0.0
  0
ARC
  5
32D
  8
1
  6
CONTINUOUS
 62
     7
 10
21555.6340783064
 20
-1017.6559998308
 30
0.0
 40
1.0
 50
90.0
 51
180.0
  0
ARC
  5
32E
  8
1
  6
CONTINUOUS
 62
     7
 10
21382.1340016644
 20
-966.6560792694
 30
0.0
 40
2.0
 50
270.0
 51
0.0
  0
LINE
  5
32F
  8
1
  6
CONTINUOUS
 62
     7
 10
21626.1340016668
 20
-966.6560831098
 30
0.0
 11
21626.1340016668
 21
-946.1560831098
 31
0.0
  0
ARC
  5
330
  8
1
  6
CONTINUOUS
 62
     7
 10
21633.1340016668
 20
-946.1560831098
 30
0.0
 40
1.0
 50
0.0
 51
90.0
  0
LINE
  5
331
  8
1
  6
CONTINUOUS
 62
     7
 10
23242.6683732175
 20
-1213.5975124097
 30
0.0
 11
23401.418049606
 21
-1054.8475124091
 31
0.0
  0
LINE
  5
332
  8
1
  6
CONTINUOUS
 62
     7
 10
21576.1340783064
 20
-1024.6559998308
 30
0.0
 11
21555.6340783064
 21
-1024.6559998308
 31
0.0
  0
LINE
  5
333
  8
1
  6
CONTINUOUS
 62
     7
 10
21578.1340783064
 20
-1022.6559998308
 30
0.0
 11
21578.1340783064
 21
-1018.6559998308
 31
0.0
  0
LINE
  5
334
  8
1
  6
CONTINUOUS
 62
     7
 10
22948.6683732156
 20
-840.8475124091
 30
0.0
 11
23220.6683732156
 21
-840.8475124091
 31
0.0
  0
LINE
  5
335
  8
1
  6
CONTINUOUS
 62
     7
 10
21576.1340783064
 20
-1016.6559998308
 30
0.0
 11
21555.6340783064
 21
-1016.6559998308
 31
0.0
  0
LINE
  5
336
  8
1
  6
CONTINUOUS
 62
     7
 10
21384.1340016644
 20
-966.6560792694
 30
0.0
 11
21384.1340016644
 21
-946.1560792694
 31
0.0
  0
LINE
  5
337
  8
1
  6
CONTINUOUS
 62
     7
 10
23242.6683732156
 20
-1340.8475124091
 30
0.0
 11
22948.6683732156
 21
-1340.8475124091
 31
0.0
  0
LINE
  5
338
  8
1
  6
CONTINUOUS
 62
     7
 10
22188.2402317135
 20
-1022.9060024389
 30
0.0
 11
22227.7925266355
 21
-1022.9060001333
 31
0.0
  0
LINE
  5
339
  8
1
  6
CONTINUOUS
 62
     7
 10
21509.1340014488
 20
-966.6560811896
 30
0.0
 11
21509.1340014488
 21
-946.1560811896
 31
0.0
  0
ARC
  5
33A
  8
1
  6
CONTINUOUS
 62
     7
 10
21576.1340783064
 20
-1018.6559998308
 30
0.0
 40
2.0
 50
0.0
 51
90.0
  0
LINE
  5
33B
  8
1
  6
CONTINUOUS
 62
     7
 10
21376.1340016644
 20
-966.6560792694
 30
0.0
 11
21376.1340016644
 21
-946.1560792694
 31
0.0
  0
ARC
  5
33C
  8
1
  6
CONTINUOUS
 62
     7
 10
21377.1340016644
 20
-946.1560792694
 30
0.0
 40
1.0
 50
90.0
 51
180.0
  0
ARC
  5
33D
  8
1
  6
CONTINUOUS
 62
     7
 10
21576.1340783064
 20
-1022.6559998308
 30
0.0
 40
2.0
 50
270.0
 51
0.0
  0
LINE
  5
33E
  8
1
  6
CONTINUOUS
 62
     7
 10
21507.1340014488
 20
-968.6560811896
 30
0.0
 11
21503.1340014488
 21
-968.6560811896
 31
0.0
  0
LINE
  5
33F
  8
1
  6
CONTINUOUS
 62
     7
 10
22171.042526232
 20
-897.9060025705
 30
0.0
 11
22220.542526232
 21
-897.905999685
 31
0.0
  0
LINE
  5
340
  8
1
  6
CONTINUOUS
 62
     7
 10
22220.542526232
 20
-893.4059996843
 30
0.0
 11
22171.042526232
 21
-893.4060025429
 31
0.0
  0
ARC
  5
341
  8
1
  6
CONTINUOUS
 62
     7
 10
22181.9148329396
 20
-1035.7449871069
 30
0.0
 40
3.1819805154
 50
21.297265041
 51
161.2550521358
  0
LINE
  5
342
  8
1
  6
CENTER
 62
     7
 10
22867.9258427285
 20
-907.8475124091
 30
0.0
 11
23728.6966505747
 21
-907.8475124091
 31
0.0
  0
LINE
  5
343
  8
1
  6
CONTINUOUS
 62
     7
 10
22948.6683732156
 20
-1215.8475124091
 30
0.0
 11
23242.6683732156
 21
-1215.8475124091
 31
0.0
  0
LINE
  5
344
  8
1
  6
CONTINUOUS
 62
     7
 10
21382.1340016644
 20
-968.6560792694
 30
0.0
 11
21378.1340016644
 21
-968.6560792694
 31
0.0
  0
LINE
  5
345
  8
1
  6
CONTINUOUS
 62
     7
 10
21502.1340014488
 20
-945.1560811896
 30
0.0
 11
21508.1340014488
 21
-945.1560811896
 31
0.0
  0
ARC
  5
346
  8
1
  6
CONTINUOUS
 62
     7
 10
21503.1340014488
 20
-966.6560811896
 30
0.0
 40
2.0
 50
180.0
 51
270.0
  0
LINE
  5
347
  8
1
  6
CONTINUOUS
 62
     7
 10
23028.6683732156
 20
-1032.8475124091
 30
0.0
 11
23403.6683732156
 21
-1032.8475124092
 31
0.0
  0
LINE
  5
348
  8
1
  6
CONTINUOUS
 62
     7
 10
23278.6683732156
 20
-1032.8475124091
 30
0.0
 11
23278.6683732156
 21
-760.8475124091
 31
0.0
  0
LINE
  5
349
  8
1
  6
CONTINUOUS
 62
     7
 10
22169.0425264879
 20
-693.1551565348996
 30
0.0
 11
22169.0425264879
 21
-782.1551368349996
 31
0.0
  0
LINE
  5
34A
  8
1
  6
CONTINUOUS
 62
     7
 10
23528.6683732156
 20
-1054.8475124091
 30
0.0
 11
23528.6683732156
 21
-760.8475124091
 31
0.0
  0
LINE
  5
34B
  8
1
  6
CONTINUOUS
 62
     7
 10
23220.6683732156
 20
-965.8475124091
 30
0.0
 11
22948.6683732156
 21
-965.8475124091
 31
0.0
  0
LINE
  5
34C
  8
1
  6
CONTINUOUS
 62
     7
 10
23403.6683732156
 20
-760.8475124091
 30
0.0
 11
23403.6683732156
 21
-1054.8475124091
 31
0.0
  0
LINE
  5
34D
  8
1
  6
CONTINUOUS
 62
     7
 10
23220.6683732156
 20
-1090.8475124091
 30
0.0
 11
22948.6683732156
 21
-1090.8475124091
 31
0.0
  0
LINE
  5
34E
  8
1
  6
CONTINUOUS
 62
     7
 10
23028.6683732156
 20
-760.8475124091
 30
0.0
 11
23028.6683732156
 21
-1032.8475124091
 31
0.0
  0
LINE
  5
34F
  8
1
  6
CONTINUOUS
 62
     7
 10
23153.6683732156
 20
-1032.8475124091
 30
0.0
 11
23153.6683732156
 21
-760.8475124091
 31
0.0
  0
LINE
  5
350
  8
1
  6
CONTINUOUS
 62
     7
 10
22220.542526232
 20
-965.1535102310776
 30
0.0
 11
22220.542526232
 21
-710.1584894214647
 31
0.0
  0
LINE
  5
351
  8
1
  6
CONTINUOUS
 62
     7
 10
22177.042526231
 20
-975.0249651636744
 30
0.0
 11
22177.042526231
 21
-897.9060022207
 31
0.0
  0
ARC
  5
352
  8
0
  6
CONTINUOUS
 62
     7
 10
22212.04252623199
 20
-710.632971704822
 30
0.0
 40
13.0
 50
359.8984390383855
 51
86.99999999999943
  0
LINE
  5
353
  8
1
  6
CONTINUOUS
 62
     7
 10
22177.042526231
 20
-768.4060024121
 30
0.0
 11
22177.042526231
 21
-700.2870344888809
 31
0.0
  0
ENDSEC
  0
EOF
