  0
SECTION
  2
HEADER
  9
$ACADVER
  1
AC1015
  9
$ACADMAINTVER
 70
     6
  9
$DWGCODEPAGE
  3
DOS932
  9
$INSBASE
 10
0.0
 20
0.0
 30
0.0
  9
$EXTMIN
 10
0.0
 20
0.0
 30
0.0
  9
$EXTMAX
 10
245.526222
 20
165.698844
 30
10.0
  9
$LIMMIN
 10
0.0
 20
0.0
  9
$LIMMAX
 10
245.526222
 20
165.698844
  9
$ORTHOMODE
 70
     0
  9
$REGENMODE
 70
     1
  9
$FILLMODE
 70
     1
  9
$QTEXTMODE
 70
     0
  9
$MIRRTEXT
 70
     1
  9
$LTSCALE
 40
10.0
  9
$ATTMODE
 70
     1
  9
$TEXTSIZE
 40
0.2
  9
$TRACEWID
 40
0.05
  9
$TEXTSTYLE
  7
Standard
  9
$CLAYER
  8
0
  9
$CELTYPE
  6
Continuous
  9
$CECOLOR
 62
   256
  9
$CELTSCALE
 40
1.0
  9
$DISPSILH
 70
     0
  9
$DIMSCALE
 40
1.0
  9
$DIMASZ
 40
1.4
  9
$DIMEXO
 40
1.4
  9
$DIMDLI
 40
0.38
  9
$DIMRND
 40
0.0
  9
$DIMDLE
 40
0.0
  9
$DIMEXE
 40
1.05
  9
$DIMTP
 40
0.0
  9
$DIMTM
 40
0.0
  9
$DIMTXT
 40
3.5
  9
$DIMCEN
 40
0.09
  9
$DIMTSZ
 40
0.0
  9
$DIMTOL
 70
     0
  9
$DIMLIM
 70
     0
  9
$DIMTIH
 70
     0
  9
$DIMTOH
 70
     0
  9
$DIMSE1
 70
     0
  9
$DIMSE2
 70
     0
  9
$DIMTAD
 70
     1
  9
$DIMZIN
 70
     0
  9
$DIMBLK
  1

  9
$DIMASO
 70
     1
  9
$DIMSHO
 70
     1
  9
$DIMPOST
  1

  9
$DIMAPOST
  1

  9
$DIMALT
 70
     0
  9
$DIMALTD
 70
     2
  9
$DIMALTF
 40
25.4
  9
$DIMLFAC
 40
1.0
  9
$DIMTOFL
 70
     0
  9
$DIMTVP
 40
0.0
  9
$DIMTIX
 70
     0
  9
$DIMSOXD
 70
     0
  9
$DIMSAH
 70
     0
  9
$DIMBLK1
  1

  9
$DIMBLK2
  1

  9
$DIMSTYLE
  2
Standard
  9
$DIMCLRD
 70
     7
  9
$DIMCLRE
 70
     7
  9
$DIMCLRT
 70
     7
  9
$DIMTFAC
 40
0.5
  9
$DIMGAP
 40
1.75
  9
$DIMJUST
 70
     0
  9
$DIMSD1
 70
     0
  9
$DIMSD2
 70
     0
  9
$DIMTOLJ
 70
     1
  9
$DIMTZIN
 70
     0
  9
$DIMALTZ
 70
     0
  9
$DIMALTTZ
 70
     0
  9
$DIMUPT
 70
     0
  9
$DIMDEC
 70
     2
  9
$DIMTDEC
 70
     4
  9
$DIMALTU
 70
     2
  9
$DIMALTTD
 70
     2
  9
$DIMTXSTY
  7
Standard
  9
$DIMAUNIT
 70
     0
  9
$DIMADEC
 70
     0
  9
$DIMALTRND
 40
0.0
  9
$DIMAZIN
 70
     0
  9
$DIMDSEP
 70
     0
  9
$DIMATFIT
 70
     3
  9
$DIMFRAC
 70
     0
  9
$DIMLDRBLK
  1

  9
$DIMLUNIT
 70
     2
  9
$DIMLWD
 70
     0
  9
$DIMLWE
 70
     0
  9
$DIMTMOVE
 70
     0
  9
$LUNITS
 70
     2
  9
$LUPREC
 70
     4
  9
$SKETCHINC
 40
0.1
  9
$FILLETRAD
 40
0.0
  9
$AUNITS
 70
     0
  9
$AUPREC
 70
     0
  9
$MENU
  1
acad
  9
$ELEVATION
 40
0.0
  9
$PELEVATION
 40
0.0
  9
$THICKNESS
 40
0.0
  9
$LIMCHECK
 70
     0
  9
$CHAMFERA
 40
0.0
  9
$CHAMFERB
 40
0.0
  9
$CHAMFERC
 40
0.0
  9
$CHAMFERD
 40
0.0
  9
$SKPOLY
 70
     0
  9
$TDCREATE
 40
2454483.574537037
  9
$TDUCREATE
 40
0.000000000
  9
$TDUPDATE
 40
2454483.199097222
  9
$TDUUPDATE
 40
0.000000000
  9
$TDINDWG
 40
0.0000000000
  9
$TDUSRTIMER
 40
0.0000000000
  9
$USRTIMER
 70
     1
  9
$ANGBASE
 50
0.0
  9
$ANGDIR
 70
     0
  9
$PDMODE
 70
     0
  9
$PDSIZE
 40
0.0
  9
$PLINEWID
 40
0.0
  9
$SPLFRAME
 70
     0
  9
$SPLINETYPE
 70
     6
  9
$SPLINESEGS
 70
     8
  9
$HANDSEED
  5
E5
  9
$SURFTAB1
 70
     6
  9
$SURFTAB2
 70
     6
  9
$SURFTYPE
 70
     6
  9
$SURFU
 70
     6
  9
$SURFV
 70
     6
  9
$UCSBASE
  2

  9
$UCSNAME
  2

  9
$UCSORG
 10
0.0
 20
0.0
 30
0.0
  9
$UCSXDIR
 10
1.0
 20
0.0
 30
0.0
  9
$UCSYDIR
 10
0.0
 20
1.0
 30
0.0
  9
$UCSORTHOREF
  2

  9
$UCSORTHOVIEW
 70
     0
  9
$UCSORGTOP
 10
0.0
 20
0.0
 30
0.0
  9
$UCSORGBOTTOM
 10
0.0
 20
0.0
 30
0.0
  9
$UCSORGLEFT
 10
0.0
 20
0.0
 30
0.0
  9
$UCSORGRIGHT
 10
0.0
 20
0.0
 30
0.0
  9
$UCSORGFRONT
 10
0.0
 20
0.0
 30
0.0
  9
$UCSORGBACK
 10
0.0
 20
0.0
 30
0.0
  9
$PUCSBASE
  2

  9
$PUCSNAME
  2

  9
$PUCSORG
 10
0.0
 20
0.0
 30
0.0
  9
$PUCSXDIR
 10
1.0
 20
0.0
 30
0.0
  9
$PUCSYDIR
 10
0.0
 20
1.0
 30
0.0
  9
$PUCSORTHOREF
  2

  9
$PUCSORTHOVIEW
 70
     0
  9
$PUCSORGTOP
 10
0.0
 20
0.0
 30
0.0
  9
$PUCSORGBOTTOM
 10
0.0
 20
0.0
 30
0.0
  9
$PUCSORGLEFT
 10
0.0
 20
0.0
 30
0.0
  9
$PUCSORGRIGHT
 10
0.0
 20
0.0
 30
0.0
  9
$PUCSORGFRONT
 10
0.0
 20
0.0
 30
0.0
  9
$PUCSORGBACK
 10
0.0
 20
0.0
 30
0.0
  9
$USERI1
 70
     0
  9
$USERI2
 70
     0
  9
$USERI3
 70
     0
  9
$USERI4
 70
     0
  9
$USERI5
 70
     0
  9
$USERR1
 40
0.0
  9
$USERR2
 40
0.0
  9
$USERR3
 40
0.0
  9
$USERR4
 40
0.0
  9
$USERR5
 40
0.0
  9
$WORLDVIEW
 70
     1
  9
$SHADEDGE
 70
     3
  9
$SHADEDIF
 70
    70
  9
$TILEMODE
 70
     1
  9
$MAXACTVP
 70
    16
  9
$PINSBASE
 10
0.0
 20
0.0
 30
0.0
  9
$PLIMCHECK
 70
     0
  9
$PEXTMIN
 10
1.000000E+20
 20
1.000000E+20
 30
1.000000E+20
  9
$PEXTMAX
 10
-1.000000E+20
 20
-1.000000E+20
 30
-1.000000E+20
  9
$PLIMMIN
 10
0.0
 20
0.0
  9
$PLIMMAX
 10
12.0
 20
9.0
  9
$UNITMODE
 70
     0
  9
$VISRETAIN
 70
     0
  9
$PLINEGEN
 70
     1
  9
$PSLTSCALE
 70
     0
  9
$TREEDEPTH
 70
  3020
  9
$CMLSTYLE
  2
Standard
  9
$CMLJUST
 70
     0
  9
$CMLSCALE
 40
1.0
  9
$PROXYGRAPHICS
 70
     0
  9
$MEASUREMENT
 70
     0
  9
$CELWEIGHT
370
     0
  9
$ENDCAPS
280
     0
  9
$JOINSTYLE
280
     0
  9
$LWDISPLAY
290
     0
  9
$INSUNITS
 70
     0
  9
$HYPERLINKBASE
  1

  9
$STYLESHEET
  1

  9
$XEDIT
290
     1
  9
$CEPSNTYPE
380
     0
  9
$PSTYLEMODE
290
     1
  9
$FINGERPRINTGUID
  2

  9
$VERSIONGUID
  2

  9
$EXTNAMES
290
     1
  9
$PSVPSCALE
 40
0.0
  0
ENDSEC
  0
SECTION
  2
CLASSES
  0
CLASS
  1
LWPOLYLINE
  2
AcDbPolyline
  3
AutoCAD 2000
 90
        0
280
     0
281
     1
  0
CLASS
  1
IMAGE
  2
AcDbRasterImage
  3
ISM
 90
      127
280
     0
281
     1
  0
CLASS
  1
OLE2FRAME
  2
AcDbOle2Frame
  3
AutoCAD 2000
 90
        0
280
     0
281
     1
  0
CLASS
  1
HATCH
  2
AcDbHatch
  3
AutoCAD 2000
 90
        0
280
     0
281
     1
  0
CLASS
  1
DICTIONARYVAR
  2
AcDbDictionaryVar
  3
AutoCAD 2000
 90
        0
280
     0
281
     0
  0
CLASS
  1
RASTERVARIABLES
  2
AcDbRasterVariables
  3
ISM
 90
        0
280
     0
281
     0
  0
CLASS
  1
IMAGEDEF
  2
AcDbRasterImageDef
  3
ISM
 90
        0
280
     0
281
     0
  0
CLASS
  1
IMAGEDEF_REACTOR
  2
AcDbRasterImageDefReactor
  3
ISM
 90
        1
280
     0
281
     0
  0
CLASS
  1
IDBUFFER
  2
AcDbIdBuffer
  3
AutoCAD 2000
 90
        0
280
     0
281
     0
  0
CLASS
  1
SPATIAL_FILTER
  2
AcDbSpatialFilter
  3
AutoCAD 2000
 90
        0
280
     0
281
     0
  0
CLASS
  1
XRECORD
  2
AcDbXrecord
  3
AutoCAD 2000
 90
        0
280
     0
281
     0
  0
CLASS
  1
SORTENTSTABLE
  2
AcDbSortentsTable
  3
AutoCAD 2000
 90
        0
280
     0
281
     0
  0
CLASS
  1
LAYER_INDEX
  2
AcDbLayerIndex
  3
AutoCAD 2000
 90
        0
280
     0
281
     0
  0
CLASS
  1
SPATIAL_INDEX
  2
AcDbSpatialIndex
  3
AutoCAD 2000
 90
        0
280
     0
281
     0
  0
CLASS
  1
OBJECT_PTR
  2
CAseDLPNTableRecord
  3
"ASE-LPNTableRecord"
 90
        1
280
     0
281
     0
  0
CLASS
  1
LAYOUT
  2
AcDbLayout
  3
AutoCAD 2000
 90
        0
280
     0
281
     0
  0
CLASS
  1
PLOTSETTINGS
  2
AcDbPlotSettings
  3
AutoCAD 2000
 90
        0
280
     0
281
     0
  0
CLASS
  1
ACDBDICTIONARYWDFLT
  2
AcDbDictionaryWithDefault
  3
AutoCAD 2000
 90
        0
280
     0
281
     0
  0
CLASS
  1
ACDBPLACEHOLDER
  2
AcDbPlaceHolder
  3
AutoCAD 2000
 90
        0
280
     0
281
     0
  0
CLASS
  1
VBA_PROJECT
  2
AcDbVbaProject
  3
acadvba
 90
        0
280
     0
281
     0
  0
CLASS
  1
WIPEOUT
  2
AcDbWipeout
  3
WipeOut|AutoCAD Express Tool|expresstools@autodesk.com
 90
      127
280
     0
281
     1
  0
CLASS
  1
WIPEOUTVARIABLES
  2
AcDbWipeoutVariables
  3
WipeOut|AutoCAD Express Tool|expresstools@autodesk.com
 90
        0
280
     0
281
     0
  0
CLASS
  1
RTEXT
  2
RText
  3
RText|AutoCAD Express Tool|expresstools@autodesk.com
 90
        0
280
     0
281
     1
  0
CLASS
  1
ARCALIGNEDTEXT
  2
AcDbArcAlignedText
  3
ATEXT|AutoCAD Express Tool|expresstools@autodesk.com
 90
        0
280
     0
281
     1
  0
ENDSEC
  0
SECTION
  2
TABLES
  0
TABLE
  2
VPORT
  5
7
100
AcDbSymbolTable
 70
     1
  0
VPORT
  5
15
100
AcDbSymbolTableRecord
100
AcDbViewportTableRecord
  2
*ACTIVE
 70
     0
 10
0.0
 20
0.0
 11
1.0
 21
1.0
 12
6.591288
 22
4.579184
 13
0.0
 23
0.0
 14
1.0
 24
1.0
 15
0.0
 25
0.0
 16
0.0
 26
0.0
 36
1.0
 17
0.0
 27
0.0
 37
0.0
 40
9.158369
 41
0.688564
 42
50.0
 43
0.0
 44
0.0
 50
0.0
 51
0.0
 71
     0
 72
   100
 73
     1
 74
     1
 75
     0
 76
     0
 77
     0
 78
     0
281
     0
 65
     0
110
0.0
120
0.0
130
0.0
111
1.0
121
0.0
131
0.0
112
0.0
122
1.0
132
0.0
345
0
346
0
 79
     0
146
0.0
  0
ENDTAB
  0
TABLE
  2
LTYPE
  5
4
100
AcDbSymbolTable
 70
     4
  0
LTYPE
  5
11
100
AcDbSymbolTableRecord
100
AcDbLinetypeTableRecord
  2
ByBlock
 70
    64
  3

 72
    65
 73
     0
 40
0.0
  0
LTYPE
  5
12
100
AcDbSymbolTableRecord
100
AcDbLinetypeTableRecord
  2
ByLayer
 70
    64
  3

 72
    65
 73
     0
 40
0.0
  0
LTYPE
  5
13
100
AcDbSymbolTableRecord
100
AcDbLinetypeTableRecord
  2
Continuous
 70
    64
  3
Solid line
 72
    65
 73
     0
 40
0.0
  0
LTYPE
  5
2D
100
AcDbSymbolTableRecord
100
AcDbLinetypeTableRecord
  2
CENTER
 70
    64
  3
____ _ ____ _ ____ _ ____ _ ____ _ ____ _ ____
 72
    65
 73
     4
 40
2.0
 49
1.25
 74
     0
 49
-0.25
 74
     0
 49
0.25
 74
     0
 49
-0.25
 74
     0
  0
ENDTAB
  0
TABLE
  2
LAYER
  5
2
100
AcDbSymbolTable
 70
     3
  0
LAYER
  5
14
100
AcDbSymbolTableRecord
100
AcDbLayerTableRecord
  2
0
 70
     0
 62
     7
  6
Continuous
290
     1
370
    -3
390
1D
  0
LAYER
  5
27
100
AcDbSymbolTableRecord
100
AcDbLayerTableRecord
  2
1
 70
     0
 62
     7
  6
Continuous
290
     1
370
    -3
390
1D
  0
LAYER
  5
8B
100
AcDbSymbolTableRecord
100
AcDbLayerTableRecord
  2
257
 70
     0
 62
     7
  6
Continuous
290
     1
370
    -3
390
1D
  0
ENDTAB
  0
TABLE
  2
STYLE
  5
3
100
AcDbSymbolTable
 70
     1
  0
STYLE
  5
17
100
AcDbSymbolTableRecord
100
AcDbTextStyleTableRecord
  2
Standard
 70
     0
 40
0.0
 41
1.0
 50
0.0
 71
     0
 42
0.0
  3
ＭＳ ゴシック
  4

1001
ACAD
1000
ＭＳ ゴシック
1071
        1
  0
ENDTAB
  0
TABLE
  2
VIEW
  5
5
100
AcDbSymbolTable
 70
     0
  0
ENDTAB
  0
TABLE
  2
UCS
  5
6
100
AcDbSymbolTable
 70
     0
  0
ENDTAB
  0
TABLE
  2
APPID
  5
8
100
AcDbSymbolTable
 70
     2
  0
APPID
  5
16
100
AcDbSymbolTableRecord
100
AcDbRegAppTableRecord
  2
ACAD
 70
     0
  0
APPID
  5
26
100
AcDbSymbolTableRecord
100
AcDbRegAppTableRecord
  2
TOPsolid_Design
 70
     0
  0
ENDTAB
  0
TABLE
  2
DIMSTYLE
  5
9
100
AcDbSymbolTable
 70
     1
100
AcDbDimStyleTable
 71
     0
  0
DIMSTYLE
105
18
100
AcDbSymbolTableRecord
100
AcDbDimStyleTableRecord
  2
Standard
 70
     0
  3

  4

 40
1.0
 41
1.4
 42
1.4
 43
0.38
 44
1.05
 45
0.0
 46
0.0
 47
0.0
 48
0.0
 71
     0
 72
     0
 73
     0
 74
     0
 75
     0
 76
     0
 77
     1
 78
     0
 79
     0
140
3.5
141
0.09
142
0.0
143
25.4
144
1.0
145
0.0
146
0.5
147
1.75
148
0.0
170
     0
171
     2
172
     0
173
     0
174
     0
175
     0
176
     7
177
     7
178
     7
179
     0
271
     2
272
     4
273
     2
274
     2
275
     0
276
     0
277
     2
278
    46
279
     0
280
     0
281
     0
282
     0
283
     1
284
     0
285
     0
286
     0
288
     0
289
     3
340
17
341
0
342
0
343
0
344
0
371
    -2
372
    -2
  0
ENDTAB
  0
TABLE
  2
BLOCK_RECORD
  5
1
100
AcDbSymbolTable
 70
     7
  0
BLOCK_RECORD
  5
A
100
AcDbSymbolTableRecord
100
AcDbBlockTableRecord
  2
*MODEL_SPACE
340
20
  0
BLOCK_RECORD
  5
B
100
AcDbSymbolTableRecord
100
AcDbBlockTableRecord
  2
*PAPER_SPACE
340
21
  0
BLOCK_RECORD
  5
52
100
AcDbSymbolTableRecord
100
AcDbBlockTableRecord
  2
AID83
340
0
102
{BLKREFS
331
5A
102
}
  0
BLOCK_RECORD
  5
8C
100
AcDbSymbolTableRecord
100
AcDbBlockTableRecord
  2
AID181
340
0
102
{BLKREFS
331
97
102
}
  0
BLOCK_RECORD
  5
9F
100
AcDbSymbolTableRecord
100
AcDbBlockTableRecord
  2
AID196
340
0
102
{BLKREFS
331
AE
102
}
  0
BLOCK_RECORD
  5
AF
100
AcDbSymbolTableRecord
100
AcDbBlockTableRecord
  2
AID222
340
0
102
{BLKREFS
331
BC
102
}
  0
BLOCK_RECORD
  5
BE
100
AcDbSymbolTableRecord
100
AcDbBlockTableRecord
  2
AID225
340
0
102
{BLKREFS
331
CB
102
}
  0
BLOCK_RECORD
  5
CD
100
AcDbSymbolTableRecord
100
AcDbBlockTableRecord
  2
AID249
340
0
102
{BLKREFS
331
D6
102
}
  0
BLOCK_RECORD
  5
D7
100
AcDbSymbolTableRecord
100
AcDbBlockTableRecord
  2
AID250
340
0
102
{BLKREFS
331
E4
102
}
  0
ENDTAB
  0
ENDSEC
  0
SECTION
  2
BLOCKS
  0
BLOCK
  5
D
100
AcDbEntity
  8
0
390
0
100
AcDbBlockBegin
  2
*MODEL_SPACE
 70
     0
 10
0.0
 20
0.0
 30
0.0
  3
*MODEL_SPACE
  1

  0
ENDBLK
  5
E
100
AcDbEntity
  8
0
390
0
100
AcDbBlockEnd
  0
BLOCK
  5
F
100
AcDbEntity
 67
     1
  8
0
390
0
100
AcDbBlockBegin
  2
*PAPER_SPACE
 70
     0
 10
0.0
 20
0.0
 30
0.0
  3
*PAPER_SPACE
  1

  0
ENDBLK
  5
10
100
AcDbEntity
 67
     1
  8
0
390
0
100
AcDbBlockEnd
  0
BLOCK
  5
53
100
AcDbEntity
  8
0
390
0
100
AcDbBlockBegin
  2
AID83
 70
     0
 10
0.0
 20
0.0
 30
0.0
  3
COMPOSIT
  1

  0
LINE
  5
54
100
AcDbEntity
  8
1
390
0
  6
Continuous
 62
     7
100
AcDbLine
 10
225.081147
 20
114.471061
 30
0.0
 11
225.081147
 21
125.171061
 31
0.0
  0
LINE
  5
55
100
AcDbEntity
  8
1
390
0
  6
Continuous
 62
     7
100
AcDbLine
 10
225.081147
 20
125.171061
 30
0.0
 11
229.581147
 21
125.171061
 31
0.0
  0
ARC
  5
56
100
AcDbEntity
  8
1
390
0
  6
Continuous
 62
     7
100
AcDbCircle
 10
232.581147
 20
122.921061
 30
0.0
 40
3.75
210
0.0
220
0.0
230
1.0
100
AcDbArc
 50
36.869898
 51
143.130102
  0
LINE
  5
57
100
AcDbEntity
  8
1
390
0
  6
Continuous
 62
     7
100
AcDbLine
 10
235.581147
 20
125.171061
 30
0.0
 11
240.081147
 21
125.171061
 31
0.0
  0
LINE
  5
58
100
AcDbEntity
  8
1
390
0
  6
Continuous
 62
     7
100
AcDbLine
 10
240.081147
 20
125.171061
 30
0.0
 11
240.081147
 21
114.471061
 31
0.0
  0
ENDBLK
  5
59
100
AcDbEntity
  8
0
390
0
100
AcDbBlockEnd
  0
BLOCK
  5
8D
100
AcDbEntity
  8
0
390
0
100
AcDbBlockBegin
  2
AID181
 70
     0
 10
0.0
 20
0.0
 30
0.0
  3
COMPOSIT
  1

  0
LINE
  5
8E
100
AcDbEntity
  8
257
390
0
  6
Continuous
 62
     4
100
AcDbLine
 10
198.331455
 20
147.843923
 30
0.0
 11
198.331455
 21
152.879822
 31
0.0
  0
ARC
  5
8F
100
AcDbEntity
  8
257
390
0
  6
Continuous
 62
     4
100
AcDbCircle
 10
201.581452
 20
156.343923
 30
0.0
 40
4.749998
210
0.0
220
0.0
230
1.0
100
AcDbArc
 50
133.173522
 51
226.826478
  0
LINE
  5
90
100
AcDbEntity
  8
257
390
0
  6
Continuous
 62
     4
100
AcDbLine
 10
198.331455
 20
159.808025
 30
0.0
 11
198.331455
 21
164.8439
 31
0.0
  0
LINE
  5
91
100
AcDbEntity
  8
257
390
0
  6
Continuous
 62
     4
100
AcDbLine
 10
198.331455
 20
164.8439
 30
0.0
 11
214.251455
 21
164.843925
 31
0.0
  0
LINE
  5
92
100
AcDbEntity
  8
257
390
0
  6
Continuous
 62
     4
100
AcDbLine
 10
214.251455
 20
164.843925
 30
0.0
 11
214.251455
 21
159.233491
 31
0.0
  0
ARC
  5
93
100
AcDbEntity
  8
257
390
0
  6
Continuous
 62
     4
100
AcDbCircle
 10
210.481453
 20
156.343923
 30
0.0
 40
4.750001
210
0.0
220
0.0
230
1.0
100
AcDbArc
 50
322.531163
 51
37.468837
  0
LINE
  5
94
100
AcDbEntity
  8
257
390
0
  6
Continuous
 62
     4
100
AcDbLine
 10
214.251455
 20
153.454356
 30
0.0
 11
214.251455
 21
147.843923
 31
0.0
  0
LINE
  5
95
100
AcDbEntity
  8
257
390
0
  6
Continuous
 62
     4
100
AcDbLine
 10
214.251455
 20
147.843923
 30
0.0
 11
198.331455
 21
147.843923
 31
0.0
  0
ENDBLK
  5
96
100
AcDbEntity
  8
0
390
0
100
AcDbBlockEnd
  0
BLOCK
  5
A0
100
AcDbEntity
  8
0
390
0
100
AcDbBlockBegin
  2
AID196
 70
     0
 10
0.0
 20
0.0
 30
0.0
  3
D_GROUP
  1

  0
LINE
  5
A1
100
AcDbEntity
  8
257
390
0
  6
Continuous
 62
   132
100
AcDbLine
 10
198.331455
 20
164.39033
 30
0.0
 11
198.785026
 21
164.8439
 31
0.0
  0
LINE
  5
A2
100
AcDbEntity
  8
257
390
0
  6
Continuous
 62
   132
100
AcDbLine
 10
198.331455
 20
161.561903
 30
0.0
 11
201.613457
 21
164.843905
 31
0.0
  0
LINE
  5
A3
100
AcDbEntity
  8
257
390
0
  6
Continuous
 62
   132
100
AcDbLine
 10
196.936924
 20
157.338944
 30
0.0
 11
204.441889
 21
164.843909
 31
0.0
  0
LINE
  5
A4
100
AcDbEntity
  8
257
390
0
  6
Continuous
 62
   132
100
AcDbLine
 10
197.125428
 20
154.699021
 30
0.0
 11
207.270321
 21
164.843914
 31
0.0
  0
LINE
  5
A5
100
AcDbEntity
  8
257
390
0
  6
Continuous
 62
   132
100
AcDbLine
 10
198.231481
 20
152.976647
 30
0.0
 11
210.098752
 21
164.843918
 31
0.0
  0
LINE
  5
A6
100
AcDbEntity
  8
257
390
0
  6
Continuous
 62
   132
100
AcDbLine
 10
198.331455
 20
150.248194
 30
0.0
 11
212.927184
 21
164.843923
 31
0.0
  0
LINE
  5
A7
100
AcDbEntity
  8
257
390
0
  6
Continuous
 62
   132
100
AcDbLine
 10
198.755612
 20
147.843923
 30
0.0
 11
214.251455
 21
163.339767
 31
0.0
  0
LINE
  5
A8
100
AcDbEntity
  8
257
390
0
  6
Continuous
 62
   132
100
AcDbLine
 10
201.584039
 20
147.843923
 30
0.0
 11
214.251455
 21
160.51134
 31
0.0
  0
LINE
  5
A9
100
AcDbEntity
  8
257
390
0
  6
Continuous
 62
   132
100
AcDbLine
 10
204.412466
 20
147.843923
 30
0.0
 11
214.827987
 21
158.259444
 31
0.0
  0
LINE
  5
AA
100
AcDbEntity
  8
257
390
0
  6
Continuous
 62
   132
100
AcDbLine
 10
207.240893
 20
147.843923
 30
0.0
 11
215.200452
 21
155.803483
 31
0.0
  0
LINE
  5
AB
100
AcDbEntity
  8
257
390
0
  6
Continuous
 62
   132
100
AcDbLine
 10
210.06932
 20
147.843923
 30
0.0
 11
214.251455
 21
152.026059
 31
0.0
  0
LINE
  5
AC
100
AcDbEntity
  8
257
390
0
  6
Continuous
 62
   132
100
AcDbLine
 10
212.897747
 20
147.843923
 30
0.0
 11
214.251455
 21
149.197632
 31
0.0
  0
ENDBLK
  5
AD
100
AcDbEntity
  8
0
390
0
100
AcDbBlockEnd
  0
BLOCK
  5
B0
100
AcDbEntity
  8
0
390
0
100
AcDbBlockBegin
  2
AID222
 70
     0
 10
0.0
 20
0.0
 30
0.0
  3
COMPOSIT
  1

  0
ARC
  5
B1
100
AcDbEntity
  8
257
390
0
  6
Continuous
 62
     4
100
AcDbCircle
 10
206.031455
 20
118.471063
 30
0.0
 40
9.2
210
0.0
220
0.0
230
1.0
100
AcDbArc
 50
353.751197
 51
180.000014
  0
LINE
  5
B2
100
AcDbEntity
  8
257
390
0
  6
Continuous
 62
     4
100
AcDbLine
 10
196.831455
 20
118.471061
 30
0.0
 11
196.831455
 21
117.171061
 31
0.0
  0
LINE
  5
B3
100
AcDbEntity
  8
257
390
0
  6
Continuous
 62
     4
100
AcDbLine
 10
196.831455
 20
117.171061
 30
0.0
 11
200.361278
 21
114.471061
 31
0.0
  0
ARC
  5
B4
100
AcDbEntity
  8
257
390
0
  6
Continuous
 62
     4
100
AcDbCircle
 10
197.831454
 20
117.171061
 30
0.0
 40
3.700001
210
0.0
220
0.0
230
1.0
100
AcDbArc
 50
313.136287
 51
0.000003
  0
LINE
  5
B5
100
AcDbEntity
  8
257
390
0
  6
Continuous
 62
     4
100
AcDbLine
 10
201.531455
 20
117.171061
 30
0.0
 11
201.531455
 21
118.471061
 31
0.0
  0
ARC
  5
B6
100
AcDbEntity
  8
257
390
0
  6
Continuous
 62
     4
100
AcDbCircle
 10
206.031455
 20
118.471061
 30
0.0
 40
4.5
210
0.0
220
0.0
230
1.0
100
AcDbArc
 50
360.0
 51
180.0
  0
ARC
  5
B7
100
AcDbEntity
  8
257
390
0
  6
Continuous
 62
     4
100
AcDbCircle
 10
214.031461
 20
118.471064
 30
0.0
 40
3.500006
210
0.0
220
0.0
230
1.0
100
AcDbArc
 50
180.000053
 51
231.469036
  0
ARC
  5
B8
100
AcDbEntity
  8
257
390
0
  6
Continuous
 62
     4
100
AcDbCircle
 10
212.474113
 20
116.515381
 30
0.0
 40
1.0
210
0.0
220
0.0
230
1.0
100
AcDbArc
 50
231.469101
 51
301.890822
  0
LINE
  5
B9
100
AcDbEntity
  8
257
390
0
  6
Continuous
 62
     4
100
AcDbLine
 10
213.002415
 20
115.666325
 30
0.0
 11
214.711038
 21
116.729468
 31
0.0
  0
ARC
  5
BA
100
AcDbEntity
  8
257
390
0
  6
Continuous
 62
     4
100
AcDbCircle
 10
214.182737
 20
117.578524
 30
0.0
 40
1.0
210
0.0
220
0.0
230
1.0
100
AcDbArc
 50
301.890764
 51
353.75123
  0
ENDBLK
  5
BB
100
AcDbEntity
  8
0
390
0
100
AcDbBlockEnd
  0
BLOCK
  5
BF
100
AcDbEntity
  8
0
390
0
100
AcDbBlockBegin
  2
AID225
 70
     0
 10
0.0
 20
0.0
 30
0.0
  3
D_GROUP
  1

  0
LINE
  5
C0
100
AcDbEntity
  8
257
390
0
  6
Continuous
 62
   132
100
AcDbLine
 10
197.118509
 20
120.750977
 30
0.0
 11
203.751429
 21
127.383897
 31
0.0
  0
LINE
  5
C1
100
AcDbEntity
  8
257
390
0
  6
Continuous
 62
   132
100
AcDbLine
 10
196.831455
 20
117.635496
 30
0.0
 11
206.831932
 21
127.635973
 31
0.0
  0
LINE
  5
C2
100
AcDbEntity
  8
257
390
0
  6
Continuous
 62
   132
100
AcDbLine
 10
198.170895
 20
116.146509
 30
0.0
 11
201.694282
 21
119.669896
 31
0.0
  0
LINE
  5
C3
100
AcDbEntity
  8
257
390
0
  6
Continuous
 62
   132
100
AcDbLine
 10
204.832621
 20
122.808234
 30
0.0
 11
209.150461
 21
127.126074
 31
0.0
  0
LINE
  5
C4
100
AcDbEntity
  8
257
390
0
  6
Continuous
 62
   132
100
AcDbLine
 10
199.773484
 20
114.920671
 30
0.0
 11
201.493168
 21
116.640354
 31
0.0
  0
LINE
  5
C5
100
AcDbEntity
  8
257
390
0
  6
Continuous
 62
   132
100
AcDbLine
 10
207.557139
 20
122.704325
 30
0.0
 11
211.040522
 21
126.187708
 31
0.0
  0
LINE
  5
C6
100
AcDbEntity
  8
257
390
0
  6
Continuous
 62
   132
100
AcDbLine
 10
209.273277
 20
121.592036
 30
0.0
 11
212.596841
 21
124.915601
 31
0.0
  0
LINE
  5
C7
100
AcDbEntity
  8
257
390
0
  6
Continuous
 62
   132
100
AcDbLine
 10
210.325634
 20
119.815966
 30
0.0
 11
213.842042
 21
123.332374
 31
0.0
  0
LINE
  5
C8
100
AcDbEntity
  8
257
390
0
  6
Continuous
 62
   132
100
AcDbLine
 10
210.709022
 20
117.370927
 30
0.0
 11
214.749002
 21
121.410906
 31
0.0
  0
LINE
  5
C9
100
AcDbEntity
  8
257
390
0
  6
Continuous
 62
   132
100
AcDbLine
 10
211.878623
 20
115.712101
 30
0.0
 11
215.213351
 21
119.046829
 31
0.0
  0
ENDBLK
  5
CA
100
AcDbEntity
  8
0
390
0
100
AcDbBlockEnd
  0
BLOCK
  5
CE
100
AcDbEntity
  8
0
390
0
100
AcDbBlockBegin
  2
AID249
 70
     0
 10
0.0
 20
0.0
 30
0.0
  3
COMPOSIT
  1

  0
LINE
  5
CF
100
AcDbEntity
  8
257
390
0
  6
Continuous
 62
     4
100
AcDbLine
 10
224.081147
 20
114.471061
 30
0.0
 11
224.081147
 21
126.171061
 31
0.0
  0
LINE
  5
D0
100
AcDbEntity
  8
257
390
0
  6
Continuous
 62
     4
100
AcDbLine
 10
224.081147
 20
126.171061
 30
0.0
 11
229.117046
 21
126.171061
 31
0.0
  0
ARC
  5
D1
100
AcDbEntity
  8
257
390
0
  6
Continuous
 62
     4
100
AcDbCircle
 10
232.581148
 20
122.921064
 30
0.0
 40
4.749998
210
0.0
220
0.0
230
1.0
100
AcDbArc
 50
43.173522
 51
136.826478
  0
LINE
  5
D2
100
AcDbEntity
  8
257
390
0
  6
Continuous
 62
     4
100
AcDbLine
 10
236.045249
 20
126.171061
 30
0.0
 11
241.081147
 21
126.171061
 31
0.0
  0
LINE
  5
D3
100
AcDbEntity
  8
257
390
0
  6
Continuous
 62
     4
100
AcDbLine
 10
241.081147
 20
126.171061
 30
0.0
 11
241.081147
 21
114.471061
 31
0.0
  0
LINE
  5
D4
100
AcDbEntity
  8
257
390
0
  6
Continuous
 62
     4
100
AcDbLine
 10
241.081147
 20
114.471061
 30
0.0
 11
224.081147
 21
114.471061
 31
0.0
  0
ENDBLK
  5
D5
100
AcDbEntity
  8
0
390
0
100
AcDbBlockEnd
  0
BLOCK
  5
D8
100
AcDbEntity
  8
0
390
0
100
AcDbBlockBegin
  2
AID250
 70
     0
 10
0.0
 20
0.0
 30
0.0
  3
D_GROUP
  1

  0
LINE
  5
D9
100
AcDbEntity
  8
257
390
0
  6
Continuous
 62
   132
100
AcDbLine
 10
224.081147
 20
125.086198
 30
0.0
 11
225.166011
 21
126.171061
 31
0.0
  0
LINE
  5
DA
100
AcDbEntity
  8
257
390
0
  6
Continuous
 62
   132
100
AcDbLine
 10
224.081147
 20
122.257771
 30
0.0
 11
227.994438
 21
126.171061
 31
0.0
  0
LINE
  5
DB
100
AcDbEntity
  8
257
390
0
  6
Continuous
 62
   132
100
AcDbLine
 10
224.081147
 20
119.429344
 30
0.0
 11
232.315324
 21
127.663521
 31
0.0
  0
LINE
  5
DC
100
AcDbEntity
  8
257
390
0
  6
Continuous
 62
   132
100
AcDbLine
 10
224.081147
 20
116.600917
 30
0.0
 11
234.668082
 21
127.187852
 31
0.0
  0
LINE
  5
DD
100
AcDbEntity
  8
257
390
0
  6
Continuous
 62
   132
100
AcDbLine
 10
224.779719
 20
114.471061
 30
0.0
 11
236.479719
 21
126.171061
 31
0.0
  0
LINE
  5
DE
100
AcDbEntity
  8
257
390
0
  6
Continuous
 62
   132
100
AcDbLine
 10
227.608146
 20
114.471061
 30
0.0
 11
239.308146
 21
126.171061
 31
0.0
  0
LINE
  5
DF
100
AcDbEntity
  8
257
390
0
  6
Continuous
 62
   132
100
AcDbLine
 10
230.436573
 20
114.471061
 30
0.0
 11
241.081147
 21
125.115635
 31
0.0
  0
LINE
  5
E0
100
AcDbEntity
  8
257
390
0
  6
Continuous
 62
   132
100
AcDbLine
 10
233.265001
 20
114.471061
 30
0.0
 11
241.081147
 21
122.287208
 31
0.0
  0
LINE
  5
E1
100
AcDbEntity
  8
257
390
0
  6
Continuous
 62
   132
100
AcDbLine
 10
236.093428
 20
114.471061
 30
0.0
 11
241.081147
 21
119.458781
 31
0.0
  0
LINE
  5
E2
100
AcDbEntity
  8
257
390
0
  6
Continuous
 62
   132
100
AcDbLine
 10
238.921855
 20
114.471061
 30
0.0
 11
241.081147
 21
116.630354
 31
0.0
  0
ENDBLK
  5
E3
100
AcDbEntity
  8
0
390
0
100
AcDbBlockEnd
  0
ENDSEC
  0
SECTION
  2
ENTITIES
  0
MTEXT
  5
28
100
AcDbEntity
  8
1
390
0
 62
     2
100
AcDbMText
 10
230.846665
 20
100.32512
 30
0.0
 40
3.0
 41
57.15612
 71
     8
 72
     1
  1
ＳＳＫＴ－Ｄ９ＴＣ
210
0.0
220
0.0
230
1.0
 73
     1
 44
1.0
  0
LINE
  5
29
100
AcDbEntity
  8
1
390
0
  6
Continuous
 62
     7
100
AcDbLine
 10
200.531455
 20
117.171061
 30
0.0
 11
200.531455
 21
118.471061
 31
0.0
  0
LINE
  5
2A
100
AcDbEntity
  8
1
390
0
  6
Continuous
 62
     7
100
AcDbLine
 10
199.331455
 20
117.171061
 30
0.0
 11
199.331455
 21
118.471061
 31
0.0
  0
LINE
  5
2B
100
AcDbEntity
  8
1
390
0
  6
Continuous
 62
     7
100
AcDbLine
 10
183.231455
 20
114.471061
 30
0.0
 11
188.231444
 21
114.471061
 31
0.0
  0
LINE
  5
2C
100
AcDbEntity
  8
1
390
0
  6
Continuous
 62
     7
100
AcDbLine
 10
189.975554
 20
114.471061
 30
0.0
 11
197.831455
 21
114.471061
 31
0.0
  0
LINE
  5
2E
100
AcDbEntity
  8
1
390
0
  6
CENTER
 62
     3
100
AcDbLine
 10
206.031455
 20
128.686966
 30
0.0
 11
206.031455
 21
110.692843
 31
0.0
  0
LINE
  5
2F
100
AcDbEntity
  8
1
390
0
  6
CENTER
 62
     3
100
AcDbLine
 10
215.713527
 20
118.471061
 30
0.0
 11
195.270159
 21
118.471061
 31
0.0
  0
LINE
  5
30
100
AcDbEntity
  8
1
390
0
  6
CENTER
 62
     3
100
AcDbLine
 10
215.779247
 20
156.343923
 30
0.0
 11
181.812439
 21
156.343923
 31
0.0
  0
LINE
  5
31
100
AcDbEntity
  8
1
390
0
  6
Continuous
 62
     7
100
AcDbLine
 10
212.731455
 20
163.843923
 30
0.0
 11
212.731455
 21
159.343923
 31
0.0
  0
LINE
  5
32
100
AcDbEntity
  8
1
390
0
  6
Continuous
 62
     7
100
AcDbLine
 10
212.731455
 20
153.343923
 30
0.0
 11
212.731455
 21
148.843923
 31
0.0
  0
LINE
  5
33
100
AcDbEntity
  8
1
390
0
  6
Continuous
 62
     7
100
AcDbLine
 10
199.331455
 20
159.343923
 30
0.0
 11
199.331455
 21
163.843923
 31
0.0
  0
LINE
  5
34
100
AcDbEntity
  8
1
390
0
  6
Continuous
 62
     7
100
AcDbLine
 10
199.331455
 20
153.343923
 30
0.0
 11
199.331455
 21
148.843923
 31
0.0
  0
LINE
  5
35
100
AcDbEntity
  8
1
390
0
  6
Continuous
 62
     7
100
AcDbLine
 10
213.251455
 20
148.843923
 30
0.0
 11
190.731441
 21
148.843923
 31
0.0
  0
LINE
  5
36
100
AcDbEntity
  8
1
390
0
  6
Continuous
 62
     7
100
AcDbLine
 10
190.731411
 20
163.843887
 30
0.0
 11
213.251455
 21
163.843923
 31
0.0
  0
LINE
  5
37
100
AcDbEntity
  8
1
390
0
  6
CENTER
 62
     3
100
AcDbLine
 10
206.031455
 20
165.698844
 30
0.0
 11
206.031455
 21
146.958087
 31
0.0
  0
LINE
  5
38
100
AcDbEntity
  8
1
390
0
  6
CENTER
 62
     3
100
AcDbLine
 10
191.031455
 20
161.682599
 30
0.0
 11
191.031455
 21
151.051066
 31
0.0
  0
LINE
  5
39
100
AcDbEntity
  8
1
390
0
  6
CENTER
 62
     3
100
AcDbLine
 10
191.031455
 20
119.91843
 30
0.0
 11
191.031455
 21
110.805351
 31
0.0
  0
LINE
  5
3A
100
AcDbEntity
  8
1
390
0
  6
Continuous
 62
     7
100
AcDbLine
 10
183.231455
 20
161.343923
 30
0.0
 11
183.231455
 21
151.343923
 31
0.0
  0
LINE
  5
3B
100
AcDbEntity
  8
1
390
0
  6
Continuous
 62
     7
100
AcDbLine
 10
197.831455
 20
115.671061
 30
0.0
 11
183.231455
 21
115.671061
 31
0.0
  0
LINE
  5
3C
100
AcDbEntity
  8
1
390
0
  6
Continuous
 62
     7
100
AcDbLine
 10
193.108111
 20
158.843923
 30
0.0
 11
188.954799
 21
158.843923
 31
0.0
  0
LINE
  5
3D
100
AcDbEntity
  8
1
390
0
  6
Continuous
 62
     7
100
AcDbLine
 10
188.954799
 20
153.843923
 30
0.0
 11
193.108111
 21
153.843923
 31
0.0
  0
ARC
  5
3E
100
AcDbEntity
  8
1
390
0
  6
Continuous
 62
     7
100
AcDbCircle
 10
191.031455
 20
156.343923
 30
0.0
 40
3.25
210
0.0
220
0.0
230
1.0
100
AcDbArc
 50
129.715137
 51
230.284863
  0
ARC
  5
3F
100
AcDbEntity
  8
1
390
0
  6
Continuous
 62
     7
100
AcDbCircle
 10
191.031455
 20
156.343923
 30
0.0
 40
3.25
210
0.0
220
0.0
230
1.0
100
AcDbArc
 50
309.715137
 51
50.284863
  0
ARC
  5
40
100
AcDbEntity
  8
1
390
0
  6
Continuous
 62
     7
100
AcDbCircle
 10
201.581455
 20
156.343923
 30
0.0
 40
3.75
210
0.0
220
0.0
230
1.0
100
AcDbArc
 50
126.869898
 51
233.130102
  0
ARC
  5
41
100
AcDbEntity
  8
1
390
0
  6
Continuous
 62
     7
100
AcDbCircle
 10
210.481455
 20
156.343923
 30
0.0
 40
3.75
210
0.0
220
0.0
230
1.0
100
AcDbArc
 50
306.869898
 51
53.130102
  0
LINE
  5
42
100
AcDbEntity
  8
1
390
0
  6
Continuous
 62
     7
100
AcDbLine
 10
199.331455
 20
159.343923
 30
0.0
 11
212.731455
 21
159.343923
 31
0.0
  0
LINE
  5
43
100
AcDbEntity
  8
1
390
0
  6
Continuous
 62
     7
100
AcDbLine
 10
212.731455
 20
153.343923
 30
0.0
 11
199.331455
 21
153.343923
 31
0.0
  0
ARC
  5
44
100
AcDbEntity
  8
1
390
0
  6
Continuous
 62
     7
100
AcDbCircle
 10
206.031455
 20
118.471061
 30
0.0
 40
5.5
210
0.0
220
0.0
230
1.0
100
AcDbArc
 50
0.0
 51
180.0
  0
ARC
  5
45
100
AcDbEntity
  8
1
390
0
  6
Continuous
 62
     7
100
AcDbCircle
 10
206.031455
 20
118.471061
 30
0.0
 40
6.7
210
0.0
220
0.0
230
1.0
100
AcDbArc
 50
0.0
 51
180.0
  0
ARC
  5
46
100
AcDbEntity
  8
1
390
0
  6
Continuous
 62
     7
100
AcDbCircle
 10
206.031455
 20
118.471061
 30
0.0
 40
8.2
210
0.0
220
0.0
230
1.0
100
AcDbArc
 50
352.713594
 51
180.0
  0
ARC
  5
47
100
AcDbEntity
  8
1
390
0
  6
Continuous
 62
     7
100
AcDbCircle
 10
197.831455
 20
117.171061
 30
0.0
 40
1.5
210
0.0
220
0.0
230
1.0
100
AcDbArc
 50
270.0
 51
360.0
  0
ARC
  5
48
100
AcDbEntity
  8
1
390
0
  6
Continuous
 62
     7
100
AcDbCircle
 10
197.831455
 20
117.171061
 30
0.0
 40
2.7
210
0.0
220
0.0
230
1.0
100
AcDbArc
 50
270.0
 51
360.0
  0
LINE
  5
49
100
AcDbEntity
  8
1
390
0
  6
Continuous
 62
     7
100
AcDbLine
 10
197.831455
 20
118.471061
 30
0.0
 11
197.831455
 21
117.171061
 31
0.0
  0
ARC
  5
4A
100
AcDbEntity
  8
1
390
0
  6
Continuous
 62
     7
100
AcDbCircle
 10
196.331455
 20
117.171061
 30
0.0
 40
1.5
210
0.0
220
0.0
230
1.0
100
AcDbArc
 50
270.0
 51
360.0
  0
LINE
  5
4B
100
AcDbEntity
  8
1
390
0
  6
Continuous
 62
     7
100
AcDbLine
 10
183.231455
 20
115.671061
 30
0.0
 11
183.231455
 21
114.471061
 31
0.0
  0
ARC
  5
4C
100
AcDbEntity
  8
1
390
0
  6
Continuous
 62
     7
100
AcDbCircle
 10
214.031455
 20
118.471061
 30
0.0
 40
2.5
210
0.0
220
0.0
230
1.0
100
AcDbArc
 50
180.0
 51
233.130102
  0
ARC
  5
4D
100
AcDbEntity
  8
1
390
0
  6
Continuous
 62
     7
100
AcDbCircle
 10
214.031455
 20
118.471061
 30
0.0
 40
1.3
210
0.0
220
0.0
230
1.0
100
AcDbArc
 50
180.0
 51
233.130102
  0
LINE
  5
4E
100
AcDbEntity
  8
1
390
0
  6
Continuous
 62
     7
100
AcDbLine
 10
212.531455
 20
116.471061
 30
0.0
 11
213.251455
 21
117.431061
 31
0.0
  0
LINE
  5
4F
100
AcDbEntity
  8
1
390
0
  6
CENTER
 62
     3
100
AcDbLine
 10
232.581147
 20
128.664948
 30
0.0
 11
232.581147
 21
111.471061
 31
0.0
  0
LINE
  5
50
100
AcDbEntity
  8
1
390
0
  6
Continuous
 62
     7
100
AcDbLine
 10
225.081147
 20
125.171061
 30
0.0
 11
229.581147
 21
125.171061
 31
0.0
  0
LINE
  5
51
100
AcDbEntity
  8
1
390
0
  6
Continuous
 62
     7
100
AcDbLine
 10
235.581147
 20
125.171061
 30
0.0
 11
240.081147
 21
125.171061
 31
0.0
  0
INSERT
  5
5A
100
AcDbEntity
  8
1
390
0
100
AcDbBlockReference
  2
AID83
 10
0.0
 20
0.0
 30
0.0
  0
LINE
  5
5B
100
AcDbEntity
  8
1
390
0
  6
Continuous
 62
     7
100
AcDbLine
 10
225.081147
 20
114.471061
 30
0.0
 11
225.081147
 21
125.171061
 31
0.0
  0
ARC
  5
5C
100
AcDbEntity
  8
1
390
0
  6
Continuous
 62
     7
100
AcDbCircle
 10
232.581147
 20
122.921061
 30
0.0
 40
3.75
210
0.0
220
0.0
230
1.0
100
AcDbArc
 50
36.869898
 51
143.130102
  0
LINE
  5
5D
100
AcDbEntity
  8
1
390
0
  6
Continuous
 62
     7
100
AcDbLine
 10
229.581147
 20
114.471061
 30
0.0
 11
229.581147
 21
116.471061
 31
0.0
  0
LINE
  5
5E
100
AcDbEntity
  8
1
390
0
  6
Continuous
 62
     7
100
AcDbLine
 10
229.581147
 20
117.431061
 30
0.0
 11
229.581147
 21
125.171061
 31
0.0
  0
LINE
  5
5F
100
AcDbEntity
  8
1
390
0
  6
Continuous
 62
     7
100
AcDbLine
 10
235.581147
 20
125.171061
 30
0.0
 11
235.581147
 21
117.431061
 31
0.0
  0
LINE
  5
60
100
AcDbEntity
  8
1
390
0
  6
Continuous
 62
     7
100
AcDbLine
 10
235.581147
 20
116.471061
 30
0.0
 11
235.581147
 21
114.471061
 31
0.0
  0
LINE
  5
61
100
AcDbEntity
  8
1
390
0
  6
Continuous
 62
     7
100
AcDbLine
 10
225.081147
 20
114.471061
 30
0.0
 11
240.081147
 21
114.471061
 31
0.0
  0
LINE
  5
62
100
AcDbEntity
  8
1
390
0
  6
Continuous
 62
     7
100
AcDbLine
 10
237.581147
 20
114.471061
 30
0.0
 11
237.581147
 21
112.971061
 31
0.0
  0
LINE
  5
63
100
AcDbEntity
  8
1
390
0
  6
Continuous
 62
     7
100
AcDbLine
 10
237.581147
 20
112.971061
 30
0.0
 11
238.781147
 21
112.971061
 31
0.0
  0
LINE
  5
64
100
AcDbEntity
  8
1
390
0
  6
Continuous
 62
     7
100
AcDbLine
 10
238.781147
 20
112.971061
 30
0.0
 11
238.781147
 21
114.471061
 31
0.0
  0
LINE
  5
65
100
AcDbEntity
  8
1
390
0
  6
Continuous
 62
     7
100
AcDbLine
 10
227.581147
 20
114.471061
 30
0.0
 11
227.581147
 21
112.971061
 31
0.0
  0
LINE
  5
66
100
AcDbEntity
  8
1
390
0
  6
Continuous
 62
     7
100
AcDbLine
 10
227.581147
 20
112.971061
 30
0.0
 11
226.381147
 21
112.971061
 31
0.0
  0
LINE
  5
67
100
AcDbEntity
  8
1
390
0
  6
Continuous
 62
     7
100
AcDbLine
 10
226.381147
 20
112.971061
 30
0.0
 11
226.381147
 21
114.471061
 31
0.0
  0
LINE
  5
68
100
AcDbEntity
  8
1
390
0
  6
Continuous
 62
     7
100
AcDbLine
 10
227.581147
 20
117.431061
 30
0.0
 11
237.581147
 21
117.431061
 31
0.0
  0
LINE
  5
69
100
AcDbEntity
  8
1
390
0
  6
Continuous
 62
     7
100
AcDbLine
 10
237.581147
 20
116.471061
 30
0.0
 11
227.581147
 21
116.471061
 31
0.0
  0
LINE
  5
6A
100
AcDbEntity
  8
1
390
0
  6
Continuous
 62
     7
100
AcDbLine
 10
225.081147
 20
119.931061
 30
0.0
 11
227.581147
 21
117.431061
 31
0.0
  0
LINE
  5
6B
100
AcDbEntity
  8
1
390
0
  6
Continuous
 62
     7
100
AcDbLine
 10
237.581147
 20
117.431061
 30
0.0
 11
240.081147
 21
119.931061
 31
0.0
  0
LINE
  5
6C
100
AcDbEntity
  8
1
390
0
  6
Continuous
 62
     7
100
AcDbLine
 10
211.399284
 20
119.669569
 30
0.0
 11
212.570446
 21
119.931061
 31
0.0
  0
LINE
  5
6D
100
AcDbEntity
  8
1
390
0
  6
Continuous
 62
     7
100
AcDbLine
 10
213.251455
 20
117.431061
 30
0.0
 11
214.231455
 21
117.431061
 31
0.0
  0
LINE
  5
6E
100
AcDbEntity
  8
1
390
0
  6
Continuous
 62
     7
100
AcDbLine
 10
213.251455
 20
163.843923
 30
0.0
 11
213.251455
 21
158.871689
 31
0.0
  0
LINE
  5
6F
100
AcDbEntity
  8
1
390
0
  6
Continuous
 62
     7
100
AcDbLine
 10
213.251455
 20
153.816158
 30
0.0
 11
213.251455
 21
148.843923
 31
0.0
  0
LINE
  5
70
100
AcDbEntity
  8
1
390
0
  6
Continuous
 62
     7
100
AcDbLine
 10
194.281455
 20
115.671061
 30
0.0
 11
194.281455
 21
114.871061
 31
0.0
  0
LINE
  5
71
100
AcDbEntity
  8
1
390
0
  6
Continuous
 62
     7
100
AcDbLine
 10
225.081147
 20
118.971061
 30
0.0
 11
227.581147
 21
116.471061
 31
0.0
  0
LINE
  5
72
100
AcDbEntity
  8
1
390
0
  6
Continuous
 62
     7
100
AcDbLine
 10
237.581147
 20
116.471061
 30
0.0
 11
240.081147
 21
118.971061
 31
0.0
  0
LINE
  5
73
100
AcDbEntity
  8
1
390
0
  6
Continuous
 62
     7
100
AcDbLine
 10
227.581147
 20
117.431061
 30
0.0
 11
227.581147
 21
116.471061
 31
0.0
  0
LINE
  5
74
100
AcDbEntity
  8
1
390
0
  6
Continuous
 62
     7
100
AcDbLine
 10
237.581147
 20
117.431061
 30
0.0
 11
237.581147
 21
116.471061
 31
0.0
  0
LINE
  5
75
100
AcDbEntity
  8
1
390
0
  6
Continuous
 62
     7
100
AcDbLine
 10
184.231455
 20
161.343923
 30
0.0
 11
183.231455
 21
161.343923
 31
0.0
  0
LINE
  5
76
100
AcDbEntity
  8
1
390
0
  6
Continuous
 62
     7
100
AcDbLine
 10
186.731427
 20
163.843895
 30
0.0
 11
184.231455
 21
161.343923
 31
0.0
  0
LINE
  5
77
100
AcDbEntity
  8
1
390
0
  6
Continuous
 62
     7
100
AcDbLine
 10
190.731445
 20
163.843928
 30
0.0
 11
189.124481
 21
161.928785
 31
0.0
  0
LINE
  5
78
100
AcDbEntity
  8
1
390
0
  6
Continuous
 62
     7
100
AcDbLine
 10
184.231455
 20
151.343923
 30
0.0
 11
183.231455
 21
151.343923
 31
0.0
  0
LINE
  5
79
100
AcDbEntity
  8
1
390
0
  6
Continuous
 62
     7
100
AcDbLine
 10
186.731427
 20
148.843952
 30
0.0
 11
184.231455
 21
151.343923
 31
0.0
  0
LINE
  5
7A
100
AcDbEntity
  8
1
390
0
  6
Continuous
 62
     7
100
AcDbLine
 10
189.124481
 20
161.928785
 30
0.0
 11
188.231438
 21
163.843923
 31
0.0
  0
LINE
  5
7B
100
AcDbEntity
  8
1
390
0
  6
Continuous
 62
     7
100
AcDbLine
 10
189.555491
 20
163.843923
 30
0.0
 11
189.97556
 21
162.943082
 31
0.0
  0
LINE
  5
7C
100
AcDbEntity
  8
1
390
0
  6
Continuous
 62
     7
100
AcDbLine
 10
186.731427
 20
163.843895
 30
0.0
 11
189.555491
 21
163.843923
 31
0.0
  0
LINE
  5
7D
100
AcDbEntity
  8
1
390
0
  6
Continuous
 62
     7
100
AcDbLine
 10
190.731445
 20
148.843919
 30
0.0
 11
189.124481
 21
150.759062
 31
0.0
  0
LINE
  5
7E
100
AcDbEntity
  8
1
390
0
  6
Continuous
 62
     7
100
AcDbLine
 10
189.124481
 20
150.759062
 30
0.0
 11
188.231438
 21
148.843923
 31
0.0
  0
LINE
  5
7F
100
AcDbEntity
  8
1
390
0
  6
Continuous
 62
     7
100
AcDbLine
 10
189.555491
 20
148.843924
 30
0.0
 11
189.97556
 21
149.744765
 31
0.0
  0
LINE
  5
80
100
AcDbEntity
  8
1
390
0
  6
Continuous
 62
     7
100
AcDbLine
 10
186.731427
 20
148.843952
 30
0.0
 11
189.555491
 21
148.843923
 31
0.0
  0
LINE
  5
81
100
AcDbEntity
  8
1
390
0
  6
Continuous
 62
     7
100
AcDbLine
 10
187.781455
 20
115.671061
 30
0.0
 11
187.781455
 21
114.871061
 31
0.0
  0
LINE
  5
82
100
AcDbEntity
  8
1
390
0
  6
Continuous
 62
     7
100
AcDbLine
 10
186.731427
 20
115.671061
 30
0.0
 11
186.731427
 21
114.471059
 31
0.0
  0
LINE
  5
83
100
AcDbEntity
  8
1
390
0
  6
Continuous
 62
     7
100
AcDbLine
 10
184.231455
 20
115.671061
 30
0.0
 11
184.231455
 21
114.471057
 31
0.0
  0
LINE
  5
84
100
AcDbEntity
  8
1
390
0
  6
Continuous
 62
     7
100
AcDbLine
 10
189.765519
 20
112.971061
 30
0.0
 11
188.459241
 21
112.971061
 31
0.0
  0
LINE
  5
85
100
AcDbEntity
  8
1
390
0
  6
Continuous
 62
     7
100
AcDbLine
 10
189.51036
 20
114.651233
 30
0.0
 11
189.765519
 21
112.971061
 31
0.0
  0
LINE
  5
86
100
AcDbEntity
  8
1
390
0
  6
Continuous
 62
     7
100
AcDbLine
 10
189.765519
 20
112.971061
 30
0.0
 11
189.975554
 21
114.471061
 31
0.0
  0
ARC
  5
87
100
AcDbEntity
  8
1
390
0
  6
Continuous
 62
     7
100
AcDbCircle
 10
188.323963
 20
114.471061
 30
0.0
 40
1.2
210
0.0
220
0.0
230
0.9999999999999999
100
AcDbArc
 50
8.635225
 51
90.0
  0
LINE
  5
88
100
AcDbEntity
  8
1
390
0
  6
Continuous
 62
     7
100
AcDbLine
 10
188.231444
 20
114.471061
 30
0.0
 11
188.459241
 21
112.971061
 31
0.0
  0
ARC
  5
89
100
AcDbEntity
  8
1
390
0
  6
Continuous
 62
     7
100
AcDbCircle
 10
188.775554
 20
114.471061
 30
0.0
 40
1.2
210
0.0
220
0.0
230
1.0
100
AcDbArc
 50
0.0
 51
90.0
  0
LINE
  5
8A
100
AcDbEntity
  8
1
390
0
  6
Continuous
 62
     7
100
AcDbLine
 10
190.731439
 20
115.671061
 30
0.0
 11
190.731439
 21
114.471061
 31
0.0
  0
INSERT
  5
97
100
AcDbEntity
  8
257
390
0
100
AcDbBlockReference
  2
AID181
 10
0.0
 20
0.0
 30
0.0
  0
ARC
  5
98
100
AcDbEntity
  8
257
390
0
  6
Continuous
 62
     4
100
AcDbCircle
 10
210.481455
 20
156.343923
 30
0.0
 40
4.75
210
0.0
220
0.0
230
1.0
100
AcDbArc
 50
322.531152
 51
37.468848
  0
LINE
  5
99
100
AcDbEntity
  8
257
390
0
  6
Continuous
 62
     4
100
AcDbLine
 10
214.251455
 20
153.454356
 30
0.0
 11
214.251455
 21
147.843923
 31
0.0
  0
LINE
  5
9A
100
AcDbEntity
  8
257
390
0
  6
Continuous
 62
     4
100
AcDbLine
 10
214.251455
 20
147.843923
 30
0.0
 11
198.331455
 21
147.843923
 31
0.0
  0
ARC
  5
9B
100
AcDbEntity
  8
257
390
0
  6
Continuous
 62
     4
100
AcDbCircle
 10
201.581455
 20
156.343923
 30
0.0
 40
4.75
210
0.0
220
0.0
230
1.0
100
AcDbArc
 50
133.173551
 51
226.826449
  0
LINE
  5
9C
100
AcDbEntity
  8
257
390
0
  6
Continuous
 62
     4
100
AcDbLine
 10
198.331455
 20
152.879822
 30
0.0
 11
198.331455
 21
147.843923
 31
0.0
  0
LINE
  5
9D
100
AcDbEntity
  8
257
390
0
  6
Continuous
 62
     4
100
AcDbLine
 10
214.251455
 20
164.843925
 30
0.0
 11
214.251455
 21
159.233491
 31
0.0
  0
LINE
  5
9E
100
AcDbEntity
  8
257
390
0
  6
Continuous
 62
     4
100
AcDbLine
 10
198.331455
 20
159.808025
 30
0.0
 11
198.331455
 21
164.8439
 31
0.0
  0
INSERT
  5
AE
100
AcDbEntity
  8
257
390
0
100
AcDbBlockReference
  2
AID196
 10
0.0
 20
0.0
 30
0.0
  0
INSERT
  5
BC
100
AcDbEntity
  8
257
390
0
100
AcDbBlockReference
  2
AID222
 10
0.0
 20
0.0
 30
0.0
  0
LINE
  5
BD
100
AcDbEntity
  8
257
390
0
  6
Continuous
 62
     4
100
AcDbLine
 10
200.361278
 20
114.471061
 30
0.0
 11
196.831455
 21
117.171061
 31
0.0
  0
INSERT
  5
CB
100
AcDbEntity
  8
257
390
0
100
AcDbBlockReference
  2
AID225
 10
0.0
 20
0.0
 30
0.0
  0
LINE
  5
CC
100
AcDbEntity
  8
257
390
0
  6
Continuous
 62
     4
100
AcDbLine
 10
224.081147
 20
114.471061
 30
0.0
 11
241.081147
 21
114.471061
 31
0.0
  0
INSERT
  5
D6
100
AcDbEntity
  8
257
390
0
100
AcDbBlockReference
  2
AID249
 10
0.0
 20
0.0
 30
0.0
  0
INSERT
  5
E4
100
AcDbEntity
  8
257
390
0
100
AcDbBlockReference
  2
AID250
 10
0.0
 20
0.0
 30
0.0
  0
ENDSEC
  0
SECTION
  2
OBJECTS
  0
DICTIONARY
  5
19
100
AcDbDictionary
280
     0
281
     1
  3
ACAD_GROUP
350
1A
  3
ACAD_MLINESTYLE
350
1B
  3
ACAD_LAYOUT
350
1E
  3
ACAD_PLOTSETTINGS
350
22
  3
ACAD_PLOTSTYLENAME
350
1F
  3
ACAD_WIPEOUT_VARS
350
23
  0
DICTIONARY
  5
1A
102
{ACAD_REACTORS
330
19
102
}
100
AcDbDictionary
280
     0
281
     1
  0
DICTIONARY
  5
1B
102
{ACAD_REACTORS
330
19
102
}
100
AcDbDictionary
280
     0
281
     1
  3
Standard
350
1C
  0
MLINESTYLE
  5
1C
102
{ACAD_REACTORS
330
1B
102
}
100
AcDbMlineStyle
  2
Standard
 70
     0
  3

 62
     0
 51
90.0
 52
90.0
 71
     2
 49
0.5
 62
   256
  6
ByLayer
 49
-0.5
 62
   256
  6
ByLayer
  0
ACDBDICTIONARYWDFLT
  5
1F
102
{ACAD_REACTORS
330
19
102
}
100
AcDbDictionary
281
     1
  3
Normal
350
1D
100
AcDbDictionaryWithDefault
340
1D
  0
ACDBPLACEHOLDER
  5
1D
102
{ACAD_REACTORS
330
1F
102
}
  0
LAYOUT
  5
20
102
{ACAD_REACTORS
330
1E
102
}
100
AcDbPlotSettings
  1

  2

  4

  6

 40
0.0
 41
0.0
 42
0.0
 43
0.0
 44
0.0
 45
0.0
 46
0.0
 47
0.0
 48
0.0
 49
0.0
140
0.0
141
0.0
142
1.0
143
1.0
 70
  1024
 72
     0
 73
     0
 74
     0
  7

 75
     0
147
1.0
148
0.0
149
0.0
100
AcDbLayout
  1
Model
 70
     0
 71
     1
 10
0.0
 20
0.0
 11
0.0
 21
0.0
 12
0.0
 22
0.0
 32
0.0
 14
0.0
 24
0.0
 34
0.0
 15
0.0
 25
0.0
 35
0.0
146
0.0
 13
0.0
 23
0.0
 33
0.0
 16
0.0
 26
0.0
 36
0.0
 17
0.0
 27
0.0
 37
0.0
 76
     0
330
A
331
0
345
0
346
0
  0
LAYOUT
  5
21
102
{ACAD_REACTORS
330
1E
102
}
100
AcDbPlotSettings
  1

  2

  4

  6

 40
0.0
 41
0.0
 42
0.0
 43
0.0
 44
0.0
 45
0.0
 46
0.0
 47
0.0
 48
0.0
 49
0.0
140
0.0
141
0.0
142
1.0
143
1.0
 70
     0
 72
     0
 73
     0
 74
     0
  7

 75
     0
147
1.0
148
0.0
149
0.0
100
AcDbLayout
  1
Layout1
 70
     0
 71
     2
 10
0.0
 20
0.0
 11
0.0
 21
0.0
 12
0.0
 22
0.0
 32
0.0
 14
0.0
 24
0.0
 34
0.0
 15
0.0
 25
0.0
 35
0.0
146
0.0
 13
0.0
 23
0.0
 33
0.0
 16
0.0
 26
0.0
 36
0.0
 17
0.0
 27
0.0
 37
0.0
 76
     0
330
B
331
0
345
0
346
0
  0
DICTIONARY
  5
1E
102
{ACAD_REACTORS
330
19
102
}
100
AcDbDictionary
280
     0
281
     1
  3
Layout1
350
21
  3
Model
350
20
  0
DICTIONARY
  5
22
102
{ACAD_REACTORS
330
19
102
}
100
AcDbDictionary
280
     0
281
     1
  0
WIPEOUTVARIABLES
  5
23
100
AcDbWipeoutVariables
 70
     1
  0
ENDSEC
  0
EOF
