  0
SECTION
  2
HEADER
  9
$ACADVER
  1
AC1004
  9
$INSBASE
 10
0.0
 20
0.0
  9
$EXTMIN
 10
122.5
 20
90.03636363636363
  9
$EXTMAX
 10
217.9214410727273
 20
168.0
  9
$LIMMIN
 10
0.0
 20
0.0
  9
$LIMMAX
 10
12.0
 20
9.0
  9
$ORTHOMODE
 70
     0
  9
$REGENMODE
 70
     1
  9
$FILLMODE
 70
     1
  9
$QTEXTMODE
 70
     0
  9
$DRAGMODE
 70
     2
  9
$LTSCALE
 40
1.0
  9
$OSMODE
 70
    37
  9
$ATTMODE
 70
     1
  9
$TEXTSIZE
 40
0.2
  9
$TRACEWID
 40
0.05
  9
$TEXTSTYLE
  7
STANDARD
  9
$CLAYER
  8
0
  9
$CELTYPE
  6
BYLAYER
  9
$CECOLOR
 62
   256
  9
$DIMSCALE
 40
1.0
  9
$DIMASZ
 40
1.2
  9
$DIMEXO
 40
0.0625
  9
$DIMDLI
 40
0.38
  9
$DIMRND
 40
0.0
  9
$DIMDLE
 40
0.0
  9
$DIMEXE
 40
0.6
  9
$DIMTP
 40
0.0
  9
$DIMTM
 40
0.0
  9
$DIMTXT
 40
4.0
  9
$DIMCEN
 40
0.09
  9
$DIMTSZ
 40
0.0
  9
$DIMTOL
 70
     0
  9
$DIMLIM
 70
     0
  9
$DIMTIH
 70
     1
  9
$DIMTOH
 70
     1
  9
$DIMSE1
 70
     0
  9
$DIMSE2
 70
     0
  9
$DIMTAD
 70
     1
  9
$DIMZIN
 70
     0
  9
$DIMBLK
  1

  9
$DIMASO
 70
     1
  9
$DIMSHO
 70
     1
  9
$DIMPOST
  1

  9
$DIMAPOST
  1

  9
$DIMALT
 70
     0
  9
$DIMALTD
 70
     2
  9
$DIMALTF
 40
25.4
  9
$DIMLFAC
 40
1.0
  9
$DIMTOFL
 70
     0
  9
$DIMTVP
 40
0.0
  9
$DIMTIX
 70
     0
  9
$DIMSOXD
 70
     0
  9
$DIMSAH
 70
     0
  9
$DIMBLK1
  1

  9
$DIMBLK2
  1

  9
$LUNITS
 70
     2
  9
$LUPREC
 70
     4
  9
$SKETCHINC
 40
0.1
  9
$FILLETRAD
 40
0.5
  9
$AUNITS
 70
     0
  9
$AUPREC
 70
     0
  9
$MENU
  1
.
  9
$ELEVATION
 40
0.0
  9
$THICKNESS
 40
0.0
  9
$LIMCHECK
 70
     0
  9
$CHAMFERA
 40
0.0
  9
$CHAMFERB
 40
0.0
  9
$SKPOLY
 70
     0
  9
$TDCREATE
 40
2459730.568363264
  9
$TDUPDATE
 40
2459730.568363437
  9
$TDINDWG
 40
0.0000000116
  9
$TDUSRTIMER
 40
0.0000000116
  9
$USRTIMER
 70
     1
  9
$ANGBASE
 50
0.0
  9
$ANGDIR
 70
     0
  9
$PDMODE
 70
     0
  9
$PDSIZE
 40
0.0
  9
$PLINEWID
 40
0.0
  9
$COORDS
 70
     1
  9
$SPLFRAME
 70
     0
  9
$SPLINETYPE
 70
     6
  9
$SPLINESEGS
 70
     8
  9
$ATTDIA
 70
     0
  9
$ATTREQ
 70
     1
  9
$SURFTAB1
 70
     6
  9
$SURFTAB2
 70
     6
  9
$SURFTYPE
 70
     6
  9
$SURFU
 70
     6
  9
$SURFV
 70
     6
  9
$UCSNAME
  2

  9
$UCSORG
 10
0.0
 20
0.0
 30
0.0
  9
$UCSXDIR
 10
1.0
 20
0.0
 30
0.0
  9
$UCSYDIR
 10
0.0
 20
1.0
 30
0.0
  9
$USERI1
 70
     0
  9
$USERI2
 70
     0
  9
$USERI3
 70
     0
  9
$USERI4
 70
     0
  9
$USERI5
 70
     0
  9
$USERR1
 40
0.0
  9
$USERR2
 40
0.0
  9
$USERR3
 40
0.0
  9
$USERR4
 40
0.0
  9
$USERR5
 40
0.0
  9
$WORLDVIEW
 70
     1
  0
ENDSEC
  0
SECTION
  2
TABLES
  0
TABLE
  2
LTYPE
 70
     2
  0
LTYPE
  2
CONTINUOUS
 70
     0
  3
Solid line
 72
    65
 73
     0
 40
0.0
  0
LTYPE
  2
CENTER
 70
     0
  3

 72
    65
 73
     0
 40
0.0
  0
ENDTAB
  0
TABLE
  2
LAYER
 70
     2
  0
LAYER
  2
0
 70
     0
 62
     7
  6
CONTINUOUS
  0
LAYER
  2
1
 70
     0
 62
     7
  6
CONTINUOUS
  0
ENDTAB
  0
TABLE
  2
STYLE
 70
     2
  0
STYLE
  2
STANDARD
 70
     0
 40
0.0
 41
1.0
 50
0.0
 71
     0
 42
0.2
  3
txt
  4

  0
STYLE
  2
ＭＳ_ゴシック
 70
     0
 40
0.0
 41
1.0
 50
0.0
 71
     0
 42
0.2
  3
ＭＳ ゴシック.shx
  4

  0
ENDTAB
  0
TABLE
  2
VIEW
 70
     0
  0
ENDTAB
  0
ENDSEC
  0
SECTION
  2
BLOCKS
  0
ENDSEC
  0
SECTION
  2
ENTITIES
  0
ARC
  8
1
  6
CONTINUOUS
 62
     7
 10
142.7
 20
157.0
 40
2.5
 50
126.8698976458
 51
233.1301023542
  0
ARC
  8
1
  6
CONTINUOUS
 62
     7
 10
150.0
 20
111.5
 40
8.8
 50
0.0
 51
180.0
  0
LINE
  8
1
  6
CENTER
 62
     1
 10
122.5
 20
157.0
 11
177.5
 21
157.0
  0
ARC
  8
1
  6
CONTINUOUS
 62
     7
 10
150.0
 20
111.5
 40
9.8
 50
0.0
 51
180.0
  0
LINE
  8
1
  6
CONTINUOUS
 62
     7
 10
138.0
 20
105.0
 11
127.5
 21
105.0
  0
ARC
  8
1
  6
CONTINUOUS
 62
     7
 10
138.0
 20
109.0
 40
3.2
 50
270.0
 51
0.0
  0
ARC
  8
1
  6
CONTINUOUS
 62
     7
 10
200.0
 20
118.8
 40
2.5
 50
36.86989799999999
 51
143.130102
  0
ARC
  8
1
  6
CONTINUOUS
 62
     7
 10
162.0
 20
109.0
 40
4.0
 50
180.0
 51
270.0
  0
ARC
  8
1
  6
CONTINUOUS
 62
     7
 10
163.0
 20
108.8397368307
 40
3.2
 50
180.0
 51
251.7900431357
  0
LINE
  8
1
  6
CONTINUOUS
 62
     7
 10
206.0
 20
105.0
 11
206.0
 21
120.3
  0
LINE
  8
1
  6
CONTINUOUS
 62
     7
 10
141.2
 20
159.0
 11
158.8
 21
159.0
  0
ARC
  8
1
  6
CONTINUOUS
 62
     7
 10
150.0
 20
111.5
 40
8.0
 50
0.0
 51
180.0
  0
LINE
  8
1
  6
CENTER
 62
     1
 10
200.0
 20
98.5
 11
200.0
 21
124.5
  0
LINE
  8
1
  6
CONTINUOUS
 62
     7
 10
158.8
 20
163.0
 11
158.8
 21
159.0
  0
LINE
  8
1
  6
CONTINUOUS
 62
     7
 10
194.0
 20
105.0
 11
194.0
 21
120.3
  0
LINE
  8
1
  6
CONTINUOUS
 62
     7
 10
129.5
 20
163.0
 11
170.5
 21
163.0
  0
ARC
  8
1
  6
CONTINUOUS
 62
     7
 10
162.0
 20
109.0
 40
3.2
 50
180.0
 51
270.0
  0
ARC
  8
1
  6
CONTINUOUS
 62
     7
 10
137.0
 20
108.8397368307
 40
3.2
 50
288.2099568643
 51
0.0
  0
LINE
  8
1
  6
CONTINUOUS
 62
     7
 10
198.0
 20
105.8
 11
198.0
 21
120.3
  0
LINE
  8
1
  6
CONTINUOUS
 62
     7
 10
141.2
 20
109.0
 11
141.2
 21
111.5
  0
LINE
  8
1
  6
CONTINUOUS
 62
     7
 10
158.8
 20
155.0
 11
141.2
 21
155.0
  0
ARC
  8
1
  6
CONTINUOUS
 62
     7
 10
162.5
 20
157.0
 40
10.0
 50
323.1301023542
 51
36.86989764579999
  0
LINE
  8
1
  6
CONTINUOUS
 62
     7
 10
194.0
 20
105.8
 11
206.0
 21
105.8
  0
ARC
  8
1
  6
CONTINUOUS
 62
     7
 10
137.5
 20
157.0
 40
10.0
 50
143.1301023542
 51
216.8698976458
  0
LINE
  8
1
  6
CONTINUOUS
 62
     7
 10
172.5
 20
105.0
 11
172.5
 21
105.8
  0
LINE
  8
1
  6
CONTINUOUS
 62
     7
 10
172.5
 20
105.8
 11
162.0
 21
105.8
  0
LINE
  8
1
  6
CONTINUOUS
 62
     7
 10
127.5
 20
105.8
 11
138.0
 21
105.8
  0
LINE
  8
1
  6
CONTINUOUS
 62
     7
 10
158.0
 20
111.5
 11
158.0
 21
109.0
  0
LINE
  8
1
  6
CONTINUOUS
 62
     7
 10
206.0
 20
105.0
 11
194.0
 21
105.0
  0
LINE
  8
1
  6
CONTINUOUS
 62
     7
 10
129.5
 20
151.0
 11
170.5
 21
151.0
  0
LINE
  8
1
  6
CONTINUOUS
 62
     7
 10
162.0
 20
105.0
 11
172.5
 21
105.0
  0
LINE
  8
1
  6
CONTINUOUS
 62
     7
 10
142.0
 20
111.5
 11
142.0
 21
109.0
  0
ARC
  8
1
  6
CONTINUOUS
 62
     7
 10
138.0
 20
109.0
 40
4.0
 50
270.0
 51
0.0
  0
LINE
  8
1
  6
CONTINUOUS
 62
     7
 10
194.0
 20
120.3
 11
198.0
 21
120.3
  0
ARC
  8
1
  6
CONTINUOUS
 62
     7
 10
200.0
 20
104.3
 40
2.5
 50
36.86989799999999
 51
143.130102
  0
LINE
  8
1
  6
CONTINUOUS
 62
     7
 10
140.2
 20
111.5
 11
140.2
 21
108.8397368307
  0
LINE
  8
1
  6
CONTINUOUS
 62
     7
 10
127.5
 20
105.0
 11
127.5
 21
105.8
  0
LINE
  8
1
  6
CONTINUOUS
 62
     7
 10
206.0
 20
120.3
 11
202.0
 21
120.3
  0
LINE
  8
1
  6
CONTINUOUS
 62
     7
 10
158.8
 20
109.0
 11
158.8
 21
111.5
  0
LINE
  8
1
  6
CONTINUOUS
 62
     7
 10
158.8
 20
155.0
 11
158.8
 21
151.0
  0
LINE
  8
1
  6
CONTINUOUS
 62
     7
 10
141.2
 20
163.0
 11
141.2
 21
159.0
  0
LINE
  8
1
  6
CONTINUOUS
 62
     7
 10
159.8
 20
111.5
 11
159.8
 21
108.8397368307
  0
LINE
  8
1
  6
CENTER
 62
     1
 10
137.0
 20
111.5
 11
163.0
 21
111.5
  0
LINE
  8
1
  6
CONTINUOUS
 62
     7
 10
141.2
 20
155.0
 11
141.2
 21
151.0
  0
LINE
  8
1
  6
CENTER
 62
     1
 10
150.0
 20
98.5
 11
150.0
 21
124.5
  0
LINE
  8
1
  6
CENTER
 62
     1
 10
150.0
 20
146.0
 11
150.0
 21
168.0
  0
ARC
  8
1
  6
CONTINUOUS
 62
     7
 10
157.3
 20
157.0
 40
2.5
 50
306.8698976458
 51
53.1301023542
  0
LINE
  8
1
  6
CONTINUOUS
 62
     7
 10
202.0
 20
105.8
 11
202.0
 21
120.3
  0
CIRCLE
  8
1
  6
CONTINUOUS
 62
     7
 10
167.0
 20
157.0
 40
2.500000000000002
  0
CIRCLE
  8
1
  6
CONTINUOUS
 62
     7
 10
133.0
 20
157.0
 40
2.500000000000002
  0
TEXT
  8
1
  6
CONTINUOUS
 62
     7
 10
200.0898640298862
 20
89.58031761910716
 40
4.0
  1
SST-15
 41
1.309003
  0
ENDSEC
  0
EOF
