  0
SECTION
  2
HEADER
  9
$ACADVER
  1
AC1004
  9
$INSBASE
 10
0.0
 20
0.0
  9
$EXTMIN
 10
-20.0
 20
-27.679254
  9
$EXTMAX
 10
77.4913880909091
 20
55.75
  9
$LIMMIN
 10
0.0
 20
0.0
  9
$LIMMAX
 10
12.0
 20
9.0
  9
$ORTHOMODE
 70
     0
  9
$REGENMODE
 70
     1
  9
$FILLMODE
 70
     1
  9
$QTEXTMODE
 70
     0
  9
$DRAGMODE
 70
     2
  9
$LTSCALE
 40
1.0
  9
$OSMODE
 70
    37
  9
$ATTMODE
 70
     1
  9
$TEXTSIZE
 40
0.2
  9
$TRACEWID
 40
0.05
  9
$TEXTSTYLE
  7
STANDARD
  9
$CLAYER
  8
0
  9
$CELTYPE
  6
BYLAYER
  9
$CECOLOR
 62
   256
  9
$DIMSCALE
 40
1.0
  9
$DIMASZ
 40
3.0
  9
$DIMEXO
 40
0.0625
  9
$DIMDLI
 40
0.38
  9
$DIMRND
 40
0.0
  9
$DIMDLE
 40
0.0
  9
$DIMEXE
 40
1.5
  9
$DIMTP
 40
0.0
  9
$DIMTM
 40
0.0
  9
$DIMTXT
 40
3.5
  9
$DIMCEN
 40
0.09
  9
$DIMTSZ
 40
0.0
  9
$DIMTOL
 70
     0
  9
$DIMLIM
 70
     0
  9
$DIMTIH
 70
     1
  9
$DIMTOH
 70
     1
  9
$DIMSE1
 70
     0
  9
$DIMSE2
 70
     0
  9
$DIMTAD
 70
     1
  9
$DIMZIN
 70
     0
  9
$DIMBLK
  1

  9
$DIMASO
 70
     1
  9
$DIMSHO
 70
     1
  9
$DIMPOST
  1

  9
$DIMAPOST
  1

  9
$DIMALT
 70
     0
  9
$DIMALTD
 70
     2
  9
$DIMALTF
 40
25.4
  9
$DIMLFAC
 40
1.0
  9
$DIMTOFL
 70
     0
  9
$DIMTVP
 40
0.0
  9
$DIMTIX
 70
     0
  9
$DIMSOXD
 70
     0
  9
$DIMSAH
 70
     0
  9
$DIMBLK1
  1

  9
$DIMBLK2
  1

  9
$LUNITS
 70
     2
  9
$LUPREC
 70
     4
  9
$SKETCHINC
 40
0.1
  9
$FILLETRAD
 40
0.5
  9
$AUNITS
 70
     0
  9
$AUPREC
 70
     0
  9
$MENU
  1
.
  9
$ELEVATION
 40
0.0
  9
$THICKNESS
 40
0.0
  9
$LIMCHECK
 70
     0
  9
$CHAMFERA
 40
0.0
  9
$CHAMFERB
 40
0.0
  9
$SKPOLY
 70
     0
  9
$TDCREATE
 40
2459730.570018333
  9
$TDUPDATE
 40
2459730.570018449
  9
$TDINDWG
 40
0.0000000116
  9
$TDUSRTIMER
 40
0.0000000116
  9
$USRTIMER
 70
     1
  9
$ANGBASE
 50
0.0
  9
$ANGDIR
 70
     0
  9
$PDMODE
 70
     0
  9
$PDSIZE
 40
0.0
  9
$PLINEWID
 40
0.0
  9
$COORDS
 70
     1
  9
$SPLFRAME
 70
     0
  9
$SPLINETYPE
 70
     6
  9
$SPLINESEGS
 70
     8
  9
$ATTDIA
 70
     0
  9
$ATTREQ
 70
     1
  9
$SURFTAB1
 70
     6
  9
$SURFTAB2
 70
     6
  9
$SURFTYPE
 70
     6
  9
$SURFU
 70
     6
  9
$SURFV
 70
     6
  9
$UCSNAME
  2

  9
$UCSORG
 10
0.0
 20
0.0
 30
0.0
  9
$UCSXDIR
 10
1.0
 20
0.0
 30
0.0
  9
$UCSYDIR
 10
0.0
 20
1.0
 30
0.0
  9
$USERI1
 70
     0
  9
$USERI2
 70
     0
  9
$USERI3
 70
     0
  9
$USERI4
 70
     0
  9
$USERI5
 70
     0
  9
$USERR1
 40
0.0
  9
$USERR2
 40
0.0
  9
$USERR3
 40
0.0
  9
$USERR4
 40
0.0
  9
$USERR5
 40
0.0
  9
$WORLDVIEW
 70
     1
  0
ENDSEC
  0
SECTION
  2
TABLES
  0
TABLE
  2
LTYPE
 70
     2
  0
LTYPE
  2
CONTINUOUS
 70
     0
  3
Solid line
 72
    65
 73
     0
 40
0.0
  0
LTYPE
  2
CENTER
 70
     0
  3

 72
    65
 73
     0
 40
0.0
  0
ENDTAB
  0
TABLE
  2
LAYER
 70
     2
  0
LAYER
  2
0
 70
     0
 62
     7
  6
CONTINUOUS
  0
LAYER
  2
1
 70
     0
 62
     7
  6
CONTINUOUS
  0
ENDTAB
  0
TABLE
  2
STYLE
 70
     2
  0
STYLE
  2
STANDARD
 70
     0
 40
0.0
 41
1.0
 50
0.0
 71
     0
 42
0.2
  3
txt
  4

  0
STYLE
  2
ＭＳ_ゴシック
 70
     0
 40
0.0
 41
1.0
 50
0.0
 71
     0
 42
0.2
  3
ＭＳ ゴシック.shx
  4

  0
ENDTAB
  0
TABLE
  2
VIEW
 70
     0
  0
ENDTAB
  0
ENDSEC
  0
SECTION
  2
BLOCKS
  0
ENDSEC
  0
SECTION
  2
ENTITIES
  0
ARC
  8
1
  6
CONTINUOUS
 62
     7
 10
24.25
 20
-9.25
 40
2.5
 50
180.0
 51
270.0
  0
LINE
  8
1
  6
CENTER
 62
     1
 10
10.0
 20
55.75
 11
10.0
 21
30.75
  0
LINE
  8
1
  6
CENTER
 62
     1
 10
62.5
 20
12.75
 11
62.5
 21
-17.75
  0
LINE
  8
1
  6
CONTINUOUS
 62
     7
 10
70.0
 20
-12.75
 11
70.0
 21
6.749999999999999
  0
LINE
  8
1
  6
CONTINUOUS
 62
     7
 10
-15.0
 20
-12.75
 11
-3.25
 21
-12.75
  0
LINE
  8
1
  6
CONTINUOUS
 62
     7
 10
-0.75
 20
40.75
 11
20.75
 21
40.75
  0
LINE
  8
1
  6
CONTINUOUS
 62
     7
 10
23.25
 20
-12.75
 11
35.0
 21
-12.75
  0
ARC
  8
1
  6
CONTINUOUS
 62
     7
 10
10.0
 20
-4.0
 40
9.75
 50
0.0
 51
180.0
  0
ARC
  8
1
  6
CONTINUOUS
 62
     7
 10
-3.25
 20
-9.25
 40
3.5
 50
270.0
 51
0.0
  0
LINE
  8
1
  6
CONTINUOUS
 62
     7
 10
65.0
 20
6.75
 11
65.0
 21
-11.75
  0
ARC
  8
1
  6
CONTINUOUS
 62
     7
 10
23.25
 20
-9.25
 40
3.5
 50
180.0
 51
270.0
  0
LINE
  8
1
  6
CONTINUOUS
 62
     7
 10
60.0
 20
-11.75
 11
60.0
 21
6.749999999999999
  0
LINE
  8
1
  6
CONTINUOUS
 62
     7
 10
55.0
 20
6.75
 11
55.0
 21
-12.75
  0
LINE
  8
1
  6
CONTINUOUS
 62
     7
 10
-11.6143782777
 20
35.75
 11
31.6143782777
 21
35.75
  0
LINE
  8
1
  6
CONTINUOUS
 62
     7
 10
-11.6143782777
 20
-11.75
 11
-11.6143782777
 21
-12.75
  0
LINE
  8
1
  6
CONTINUOUS
 62
     7
 10
-15.0
 20
-11.75
 11
-3.25
 21
-11.75
  0
LINE
  8
1
  6
CONTINUOUS
 62
     7
 10
55.0
 20
-12.75
 11
70.0
 21
-12.75
  0
LINE
  8
1
  6
CONTINUOUS
 62
     7
 10
70.0
 20
6.75
 11
65.0
 21
6.75
  0
ARC
  8
1
  6
CONTINUOUS
 62
     7
 10
-4.25
 20
-9.25
 40
2.5
 50
270.0
 51
0.0
  0
ARC
  8
1
  6
CONTINUOUS
 62
     7
 10
62.5
 20
4.125
 40
3.625
 50
46.39718102730001
 51
133.6028189727
  0
LINE
  8
1
  6
CONTINUOUS
 62
     7
 10
-0.75
 20
50.75
 11
-0.75
 21
45.75
  0
LINE
  8
1
  6
CONTINUOUS
 62
     7
 10
20.75
 20
35.75
 11
20.75
 21
40.75
  0
ARC
  8
1
  6
CONTINUOUS
 62
     7
 10
25.0
 20
43.25
 40
10.0
 50
311.4096221093001
 51
48.59037789069999
  0
ARC
  8
1
  6
CONTINUOUS
 62
     7
 10
-3.25
 20
-9.25
 40
2.5
 50
270.0
 51
0.0
  0
ARC
  8
1
  6
CONTINUOUS
 62
     7
 10
23.25
 20
-9.25
 40
2.5
 50
180.0
 51
270.0
  0
LINE
  8
1
  6
CONTINUOUS
 62
     7
 10
60.0
 20
6.75
 11
55.0
 21
6.75
  0
LINE
  8
1
  6
CONTINUOUS
 62
     7
 10
35.0
 20
-11.75
 11
35.0
 21
-12.75
  0
LINE
  8
1
  6
CENTER
 62
     1
 10
-20.0
 20
43.25
 11
39.99999999999999
 21
43.25
  0
LINE
  8
1
  6
CENTER
 62
     1
 10
10.0
 20
12.75
 11
10.0
 21
-17.75
  0
LINE
  8
1
  6
CONTINUOUS
 62
     7
 10
55.0
 20
-11.75
 11
70.0
 21
-11.75
  0
ARC
  8
1
  6
CONTINUOUS
 62
     7
 10
1.875
 20
43.25
 40
3.625
 50
136.3971810273
 51
223.6028189726999
  0
LINE
  8
1
  6
CONTINUOUS
 62
     7
 10
19.75
 20
-4.0
 11
19.75
 21
-9.25
  0
LINE
  8
1
  6
CONTINUOUS
 62
     7
 10
0.25
 20
-9.25
 11
0.25
 21
-4.0
  0
LINE
  8
1
  6
CONTINUOUS
 62
     7
 10
-1.75
 20
-9.25
 11
-1.75
 21
-4.0
  0
LINE
  8
1
  6
CONTINUOUS
 62
     7
 10
-0.75
 20
35.75
 11
-0.75
 21
40.75
  0
LINE
  8
1
  6
CENTER
 62
     1
 10
-6.75
 20
-4.0
 11
26.75
 21
-4.0
  0
LINE
  8
1
  6
CONTINUOUS
 62
     7
 10
31.6143782777
 20
-11.75
 11
31.6143782777
 21
-12.75
  0
LINE
  8
1
  6
CONTINUOUS
 62
     7
 10
20.75
 20
50.75
 11
20.75
 21
45.75
  0
LINE
  8
1
  6
CONTINUOUS
 62
     7
 10
-0.75
 20
-9.25
 11
-0.75
 21
-4.0
  0
LINE
  8
1
  6
CONTINUOUS
 62
     7
 10
-15.0
 20
-11.75
 11
-15.0
 21
-12.75
  0
ARC
  8
1
  6
CONTINUOUS
 62
     7
 10
-5.0
 20
43.25
 40
10.0
 50
131.4096221093
 51
228.5903778907
  0
LINE
  8
1
  6
CONTINUOUS
 62
     7
 10
20.75
 20
-4.0
 11
20.75
 21
-9.25
  0
LINE
  8
1
  6
CONTINUOUS
 62
     7
 10
-11.6143782777
 20
50.75
 11
31.6143782777
 21
50.75
  0
LINE
  8
1
  6
CONTINUOUS
 62
     7
 10
23.25
 20
-11.75
 11
35.0
 21
-11.75
  0
LINE
  8
1
  6
CONTINUOUS
 62
     7
 10
20.75
 20
45.75
 11
-0.7500000000000007
 21
45.75
  0
ARC
  8
1
  6
CONTINUOUS
 62
     7
 10
10.0
 20
-4.0
 40
10.75
 50
0.0
 51
180.0
  0
ARC
  8
1
  6
CONTINUOUS
 62
     7
 10
18.125
 20
43.25
 40
3.625
 50
316.3971810273
 51
43.60281897269999
  0
ARC
  8
1
  6
CONTINUOUS
 62
     7
 10
10.0
 20
-4.0
 40
11.75
 50
0.0
 51
180.0
  0
LINE
  8
1
  6
CONTINUOUS
 62
     7
 10
21.75
 20
-4.0
 11
21.75
 21
-9.25
  0
CIRCLE
  8
1
  6
CONTINUOUS
 62
     7
 10
30.0
 20
43.25
 40
2.499999999999999
  0
CIRCLE
  8
1
  6
CONTINUOUS
 62
     7
 10
-10.0
 20
43.25
 40
2.500000000000001
  0
TEXT
  8
1
  6
CONTINUOUS
 62
     7
 10
53.40979499349756
 20
-28.04516309090909
 40
3.5
  1
ＳＳＴ－１９
  0
ENDSEC
  0
EOF
