  0
SECTION
  2
HEADER
  9
$ACADVER
  1
AC1004
  9
$INSBASE
 10
0.0
 20
0.0
  9
$EXTMIN
 10
-34.5
 20
-30.144035
  9
$EXTMAX
 10
83.09472227272727
 20
62.5
  9
$LIMMIN
 10
0.0
 20
0.0
  9
$LIMMAX
 10
12.0
 20
9.0
  9
$ORTHOMODE
 70
     0
  9
$REGENMODE
 70
     1
  9
$FILLMODE
 70
     1
  9
$QTEXTMODE
 70
     0
  9
$DRAGMODE
 70
     2
  9
$LTSCALE
 40
1.0
  9
$OSMODE
 70
    37
  9
$ATTMODE
 70
     1
  9
$TEXTSIZE
 40
0.2
  9
$TRACEWID
 40
0.05
  9
$TEXTSTYLE
  7
STANDARD
  9
$CLAYER
  8
0
  9
$CELTYPE
  6
BYLAYER
  9
$CECOLOR
 62
   256
  9
$DIMSCALE
 40
1.0
  9
$DIMASZ
 40
3.0
  9
$DIMEXO
 40
0.0625
  9
$DIMDLI
 40
0.38
  9
$DIMRND
 40
0.0
  9
$DIMDLE
 40
0.0
  9
$DIMEXE
 40
1.5
  9
$DIMTP
 40
0.0
  9
$DIMTM
 40
0.0
  9
$DIMTXT
 40
3.5
  9
$DIMCEN
 40
0.09
  9
$DIMTSZ
 40
0.0
  9
$DIMTOL
 70
     0
  9
$DIMLIM
 70
     0
  9
$DIMTIH
 70
     1
  9
$DIMTOH
 70
     1
  9
$DIMSE1
 70
     0
  9
$DIMSE2
 70
     0
  9
$DIMTAD
 70
     1
  9
$DIMZIN
 70
     0
  9
$DIMBLK
  1

  9
$DIMASO
 70
     1
  9
$DIMSHO
 70
     1
  9
$DIMPOST
  1

  9
$DIMAPOST
  1

  9
$DIMALT
 70
     0
  9
$DIMALTD
 70
     2
  9
$DIMALTF
 40
25.4
  9
$DIMLFAC
 40
1.0
  9
$DIMTOFL
 70
     0
  9
$DIMTVP
 40
0.0
  9
$DIMTIX
 70
     0
  9
$DIMSOXD
 70
     0
  9
$DIMSAH
 70
     0
  9
$DIMBLK1
  1

  9
$DIMBLK2
  1

  9
$LUNITS
 70
     2
  9
$LUPREC
 70
     4
  9
$SKETCHINC
 40
0.1
  9
$FILLETRAD
 40
0.5
  9
$AUNITS
 70
     0
  9
$AUPREC
 70
     0
  9
$MENU
  1
.
  9
$ELEVATION
 40
0.0
  9
$THICKNESS
 40
0.0
  9
$LIMCHECK
 70
     0
  9
$CHAMFERA
 40
0.0
  9
$CHAMFERB
 40
0.0
  9
$SKPOLY
 70
     0
  9
$TDCREATE
 40
2459730.571033785
  9
$TDUPDATE
 40
2459730.571033901
  9
$TDINDWG
 40
0.0000000116
  9
$TDUSRTIMER
 40
0.0000000116
  9
$USRTIMER
 70
     1
  9
$ANGBASE
 50
0.0
  9
$ANGDIR
 70
     0
  9
$PDMODE
 70
     0
  9
$PDSIZE
 40
0.0
  9
$PLINEWID
 40
0.0
  9
$COORDS
 70
     1
  9
$SPLFRAME
 70
     0
  9
$SPLINETYPE
 70
     6
  9
$SPLINESEGS
 70
     8
  9
$ATTDIA
 70
     0
  9
$ATTREQ
 70
     1
  9
$SURFTAB1
 70
     6
  9
$SURFTAB2
 70
     6
  9
$SURFTYPE
 70
     6
  9
$SURFU
 70
     6
  9
$SURFV
 70
     6
  9
$UCSNAME
  2

  9
$UCSORG
 10
0.0
 20
0.0
 30
0.0
  9
$UCSXDIR
 10
1.0
 20
0.0
 30
0.0
  9
$UCSYDIR
 10
0.0
 20
1.0
 30
0.0
  9
$USERI1
 70
     0
  9
$USERI2
 70
     0
  9
$USERI3
 70
     0
  9
$USERI4
 70
     0
  9
$USERI5
 70
     0
  9
$USERR1
 40
0.0
  9
$USERR2
 40
0.0
  9
$USERR3
 40
0.0
  9
$USERR4
 40
0.0
  9
$USERR5
 40
0.0
  9
$WORLDVIEW
 70
     1
  0
ENDSEC
  0
SECTION
  2
TABLES
  0
TABLE
  2
LTYPE
 70
     2
  0
LTYPE
  2
CONTINUOUS
 70
     0
  3
Solid line
 72
    65
 73
     0
 40
0.0
  0
LTYPE
  2
CENTER
 70
     0
  3

 72
    65
 73
     0
 40
0.0
  0
ENDTAB
  0
TABLE
  2
LAYER
 70
     2
  0
LAYER
  2
0
 70
     0
 62
     7
  6
CONTINUOUS
  0
LAYER
  2
1
 70
     0
 62
     7
  6
CONTINUOUS
  0
ENDTAB
  0
TABLE
  2
STYLE
 70
     2
  0
STYLE
  2
STANDARD
 70
     0
 40
0.0
 41
1.0
 50
0.0
 71
     0
 42
0.2
  3
txt
  4

  0
STYLE
  2
ＭＳ_ゴシック
 70
     0
 40
0.0
 41
1.0
 50
0.0
 71
     0
 42
0.2
  3
ＭＳ ゴシック.shx
  4

  0
ENDTAB
  0
TABLE
  2
VIEW
 70
     0
  0
ENDTAB
  0
ENDSEC
  0
SECTION
  2
BLOCKS
  0
ENDSEC
  0
SECTION
  2
ENTITIES
  0
ARC
  8
1
  6
CONTINUOUS
 62
     7
 10
-8.6666666667
 20
47.5
 40
4.8333333333
 50
133.6028189727
 51
226.3971810273
  0
ARC
  8
1
  6
CONTINUOUS
 62
     7
 10
2.0
 20
-1.5
 40
15.5
 50
0.0
 51
180.0
  0
LINE
  8
1
  6
CONTINUOUS
 62
     7
 10
73.5
 20
-12.5
 11
53.5
 21
-12.5
  0
LINE
  8
1
  6
CONTINUOUS
 62
     7
 10
53.5
 20
12.5
 11
60.0
 21
12.5
  0
ARC
  8
1
  6
CONTINUOUS
 62
     7
 10
63.5
 20
9.1666666667
 40
4.8333333333
 50
43.6028189727
 51
136.3971810273
  0
LINE
  8
1
  6
CONTINUOUS
 62
     7
 10
73.5
 20
-13.5
 11
73.5
 21
12.5
  0
ARC
  8
1
  6
CONTINUOUS
 62
     7
 10
-16.5
 20
-9.5
 40
3.0
 50
270.0
 51
0.0
  0
LINE
  8
1
  6
CONTINUOUS
 62
     7
 10
60.0
 20
12.5
 11
60.0
 21
-12.5
  0
ARC
  8
1
  6
CONTINUOUS
 62
     7
 10
20.5
 20
-9.5
 40
3.0
 50
180.0
 51
270.0
  0
LINE
  8
1
  6
CONTINUOUS
 62
     7
 10
-13.5
 20
-1.5
 11
-13.5
 21
-9.5
  0
LINE
  8
1
  6
CONTINUOUS
 62
     7
 10
67.0
 20
12.5
 11
67.0
 21
-12.5
  0
ARC
  8
1
  6
CONTINUOUS
 62
     7
 10
12.6666666667
 20
47.5
 40
4.8333333333
 50
313.6028189727
 51
46.39718102730001
  0
LINE
  8
1
  6
CONTINUOUS
 62
     7
 10
16.0
 20
37.5
 11
16.0
 21
44.0
  0
LINE
  8
1
  6
CONTINUOUS
 62
     7
 10
53.5
 20
-13.5
 11
73.5
 21
-13.5
  0
LINE
  8
1
  6
CENTER
 62
     1
 10
63.5
 20
17.5
 11
63.5
 21
-18.5
  0
LINE
  8
1
  6
CONTINUOUS
 62
     7
 10
73.5
 20
12.5
 11
67.0
 21
12.5
  0
LINE
  8
1
  6
CONTINUOUS
 62
     7
 10
16.0
 20
44.0
 11
-12.0
 21
44.0
  0
LINE
  8
1
  6
CONTINUOUS
 62
     7
 10
53.5
 20
-13.5
 11
53.5
 21
12.5
  0
LINE
  8
1
  6
CONTINUOUS
 62
     7
 10
-12.0
 20
44.0
 11
-12.0
 21
37.5
  0
LINE
  8
1
  6
CONTINUOUS
 62
     7
 10
17.5
 20
-9.5
 11
17.5
 21
-1.5
  0
ARC
  8
1
  6
CONTINUOUS
 62
     7
 10
2.0
 20
-1.5
 40
13.0
 50
0.0
 51
180.0
  0
LINE
  8
1
  6
CONTINUOUS
 62
     7
 10
-11.0
 20
-9.5
 11
-11.0
 21
-1.5
  0
ARC
  8
1
  6
CONTINUOUS
 62
     7
 10
19.0
 20
-9.5
 40
3.0
 50
180.0
 51
270.0
  0
LINE
  8
1
  6
CONTINUOUS
 62
     7
 10
-15.0
 20
-12.5
 11
-29.5
 21
-12.5
  0
LINE
  8
1
  6
CENTER
 62
     1
 10
-34.5
 20
47.5
 11
38.50000000000001
 21
47.5
  0
LINE
  8
1
  6
CENTER
 62
     1
 10
2.0
 20
62.5
 11
2.0
 21
32.5
  0
LINE
  8
1
  6
CONTINUOUS
 62
     7
 10
33.5
 20
-13.5
 11
19.0
 21
-13.5
  0
LINE
  8
1
  6
CONTINUOUS
 62
     7
 10
33.5
 20
-12.5
 11
19.0
 21
-12.5
  0
LINE
  8
1
  6
CENTER
 62
     1
 10
2.0
 20
17.5
 11
2.0
 21
-18.5
  0
LINE
  8
1
  6
CENTER
 62
     1
 10
-17.0
 20
-1.5
 11
21.0
 21
-1.5
  0
LINE
  8
1
  6
CONTINUOUS
 62
     7
 10
-25.6803398875
 20
-12.5
 11
-25.6803398875
 21
-13.5
  0
LINE
  8
1
  6
CONTINUOUS
 62
     7
 10
-25.6803398875
 20
37.5
 11
29.6803398875
 21
37.5
  0
LINE
  8
1
  6
CONTINUOUS
 62
     7
 10
29.6803398875
 20
-12.5
 11
29.6803398875
 21
-13.5
  0
LINE
  8
1
  6
CONTINUOUS
 62
     7
 10
-12.0
 20
57.5
 11
-12.0
 21
51.0
  0
ARC
  8
1
  6
CONTINUOUS
 62
     7
 10
-15.0
 20
-9.5
 40
4.0
 50
270.0
 51
0.0
  0
ARC
  8
1
  6
CONTINUOUS
 62
     7
 10
-14.5
 20
47.5
 40
15.0
 50
138.1896851042
 51
221.8103148958
  0
LINE
  8
1
  6
CONTINUOUS
 62
     7
 10
15.0
 20
-9.5
 11
15.0
 21
-1.5
  0
LINE
  8
1
  6
CONTINUOUS
 62
     7
 10
-12.0
 20
51.0
 11
16.0
 21
51.0
  0
LINE
  8
1
  6
CONTINUOUS
 62
     7
 10
16.0
 20
51.0
 11
16.0
 21
57.5
  0
ARC
  8
1
  6
CONTINUOUS
 62
     7
 10
2.0
 20
-1.5
 40
14.0
 50
0.0
 51
180.0
  0
LINE
  8
1
  6
CONTINUOUS
 62
     7
 10
-12.0
 20
-1.5
 11
-12.0
 21
-9.5
  0
ARC
  8
1
  6
CONTINUOUS
 62
     7
 10
19.0
 20
-9.5
 40
4.0
 50
180.0
 51
270.0
  0
ARC
  8
1
  6
CONTINUOUS
 62
     7
 10
-15.0
 20
-9.5
 40
3.0
 50
270.0
 51
0.0
  0
ARC
  8
1
  6
CONTINUOUS
 62
     7
 10
18.5
 20
47.5
 40
15.0
 50
318.1896851042
 51
41.81031489579999
  0
LINE
  8
1
  6
CONTINUOUS
 62
     7
 10
33.5
 20
-12.5
 11
33.5
 21
-13.5
  0
LINE
  8
1
  6
CONTINUOUS
 62
     7
 10
16.0
 20
-9.5
 11
16.0
 21
-1.5
  0
LINE
  8
1
  6
CONTINUOUS
 62
     7
 10
-29.5
 20
-12.5
 11
-29.5
 21
-13.5
  0
LINE
  8
1
  6
CONTINUOUS
 62
     7
 10
-25.6803398875
 20
57.5
 11
29.6803398875
 21
57.5
  0
LINE
  8
1
  6
CONTINUOUS
 62
     7
 10
-29.5
 20
-13.5
 11
-15.0
 21
-13.5
  0
CIRCLE
  8
1
  6
CONTINUOUS
 62
     7
 10
-22.5
 20
47.5
 40
2.499999999999999
  0
CIRCLE
  8
1
  6
CONTINUOUS
 62
     7
 10
26.5
 20
47.5
 40
2.499999999999999
  0
TEXT
  8
1
  6
CONTINUOUS
 62
     7
 10
58.98131099349757
 20
-30.50994409090909
 40
3.5
  1
ＳＳＴ－２５
  0
ENDSEC
  0
EOF
