  0
SECTION
  2
HEADER
  9
$ACADVER
  1
AC1004
  9
$INSBASE
 10
0.0
 20
0.0
  9
$EXTMIN
 10
-45.5
 20
-32.514827
  9
$EXTMAX
 10
81.0010817355128
 20
68.5
  9
$LIMMIN
 10
0.0
 20
0.0
  9
$LIMMAX
 10
12.0
 20
9.0
  9
$ORTHOMODE
 70
     0
  9
$REGENMODE
 70
     1
  9
$FILLMODE
 70
     1
  9
$QTEXTMODE
 70
     0
  9
$DRAGMODE
 70
     2
  9
$LTSCALE
 40
1.0
  9
$OSMODE
 70
    37
  9
$ATTMODE
 70
     1
  9
$TEXTSIZE
 40
0.2
  9
$TRACEWID
 40
0.05
  9
$TEXTSTYLE
  7
STANDARD
  9
$CLAYER
  8
0
  9
$CELTYPE
  6
BYLAYER
  9
$CECOLOR
 62
   256
  9
$DIMSCALE
 40
1.0
  9
$DIMASZ
 40
3.0
  9
$DIMEXO
 40
0.0625
  9
$DIMDLI
 40
0.38
  9
$DIMRND
 40
0.0
  9
$DIMDLE
 40
0.0
  9
$DIMEXE
 40
1.5
  9
$DIMTP
 40
0.0
  9
$DIMTM
 40
0.0
  9
$DIMTXT
 40
3.5
  9
$DIMCEN
 40
0.09
  9
$DIMTSZ
 40
0.0
  9
$DIMTOL
 70
     0
  9
$DIMLIM
 70
     0
  9
$DIMTIH
 70
     1
  9
$DIMTOH
 70
     1
  9
$DIMSE1
 70
     0
  9
$DIMSE2
 70
     0
  9
$DIMTAD
 70
     1
  9
$DIMZIN
 70
     0
  9
$DIMBLK
  1

  9
$DIMASO
 70
     1
  9
$DIMSHO
 70
     1
  9
$DIMPOST
  1

  9
$DIMAPOST
  1

  9
$DIMALT
 70
     0
  9
$DIMALTD
 70
     2
  9
$DIMALTF
 40
25.4
  9
$DIMLFAC
 40
1.0
  9
$DIMTOFL
 70
     0
  9
$DIMTVP
 40
0.0
  9
$DIMTIX
 70
     0
  9
$DIMSOXD
 70
     0
  9
$DIMSAH
 70
     0
  9
$DIMBLK1
  1

  9
$DIMBLK2
  1

  9
$LUNITS
 70
     2
  9
$LUPREC
 70
     4
  9
$SKETCHINC
 40
0.1
  9
$FILLETRAD
 40
0.5
  9
$AUNITS
 70
     0
  9
$AUPREC
 70
     0
  9
$MENU
  1
.
  9
$ELEVATION
 40
0.0
  9
$THICKNESS
 40
0.0
  9
$LIMCHECK
 70
     0
  9
$CHAMFERA
 40
0.0
  9
$CHAMFERB
 40
0.0
  9
$SKPOLY
 70
     0
  9
$TDCREATE
 40
2459730.588202489
  9
$TDUPDATE
 40
2459730.588202616
  9
$TDINDWG
 40
0.0000000116
  9
$TDUSRTIMER
 40
0.0000000116
  9
$USRTIMER
 70
     1
  9
$ANGBASE
 50
0.0
  9
$ANGDIR
 70
     0
  9
$PDMODE
 70
     0
  9
$PDSIZE
 40
0.0
  9
$PLINEWID
 40
0.0
  9
$COORDS
 70
     1
  9
$SPLFRAME
 70
     0
  9
$SPLINETYPE
 70
     6
  9
$SPLINESEGS
 70
     8
  9
$ATTDIA
 70
     0
  9
$ATTREQ
 70
     1
  9
$SURFTAB1
 70
     6
  9
$SURFTAB2
 70
     6
  9
$SURFTYPE
 70
     6
  9
$SURFU
 70
     6
  9
$SURFV
 70
     6
  9
$UCSNAME
  2

  9
$UCSORG
 10
0.0
 20
0.0
 30
0.0
  9
$UCSXDIR
 10
1.0
 20
0.0
 30
0.0
  9
$UCSYDIR
 10
0.0
 20
1.0
 30
0.0
  9
$USERI1
 70
     0
  9
$USERI2
 70
     0
  9
$USERI3
 70
     0
  9
$USERI4
 70
     0
  9
$USERI5
 70
     0
  9
$USERR1
 40
0.0
  9
$USERR2
 40
0.0
  9
$USERR3
 40
0.0
  9
$USERR4
 40
0.0
  9
$USERR5
 40
0.0
  9
$WORLDVIEW
 70
     1
  0
ENDSEC
  0
SECTION
  2
TABLES
  0
TABLE
  2
LTYPE
 70
     2
  0
LTYPE
  2
CONTINUOUS
 70
     0
  3
Solid line
 72
    65
 73
     0
 40
0.0
  0
LTYPE
  2
CENTER
 70
     0
  3

 72
    65
 73
     0
 40
0.0
  0
ENDTAB
  0
TABLE
  2
LAYER
 70
     2
  0
LAYER
  2
0
 70
     0
 62
     7
  6
CONTINUOUS
  0
LAYER
  2
1
 70
     0
 62
     7
  6
CONTINUOUS
  0
ENDTAB
  0
TABLE
  2
STYLE
 70
     2
  0
STYLE
  2
STANDARD
 70
     0
 40
0.0
 41
1.0
 50
0.0
 71
     0
 42
0.2
  3
txt
  4

  0
STYLE
  2
ＭＳ_ゴシック
 70
     0
 40
0.0
 41
1.0
 50
0.0
 71
     0
 42
0.2
  3
ＭＳ ゴシック.shx
  4

  0
ENDTAB
  0
TABLE
  2
VIEW
 70
     0
  0
ENDTAB
  0
ENDSEC
  0
SECTION
  2
BLOCKS
  0
ENDSEC
  0
SECTION
  2
ENTITIES
  0
LINE
  8
1
  6
CONTINUOUS
 62
     7
 10
-15.2
 20
-2.5
 11
-15.2
 21
-13.8
  0
ARC
  8
1
  6
CONTINUOUS
 62
     7
 10
-12.5333333333
 20
51.0
 40
5.6666666667
 50
118.0724869359
 51
241.9275130641001
  0
ARC
  8
1
  6
CONTINUOUS
 62
     7
 10
16.5333333333
 20
51.0
 40
5.6666666667
 50
298.0724869359
 51
61.92751306410003
  0
LINE
  8
1
  6
CONTINUOUS
 62
     7
 10
18.0
 20
-2.5
 11
18.0
 21
-13.8
  0
LINE
  8
1
  6
CONTINUOUS
 62
     7
 10
-18.0
 20
-16.6
 11
-40.49999999999999
 21
-16.6
  0
ARC
  8
1
  6
CONTINUOUS
 62
     7
 10
29.5
 20
51.0
 40
15.0
 50
303.5573097619
 51
56.44269023810001
  0
LINE
  8
1
  6
CONTINUOUS
 62
     7
 10
-33.7915619759
 20
63.5
 11
37.7915619759
 21
63.5
  0
LINE
  8
1
  6
CONTINUOUS
 62
     7
 10
-15.2
 20
63.5
 11
-15.2
 21
56.0
  0
LINE
  8
1
  6
CONTINUOUS
 62
     7
 10
-15.2
 20
56.0
 11
19.2
 21
56.0
  0
LINE
  8
1
  6
CONTINUOUS
 62
     7
 10
19.2
 20
56.0
 11
19.2
 21
63.5
  0
LINE
  8
1
  6
CONTINUOUS
 62
     7
 10
-15.2
 20
46.0
 11
19.2
 21
46.0
  0
LINE
  8
1
  6
CONTINUOUS
 62
     7
 10
19.2
 20
46.0
 11
19.2
 21
38.5
  0
LINE
  8
1
  6
CONTINUOUS
 62
     7
 10
44.5
 20
-16.6
 11
44.5
 21
-17.8
  0
ARC
  8
1
  6
CONTINUOUS
 62
     7
 10
22.0
 20
-13.8
 40
4.0
 50
180.0
 51
270.0
  0
LINE
  8
1
  6
CONTINUOUS
 62
     7
 10
44.5
 20
-16.6
 11
22.0
 21
-16.6
  0
LINE
  8
1
  6
CENTER
 62
     1
 10
-45.5
 20
51.0
 11
49.5
 21
51.0
  0
LINE
  8
1
  6
CONTINUOUS
 62
     7
 10
22.2
 20
-13.8
 11
22.2
 21
-2.5
  0
LINE
  8
1
  6
CONTINUOUS
 62
     7
 10
-18.2
 20
-2.5
 11
-18.2
 21
-13.8
  0
ARC
  8
1
  6
CONTINUOUS
 62
     7
 10
25.0
 20
-13.8
 40
2.8
 50
180.0
 51
270.0
  0
LINE
  8
1
  6
CONTINUOUS
 62
     7
 10
-40.5
 20
-17.8
 11
-18.0
 21
-17.8
  0
ARC
  8
1
  6
CONTINUOUS
 62
     7
 10
-21.0
 20
-13.8
 40
2.8
 50
270.0
 51
0.0
  0
LINE
  8
1
  6
CONTINUOUS
 62
     7
 10
-15.2
 20
38.5
 11
-15.2
 21
46.0
  0
ARC
  8
1
  6
CONTINUOUS
 62
     7
 10
2.0
 20
-2.5
 40
20.2
 50
0.0
 51
180.0
  0
LINE
  8
1
  6
CENTER
 62
     1
 10
-25.5
 20
-2.5
 11
29.5
 21
-2.5
  0
LINE
  8
1
  6
CONTINUOUS
 62
     7
 10
79.85
 20
-17.8
 11
54.5
 21
-17.8
  0
LINE
  8
1
  6
CONTINUOUS
 62
     7
 10
54.5
 20
-17.8
 11
54.5
 21
14.7
  0
LINE
  8
1
  6
CONTINUOUS
 62
     7
 10
62.35
 20
14.7
 11
62.35
 21
-16.6
  0
LINE
  8
1
  6
CONTINUOUS
 62
     7
 10
54.5
 20
-16.6
 11
79.85
 21
-16.6
  0
LINE
  8
1
  6
CENTER
 62
     1
 10
67.35
 20
22.7
 11
67.35
 21
-22.8
  0
LINE
  8
1
  6
CONTINUOUS
 62
     7
 10
22.0
 20
-17.8
 11
44.5
 21
-17.8
  0
LINE
  8
1
  6
CONTINUOUS
 62
     7
 10
-14.0
 20
-13.8
 11
-14.0
 21
-2.5
  0
LINE
  8
1
  6
CENTER
 62
     1
 10
2.0
 20
22.7
 11
2.0
 21
-22.8
  0
LINE
  8
1
  6
CONTINUOUS
 62
     7
 10
79.85
 20
-17.8
 11
79.85
 21
14.7
  0
LINE
  8
1
  6
CONTINUOUS
 62
     7
 10
79.85
 20
14.7
 11
72.35
 21
14.7
  0
ARC
  8
1
  6
CONTINUOUS
 62
     7
 10
22.0
 20
-13.8
 40
2.8
 50
180.0
 51
270.0
  0
LINE
  8
1
  6
CENTER
 62
     1
 10
2.0
 20
68.5
 11
2.0
 21
33.5
  0
LINE
  8
1
  6
CONTINUOUS
 62
     7
 10
54.5
 20
14.7
 11
62.35
 21
14.7
  0
LINE
  8
1
  6
CONTINUOUS
 62
     7
 10
72.35
 20
14.7
 11
72.35
 21
-16.6
  0
LINE
  8
1
  6
CONTINUOUS
 62
     7
 10
-33.7915619759
 20
-16.6
 11
-33.7915619759
 21
-17.8
  0
ARC
  8
1
  6
CONTINUOUS
 62
     7
 10
67.35
 20
12.0333333333
 40
5.6666666667
 50
28.0724869359
 51
151.9275130641
  0
ARC
  8
1
  6
CONTINUOUS
 62
     7
 10
-18.0
 20
-13.8
 40
4.0
 50
270.0
 51
0.0
  0
ARC
  8
1
  6
CONTINUOUS
 62
     7
 10
2.0
 20
-2.5
 40
17.2
 50
0.0
 51
180.0
  0
LINE
  8
1
  6
CONTINUOUS
 62
     7
 10
19.2
 20
-13.8
 11
19.2
 21
-2.5
  0
LINE
  8
1
  6
CONTINUOUS
 62
     7
 10
37.7915619759
 20
38.5
 11
-33.7915619759
 21
38.5
  0
LINE
  8
1
  6
CONTINUOUS
 62
     7
 10
37.7915619759
 20
-16.6
 11
37.7915619759
 21
-17.8
  0
ARC
  8
1
  6
CONTINUOUS
 62
     7
 10
-18.0
 20
-13.8
 40
2.8
 50
270.0
 51
0.0
  0
LINE
  8
1
  6
CONTINUOUS
 62
     7
 10
-40.5
 20
-16.6
 11
-40.5
 21
-17.8
  0
ARC
  8
1
  6
CONTINUOUS
 62
     7
 10
2.0
 20
-2.5
 40
16.0
 50
0.0
 51
180.0
  0
ARC
  8
1
  6
CONTINUOUS
 62
     7
 10
-25.5
 20
51.0
 40
15.0
 50
123.5573097619
 51
236.4426902381001
  0
CIRCLE
  8
1
  6
CONTINUOUS
 62
     7
 10
34.0
 20
51.0
 40
4.999999999999997
  0
CIRCLE
  8
1
  6
CONTINUOUS
 62
     7
 10
-30.0
 20
51.0
 40
5.000000000000001
  0
TEXT
  8
1
  6
CONTINUOUS
 62
     7
 10
66.96887558067216
 20
-32.88073609090908
 40
3.5
  1
ＳＳＴ－３１
 41
0.608968
 51
15.0
  0
ENDSEC
  0
EOF
