  0
SECTION
  2
HEADER
  9
$ACADVER
  1
AC1004
  9
$INSBASE
 10
0.0
 20
0.0
  9
$EXTMIN
 10
58.49999999999996
 20
8.670454545454554
  9
$EXTMAX
 10
204.75
 20
204.9999999999999
  9
$LIMMIN
 10
0.0
 20
0.0
  9
$LIMMAX
 10
12.0
 20
9.0
  9
$ORTHOMODE
 70
     0
  9
$REGENMODE
 70
     1
  9
$FILLMODE
 70
     1
  9
$QTEXTMODE
 70
     0
  9
$DRAGMODE
 70
     2
  9
$LTSCALE
 40
1.0
  9
$OSMODE
 70
    37
  9
$ATTMODE
 70
     1
  9
$TEXTSIZE
 40
0.2
  9
$TRACEWID
 40
0.05
  9
$TEXTSTYLE
  7
STANDARD
  9
$CLAYER
  8
0
  9
$CELTYPE
  6
BYLAYER
  9
$CECOLOR
 62
   256
  9
$DIMSCALE
 40
1.0
  9
$DIMASZ
 40
3.0
  9
$DIMEXO
 40
0.0625
  9
$DIMDLI
 40
0.38
  9
$DIMRND
 40
0.0
  9
$DIMDLE
 40
0.0
  9
$DIMEXE
 40
1.5
  9
$DIMTP
 40
0.0
  9
$DIMTM
 40
0.0
  9
$DIMTXT
 40
3.0
  9
$DIMCEN
 40
0.09
  9
$DIMTSZ
 40
0.0
  9
$DIMTOL
 70
     0
  9
$DIMLIM
 70
     0
  9
$DIMTIH
 70
     1
  9
$DIMTOH
 70
     1
  9
$DIMSE1
 70
     0
  9
$DIMSE2
 70
     0
  9
$DIMTAD
 70
     1
  9
$DIMZIN
 70
     0
  9
$DIMBLK
  1

  9
$DIMASO
 70
     1
  9
$DIMSHO
 70
     1
  9
$DIMPOST
  1

  9
$DIMAPOST
  1

  9
$DIMALT
 70
     0
  9
$DIMALTD
 70
     2
  9
$DIMALTF
 40
25.4
  9
$DIMLFAC
 40
1.0
  9
$DIMTOFL
 70
     0
  9
$DIMTVP
 40
0.0
  9
$DIMTIX
 70
     0
  9
$DIMSOXD
 70
     0
  9
$DIMSAH
 70
     0
  9
$DIMBLK1
  1

  9
$DIMBLK2
  1

  9
$LUNITS
 70
     2
  9
$LUPREC
 70
     4
  9
$SKETCHINC
 40
0.1
  9
$FILLETRAD
 40
0.5
  9
$AUNITS
 70
     0
  9
$AUPREC
 70
     0
  9
$MENU
  1
.
  9
$ELEVATION
 40
0.0
  9
$THICKNESS
 40
0.0
  9
$LIMCHECK
 70
     0
  9
$CHAMFERA
 40
0.0
  9
$CHAMFERB
 40
0.0
  9
$SKPOLY
 70
     0
  9
$TDCREATE
 40
2460381.540569722
  9
$TDUPDATE
 40
2460381.540569838
  9
$TDINDWG
 40
0.0000000116
  9
$TDUSRTIMER
 40
0.0000000116
  9
$USRTIMER
 70
     1
  9
$ANGBASE
 50
0.0
  9
$ANGDIR
 70
     0
  9
$PDMODE
 70
     0
  9
$PDSIZE
 40
0.0
  9
$PLINEWID
 40
0.0
  9
$COORDS
 70
     1
  9
$SPLFRAME
 70
     0
  9
$SPLINETYPE
 70
     6
  9
$SPLINESEGS
 70
     8
  9
$ATTDIA
 70
     0
  9
$ATTREQ
 70
     1
  9
$SURFTAB1
 70
     6
  9
$SURFTAB2
 70
     6
  9
$SURFTYPE
 70
     6
  9
$SURFU
 70
     6
  9
$SURFV
 70
     6
  9
$UCSNAME
  2

  9
$UCSORG
 10
0.0
 20
0.0
 30
0.0
  9
$UCSXDIR
 10
1.0
 20
0.0
 30
0.0
  9
$UCSYDIR
 10
0.0
 20
1.0
 30
0.0
  9
$USERI1
 70
     0
  9
$USERI2
 70
     0
  9
$USERI3
 70
     0
  9
$USERI4
 70
     0
  9
$USERI5
 70
     0
  9
$USERR1
 40
0.0
  9
$USERR2
 40
0.0
  9
$USERR3
 40
0.0
  9
$USERR4
 40
0.0
  9
$USERR5
 40
0.0
  9
$WORLDVIEW
 70
     1
  0
ENDSEC
  0
SECTION
  2
TABLES
  0
TABLE
  2
LTYPE
 70
     2
  0
LTYPE
  2
CONTINUOUS
 70
     0
  3
Solid line
 72
    65
 73
     0
 40
0.0
  0
LTYPE
  2
CENTER
 70
     0
  3

 72
    65
 73
     0
 40
0.0
  0
ENDTAB
  0
TABLE
  2
LAYER
 70
     1
  0
LAYER
  2
0
 70
     0
 62
     7
  6
CONTINUOUS
  0
ENDTAB
  0
TABLE
  2
STYLE
 70
     2
  0
STYLE
  2
STANDARD
 70
     0
 40
0.0
 41
1.0
 50
0.0
 71
     0
 42
0.2
  3
txt
  4

  0
STYLE
  2
ＭＳ_ゴシック
 70
     0
 40
0.0
 41
1.0
 50
0.0
 71
     0
 42
0.2
  3
ＭＳ ゴシック.shx
  4

  0
ENDTAB
  0
TABLE
  2
VIEW
 70
     0
  0
ENDTAB
  0
ENDSEC
  0
SECTION
  2
BLOCKS
  0
ENDSEC
  0
SECTION
  2
ENTITIES
  0
LINE
  8
0
  6
CONTINUOUS
 62
     7
 10
145.5
 20
202.9999999999999
 11
64.50000000000003
 21
202.9999999999999
  0
LINE
  8
0
  6
CONTINUOUS
 62
     7
 10
61.5
 20
202.9999999999999
 11
64.5
 21
202.9999999999999
  0
LINE
  8
0
  6
CONTINUOUS
 62
     7
 10
64.5
 20
77.0
 11
61.5
 21
77.0
  0
LINE
  8
0
  6
CONTINUOUS
 62
     7
 10
145.5
 20
77.0
 11
64.50000000000003
 21
77.0
  0
LINE
  8
0
  6
CONTINUOUS
 62
     7
 10
61.49999999999997
 20
77.0
 11
61.49999999999997
 21
202.9999999999999
  0
CIRCLE
  8
0
  6
CONTINUOUS
 62
     7
 10
105.0
 20
162.0
 40
2.000000000000002
  0
CIRCLE
  8
0
  6
CONTINUOUS
 62
     7
 10
105.0
 20
140.0
 40
13.5
  0
CIRCLE
  8
0
  6
CONTINUOUS
 62
     7
 10
105.0
 20
118.0
 40
2.000000000000002
  0
CIRCLE
  8
0
  6
CONTINUOUS
 62
     7
 10
105.0
 20
181.75
 40
2.000000000000002
  0
CIRCLE
  8
0
  6
CONTINUOUS
 62
     7
 10
105.0
 20
98.25
 40
2.000000000000002
  0
LINE
  8
0
  6
CONTINUOUS
 62
     7
 10
145.5
 20
46.75
 11
64.50000000000003
 21
46.75000000000001
  0
LINE
  8
0
  6
CONTINUOUS
 62
     7
 10
61.49999999999997
 20
43.75000000000001
 11
61.49999999999997
 21
27.75000000000002
  0
LINE
  8
0
  6
CONTINUOUS
 62
     7
 10
148.5
 20
27.75000000000001
 11
148.5
 21
43.74999999999999
  0
LINE
  8
0
  6
CONTINUOUS
 62
     7
 10
147.0
 20
43.75000000000001
 11
147.0
 21
27.75000000000001
  0
LINE
  8
0
  6
CONTINUOUS
 62
     7
 10
62.99999999999997
 20
27.75000000000001
 11
62.99999999999997
 21
43.75000000000001
  0
ARC
  8
0
  6
CONTINUOUS
 62
     7
 10
65.99999999999999
 20
27.75000000000001
 40
3.000000000000016
 50
180.0
 51
310.0000000000001
  0
ARC
  8
0
  6
CONTINUOUS
 62
     7
 10
144.0
 20
27.75000000000001
 40
2.999999999999995
 50
230.0000000000007
 51
0.0000000000002274
  0
ARC
  8
0
  6
CONTINUOUS
 62
     7
 10
64.5
 20
43.75000000000001
 40
3.000000000000003
 50
90.0
 51
180.0
  0
ARC
  8
0
  6
CONTINUOUS
 62
     7
 10
145.5
 20
43.74999999999999
 40
3.000000000000003
 50
0.0
 51
90.0
  0
ARC
  8
0
  6
CONTINUOUS
 62
     7
 10
65.99999999999999
 20
27.75000000000001
 40
4.49999999999999
 50
179.9999999999998
 51
309.9999999999998
  0
LINE
  8
0
  6
CONTINUOUS
 62
     7
 10
201.75
 20
77.00000000000003
 11
197.25
 21
77.00000000000003
  0
LINE
  8
0
  6
CONTINUOUS
 62
     7
 10
148.5
 20
202.9999999999999
 11
148.5
 21
77.00000000000001
  0
LINE
  8
0
  6
CONTINUOUS
 62
     7
 10
148.5
 20
77.0
 11
145.5
 21
77.0
  0
LINE
  8
0
  6
CONTINUOUS
 62
     7
 10
197.25
 20
203.0
 11
181.25
 21
203.0
  0
LINE
  8
0
  6
CONTINUOUS
 62
     7
 10
145.5
 20
202.9999999999999
 11
148.5
 21
202.9999999999999
  0
LINE
  8
0
  6
CONTINUOUS
 62
     7
 10
197.25
 20
77.00000000000003
 11
181.25
 21
77.00000000000003
  0
TEXT
  8
0
  6
CONTINUOUS
 62
     7
 10
97.21739714893081
 20
8.328420032512202
 40
3.0
  1
STEW-BDBT
  0
LINE
  8
0
  6
CONTINUOUS
 62
     7
 10
141.1074557564106
 20
24.30280000596473
 11
138.0432779839347
 21
26.87395044471087
  0
LINE
  8
0
  6
CENTER
 62
     7
 10
58.49999999999996
 20
140.0
 11
151.5
 21
140.0
  0
LINE
  8
0
  6
CONTINUOUS
 62
     7
 10
195.75
 20
110.0
 11
195.75
 21
93.00000000000004
  0
LINE
  8
0
  6
CENTER
 62
     7
 10
175.25
 20
140.0
 11
204.75
 21
140.0
  0
LINE
  8
0
  6
CONTINUOUS
 62
     7
 10
107.8
 20
43.75000000000002
 11
107.8
 21
45.25000000000003
  0
LINE
  8
0
  6
CONTINUOUS
 62
     7
 10
67.92836282905951
 20
25.45186667064318
 11
70.99254060153542
 21
28.02301710938935
  0
LINE
  8
0
  6
CONTINUOUS
 62
     7
 10
195.75
 20
126.5
 11
195.75
 21
153.5
  0
LINE
  8
0
  6
CONTINUOUS
 62
     7
 10
199.5481333293568
 20
153.5
 11
199.5481333293568
 21
126.5
  0
LINE
  8
0
  6
CENTER
 62
     7
 10
105.0
 20
20.25
 11
105.0
 21
49.75000000000001
  0
LINE
  8
0
  6
CONTINUOUS
 62
     7
 10
102.2
 20
43.75000000000002
 11
107.8
 21
43.75000000000002
  0
LINE
  8
0
  6
CENTER
 62
     7
 10
101.0
 20
98.25
 11
109.0
 21
98.25
  0
LINE
  8
0
  6
CONTINUOUS
 62
     7
 10
201.75
 20
126.5
 11
197.25
 21
126.5
  0
LINE
  8
0
  6
CONTINUOUS
 62
     7
 10
102.2
 20
45.25000000000003
 11
102.2
 21
43.75000000000002
  0
LINE
  8
0
  6
CONTINUOUS
 62
     7
 10
197.25
 20
153.5
 11
195.75
 21
153.5
  0
LINE
  8
0
  6
CENTER
 62
     7
 10
101.0
 20
162.0
 11
109.0
 21
162.0
  0
LINE
  8
0
  6
CENTER
 62
     7
 10
101.0
 20
181.75
 11
109.0
 21
181.75
  0
LINE
  8
0
  6
CONTINUOUS
 62
     7
 10
70.99254060153542
 20
28.02301710938934
 11
71.95672201606523
 21
26.87395044471087
  0
LINE
  8
0
  6
CONTINUOUS
 62
     7
 10
201.75
 20
153.5
 11
197.25
 21
153.5
  0
LINE
  8
0
  6
CONTINUOUS
 62
     7
 10
138.0432779839347
 20
26.87395044471087
 11
139.0074593984645
 21
28.02301710938935
  0
LINE
  8
0
  6
CONTINUOUS
 62
     7
 10
197.25
 20
110.0
 11
195.75
 21
110.0
  0
LINE
  8
0
  6
CONTINUOUS
 62
     7
 10
197.25
 20
187.0000000000001
 11
195.75
 21
187.0000000000001
  0
LINE
  8
0
  6
CONTINUOUS
 62
     7
 10
195.75
 20
170.0
 11
195.75
 21
187.0000000000001
  0
LINE
  8
0
  6
CONTINUOUS
 62
     7
 10
197.25
 20
126.5
 11
195.75
 21
126.5
  0
LINE
  8
0
  6
CONTINUOUS
 62
     7
 10
197.25
 20
93.00000000000004
 11
195.75
 21
93.00000000000004
  0
LINE
  8
0
  6
CONTINUOUS
 62
     7
 10
201.75
 20
93.00000000000004
 11
197.25
 21
93.00000000000004
  0
LINE
  8
0
  6
CONTINUOUS
 62
     7
 10
201.75
 20
187.0000000000001
 11
197.25
 21
187.0000000000001
  0
LINE
  8
0
  6
CENTER
 62
     7
 10
101.3
 20
118.0
 11
108.7
 21
118.0
  0
LINE
  8
0
  6
CONTINUOUS
 62
     7
 10
71.95672201606523
 20
26.87395044471087
 11
68.89254424358931
 21
24.30280000596468
  0
LINE
  8
0
  6
CONTINUOUS
 62
     7
 10
201.75
 20
170.0
 11
197.25
 21
170.0
  0
LINE
  8
0
  6
CONTINUOUS
 62
     7
 10
201.75
 20
110.0
 11
197.25
 21
110.0
  0
LINE
  8
0
  6
CENTER
 62
     7
 10
105.0
 20
75.0
 11
105.0
 21
204.9999999999999
  0
LINE
  8
0
  6
CONTINUOUS
 62
     7
 10
200.6971999940353
 20
93.00000000000004
 11
200.6971999940353
 21
110.0
  0
LINE
  8
0
  6
CONTINUOUS
 62
     7
 10
200.6971999940353
 20
153.5
 11
200.6971999940353
 21
126.5
  0
LINE
  8
0
  6
CONTINUOUS
 62
     7
 10
197.25
 20
170.0
 11
195.75
 21
170.0
  0
LINE
  8
0
  6
CONTINUOUS
 62
     7
 10
139.0074593984645
 20
28.02301710938935
 11
142.0716371709405
 21
25.45186667064316
  0
LINE
  8
0
  6
CONTINUOUS
 62
     7
 10
201.75
 20
203.0
 11
197.25
 21
203.0
  0
LINE
  8
0
  6
CONTINUOUS
 62
     7
 10
64.49999999999997
 20
45.25000000000001
 11
145.5
 21
45.25000000000001
  0
LINE
  8
0
  6
CONTINUOUS
 62
     7
 10
178.25
 20
77.00000000000003
 11
178.25
 21
203.0
  0
LINE
  8
0
  6
CONTINUOUS
 62
     7
 10
178.25
 20
203.0
 11
181.25
 21
203.0
  0
LINE
  8
0
  6
CONTINUOUS
 62
     7
 10
181.25
 20
77.00000000000003
 11
178.25
 21
77.00000000000003
  0
LINE
  8
0
  6
CONTINUOUS
 62
     7
 10
201.75
 20
77.00000000000014
 11
201.75
 21
93.0000000000001
  0
LINE
  8
0
  6
CONTINUOUS
 62
     7
 10
201.75
 20
187.0000000000001
 11
201.75
 21
203.0
  0
LINE
  8
0
  6
CONTINUOUS
 62
     7
 10
201.75
 20
153.5000000000001
 11
201.75
 21
170.0000000000001
  0
LINE
  8
0
  6
CONTINUOUS
 62
     7
 10
200.6971999940353
 20
187.0000000000001
 11
200.6971999940353
 21
170.0
  0
LINE
  8
0
  6
CONTINUOUS
 62
     7
 10
196.9769828906106
 20
110.0
 11
196.9769828906106
 21
93.00000000000006
  0
LINE
  8
0
  6
CONTINUOUS
 62
     7
 10
196.9769828906106
 20
187.0000000000001
 11
196.9769828906106
 21
170.0
  0
LINE
  8
0
  6
CONTINUOUS
 62
     7
 10
199.5481333293569
 20
187.0000000000001
 11
199.5481333293568
 21
170.0
  0
LINE
  8
0
  6
CONTINUOUS
 62
     7
 10
201.75
 20
110.0000000000001
 11
201.75
 21
126.5000000000001
  0
LINE
  8
0
  6
CONTINUOUS
 62
     7
 10
199.5481333293568
 20
93.00000000000004
 11
199.5481333293569
 21
110.0000000000001
  0
LINE
  8
0
  6
CONTINUOUS
 62
     7
 10
196.9769828906106
 20
153.5
 11
196.9769828906106
 21
126.5
  0
ARC
  8
0
  6
CONTINUOUS
 62
     7
 10
105.0
 20
162.0
 40
1.699999999999993
 50
0.0
 51
180.0
  0
ARC
  8
0
  6
CONTINUOUS
 62
     7
 10
145.5
 20
43.75000000000001
 40
1.500000000000001
 50
0.0
 51
90.0
  0
ARC
  8
0
  6
CONTINUOUS
 62
     7
 10
105.0
 20
98.25
 40
1.699999999999993
 50
0.0
 51
180.0
  0
ARC
  8
0
  6
CONTINUOUS
 62
     7
 10
105.0
 20
181.75
 40
1.699999999999993
 50
180.0
 51
0.0
  0
ARC
  8
0
  6
CONTINUOUS
 62
     7
 10
105.0
 20
98.25
 40
1.700000000000007
 50
180.0
 51
0.0
  0
ARC
  8
0
  6
CONTINUOUS
 62
     7
 10
105.0
 20
118.0
 40
1.700000000000007
 50
180.0
 51
0.0
  0
ARC
  8
0
  6
CONTINUOUS
 62
     7
 10
144.0
 20
27.75000000000001
 40
4.500000000000009
 50
229.9999999999997
 51
0.0
  0
ARC
  8
0
  6
CONTINUOUS
 62
     7
 10
105.0
 20
181.75
 40
1.699999999999993
 50
0.0
 51
180.0
  0
ARC
  8
0
  6
CONTINUOUS
 62
     7
 10
64.49999999999997
 20
43.75000000000001
 40
1.500000000000001
 50
90.0
 51
180.0
  0
ARC
  8
0
  6
CONTINUOUS
 62
     7
 10
105.0
 20
162.0
 40
1.699999999999993
 50
180.0
 51
0.0
  0
ARC
  8
0
  6
CONTINUOUS
 62
     7
 10
105.0
 20
118.0
 40
1.699999999999993
 50
0.0
 51
180.0
  0
ENDSEC
  0
EOF
