  0
SECTION
  2
HEADER
  9
$ACADVER
  1
AC1006
  9
$DWGCODEPAGE
  3
ansi_932
  9
$INSBASE
 10
0.0
 20
0.0
 30
0.0
  9
$EXTMIN
 10
-409.6324923521
 20
382.9803637272727
  9
$EXTMAX
 10
-150.5221852098
 20
558.530638744
  9
$LIMMIN
 10
0.0
 20
0.0
  9
$LIMMAX
 10
12.0
 20
9.0
  9
$ORTHOMODE
 70
     0
  9
$REGENMODE
 70
     1
  9
$FILLMODE
 70
     1
  9
$QTEXTMODE
 70
     0
  9
$MIRRTEXT
 70
     1
  9
$DRAGMODE
 70
     2
  9
$LTSCALE
 40
1.0
  9
$OSMODE
 70
    37
  9
$ATTMODE
 70
     1
  9
$TEXTSIZE
 40
0.2
  9
$TRACEWID
 40
0.05
  9
$TEXTSTYLE
  7
STANDARD
  9
$CLAYER
  8
0
  9
$CELTYPE
  6
BYLAYER
  9
$CECOLOR
 62
   256
  9
$DIMSCALE
 40
1.0
  9
$DIMASZ
 40
3.0
  9
$DIMEXO
 40
0.0625
  9
$DIMDLI
 40
0.38
  9
$DIMRND
 40
0.0
  9
$DIMDLE
 40
0.0
  9
$DIMEXE
 40
1.5
  9
$DIMTP
 40
0.0
  9
$DIMTM
 40
0.0
  9
$DIMTXT
 40
3.0
  9
$DIMCEN
 40
0.09
  9
$DIMTSZ
 40
0.0
  9
$DIMTOL
 70
     0
  9
$DIMLIM
 70
     0
  9
$DIMTIH
 70
     1
  9
$DIMTOH
 70
     1
  9
$DIMSE1
 70
     0
  9
$DIMSE2
 70
     0
  9
$DIMTAD
 70
     1
  9
$DIMZIN
 70
     0
  9
$DIMBLK
  1

  9
$DIMASO
 70
     1
  9
$DIMSHO
 70
     1
  9
$DIMPOST
  1

  9
$DIMAPOST
  1

  9
$DIMALT
 70
     0
  9
$DIMALTD
 70
     2
  9
$DIMALTF
 40
25.4
  9
$DIMLFAC
 40
1.0
  9
$DIMTOFL
 70
     0
  9
$DIMTVP
 40
0.0
  9
$DIMTIX
 70
     0
  9
$DIMSOXD
 70
     0
  9
$DIMSAH
 70
     0
  9
$DIMBLK1
  1

  9
$DIMBLK2
  1

  9
$LUNITS
 70
     2
  9
$LUPREC
 70
     4
  9
$SKETCHINC
 40
0.1
  9
$FILLETRAD
 40
0.5
  9
$AUNITS
 70
     0
  9
$AUPREC
 70
     0
  9
$MENU
  1
.
  9
$ELEVATION
 40
0.0
  9
$THICKNESS
 40
0.0
  9
$LIMCHECK
 70
     0
  9
$CHAMFERA
 40
0.0
  9
$CHAMFERB
 40
0.0
  9
$SKPOLY
 70
     0
  9
$TDCREATE
 40
2460445.573556956
  9
$TDUPDATE
 40
2460445.573557246
  9
$TDINDWG
 40
0.0000000116
  9
$TDUSRTIMER
 40
0.0000000116
  9
$USRTIMER
 70
     1
  9
$ANGBASE
 50
0.0
  9
$ANGDIR
 70
     0
  9
$PDMODE
 70
     0
  9
$PDSIZE
 40
0.0
  9
$PLINEWID
 40
0.0
  9
$COORDS
 70
     1
  9
$SPLFRAME
 70
     0
  9
$SPLINETYPE
 70
     6
  9
$SPLINESEGS
 70
     8
  9
$ATTDIA
 70
     0
  9
$ATTREQ
 70
     1
  9
$HANDLING
 70
     1
  9
$HANDSEED
  5
244
  9
$SURFTAB1
 70
     6
  9
$SURFTAB2
 70
     6
  9
$SURFTYPE
 70
     6
  9
$SURFU
 70
     6
  9
$SURFV
 70
     6
  9
$UCSNAME
  2

  9
$UCSORG
 10
0.0
 20
0.0
 30
0.0
  9
$UCSXDIR
 10
1.0
 20
0.0
 30
0.0
  9
$UCSYDIR
 10
0.0
 20
1.0
 30
0.0
  9
$USERI1
 70
     0
  9
$USERI2
 70
     0
  9
$USERI3
 70
     0
  9
$USERI4
 70
     0
  9
$USERI5
 70
     0
  9
$USERR1
 40
0.0
  9
$USERR2
 40
0.0
  9
$USERR3
 40
0.0
  9
$USERR4
 40
0.0
  9
$USERR5
 40
0.0
  9
$WORLDVIEW
 70
     1
  0
ENDSEC
  0
SECTION
  2
TABLES
  0
TABLE
  2
VPORT
 70
     1
  0
VPORT
  2
*ACTIVE
 70
     0
 10
0.0
 20
0.0
 11
1.0
 21
1.0
 12
-280.07733878095
 22
470.7555012356364
 13
0.0
 23
0.0
 14
0.5
 24
0.5
 15
0.5
 25
0.5
 16
0.0
 26
0.0
 36
1.0
 17
0.0
 27
0.0
 37
0.0
 40
175.5502750167274
 41
1.6
 42
50.0
 43
0.0
 44
0.0
 50
0.0
 51
0.0
 71
     0
 72
   100
 73
     1
 74
     3
 75
     0
 76
     0
 77
     0
 78
     0
  0
ENDTAB
  0
TABLE
  2
LTYPE
 70
     2
  0
LTYPE
  2
CONTINUOUS
 70
     0
  3
Solid line
 72
    65
 73
     0
 40
0.0
  0
LTYPE
  2
CENTER
 70
     0
  3

 72
    65
 73
     0
 40
0.0
  0
ENDTAB
  0
TABLE
  2
LAYER
 70
     2
  0
LAYER
  2
0
 70
     0
 62
     7
  6
CONTINUOUS
  0
LAYER
  2
1
 70
     0
 62
     7
  6
CONTINUOUS
  0
ENDTAB
  0
TABLE
  2
STYLE
 70
     2
  0
STYLE
  2
STANDARD
 70
     0
 40
0.0
 41
1.0
 50
0.0
 71
     0
 42
0.2
  3
txt
  4

  0
STYLE
  2
ＭＳ_ゴシック
 70
     0
 40
0.0
 41
1.0
 50
0.0
 71
     0
 42
0.2
  3
ＭＳ ゴシック.shx
  4

  0
ENDTAB
  0
TABLE
  2
VIEW
 70
     0
  0
ENDTAB
  0
TABLE
  2
UCS
 70
     0
  0
ENDTAB
  0
ENDSEC
  0
SECTION
  2
BLOCKS
  0
ENDSEC
  0
SECTION
  2
ENTITIES
  0
TEXT
  5
70
  8
1
  6
CONTINUOUS
 62
     7
 10
-252.0985252578154
 20
382.6383292143303
 30
0.0
 40
3.0
  1
STRMXA161316
 41
1.353571
  0
LINE
  5
71
  8
1
  6
CONTINUOUS
 62
     7
 10
-163.2721852098
 20
396.3306386836
 30
0.0
 11
-163.2721852098
 21
396.5306386836
 31
0.0
  0
LINE
  5
72
  8
1
  6
CONTINUOUS
 62
     7
 10
-158.0221852098
 20
553.430638744
 30
0.0
 11
-160.0221852098
 21
553.630638744
 31
0.0
  0
LINE
  5
73
  8
1
  6
CONTINUOUS
 62
     7
 10
-182.8867264831
 20
552.5825991548
 30
0.0
 11
-182.7935771874
 21
552.4051532858
 31
0.0
  0
LINE
  5
74
  8
1
  6
CONTINUOUS
 62
     7
 10
-160.2221852098
 20
398.6806386836
 30
0.0
 11
-160.2221852098
 21
399.5306386836
 31
0.0
  0
LINE
  5
75
  8
1
  6
CONTINUOUS
 62
     7
 10
-158.0221852098
 20
528.130638744
 30
0.0
 11
-158.0771913782
 21
528.1361393608
 31
0.0
  0
LINE
  5
76
  8
1
  6
CONTINUOUS
 62
     7
 10
-179.2221852098
 20
397.5306386836
 30
0.0
 11
-178.9221852098
 21
396.5306386836
 31
0.0
  0
LINE
  5
77
  8
1
  6
CONTINUOUS
 62
     7
 10
-160.1221852098
 20
396.5306386836
 30
0.0
 11
-159.8221852098
 21
397.5306386836
 31
0.0
  0
LINE
  5
78
  8
1
  6
CONTINUOUS
 62
     7
 10
-179.2221852098
 20
398.3806386836
 30
0.0
 11
-179.2221852098
 21
397.5306386836
 31
0.0
  0
ARC
  5
79
  8
1
  6
CONTINUOUS
 62
     7
 10
-174.9721852098
 20
396.3306386836
 30
0.0
 40
0.8
 50
180.0
 51
270.0
  0
ARC
  5
7A
  8
1
  6
CONTINUOUS
 62
     7
 10
-175.5221852098
 20
552.180638744
 30
0.0
 40
7.5
 50
189.6618832326
 51
197.5459514871
  0
LINE
  5
7B
  8
1
  6
CONTINUOUS
 62
     7
 10
-182.7935903152
 20
552.4051742372
 30
0.0
 11
-182.7935903152
 21
551.9561032508
 31
0.0
  0
ARC
  5
7C
  8
1
  6
CONTINUOUS
 62
     7
 10
-182.7182489961
 20
550.9531755124
 30
0.0
 40
0.2
 50
135.3477702802
 51
189.6800205914
  0
LINE
  5
7D
  8
1
  6
CONTINUOUS
 62
     7
 10
-182.9125164984
 20
526.3218053901
 30
0.0
 11
-182.9014824329
 21
526.0526842296
 31
0.0
  0
ARC
  5
7E
  8
1
  6
CONTINUOUS
 62
     7
 10
-182.0058184506
 20
554.230638744
 30
0.0
 40
0.7
 50
90.0
 51
162.4540485129
  0
LINE
  5
7F
  8
1
  6
CONTINUOUS
 62
     7
 10
-182.0058184506
 20
524.130638744
 30
0.0
 11
-181.1221852098
 21
524.130638744
 31
0.0
  0
ARC
  5
80
  8
1
  6
CONTINUOUS
 62
     7
 10
-181.1221852098
 20
438.080638744
 30
0.0
 40
0.1
 50
0.0
 51
90.0
  0
LINE
  5
81
  8
1
  6
CONTINUOUS
 62
     7
 10
-159.8221852098
 20
397.5306386836
 30
0.0
 11
-159.8221852098
 21
398.3806386836
 31
0.0
  0
ARC
  5
82
  8
1
  6
CONTINUOUS
 62
     7
 10
-175.5221852098
 20
435.430638744
 30
0.0
 40
7.5
 50
195.0191479625
 51
197.5459514871
  0
ARC
  5
83
  8
1
  6
CONTINUOUS
 62
     7
 10
-175.5221852098
 20
526.880638744
 30
0.0
 40
7.5
 50
189.6618832326
 51
197.5459514871
  0
LINE
  5
84
  8
1
  6
CONTINUOUS
 62
     7
 10
-160.2221852098
 20
399.5306386836
 30
0.0
 11
-159.8221852098
 21
400.5306386836
 31
0.0
  0
ARC
  5
85
  8
1
  6
CONTINUOUS
 62
     7
 10
-175.5221852098
 20
435.430638744
 30
0.0
 40
7.5
 50
162.4540485129
 51
164.962395081
  0
ARC
  5
86
  8
1
  6
CONTINUOUS
 62
     7
 10
-182.7182489961
 20
525.6531755124
 30
0.0
 40
0.2
 50
135.3477702794
 51
189.6800205914
  0
LINE
  5
87
  8
1
  6
CONTINUOUS
 62
     7
 10
-182.8996377504
 20
553.0240223886
 30
0.0
 11
-182.8880530773
 21
552.5858050342
 31
0.0
  0
LINE
  5
88
  8
1
  6
CONTINUOUS
 62
     7
 10
-182.774770767
 20
436.4490228145
 30
0.0
 11
-182.8150715843
 21
436.0312514864
 31
0.0
  0
LINE
  5
89
  8
1
  6
CONTINUOUS
 62
     7
 10
-181.1221852098
 20
554.930638744
 30
0.0
 11
-182.0058184506
 21
554.930638744
 31
0.0
  0
LINE
  5
8A
  8
1
  6
CONTINUOUS
 62
     7
 10
-182.8150715843
 20
434.8300260015
 30
0.0
 11
-182.771469341
 21
434.4257133465
 31
0.0
  0
LINE
  5
8B
  8
1
  6
CONTINUOUS
 62
     7
 10
-158.0221852098
 20
436.680638744
 30
0.0
 11
-160.0221852098
 21
436.880638744
 31
0.0
  0
LINE
  5
8C
  8
1
  6
CONTINUOUS
 62
     7
 10
-160.0221852098
 20
433.980638744
 30
0.0
 11
-158.0221852098
 21
434.180638744
 31
0.0
  0
LINE
  5
8D
  8
1
  6
CONTINUOUS
 62
     7
 10
-161.647383625
 20
525.430638744
 30
0.0
 11
-160.0221852098
 21
525.430638744
 31
0.0
  0
ARC
  5
8E
  8
1
  6
CONTINUOUS
 62
     7
 10
-181.1221852098
 20
432.780638744
 30
0.0
 40
0.1
 50
270.0
 51
0.0
  0
LINE
  5
8F
  8
1
  6
CONTINUOUS
 62
     7
 10
-182.8867264831
 20
527.2825991548
 30
0.0
 11
-182.7935771874
 21
527.1051532858
 31
0.0
  0
LINE
  5
90
  8
1
  6
CONTINUOUS
 62
     7
 10
-160.0221852098
 20
436.880638744
 30
0.0
 11
-160.544053556
 21
436.880638744
 31
0.0
  0
LINE
  5
91
  8
1
  6
CONTINUOUS
 62
     7
 10
-182.8880530773
 20
526.4754724537
 30
0.0
 11
-182.9125164984
 21
526.3218053901
 31
0.0
  0
LINE
  5
92
  8
1
  6
CONTINUOUS
 62
     7
 10
-160.0221852098
 20
553.630638744
 30
0.0
 11
-161.647383625
 21
553.630638744
 31
0.0
  0
LINE
  5
93
  8
1
  6
CONTINUOUS
 62
     7
 10
-160.2242095182
 20
433.980638744
 30
0.0
 11
-160.0221852098
 21
433.980638744
 31
0.0
  0
ARC
  5
94
  8
1
  6
CONTINUOUS
 62
     7
 10
-175.5221852098
 20
552.180638744
 30
0.0
 40
7.5
 50
162.4540485129
 51
170.3198358043
  0
ARC
  5
95
  8
1
  6
CONTINUOUS
 62
     7
 10
-175.5221852098
 20
526.880638744
 30
0.0
 40
7.5
 50
162.4540485129
 51
170.3198358043
  0
ARC
  5
96
  8
1
  6
CONTINUOUS
 62
     7
 10
-182.7182489961
 20
553.4081019755
 30
0.0
 40
0.2
 50
170.3199794086
 51
224.6522297425
  0
LINE
  5
97
  8
1
  6
CONTINUOUS
 62
     7
 10
-181.1221852098
 20
438.180638744
 30
0.0
 11
-182.0058184506
 21
438.180638744
 31
0.0
  0
ARC
  5
98
  8
1
  6
CONTINUOUS
 62
     7
 10
-182.0058184506
 20
433.380638744
 30
0.0
 40
0.7
 50
197.5459514871
 51
270.0
  0
ARC
  5
99
  8
1
  6
CONTINUOUS
 62
     7
 10
-181.1221852098
 20
524.230638744
 30
0.0
 40
0.1
 50
270.0
 51
0.0
  0
ARC
  5
9A
  8
1
  6
CONTINUOUS
 62
     7
 10
-164.0721852098
 20
396.3306386836
 30
0.0
 40
0.8
 50
270.0
 51
0.0
  0
LINE
  5
9B
  8
1
  6
CONTINUOUS
 62
     7
 10
-182.8984179486
 20
527.733648469
 30
0.0
 11
-182.8996377504
 21
527.7240223886
 31
0.0
  0
ARC
  5
9C
  8
1
  6
CONTINUOUS
 62
     7
 10
-182.0058184506
 20
437.480638744
 30
0.0
 40
0.7
 50
90.0
 51
162.4540485129
  0
LINE
  5
9D
  8
1
  6
CONTINUOUS
 62
     7
 10
-178.8221852098
 20
399.5306386836
 30
0.0
 11
-178.8221852098
 21
398.6806386836
 31
0.0
  0
LINE
  5
9E
  8
1
  6
CONTINUOUS
 62
     7
 10
-160.0221852098
 20
525.430638744
 30
0.0
 11
-158.0221852098
 21
525.630638744
 31
0.0
  0
ARC
  5
9F
  8
1
  6
CONTINUOUS
 62
     7
 10
-160.0721852098
 20
398.6806386836
 30
0.0
 40
0.15
 50
180.0
 51
269.9999999999
  0
LINE
  5
A0
  8
1
  6
CONTINUOUS
 62
     7
 10
-182.8996377504
 20
527.7240223886
 30
0.0
 11
-182.8880530773
 21
527.2858050342
 31
0.0
  0
ARC
  5
A1
  8
1
  6
CONTINUOUS
 62
     7
 10
-181.1221852098
 20
554.830638744
 30
0.0
 40
0.1
 50
0.0
 51
90.0
  0
LINE
  5
A2
  8
1
  6
CONTINUOUS
 62
     7
 10
-182.8880530773
 20
551.7754724537
 30
0.0
 11
-182.9125164984
 21
551.6218053901
 31
0.0
  0
ARC
  5
A3
  8
1
  6
CONTINUOUS
 62
     7
 10
-178.9721852098
 20
398.6806386836
 30
0.0
 40
0.15
 50
270.0000000001
 51
0.0
  0
ARC
  5
A4
  8
1
  6
CONTINUOUS
 62
     7
 10
-182.7182489961
 20
528.1081019755
 30
0.0
 40
0.2
 50
170.3199794086
 51
224.6522297198
  0
LINE
  5
A5
  8
1
  6
CONTINUOUS
 62
     7
 10
-182.0058184506
 20
432.680638744
 30
0.0
 11
-181.1221852098
 21
432.680638744
 31
0.0
  0
LINE
  5
A6
  8
1
  6
CONTINUOUS
 62
     7
 10
-175.7721852098
 20
396.5306386836
 30
0.0
 11
-175.7721852098
 21
396.3306386836
 31
0.0
  0
LINE
  5
A7
  8
1
  6
CONTINUOUS
 62
     7
 10
-158.0771913782
 20
550.9251381272
 30
0.0
 11
-158.0221852098
 21
550.930638744
 31
0.0
  0
LINE
  5
A8
  8
1
  6
CONTINUOUS
 62
     7
 10
-179.2221852098
 20
400.5306386836
 30
0.0
 11
-178.8221852098
 21
399.5306386836
 31
0.0
  0
LINE
  5
A9
  8
1
  6
CONTINUOUS
 62
     7
 10
-182.9125164984
 20
551.6218053901
 30
0.0
 11
-182.9014824329
 21
551.3526842296
 31
0.0
  0
ARC
  5
AA
  8
1
  6
CONTINUOUS
 62
     7
 10
-182.0058184506
 20
524.830638744
 30
0.0
 40
0.7
 50
197.5459514871
 51
270.0
  0
ARC
  5
AB
  8
1
  6
CONTINUOUS
 62
     7
 10
-182.0058184506
 20
550.130638744
 30
0.0
 40
0.7
 50
197.5459514871
 51
249.7365827115
  0
ARC
  5
AC
  8
1
  6
CONTINUOUS
 62
     7
 10
-182.0058184506
 20
528.930638744
 30
0.0
 40
0.7
 50
109.9663874781
 51
162.4540485129
  0
LINE
  5
AD
  8
1
  6
CONTINUOUS
 62
     7
 10
-182.7935903152
 20
527.1051742372
 30
0.0
 11
-182.7935903152
 21
526.6561032508
 31
0.0
  0
LINE
  5
AE
  8
1
  6
CONTINUOUS
 62
     7
 10
-182.7935771874
 20
526.6561242022
 30
0.0
 11
-182.8867264831
 21
526.4786783332
 31
0.0
  0
LINE
  5
AF
  8
1
  6
CONTINUOUS
 62
     7
 10
-182.7935771874
 20
551.9561242022
 30
0.0
 11
-182.8867264831
 21
551.7786783332
 31
0.0
  0
ARC
  5
B0
  8
1
  6
CONTINUOUS
 62
     7
 10
-154.8721852098
 20
461.5306386836
 30
0.0
 40
1.5
 50
0.0
 51
90.0
  0
LINE
  5
B1
  8
1
  6
CONTINUOUS
 62
     7
 10
-182.8985842696
 20
436.4201054088
 30
0.0
 11
-182.8929937918
 21
436.4002998742
 31
0.0
  0
LINE
  5
B2
  8
1
  6
CONTINUOUS
 62
     7
 10
-182.8929937918
 20
436.4002998742
 30
0.0
 11
-182.8879511909
 21
436.3858693014
 31
0.0
  0
LINE
  5
B3
  8
1
  6
CONTINUOUS
 62
     7
 10
-182.8466489187
 20
436.3166117164
 30
0.0
 11
-182.8383587792
 21
436.3078866809
 31
0.0
  0
LINE
  5
B4
  8
1
  6
CONTINUOUS
 62
     7
 10
-179.7804797297
 20
438.480638744
 30
0.0
 11
-180.8587958129
 21
438.480638744
 31
0.0
  0
LINE
  5
B5
  8
1
  6
CONTINUOUS
 62
     7
 10
-182.90624382
 20
436.4612492978
 30
0.0
 11
-182.9029680298
 21
436.4404344565
 31
0.0
  0
ARC
  5
B6
  8
1
  6
CONTINUOUS
 62
     7
 10
-180.5221852098
 20
524.380638744
 30
0.0
 40
0.5
 50
180.0
 51
270.0
  0
LINE
  5
B7
  8
1
  6
CONTINUOUS
 62
     7
 10
-182.8879511909
 20
436.3858693014
 30
0.0
 11
-182.8821400827
 21
436.3718866211
 31
0.0
  0
LINE
  5
B8
  8
1
  6
CONTINUOUS
 62
     7
 10
-186.5221852098
 20
489.530638744
 30
0.0
 11
-182.4172283691
 21
474.5306386836
 31
0.0
  0
LINE
  5
B9
  8
1
  6
CONTINUOUS
 62
     7
 10
-180.858793867
 20
432.480638744
 30
0.0
 11
-179.7818846344
 21
432.480638744
 31
0.0
  0
LINE
  5
BA
  8
1
  6
CONTINUOUS
 62
     7
 10
-182.8992983349
 20
436.6731464304
 30
0.0
 11
-182.9026025596
 21
436.6468767947
 31
0.0
  0
LINE
  5
BB
  8
1
  6
CONTINUOUS
 62
     7
 10
-182.8755262747
 20
436.358379768
 30
0.0
 11
-182.8680784458
 21
436.3453872745
 31
0.0
  0
LINE
  5
BC
  8
1
  6
CONTINUOUS
 62
     7
 10
-182.9100672613
 20
436.5496955207
 30
0.0
 11
-182.9103363567
 21
436.5267981204
 31
0.0
  0
LINE
  5
BD
  8
1
  6
CONTINUOUS
 62
     7
 10
-182.8047878563
 20
436.2815157761
 30
0.0
 11
-182.7957708857
 21
436.2763308008
 31
0.0
  0
ARC
  5
BE
  8
1
  6
CONTINUOUS
 62
     7
 10
-180.5221852098
 20
554.680638744
 30
0.0
 40
0.5
 50
90.0
 51
180.0
  0
LINE
  5
BF
  8
1
  6
CONTINUOUS
 62
     7
 10
-167.8045065611
 20
487.5325635265
 30
0.0
 11
-169.5221852098
 21
489.530638744
 31
0.0
  0
LINE
  5
C0
  8
1
  6
CONTINUOUS
 62
     7
 10
-182.9075362887
 20
436.5968690549
 30
0.0
 11
-182.9091164564
 21
436.5730118021
 31
0.0
  0
LINE
  5
C1
  8
1
  6
CONTINUOUS
 62
     7
 10
-182.8821400827
 20
436.3718866211
 30
0.0
 11
-182.8755262747
 21
436.358379768
 31
0.0
  0
LINE
  5
C2
  8
1
  6
CONTINUOUS
 62
     7
 10
-182.8216526126
 20
436.2932045333
 30
0.0
 11
-182.8134175721
 21
436.287149173
 31
0.0
  0
LINE
  5
C3
  8
1
  6
CONTINUOUS
 62
     7
 10
-156.627142169
 20
474.5306386836
 30
0.0
 11
-156.7218014973
 21
474.6407497482
 31
0.0
  0
LINE
  5
C4
  8
1
  6
CONTINUOUS
 62
     7
 10
-182.8680784458
 20
436.3453872745
 30
0.0
 11
-182.8615011985
 21
436.3353958057
 31
0.0
  0
LINE
  5
C5
  8
1
  6
CONTINUOUS
 62
     7
 10
-184.3921979475
 20
529.7578891811
 30
0.0
 11
-184.449279939
 21
529.5336754635
 31
0.0
  0
LINE
  5
C6
  8
1
  6
CONTINUOUS
 62
     7
 10
-165.9340403156
 20
521.9447919301
 30
0.0
 11
-165.8259300818
 21
522.1240746119
 31
0.0
  0
LINE
  5
C7
  8
1
  6
CONTINUOUS
 62
     7
 10
-153.3721852098
 20
430.0306386836
 30
0.0
 11
-153.3721852098
 21
461.5306386836
 31
0.0
  0
LINE
  5
C8
  8
1
  6
CONTINUOUS
 62
     7
 10
-169.5221852098
 20
489.530638744
 30
0.0
 11
-169.5221852098
 21
509.5306387439999
 31
0.0
  0
LINE
  5
C9
  8
1
  6
CONTINUOUS
 62
     7
 10
-182.9029680298
 20
436.4404344565
 30
0.0
 11
-182.8985842696
 21
436.4201054088
 31
0.0
  0
LINE
  5
CA
  8
1
  6
CONTINUOUS
 62
     7
 10
-182.9103363567
 20
436.5267981204
 30
0.0
 11
-182.9098453171
 21
436.5043720853
 31
0.0
  0
LINE
  5
CB
  8
1
  6
CONTINUOUS
 62
     7
 10
-182.9053600548
 20
436.6214294831
 30
0.0
 11
-182.9075362887
 21
436.5968690549
 31
0.0
  0
LINE
  5
CC
  8
1
  6
CONTINUOUS
 62
     7
 10
-182.9098453171
 20
436.5043720853
 30
0.0
 11
-182.9085069154
 21
436.4825488824
 31
0.0
  0
LINE
  5
CD
  8
1
  6
CONTINUOUS
 62
     7
 10
-182.8294879235
 20
436.2996562159
 30
0.0
 11
-182.8216526126
 21
436.2932045333
 31
0.0
  0
LINE
  5
CE
  8
1
  6
CONTINUOUS
 62
     7
 10
-182.8543610347
 20
436.3257932012
 30
0.0
 11
-182.8466489187
 21
436.3166117164
 31
0.0
  0
LINE
  5
CF
  8
1
  6
CONTINUOUS
 62
     7
 10
-182.7957708857
 20
436.2763308008
 30
0.0
 11
-182.7863766111
 21
436.2716213893
 31
0.0
  0
LINE
  5
D0
  8
1
  6
CONTINUOUS
 62
     7
 10
-182.7863766111
 20
436.2716213893
 30
0.0
 11
-182.7763269317
 21
436.2672907052
 31
0.0
  0
LINE
  5
D1
  8
1
  6
CONTINUOUS
 62
     7
 10
-182.9091164564
 20
436.5730118021
 30
0.0
 11
-182.9100672613
 21
436.5496955207
 31
0.0
  0
LINE
  5
D2
  8
1
  6
CONTINUOUS
 62
     7
 10
-182.8134175721
 20
436.287149173
 30
0.0
 11
-182.8047878563
 21
436.2815157761
 31
0.0
  0
LINE
  5
D3
  8
1
  6
CONTINUOUS
 62
     7
 10
-182.7763335676
 20
434.5928867111
 30
0.0
 11
-182.9040677604
 21
434.3789070948
 31
0.0
  0
LINE
  5
D4
  8
1
  6
CONTINUOUS
 62
     7
 10
-180.5221852098
 20
523.880638744
 30
0.0
 11
-173.5734668771
 21
523.880638744
 31
0.0
  0
LINE
  5
D5
  8
1
  6
CONTINUOUS
 62
     7
 10
-173.5700203029
 20
555.180638744
 30
0.0
 11
-180.5229208677
 21
555.180638744
 31
0.0
  0
LINE
  5
D6
  8
1
  6
CONTINUOUS
 62
     7
 10
-182.9085069154
 20
436.4825488824
 30
0.0
 11
-182.90624382
 21
436.4612492978
 31
0.0
  0
LINE
  5
D7
  8
1
  6
CONTINUOUS
 62
     7
 10
-186.5221852098
 20
509.5306387439999
 30
0.0
 11
-186.5221852098
 21
489.530638744
 31
0.0
  0
ARC
  5
D8
  8
1
  6
CONTINUOUS
 62
     7
 10
-133.6159332291
 20
505.8719397572
 30
0.0
 40
36.0921737996
 50
153.6159219641
 51
174.1818770018
  0
ARC
  5
D9
  8
1
  6
CONTINUOUS
 62
     7
 10
-132.3358738914
 20
514.0288361613
 30
0.0
 40
54.3726964046
 50
163.4614681863
 51
184.7454446556
  0
LINE
  5
DA
  8
1
  6
CONTINUOUS
 62
     7
 10
-185.6721852098
 20
461.5306386836
 30
0.0
 11
-185.6721852098
 21
430.0306386836
 31
0.0
  0
ARC
  5
DB
  8
1
  6
CONTINUOUS
 62
     7
 10
-184.1721852098
 20
461.5306386836
 30
0.0
 40
1.5
 50
90.0
 51
180.0
  0
LINE
  5
DC
  8
1
  6
CONTINUOUS
 62
     7
 10
-182.9026025596
 20
436.6468767947
 30
0.0
 11
-182.9053600548
 21
436.6214294831
 31
0.0
  0
LINE
  5
DD
  8
1
  6
CONTINUOUS
 62
     7
 10
-182.8615011985
 20
436.3353958057
 30
0.0
 11
-182.8543610347
 21
436.3257932012
 31
0.0
  0
LINE
  5
DE
  8
1
  6
CONTINUOUS
 62
     7
 10
-182.8383587792
 20
436.3078866809
 30
0.0
 11
-182.8294879235
 21
436.2996562159
 31
0.0
  0
LINE
  5
DF
  8
1
  6
CONTINUOUS
 62
     7
 10
-182.900670625
 20
435.6509226367
 30
0.0
 11
-182.9006709574
 21
435.2103569911
 31
0.0
  0
ARC
  5
E0
  8
1
  6
CONTINUOUS
 62
     7
 10
-180.7688959911
 20
443.2481359538
 30
0.0
 40
10.8125936361
 50
275.2347363488
 51
310.7186620204
  0
LINE
  5
E1
  8
1
  6
CONTINUOUS
 62
     7
 10
-159.2721852098
 20
406.0806386836
 30
0.0
 11
-159.2721852098
 21
412.2673688765
 31
0.0
  0
LINE
  5
E2
  8
1
  6
CONTINUOUS
 62
     7
 10
-153.3721852098
 20
430.0306386836
 30
0.0
 11
-185.6721852098
 21
430.0306386836
 31
0.0
  0
LINE
  5
E3
  8
1
  6
CONTINUOUS
 62
     7
 10
-184.1721852098
 20
463.0306386836
 30
0.0
 11
-154.8721852098
 21
463.0306386836
 31
0.0
  0
LINE
  5
E4
  8
1
  6
CONTINUOUS
 62
     7
 10
-167.8065767196
 20
487.530638744
 30
0.0
 11
-161.7221852098
 21
487.530638744
 31
0.0
  0
LINE
  5
E5
  8
1
  6
CONTINUOUS
 62
     7
 10
-179.7721852098
 20
406.0806386836
 30
0.0
 11
-179.2221852098
 21
405.5306386836
 31
0.0
  0
LINE
  5
E6
  8
1
  6
CONTINUOUS
 62
     7
 10
-161.8895212613
 20
435.7164083937
 30
0.0
 11
-161.8522085019
 21
435.8252044985
 31
0.0
  0
LINE
  5
E7
  8
1
  6
CONTINUOUS
 62
     7
 10
-179.7132277742
 20
438.4800225447
 30
0.0
 11
-179.7814844698
 21
438.4806387437
 31
0.0
  0
LINE
  5
E8
  8
1
  6
CONTINUOUS
 62
     7
 10
-159.8221852098
 20
405.5306386836
 30
0.0
 11
-159.2721852098
 21
406.0806386836
 31
0.0
  0
LINE
  5
E9
  8
1
  6
CONTINUOUS
 62
     7
 10
-173.7153513088
 20
435.0530344563
 30
0.0
 11
-173.6501549317
 21
435.1679021635
 31
0.0
  0
LINE
  5
EA
  8
1
  6
CONTINUOUS
 62
     7
 10
-173.6501549317
 20
435.1679021635
 30
0.0
 11
-173.6076127691
 21
435.2711489748
 31
0.0
  0
LINE
  5
EB
  8
1
  6
CONTINUOUS
 62
     7
 10
-179.2221852098
 20
405.5306386836
 30
0.0
 11
-179.2221852098
 21
400.5306386836
 31
0.0
  0
LINE
  5
EC
  8
1
  6
CONTINUOUS
 62
     7
 10
-159.8221852098
 20
400.5306386836
 30
0.0
 11
-159.8221852098
 21
405.5306386836
 31
0.0
  0
LINE
  5
ED
  8
1
  6
CONTINUOUS
 62
     7
 10
-184.4564203326
 20
529.5151659059
 30
0.0
 11
-184.4213898424
 21
529.6373570987
 31
0.0
  0
LINE
  5
EE
  8
1
  6
CONTINUOUS
 62
     7
 10
-159.8221852098
 20
398.3806386836
 30
0.0
 11
-159.9721852098
 21
398.5306386836
 31
0.0
  0
LINE
  5
EF
  8
1
  6
CONTINUOUS
 62
     7
 10
-173.5799898825
 20
435.3813721079
 30
0.0
 11
-173.5719780932
 21
435.4895522275
 31
0.0
  0
LINE
  5
F0
  8
1
  6
CONTINUOUS
 62
     7
 10
-180.852144902
 20
432.4811809645
 30
0.0
 11
-180.8587487295
 21
432.4806387581
 31
0.0
  0
LINE
  5
F1
  8
1
  6
CONTINUOUS
 62
     7
 10
-179.0721852098
 20
398.5306386836
 30
0.0
 11
-179.2221852098
 21
398.3806386836
 31
0.0
  0
LINE
  5
F2
  8
1
  6
CONTINUOUS
 62
     7
 10
-161.8522085019
 20
435.8252044985
 30
0.0
 11
-161.808222559
 21
435.9195095148
 31
0.0
  0
LINE
  5
F3
  8
1
  6
CONTINUOUS
 62
     7
 10
-173.5719780932
 20
435.4895522275
 30
0.0
 11
-173.5840102279
 21
435.6002894128
 31
0.0
  0
LINE
  5
F4
  8
1
  6
CONTINUOUS
 62
     7
 10
-161.8699591608
 20
435.1827501997
 30
0.0
 11
-161.9034588682
 21
435.3020293417
 31
0.0
  0
LINE
  5
F5
  8
1
  6
CONTINUOUS
 62
     7
 10
-180.5221852098
 20
426.3306386836
 30
0.0
 11
-179.8221852098
 21
425.6306386836
 31
0.0
  0
LINE
  5
F6
  8
1
  6
CONTINUOUS
 62
     7
 10
-161.9122970593
 20
435.6104271799
 30
0.0
 11
-161.8895212613
 21
435.7164083937
 31
0.0
  0
ARC
  5
F7
  8
1
  6
CONTINUOUS
 62
     7
 10
-159.5658561722
 20
436.5675996519
 30
0.0
 40
2.6882519575
 50
211.0073936001
 51
271.775800599
  0
LINE
  5
F8
  8
1
  6
CONTINUOUS
 62
     7
 10
-158.5221852098
 20
429.8306386836
 30
0.0
 11
-158.7221852098
 21
430.0306386836
 31
0.0
  0
LINE
  5
F9
  8
1
  6
CONTINUOUS
 62
     7
 10
-180.3221852098
 20
430.0306386836
 30
0.0
 11
-180.5221852098
 21
429.8306386836
 31
0.0
  0
LINE
  5
FA
  8
1
  6
CONTINUOUS
 62
     7
 10
-161.808222559
 20
435.9195095148
 30
0.0
 11
-161.7419893498
 21
436.0309004872
 31
0.0
  0
ARC
  5
FB
  8
1
  6
CONTINUOUS
 62
     7
 10
-169.5221852098
 20
539.530638744
 30
0.0
 40
17.0
 50
312.5693308711
 51
47.42389764850003
  0
ARC
  5
FC
  8
1
  6
CONTINUOUS
 62
     7
 10
-169.5221852098
 20
539.530638744
 30
0.0
 40
17.0
 50
55.95075390320001
 51
112.9653927609
  0
LINE
  5
FD
  8
1
  6
CONTINUOUS
 62
     7
 10
-184.4564203325
 20
529.5151659059
 30
0.0
 11
-184.4483571536
 21
529.5340012792
 31
0.0
  0
ARC
  5
FE
  8
1
  6
CONTINUOUS
 62
     7
 10
-169.5221852098
 20
539.530638744
 30
0.0
 40
17.0
 50
141.1243067773
 51
207.1275151245
  0
LINE
  5
FF
  8
1
  6
CONTINUOUS
 62
     7
 10
-173.6076127691
 20
435.2711489748
 30
0.0
 11
-173.5799898825
 21
435.3813721079
 31
0.0
  0
LINE
  5
100
  8
1
  6
CONTINUOUS
 62
     7
 10
-173.6178429724
 20
435.7177148181
 30
0.0
 11
-173.6622875988
 21
435.8168566134
 31
0.0
  0
ARC
  5
101
  8
1
  6
CONTINUOUS
 62
     7
 10
-159.4437853261
 20
433.9563554701
 30
0.0
 40
3.1245229968
 50
90.7097614469
 51
132.2968958526
  0
LINE
  5
102
  8
1
  6
CONTINUOUS
 62
     7
 10
-156.6221852098
 20
473.280638744
 30
0.0
 11
-182.4221852098
 21
473.280638744
 31
0.0
  0
LINE
  5
103
  8
1
  6
CONTINUOUS
 62
     7
 10
-182.4221852098
 20
471.780638744
 30
0.0
 11
-156.6221852098
 21
471.780638744
 31
0.0
  0
LINE
  5
104
  8
1
  6
CONTINUOUS
 62
     7
 10
-161.9188334606
 20
435.4050163813
 30
0.0
 11
-161.921776762
 21
435.5068525175
 31
0.0
  0
ARC
  5
105
  8
1
  6
CONTINUOUS
 62
     7
 10
-180.572699098
 20
428.32152129
 30
0.0
 40
10.1947946864
 50
47.3251323023
 51
85.1639438975
  0
LINE
  5
106
  8
1
  6
CONTINUOUS
 62
     7
 10
-173.5840102279
 20
435.6002894128
 30
0.0
 11
-173.6178429724
 21
435.7177148181
 31
0.0
  0
LINE
  5
107
  8
1
  6
CONTINUOUS
 62
     7
 10
-180.8587505759
 20
438.4806387298
 30
0.0
 11
-180.8521473037
 21
438.4800965789
 31
0.0
  0
LINE
  5
108
  8
1
  6
CONTINUOUS
 62
     7
 10
-161.921776762
 20
435.5068525175
 30
0.0
 11
-161.9122970593
 21
435.6104271799
 31
0.0
  0
LINE
  5
109
  8
1
  6
CONTINUOUS
 62
     7
 10
-156.7221852098
 20
482.530638744
 30
0.0
 11
-156.7221852098
 21
474.6316827107
 31
0.0
  0
ARC
  5
10A
  8
1
  6
CONTINUOUS
 62
     7
 10
-163.2784975171
 20
520.518340694
 30
0.0
 40
3.0112748341
 50
108.1990659095
 51
147.78319018
  0
LINE
  5
10B
  8
1
  6
CONTINUOUS
 62
     7
 10
-158.5221852098
 20
419.9306386836
 30
0.0
 11
-159.2221852098
 21
420.6306386836
 31
0.0
  0
LINE
  5
10C
  8
1
  6
CONTINUOUS
 62
     7
 10
-161.7419893498
 20
436.0309004872
 30
0.0
 11
-161.6493990023
 21
436.1547448292
 31
0.0
  0
LINE
  5
10D
  8
1
  6
CONTINUOUS
 62
     7
 10
-181.0221852098
 20
438.1790142412
 30
0.0
 11
-181.0770199677
 21
438.1411834063
 31
0.0
  0
LINE
  5
10E
  8
1
  6
CONTINUOUS
 62
     7
 10
-165.8261468142
 20
522.1237251293
 30
0.0
 11
-165.9468086481
 21
521.9142029434
 31
0.0
  0
ARC
  5
10F
  8
1
  6
CONTINUOUS
 62
     7
 10
-187.3324832936
 20
530.407153866
 30
0.0
 40
3.0111144476
 50
347.5441583875
 51
27.10549096369999
  0
ARC
  5
110
  8
1
  6
CONTINUOUS
 62
     7
 10
-169.5221852099
 20
539.530638744
 30
0.0
 40
17.0
 50
288.1769918227
 51
303.9836699692
  0
LINE
  5
111
  8
1
  6
CONTINUOUS
 62
     7
 10
-161.6493990023
 20
436.1547448292
 30
0.0
 11
-161.5465031945
 21
436.2674637592
 31
0.0
  0
ARC
  5
112
  8
1
  6
CONTINUOUS
 62
     7
 10
-161.7221852098
 20
482.530638744
 30
0.0
 40
5.0
 50
0.0
 51
90.0
  0
LINE
  5
113
  8
1
  6
CONTINUOUS
 62
     7
 10
-165.9349895782
 20
521.9451797031
 30
0.0
 11
-165.9468086481
 21
521.9142029434
 31
0.0
  0
LINE
  5
114
  8
1
  6
CONTINUOUS
 62
     7
 10
-179.8221852098
 20
420.6306386836
 30
0.0
 11
-180.5221852098
 21
419.9306386836
 31
0.0
  0
LINE
  5
115
  8
1
  6
CONTINUOUS
 62
     7
 10
-159.2221852098
 20
425.6306386836
 30
0.0
 11
-158.5221852098
 21
426.3306386836
 31
0.0
  0
LINE
  5
116
  8
1
  6
CONTINUOUS
 62
     7
 10
-180.5221852098
 20
429.8306386836
 30
0.0
 11
-180.5221852098
 21
426.3306386836
 31
0.0
  0
LINE
  5
117
  8
1
  6
CONTINUOUS
 62
     7
 10
-180.5221852098
 20
419.9306386836
 30
0.0
 11
-180.5221852098
 21
416.0912467482
 31
0.0
  0
LINE
  5
118
  8
1
  6
CONTINUOUS
 62
     7
 10
-158.5221852098
 20
416.0912467482
 30
0.0
 11
-158.5221852098
 21
419.9306386836
 31
0.0
  0
LINE
  5
119
  8
1
  6
CONTINUOUS
 62
     7
 10
-161.9034588682
 20
435.3020293417
 30
0.0
 11
-161.9188334606
 21
435.4050163813
 31
0.0
  0
LINE
  5
11A
  8
1
  6
CONTINUOUS
 62
     7
 10
-158.5221852098
 20
426.3306386836
 30
0.0
 11
-158.5221852098
 21
429.8306386836
 31
0.0
  0
LINE
  5
11B
  8
1
  6
CONTINUOUS
 62
     7
 10
-180.5221852098
 20
416.0912467482
 30
0.0
 11
-180.375259002
 21
415.6875703097
 31
0.0
  0
LINE
  5
11C
  8
1
  6
CONTINUOUS
 62
     7
 10
-158.6691114177
 20
415.6875703097
 30
0.0
 11
-158.5221852098
 21
416.0912467482
 31
0.0
  0
ARC
  5
11D
  8
1
  6
CONTINUOUS
 62
     7
 10
-189.7721852098
 20
412.2673688765
 30
0.0
 40
10.0
 50
0.0
 51
20.0
  0
ARC
  5
11E
  8
1
  6
CONTINUOUS
 62
     7
 10
-149.2721852098
 20
412.2673688765
 30
0.0
 40
10.0
 50
160.0
 51
180.0
  0
LINE
  5
11F
  8
1
  6
CONTINUOUS
 62
     7
 10
-179.7721852098
 20
412.2673688765
 30
0.0
 11
-179.7721852098
 21
406.0806386836
 31
0.0
  0
LINE
  5
120
  8
1
  6
CONTINUOUS
 62
     7
 10
-382.2324923521
 20
526.280638744
 30
0.0
 11
-381.5324923521
 21
526.980638744
 31
0.0
  0
LINE
  5
121
  8
1
  6
CONTINUOUS
 62
     7
 10
-247.1324923521
 20
555.680638744
 30
0.0
 11
-278.6324923521
 21
555.680638744
 31
0.0
  0
LINE
  5
122
  8
1
  6
CONTINUOUS
 62
     7
 10
-372.3324923521
 20
552.780638744
 30
0.0
 11
-375.8324923521
 21
552.780638744
 31
0.0
  0
LINE
  5
123
  8
1
  6
CONTINUOUS
 62
     7
 10
-375.8324923521
 20
526.280638744
 30
0.0
 11
-372.3324923521
 21
526.280638744
 31
0.0
  0
ARC
  5
124
  8
1
  6
CONTINUOUS
 62
     7
 10
-394.3957621592
 20
562.030638744
 30
0.0
 40
10.0
 50
270.0
 51
289.9999999999999
  0
ARC
  5
125
  8
1
  6
CONTINUOUS
 62
     7
 10
-394.3957621592
 20
517.030638744
 30
0.0
 40
10.0
 50
70.0
 51
90.0
  0
ARC
  5
126
  8
1
  6
CONTINUOUS
 62
     7
 10
-229.7824923521
 20
526.580638744
 30
0.0
 40
0.15
 50
0.0
 51
90.0
  0
ARC
  5
127
  8
1
  6
CONTINUOUS
 62
     7
 10
-229.7824923521
 20
552.480638744
 30
0.0
 40
0.15
 50
270.0
 51
0.0
  0
LINE
  5
128
  8
1
  6
CONTINUOUS
 62
     7
 10
-389.6324923521
 20
552.580638744
 30
0.0
 11
-389.7824923521
 21
552.730638744
 31
0.0
  0
LINE
  5
129
  8
1
  6
CONTINUOUS
 62
     7
 10
-228.5557265457
 20
552.730638744
 30
0.0
 11
-229.4824923521
 21
552.730638744
 31
0.0
  0
LINE
  5
12A
  8
1
  6
CONTINUOUS
 62
     7
 10
-229.6324923521
 20
526.480638744
 30
0.0
 11
-229.4824923521
 21
526.330638744
 31
0.0
  0
ARC
  5
12B
  8
1
  6
CONTINUOUS
 62
     7
 10
-224.869222545
 20
517.030638744
 30
0.0
 40
10.0
 50
90.0
 51
110.0
  0
LINE
  5
12C
  8
1
  6
CONTINUOUS
 62
     7
 10
-372.3324923521
 20
526.280638744
 30
0.0
 11
-372.1324923521
 21
526.480638744
 31
0.0
  0
LINE
  5
12D
  8
1
  6
CONTINUOUS
 62
     7
 10
-228.2894239783
 20
552.6337125361
 30
0.0
 11
-228.5557265457
 21
552.730638744
 31
0.0
  0
ARC
  5
12E
  8
1
  6
CONTINUOUS
 62
     7
 10
-210.4324923521
 20
546.680638744
 30
0.0
 40
0.8
 50
0.0
 51
90.0
  0
LINE
  5
12F
  8
1
  6
CONTINUOUS
 62
     7
 10
-389.7824923521
 20
526.330638744
 30
0.0
 11
-389.6324923521
 21
526.480638744
 31
0.0
  0
LINE
  5
130
  8
1
  6
CONTINUOUS
 62
     7
 10
-375.8324923521
 20
552.780638744
 30
0.0
 11
-376.5324923521
 21
552.080638744
 31
0.0
  0
LINE
  5
131
  8
1
  6
CONTINUOUS
 62
     7
 10
-388.1324923521
 20
526.730638744
 30
0.0
 11
-386.8961275133
 21
526.280638744
 31
0.0
  0
LINE
  5
132
  8
1
  6
CONTINUOUS
 62
     7
 10
-215.4530818988
 20
527.030638744
 30
0.0
 11
-210.6324923521
 21
527.880638744
 31
0.0
  0
LINE
  5
133
  8
1
  6
CONTINUOUS
 62
     7
 10
-210.4324923521
 20
547.480638744
 30
0.0
 11
-210.6324923521
 21
547.480638744
 31
0.0
  0
LINE
  5
134
  8
1
  6
CONTINUOUS
 62
     7
 10
-390.9755607259
 20
526.4275649518
 30
0.0
 11
-390.7092581585
 21
526.330638744
 31
0.0
  0
LINE
  5
135
  8
1
  6
CONTINUOUS
 62
     7
 10
-390.7092581585
 20
526.330638744
 30
0.0
 11
-389.7824923521
 21
526.330638744
 31
0.0
  0
ARC
  5
136
  8
1
  6
CONTINUOUS
 62
     7
 10
-389.4824923521
 20
526.580638744
 30
0.0
 40
0.15
 50
90.0
 51
180.0
  0
LINE
  5
137
  8
1
  6
CONTINUOUS
 62
     7
 10
-224.869222545
 20
527.030638744
 30
0.0
 11
-215.4530818988
 21
527.030638744
 31
0.0
  0
LINE
  5
138
  8
1
  6
CONTINUOUS
 62
     7
 10
-210.6324923521
 20
551.180638744
 30
0.0
 11
-215.4530818988
 21
552.030638744
 31
0.0
  0
LINE
  5
139
  8
1
  6
CONTINUOUS
 62
     7
 10
-372.1324923521
 20
552.580638744
 30
0.0
 11
-372.3324923521
 21
552.780638744
 31
0.0
  0
LINE
  5
13A
  8
1
  6
CONTINUOUS
 62
     7
 10
-215.4530818988
 20
552.030638744
 30
0.0
 11
-224.869222545
 21
552.030638744
 31
0.0
  0
LINE
  5
13B
  8
1
  6
CONTINUOUS
 62
     7
 10
-389.7824923521
 20
552.730638744
 30
0.0
 11
-390.7092581585
 21
552.730638744
 31
0.0
  0
LINE
  5
13C
  8
1
  6
CONTINUOUS
 62
     7
 10
-403.8119028054
 20
527.030638744
 30
0.0
 11
-394.3957621592
 21
527.030638744
 31
0.0
  0
ARC
  5
13D
  8
1
  6
CONTINUOUS
 62
     7
 10
-210.4324923521
 20
532.380638744
 30
0.0
 40
0.8
 50
270.0
 51
0.0
  0
LINE
  5
13E
  8
1
  6
CONTINUOUS
 62
     7
 10
-381.5324923521
 20
552.080638744
 30
0.0
 11
-382.2324923521
 21
552.780638744
 31
0.0
  0
LINE
  5
13F
  8
1
  6
CONTINUOUS
 62
     7
 10
-389.4824923521
 20
526.730638744
 30
0.0
 11
-388.1324923521
 21
526.730638744
 31
0.0
  0
LINE
  5
140
  8
1
  6
CONTINUOUS
 62
     7
 10
-403.8119028054
 20
552.030638744
 30
0.0
 11
-408.6324923521
 21
551.180638744
 31
0.0
  0
LINE
  5
141
  8
1
  6
CONTINUOUS
 62
     7
 10
-376.5324923521
 20
526.980638744
 30
0.0
 11
-375.8324923521
 21
526.280638744
 31
0.0
  0
ARC
  5
142
  8
1
  6
CONTINUOUS
 62
     7
 10
-408.8324923521
 20
532.380638744
 30
0.0
 40
0.8
 50
180.0
 51
270.0
  0
LINE
  5
143
  8
1
  6
CONTINUOUS
 62
     7
 10
-231.1324923521
 20
526.730638744
 30
0.0
 11
-229.7824923521
 21
526.730638744
 31
0.0
  0
ARC
  5
144
  8
1
  6
CONTINUOUS
 62
     7
 10
-408.8324923521
 20
546.680638744
 30
0.0
 40
0.8
 50
90.0
 51
180.0
  0
LINE
  5
145
  8
1
  6
CONTINUOUS
 62
     7
 10
-386.8961275133
 20
552.780638744
 30
0.0
 11
-388.1324923521
 21
552.330638744
 31
0.0
  0
LINE
  5
146
  8
1
  6
CONTINUOUS
 62
     7
 10
-408.6324923521
 20
527.880638744
 30
0.0
 11
-403.8119028054
 21
527.030638744
 31
0.0
  0
LINE
  5
147
  8
1
  6
CONTINUOUS
 62
     7
 10
-388.1324923521
 20
552.330638744
 30
0.0
 11
-389.4824923521
 21
552.330638744
 31
0.0
  0
LINE
  5
148
  8
1
  6
CONTINUOUS
 62
     7
 10
-386.8961275133
 20
526.280638744
 30
0.0
 11
-382.2324923521
 21
526.280638744
 31
0.0
  0
ARC
  5
149
  8
1
  6
CONTINUOUS
 62
     7
 10
-389.4824923521
 20
552.480638744
 30
0.0
 40
0.15
 50
180.0
 51
270.0
  0
LINE
  5
14A
  8
1
  6
CONTINUOUS
 62
     7
 10
-229.7824923521
 20
552.330638744
 30
0.0
 11
-231.1324923521
 21
552.330638744
 31
0.0
  0
LINE
  5
14B
  8
1
  6
CONTINUOUS
 62
     7
 10
-394.3957621592
 20
552.030638744
 30
0.0
 11
-403.8119028054
 21
552.030638744
 31
0.0
  0
LINE
  5
14C
  8
1
  6
CONTINUOUS
 62
     7
 10
-229.4824923521
 20
552.730638744
 30
0.0
 11
-229.6324923521
 21
552.580638744
 31
0.0
  0
LINE
  5
14D
  8
1
  6
CONTINUOUS
 62
     7
 10
-408.6324923521
 20
547.480638744
 30
0.0
 11
-408.8324923521
 21
547.480638744
 31
0.0
  0
LINE
  5
14E
  8
1
  6
CONTINUOUS
 62
     7
 10
-408.8324923521
 20
531.580638744
 30
0.0
 11
-408.6324923521
 21
531.580638744
 31
0.0
  0
LINE
  5
14F
  8
1
  6
CONTINUOUS
 62
     7
 10
-292.6324923521
 20
509.5306387439999
 30
0.0
 11
-294.2144227303
 21
521.5389240264
 31
0.0
  0
ARC
  5
150
  8
1
  6
CONTINUOUS
 62
     7
 10
-224.869222545
 20
562.030638744
 30
0.0
 40
10.0
 50
250.0
 51
270.0
  0
LINE
  5
151
  8
1
  6
CONTINUOUS
 62
     7
 10
-292.6324923521
 20
489.530638744
 30
0.0
 11
-292.6324923521
 21
509.5306387439999
 31
0.0
  0
LINE
  5
152
  8
1
  6
CONTINUOUS
 62
     7
 10
-325.0493604751
 20
521.5287419714
 30
0.0
 11
-326.6324923521
 21
509.5306387439999
 31
0.0
  0
LINE
  5
153
  8
1
  6
CONTINUOUS
 62
     7
 10
-326.6324923521
 20
509.5306387439999
 30
0.0
 11
-326.6324923521
 21
489.530638744
 31
0.0
  0
LINE
  5
154
  8
1
  6
CONTINUOUS
 62
     7
 10
-326.6324923521
 20
489.530638744
 30
0.0
 11
-322.523500001
 21
474.5306386836
 31
0.0
  0
LINE
  5
155
  8
1
  6
CONTINUOUS
 62
     7
 10
-296.7324923521
 20
474.5306386836
 30
0.0
 11
-292.6324923521
 21
489.530638744
 31
0.0
  0
LINE
  5
156
  8
1
  6
CONTINUOUS
 62
     7
 10
-210.6324923521
 20
531.580638744
 30
0.0
 11
-210.4324923521
 21
531.580638744
 31
0.0
  0
LINE
  5
157
  8
1
  6
CONTINUOUS
 62
     7
 10
-390.7092581585
 20
552.730638744
 30
0.0
 11
-390.9755607259
 21
552.6337125361
 31
0.0
  0
LINE
  5
158
  8
1
  6
CONTINUOUS
 62
     7
 10
-293.4213827834
 20
523.3802269962
 30
0.0
 11
-293.0539884177
 21
523.399481319
 31
0.0
  0
LINE
  5
159
  8
1
  6
CONTINUOUS
 62
     7
 10
-293.0539884177
 20
555.661796169
 30
0.0
 11
-309.6324923521
 21
556.530638744
 31
0.0
  0
LINE
  5
15A
  8
1
  6
CONTINUOUS
 62
     7
 10
-309.6324923521
 20
556.530638744
 30
0.0
 11
-326.2109962865
 21
555.661796169
 31
0.0
  0
LINE
  5
15B
  8
1
  6
CONTINUOUS
 62
     7
 10
-228.5557265457
 20
526.330638744
 30
0.0
 11
-228.2894239783
 21
526.4275649518
 31
0.0
  0
LINE
  5
15C
  8
1
  6
CONTINUOUS
 62
     7
 10
-382.2324923521
 20
552.780638744
 30
0.0
 11
-386.8961275133
 21
552.780638744
 31
0.0
  0
LINE
  5
15D
  8
1
  6
CONTINUOUS
 62
     7
 10
-326.2109962865
 20
523.399481319
 30
0.0
 11
-325.8598030015
 21
523.3810760589
 31
0.0
  0
LINE
  5
15E
  8
1
  6
CONTINUOUS
 62
     7
 10
-278.6324923521
 20
523.380638744
 30
0.0
 11
-247.1324923521
 21
523.380638744
 31
0.0
  0
ARC
  5
15F
  8
1
  6
CONTINUOUS
 62
     7
 10
-324.2824923521
 20
461.5306386836
 30
0.0
 40
1.5
 50
90.0
 51
180.0
  0
CIRCLE
  5
160
  8
1
  6
CONTINUOUS
 62
     7
 10
-169.5221852098
 20
539.530638744
 30
0.0
 40
13.25
  0
LINE
  5
161
  8
1
  6
CONTINUOUS
 62
     7
 10
-288.8824923521
 20
526.630638744
 30
0.0
 11
-281.6324923521
 21
526.630638744
 31
0.0
  0
LINE
  5
162
  8
1
  6
CONTINUOUS
 62
     7
 10
-179.8221852098
 20
420.6306386836
 30
0.0
 11
-159.2221852098
 21
420.6306386836
 31
0.0
  0
LINE
  5
163
  8
1
  6
CONTINUOUS
 62
     7
 10
-176.5221852098
 20
425.6306386836
 30
0.0
 11
-176.5221852098
 21
420.6306386836
 31
0.0
  0
ARC
  5
164
  8
1
  6
CONTINUOUS
 62
     7
 10
-278.6324923521
 20
524.880638744
 30
0.0
 40
1.5
 50
180.0
 51
270.0
  0
ARC
  5
165
  8
1
  6
CONTINUOUS
 62
     7
 10
-289.6324923521
 20
552.430638744
 30
0.0
 40
0.75
 50
0.0
 51
180.0
  0
LINE
  5
166
  8
1
  6
CONTINUOUS
 62
     7
 10
-322.5324923521
 20
474.5306386836
 30
0.0
 11
-322.5324923521
 21
473.280638744
 31
0.0
  0
ARC
  5
167
  8
1
  6
CONTINUOUS
 62
     7
 10
-293.1324923521
 20
554.1638518668
 30
0.0
 40
1.5
 50
0.0
 51
87.0
  0
LINE
  5
168
  8
1
  6
CONTINUOUS
 62
     7
 10
-293.4824923521
 20
430.0306386836
 30
0.0
 11
-293.4824923521
 21
461.5306386836
 31
0.0
  0
LINE
  5
169
  8
1
  6
CONTINUOUS
 62
     7
 10
-293.687203241
 20
523.1304127376
 30
0.0
 11
-293.6141568097
 21
523.2060580784
 31
0.0
  0
LINE
  5
16A
  8
1
  6
CONTINUOUS
 62
     7
 10
-162.5221852098
 20
420.6306386836
 30
0.0
 11
-162.5221852098
 21
425.6306386836
 31
0.0
  0
ARC
  5
16B
  8
1
  6
CONTINUOUS
 62
     7
 10
-326.1324923521
 20
554.1638518668
 30
0.0
 40
1.5
 50
92.99999999999999
 51
180.0
  0
ARC
  5
16C
  8
1
  6
CONTINUOUS
 62
     7
 10
-293.1324923521
 20
524.8974256212
 30
0.0
 40
1.5
 50
273.0000000000001
 51
0.0
  0
ARC
  5
16D
  8
1
  6
CONTINUOUS
 62
     7
 10
-294.9824923521
 20
461.5306386836
 30
0.0
 40
1.5
 50
0.0
 51
90.0
  0
LINE
  5
16E
  8
1
  6
CONTINUOUS
 62
     7
 10
-293.4167915491
 20
523.3850501268
 30
0.0
 11
-293.408523485
 21
523.4031563548
 31
0.0
  0
LINE
  5
16F
  8
1
  6
CONTINUOUS
 62
     7
 10
-281.6324923521
 20
552.430638744
 30
0.0
 11
-288.8824923521
 21
552.430638744
 31
0.0
  0
LINE
  5
170
  8
1
  6
CONTINUOUS
 62
     7
 10
-179.2221852098
 20
405.5306386836
 30
0.0
 11
-159.8221852098
 21
405.5306386836
 31
0.0
  0
ARC
  5
171
  8
1
  6
CONTINUOUS
 62
     7
 10
-329.1324923521
 20
525.1516187982
 30
0.0
 40
1.5
 50
0.0
 51
80.4059317731
  0
LINE
  5
172
  8
1
  6
CONTINUOUS
 62
     7
 10
-337.6324923521
 20
526.630638744
 30
0.0
 11
-330.3824923521
 21
526.630638744
 31
0.0
  0
LINE
  5
173
  8
1
  6
CONTINUOUS
 62
     7
 10
-179.0721852098
 20
398.5306386836
 30
0.0
 11
-159.9721852098
 21
398.5306386836
 31
0.0
  0
ARC
  5
174
  8
1
  6
CONTINUOUS
 62
     7
 10
-340.6324923521
 20
524.880638744
 30
0.0
 40
1.5
 50
270.0
 51
0.0
  0
LINE
  5
175
  8
1
  6
CONTINUOUS
 62
     7
 10
-325.7824923521
 20
461.5306386836
 30
0.0
 11
-325.7824923521
 21
430.0306386836
 31
0.0
  0
LINE
  5
176
  8
1
  6
CONTINUOUS
 62
     7
 10
-296.7324923521
 20
473.280638744
 30
0.0
 11
-296.7324923521
 21
474.5306386836
 31
0.0
  0
LINE
  5
177
  8
1
  6
CONTINUOUS
 62
     7
 10
-296.7324923521
 20
464.5306386836
 30
0.0
 11
-296.7324923521
 21
471.780638744
 31
0.0
  0
LINE
  5
178
  8
1
  6
CONTINUOUS
 62
     7
 10
-340.6324923521
 20
555.680638744
 30
0.0
 11
-372.1324923521
 21
555.680638744
 31
0.0
  0
ARC
  5
179
  8
1
  6
CONTINUOUS
 62
     7
 10
-337.6324923521
 20
525.130638744
 30
0.0
 40
1.5
 50
90.0
 51
180.0
  0
ARC
  5
17A
  8
1
  6
CONTINUOUS
 62
     7
 10
-326.1324923521
 20
524.8974256212
 30
0.0
 40
1.5
 50
180.0
 51
266.9999999999999
  0
ARC
  5
17B
  8
1
  6
CONTINUOUS
 62
     7
 10
-290.1324923521
 20
553.9096586898
 30
0.0
 40
1.5
 50
180.0
 51
260.4059317731
  0
ARC
  5
17C
  8
1
  6
CONTINUOUS
 62
     7
 10
-322.5324923521
 20
472.530638744
 30
0.0
 40
0.75
 50
90.0
 51
270.0
  0
LINE
  5
17D
  8
1
  6
CONTINUOUS
 62
     7
 10
-372.1324923521
 20
523.380638744
 30
0.0
 11
-340.6324923521
 21
523.380638744
 31
0.0
  0
LINE
  5
17E
  8
1
  6
CONTINUOUS
 62
     7
 10
-322.5324923521
 20
471.780638744
 30
0.0
 11
-322.5324923521
 21
464.5306386836
 31
0.0
  0
LINE
  5
17F
  8
1
  6
CONTINUOUS
 62
     7
 10
-330.3824923521
 20
552.430638744
 30
0.0
 11
-337.6324923521
 21
552.430638744
 31
0.0
  0
ARC
  5
180
  8
1
  6
CONTINUOUS
 62
     7
 10
-290.1324923521
 20
525.1516187982
 30
0.0
 40
1.5
 50
99.59406822689999
 51
180.0
  0
ARC
  5
181
  8
1
  6
CONTINUOUS
 62
     7
 10
-337.6324923521
 20
553.930638744
 30
0.0
 40
1.5
 50
180.0
 51
270.0
  0
ARC
  5
182
  8
1
  6
CONTINUOUS
 62
     7
 10
-329.6324923521
 20
526.630638744
 30
0.0
 40
0.75
 50
180.0
 51
0.0
  0
LINE
  5
183
  8
1
  6
CONTINUOUS
 62
     7
 10
-294.2115484896
 20
521.5190171259
 30
0.0
 11
-294.2130088119
 21
521.5301669963
 31
0.0
  0
ARC
  5
184
  8
1
  6
CONTINUOUS
 62
     7
 10
-278.6324923521
 20
554.180638744
 30
0.0
 40
1.5
 50
90.0
 51
180.0
  0
ARC
  5
185
  8
1
  6
CONTINUOUS
 62
     7
 10
-324.0324923521
 20
464.5306386836
 30
0.0
 40
1.5
 50
270.0
 51
0.0
  0
ARC
  5
186
  8
1
  6
CONTINUOUS
 62
     7
 10
-281.6324923521
 20
553.930638744
 30
0.0
 40
1.5
 50
270.0
 51
0.0
  0
ARC
  5
187
  8
1
  6
CONTINUOUS
 62
     7
 10
-329.1324923521
 20
553.9096586898
 30
0.0
 40
1.5
 50
279.5940682269
 51
0.0
  0
ARC
  5
188
  8
1
  6
CONTINUOUS
 62
     7
 10
-296.7324923521
 20
472.530638744
 30
0.0
 40
0.75
 50
270.0
 51
90.0
  0
ARC
  5
189
  8
1
  6
CONTINUOUS
 62
     7
 10
-340.6324923521
 20
554.180638744
 30
0.0
 40
1.5
 50
0.0
 51
90.0
  0
ARC
  5
18A
  8
1
  6
CONTINUOUS
 62
     7
 10
-292.1963265892
 20
521.754051094
 30
0.0
 40
2.0290715307
 50
137.2025957108
 51
186.3348116016
  0
ARC
  5
18B
  8
1
  6
CONTINUOUS
 62
     7
 10
-327.0644373913
 20
521.7533041256
 30
0.0
 40
2.0272102196
 50
353.3971030874
 51
42.51620847480002
  0
LINE
  5
18C
  8
1
  6
CONTINUOUS
 62
     7
 10
-293.6141568097
 20
523.2060580784
 30
0.0
 11
-293.4167915491
 21
523.3850501268
 31
0.0
  0
LINE
  5
18D
  8
1
  6
CONTINUOUS
 62
     7
 10
-325.9927556279
 20
523.4651686363
 30
0.0
 11
-325.6427347749
 21
523.1988735754
 31
0.0
  0
ARC
  5
18E
  8
1
  6
CONTINUOUS
 62
     7
 10
-281.6324923521
 20
525.130638744
 30
0.0
 40
1.5
 50
0.0
 51
90.0
  0
ARC
  5
18F
  8
1
  6
CONTINUOUS
 62
     7
 10
-289.6324923521
 20
526.630638744
 30
0.0
 40
0.75
 50
180.0
 51
0.0
  0
LINE
  5
190
  8
1
  6
CONTINUOUS
 62
     7
 10
-325.5760496178
 20
523.1296839876
 30
0.0
 11
-325.5699682519
 21
523.1230258292
 31
0.0
  0
ARC
  5
191
  8
1
  6
CONTINUOUS
 62
     7
 10
-329.6324923521
 20
552.430638744
 30
0.0
 40
0.75
 50
0.0
 51
180.0
  0
LINE
  5
192
  8
1
  6
CONTINUOUS
 62
     7
 10
-159.2221852098
 20
425.6306386836
 30
0.0
 11
-179.8221852098
 21
425.6306386836
 31
0.0
  0
LINE
  5
193
  8
1
  6
CONTINUOUS
 62
     7
 10
-180.5221852098
 20
416.0912467482
 30
0.0
 11
-158.5221852098
 21
416.0912467482
 31
0.0
  0
ARC
  5
194
  8
1
  6
CONTINUOUS
 62
     7
 10
-169.5221765071
 20
423.1306386836
 30
0.0
 40
2.5
 50
90.00019945250001
 51
269.9998005475
  0
LINE
  5
195
  8
1
  6
CONTINUOUS
 62
     7
 10
-179.2221852098
 20
400.5306386836
 30
0.0
 11
-159.8221852098
 21
400.5306386836
 31
0.0
  0
LINE
  5
196
  8
1
  6
CONTINUOUS
 62
     7
 10
-178.9221852098
 20
396.5306386836
 30
0.0
 11
-160.1221852098
 21
396.5306386836
 31
0.0
  0
LINE
  5
197
  8
1
  6
CONTINUOUS
 62
     7
 10
-325.6427347749
 20
523.1988735754
 30
0.0
 11
-325.5760496178
 21
523.1296839876
 31
0.0
  0
LINE
  5
198
  8
1
  6
CONTINUOUS
 62
     7
 10
-164.0721852098
 20
395.5306386836
 30
0.0
 11
-174.9721852098
 21
395.5306386836
 31
0.0
  0
ARC
  5
199
  8
1
  6
CONTINUOUS
 62
     7
 10
-295.2324923521
 20
464.5306386836
 30
0.0
 40
1.5
 50
180.0
 51
270.0
  0
ARC
  5
19A
  8
1
  6
CONTINUOUS
 62
     7
 10
-169.5221955884
 20
423.1306386836
 30
0.0
 40
2.5
 50
270.0002378594
 51
89.9997621406
  0
LINE
  5
19B
  8
1
  6
CONTINUOUS
 62
     7
 10
-173.6779775551
 20
523.9031496349
 30
0.0
 11
-173.5783389108
 21
523.8818308986
 31
0.0
  0
LINE
  5
19C
  8
1
  6
CONTINUOUS
 62
     7
 10
-169.5221852098
 20
489.530638744
 30
0.0
 11
-186.5221852098
 21
489.530638744
 31
0.0
  0
LINE
  5
19D
  8
1
  6
CONTINUOUS
 62
     7
 10
-157.7221852098
 20
475.7140168865
 30
0.0
 11
-166.9806930686
 21
486.530638744
 31
0.0
  0
LINE
  5
19E
  8
1
  6
CONTINUOUS
 62
     7
 10
-167.8065767196
 20
487.530638744
 30
0.0
 11
-166.9806930686
 21
486.530638744
 31
0.0
  0
LINE
  5
19F
  8
1
  6
CONTINUOUS
 62
     7
 10
-181.0221852098
 20
550.8696201797
 30
0.0
 11
-181.0221852098
 21
554.830638744
 31
0.0
  0
LINE
  5
1A0
  8
1
  6
CONTINUOUS
 62
     7
 10
-169.5221852098
 20
509.5306387439999
 30
0.0
 11
-186.5221852098
 21
509.5306387439999
 31
0.0
  0
LINE
  5
1A1
  8
1
  6
CONTINUOUS
 62
     7
 10
-157.7221852098
 20
475.7140168865
 30
0.0
 11
-156.7228254679
 21
474.6309080264
 31
0.0
  0
LINE
  5
1A2
  8
1
  6
CONTINUOUS
 62
     7
 10
-158.0221852098
 20
525.630638744
 30
0.0
 11
-158.0221852098
 21
528.130638744
 31
0.0
  0
LINE
  5
1A3
  8
1
  6
CONTINUOUS
 62
     7
 10
-184.4501144791
 20
529.531960658
 30
0.0
 11
-184.4564203325
 21
529.5151659059
 31
0.0
  0
LINE
  5
1A4
  8
1
  6
CONTINUOUS
 62
     7
 10
-182.9149251549
 20
550.9173026725
 30
0.0
 11
-182.9154014284
 21
550.9195463821
 31
0.0
  0
LINE
  5
1A5
  8
1
  6
CONTINUOUS
 62
     7
 10
-181.0221852098
 20
524.230638744
 30
0.0
 11
-181.0221852098
 21
528.1918354417
 31
0.0
  0
LINE
  5
1A6
  8
1
  6
CONTINUOUS
 62
     7
 10
-181.0221852098
 20
438.2889935276
 30
0.0
 11
-181.0221852098
 21
432.6722839604
 31
0.0
  0
LINE
  5
1A7
  8
1
  6
CONTINUOUS
 62
     7
 10
-182.7659790711
 20
437.3742096678
 30
0.0
 11
-182.819988652
 21
437.126311404
 31
0.0
  0
CIRCLE
  5
1A8
  8
1
  6
CONTINUOUS
 62
     7
 10
-169.5221852098
 20
539.530638744
 30
0.0
 40
10.75
  0
LINE
  5
1A9
  8
1
  6
CONTINUOUS
 62
     7
 10
-182.8984179807
 20
527.7336484341
 30
0.0
 11
-182.8994161041
 21
527.7235424632
 31
0.0
  0
CIRCLE
  5
1AA
  8
1
  6
CONTINUOUS
 62
     7
 10
-169.5221852098
 20
539.530638744
 30
0.0
 40
7.95
  0
LINE
  5
1AB
  8
1
  6
CONTINUOUS
 62
     7
 10
-182.8994161041
 20
434.1724634927
 30
0.0
 11
-182.8186787238
 21
433.728953652
 31
0.0
  0
LINE
  5
1AC
  8
1
  6
CONTINUOUS
 62
     7
 10
-182.8994161041
 20
435.2288619277
 30
0.0
 11
-182.8186787238
 21
434.8740540551
 31
0.0
  0
LINE
  5
1AD
  8
1
  6
CONTINUOUS
 62
     7
 10
-182.8186787238
 20
437.132323836
 30
0.0
 11
-182.8994161041
 21
436.6888139953
 31
0.0
  0
LINE
  5
1AE
  8
1
  6
CONTINUOUS
 62
     7
 10
-182.8199886811
 20
433.7349660795
 30
0.0
 11
-182.7659778495
 21
433.4870677537
 31
0.0
  0
LINE
  5
1AF
  8
1
  6
CONTINUOUS
 62
     7
 10
-182.8186787238
 20
435.9872234329
 30
0.0
 11
-182.8994161041
 21
435.6324155603
 31
0.0
  0
LINE
  5
1B0
  8
1
  6
CONTINUOUS
 62
     7
 10
-182.8150526864
 20
436.0313035874
 30
0.0
 11
-182.8197380794
 21
436.0098131044
 31
0.0
  0
LINE
  5
1B1
  8
1
  6
CONTINUOUS
 62
     7
 10
-182.8197380794
 20
436.0098131044
 30
0.0
 11
-182.8186787238
 21
435.9872234329
 31
0.0
  0
LINE
  5
1B2
  8
1
  6
CONTINUOUS
 62
     7
 10
-158.0221852098
 20
436.680638744
 30
0.0
 11
-158.0221852098
 21
434.180638744
 31
0.0
  0
LINE
  5
1B3
  8
1
  6
CONTINUOUS
 62
     7
 10
-182.8969105546
 20
435.6732277736
 30
0.0
 11
-182.9006175593
 21
435.6531454286
 31
0.0
  0
LINE
  5
1B4
  8
1
  6
CONTINUOUS
 62
     7
 10
-182.9006175593
 20
435.2081320593
 30
0.0
 11
-182.8969105546
 21
435.1880497144
 31
0.0
  0
CIRCLE
  5
1B5
  8
1
  6
CONTINUOUS
 62
     7
 10
-169.5221852098
 20
539.530638744
 30
0.0
 40
4.6
  0
LINE
  5
1B6
  8
1
  6
CONTINUOUS
 62
     7
 10
-182.8994161041
 20
435.2288619277
 30
0.0
 11
-182.9006175593
 21
435.2081320593
 31
0.0
  0
LINE
  5
1B7
  8
1
  6
CONTINUOUS
 62
     7
 10
-182.9006175593
 20
435.6531454286
 30
0.0
 11
-182.8994161041
 21
435.6324155603
 31
0.0
  0
LINE
  5
1B8
  8
1
  6
CONTINUOUS
 62
     7
 10
-182.9007431856
 20
434.1811869733
 30
0.0
 11
-182.8994161041
 21
434.1724634927
 31
0.0
  0
LINE
  5
1B9
  8
1
  6
CONTINUOUS
 62
     7
 10
-158.0221852098
 20
550.930638744
 30
0.0
 11
-158.0221852098
 21
553.430638744
 31
0.0
  0
LINE
  5
1BA
  8
1
  6
CONTINUOUS
 62
     7
 10
-182.8186787238
 20
434.8740540551
 30
0.0
 11
-182.8197396871
 21
434.8514839557
 31
0.0
  0
LINE
  5
1BB
  8
1
  6
CONTINUOUS
 62
     7
 10
-182.8197396871
 20
434.8514839557
 30
0.0
 11
-182.8150659781
 21
434.8300105341
 31
0.0
  0
LINE
  5
1BC
  8
1
  6
CONTINUOUS
 62
     7
 10
-182.8994161041
 20
436.6888139953
 30
0.0
 11
-182.9007426766
 21
436.6800815548
 31
0.0
  0
CIRCLE
  5
1BD
  8
1
  6
CONTINUOUS
 62
     7
 10
-169.5221852098
 20
539.530638744
 30
0.0
 40
16.15
  0
LINE
  5
1BE
  8
1
  6
CONTINUOUS
 62
     7
 10
-294.2115296571
 20
521.5188767365
 30
0.0
 11
-294.2146919246
 21
521.5409846887
 31
0.0
  0
LINE
  5
1BF
  8
1
  6
CONTINUOUS
 62
     7
 10
-327.6324923521
 20
524.9575701061
 30
0.0
 11
-327.6324923521
 21
525.225553449
 31
0.0
  0
LINE
  5
1C0
  8
1
  6
CONTINUOUS
 62
     7
 10
-291.6324923521
 20
525.224996569
 30
0.0
 11
-291.6324923521
 21
524.9578872386
 31
0.0
  0
LINE
  5
1C1
  8
1
  6
CONTINUOUS
 62
     7
 10
-319.3324923521
 20
400.5306386836
 30
0.0
 11
-299.9324923521
 21
400.5306386836
 31
0.0
  0
ARC
  5
1C2
  8
1
  6
CONTINUOUS
 62
     7
 10
-240.2324923521
 20
514.6820603352
 30
0.0
 40
12.5501008314
 50
78.5097261068
 51
101.4902738932
  0
CIRCLE
  5
1C3
  8
1
  6
CONTINUOUS
 62
     7
 10
-252.5324923521
 20
526.880638744
 30
0.0
 40
2.75
  0
LINE
  5
1C4
  8
1
  6
CONTINUOUS
 62
     7
 10
-376.5324923521
 20
552.080638744
 30
0.0
 11
-376.5324923521
 21
526.980638744
 31
0.0
  0
LINE
  5
1C5
  8
1
  6
CONTINUOUS
 62
     7
 10
-376.5324923521
 20
532.4150439767
 30
0.0
 11
-381.5324923521
 21
532.4150439767
 31
0.0
  0
CIRCLE
  5
1C6
  8
1
  6
CONTINUOUS
 62
     7
 10
-366.7324923521
 20
526.880638744
 30
0.0
 40
2.75
  0
LINE
  5
1C7
  8
1
  6
CONTINUOUS
 62
     7
 10
-229.6324923521
 20
552.580638744
 30
0.0
 11
-229.6324923521
 21
526.480638744
 31
0.0
  0
LINE
  5
1C8
  8
1
  6
CONTINUOUS
 62
     7
 10
-292.6324923521
 20
509.5306387439999
 30
0.0
 11
-326.6324923521
 21
509.5306387439999
 31
0.0
  0
LINE
  5
1C9
  8
1
  6
CONTINUOUS
 62
     7
 10
-381.5324923521
 20
546.6462335113
 30
0.0
 11
-376.5324923521
 21
546.6462335113
 31
0.0
  0
LINE
  5
1CA
  8
1
  6
CONTINUOUS
 62
     7
 10
-319.9324923521
 20
425.6306386836
 30
0.0
 11
-319.9300417624
 21
425.6205229895
 31
0.0
  0
LINE
  5
1CB
  8
1
  6
CONTINUOUS
 62
     7
 10
-242.7324923521
 20
552.080638744
 30
0.0
 11
-242.7324923521
 21
526.980638744
 31
0.0
  0
LINE
  5
1CC
  8
1
  6
CONTINUOUS
 62
     7
 10
-339.1324923521
 20
554.180638744
 30
0.0
 11
-339.1324923521
 21
524.880638744
 31
0.0
  0
LINE
  5
1CD
  8
1
  6
CONTINUOUS
 62
     7
 10
-288.8824923521
 20
552.430638744
 30
0.0
 11
-288.8824923521
 21
526.630638744
 31
0.0
  0
LINE
  5
1CE
  8
1
  6
CONTINUOUS
 62
     7
 10
-322.5324923521
 20
471.780638744
 30
0.0
 11
-296.7324923521
 21
471.780638744
 31
0.0
  0
ARC
  5
1CF
  8
1
  6
CONTINUOUS
 62
     7
 10
-379.0324923521
 20
564.3791142669
 30
0.0
 40
12.5500000075
 50
258.5096325388
 51
281.4903674612
  0
LINE
  5
1D0
  8
1
  6
CONTINUOUS
 62
     7
 10
-242.7324923521
 20
532.4150439767
 30
0.0
 11
-237.7324923521
 21
532.4150439767
 31
0.0
  0
CIRCLE
  5
1D1
  8
1
  6
CONTINUOUS
 62
     7
 10
-296.9824923521
 20
435.430638744
 30
0.0
 40
2.75
  0
LINE
  5
1D2
  8
1
  6
CONTINUOUS
 62
     7
 10
-315.5256207985
 20
420.6306386836
 30
0.0
 11
-315.5256207985
 21
425.6306386836
 31
0.0
  0
ARC
  5
1D3
  8
1
  6
CONTINUOUS
 62
     7
 10
-289.3398245961
 20
423.1306386836
 30
0.0
 40
10.300650896
 50
165.9538648439
 51
194.0461351561
  0
LINE
  5
1D4
  8
1
  6
CONTINUOUS
 62
     7
 10
-319.1824923521
 20
398.5306386836
 30
0.0
 11
-300.0824923521
 21
398.5306386836
 31
0.0
  0
LINE
  5
1D5
  8
1
  6
CONTINUOUS
 62
     7
 10
-303.7393639056
 20
425.6306386836
 30
0.0
 11
-303.7393639056
 21
420.6306386836
 31
0.0
  0
LINE
  5
1D6
  8
1
  6
CONTINUOUS
 62
     7
 10
-319.0324923521
 20
396.5306386836
 30
0.0
 11
-300.2324923521
 21
396.5306386836
 31
0.0
  0
LINE
  5
1D7
  8
1
  6
CONTINUOUS
 62
     7
 10
-232.3688571908
 20
552.780638744
 30
0.0
 11
-232.3688571908
 21
526.280638744
 31
0.0
  0
LINE
  5
1D8
  8
1
  6
CONTINUOUS
 62
     7
 10
-237.7324923521
 20
552.080638744
 30
0.0
 11
-237.7324923521
 21
526.980638744
 31
0.0
  0
LINE
  5
1D9
  8
1
  6
CONTINUOUS
 62
     7
 10
-210.6324923521
 20
551.180638744
 30
0.0
 11
-210.6324923521
 21
527.880638744
 31
0.0
  0
LINE
  5
1DA
  8
1
  6
CONTINUOUS
 62
     7
 10
-319.3324923521
 20
405.5306386836
 30
0.0
 11
-299.9324923521
 21
405.5306386836
 31
0.0
  0
LINE
  5
1DB
  8
1
  6
CONTINUOUS
 62
     7
 10
-242.7324923521
 20
552.080638744
 30
0.0
 11
-242.7301883052
 21
552.0801799736
 31
0.0
  0
LINE
  5
1DC
  8
1
  6
CONTINUOUS
 62
     7
 10
-237.7324923521
 20
526.980638744
 30
0.0
 11
-237.7404708706
 21
526.9822256545
 31
0.0
  0
LINE
  5
1DD
  8
1
  6
CONTINUOUS
 62
     7
 10
-209.6324923521
 20
532.380638744
 30
0.0
 11
-209.6324923521
 21
546.680638744
 31
0.0
  0
LINE
  5
1DE
  8
1
  6
CONTINUOUS
 62
     7
 10
-408.6324923521
 20
551.180638744
 30
0.0
 11
-408.6324923521
 21
527.880638744
 31
0.0
  0
CIRCLE
  5
1DF
  8
1
  6
CONTINUOUS
 62
     7
 10
-366.7324923521
 20
552.180638744
 30
0.0
 40
2.75
  0
LINE
  5
1E0
  8
1
  6
CONTINUOUS
 62
     7
 10
-319.9324923521
 20
425.6306386836
 30
0.0
 11
-299.3324923521
 21
425.6306386836
 31
0.0
  0
LINE
  5
1E1
  8
1
  6
CONTINUOUS
 62
     7
 10
-320.6324923521
 20
416.0912467482
 30
0.0
 11
-298.6324923521
 21
416.0912467482
 31
0.0
  0
ARC
  5
1E2
  8
1
  6
CONTINUOUS
 62
     7
 10
-329.9250066802
 20
423.1306386836
 30
0.0
 40
10.3005020556
 50
345.9536577135
 51
14.04634228650002
  0
LINE
  5
1E3
  8
1
  6
CONTINUOUS
 62
     7
 10
-304.1824923521
 20
395.5306386836
 30
0.0
 11
-315.0824923521
 21
395.5306386836
 31
0.0
  0
ARC
  5
1E4
  8
1
  6
CONTINUOUS
 62
     7
 10
-240.2324923521
 20
564.3801456439
 30
0.0
 40
12.5510107155
 50
258.5105704412
 51
281.4894295588
  0
LINE
  5
1E5
  8
1
  6
CONTINUOUS
 62
     7
 10
-386.8961275133
 20
552.780638744
 30
0.0
 11
-386.8961275133
 21
526.280638744
 31
0.0
  0
LINE
  5
1E6
  8
1
  6
CONTINUOUS
 62
     7
 10
-381.5324923521
 20
552.080638744
 30
0.0
 11
-381.5324923521
 21
526.980638744
 31
0.0
  0
LINE
  5
1E7
  8
1
  6
CONTINUOUS
 62
     7
 10
-389.6324923521
 20
552.580638744
 30
0.0
 11
-389.6324923521
 21
526.480638744
 31
0.0
  0
ARC
  5
1E8
  8
1
  6
CONTINUOUS
 62
     7
 10
-379.0324923521
 20
514.681739444
 30
0.0
 40
12.5504152915
 50
78.5100179268
 51
101.4899820732
  0
LINE
  5
1E9
  8
1
  6
CONTINUOUS
 62
     7
 10
-409.6324923521
 20
532.380638744
 30
0.0
 11
-409.6324923521
 21
546.680638744
 31
0.0
  0
LINE
  5
1EA
  8
1
  6
CONTINUOUS
 62
     7
 10
-292.6324923521
 20
489.530638744
 30
0.0
 11
-326.6324923521
 21
489.530638744
 31
0.0
  0
LINE
  5
1EB
  8
1
  6
CONTINUOUS
 62
     7
 10
-247.1324923521
 20
555.680638744
 30
0.0
 11
-247.1324923521
 21
523.380638744
 31
0.0
  0
LINE
  5
1EC
  8
1
  6
CONTINUOUS
 62
     7
 10
-376.5324923521
 20
552.080638744
 30
0.0
 11
-376.5339609795
 21
552.0803462713
 31
0.0
  0
LINE
  5
1ED
  8
1
  6
CONTINUOUS
 62
     7
 10
-319.9324923521
 20
420.6306386836
 30
0.0
 11
-299.3324923521
 21
420.6306386836
 31
0.0
  0
CIRCLE
  5
1EE
  8
1
  6
CONTINUOUS
 62
     7
 10
-252.5324923521
 20
552.180638744
 30
0.0
 40
2.75
  0
LINE
  5
1EF
  8
1
  6
CONTINUOUS
 62
     7
 10
-280.1324923521
 20
524.880638744
 30
0.0
 11
-280.1324923521
 21
554.180638744
 31
0.0
  0
LINE
  5
1F0
  8
1
  6
CONTINUOUS
 62
     7
 10
-372.1324923521
 20
555.680638744
 30
0.0
 11
-372.1324923521
 21
523.380638744
 31
0.0
  0
LINE
  5
1F1
  8
1
  6
CONTINUOUS
 62
     7
 10
-293.4824923521
 20
430.0306386836
 30
0.0
 11
-325.7824923521
 21
430.0306386836
 31
0.0
  0
LINE
  5
1F2
  8
1
  6
CONTINUOUS
 62
     7
 10
-324.2824923521
 20
463.0306386836
 30
0.0
 11
-294.9824923521
 21
463.0306386836
 31
0.0
  0
LINE
  5
1F3
  8
1
  6
CONTINUOUS
 62
     7
 10
-237.7324923521
 20
546.6462335113
 30
0.0
 11
-242.7324923521
 21
546.6462335113
 31
0.0
  0
LINE
  5
1F4
  8
1
  6
CONTINUOUS
 62
     7
 10
-290.3824923521
 20
526.630638744
 30
0.0
 11
-290.3824923521
 21
552.430638744
 31
0.0
  0
CIRCLE
  5
1F5
  8
1
  6
CONTINUOUS
 62
     7
 10
-322.2824923521
 20
435.430638744
 30
0.0
 40
2.75
  0
LINE
  5
1F6
  8
1
  6
CONTINUOUS
 62
     7
 10
-328.8824923521
 20
526.630638744
 30
0.0
 11
-328.8824923521
 21
552.430638744
 31
0.0
  0
LINE
  5
1F7
  8
1
  6
CONTINUOUS
 62
     7
 10
-330.3824923521
 20
552.430638744
 30
0.0
 11
-330.3824923521
 21
526.630638744
 31
0.0
  0
LINE
  5
1F8
  8
1
  6
CONTINUOUS
 62
     7
 10
-296.7324923521
 20
473.280638744
 30
0.0
 11
-322.5324923521
 21
473.280638744
 31
0.0
  0
LINE
  5
1F9
  8
1
  6
CONTINUOUS
 62
     7
 10
-246.9324923521
 20
526.280638744
 30
0.0
 11
-243.4324923521
 21
526.280638744
 31
0.0
  0
LINE
  5
1FA
  8
1
  6
CONTINUOUS
 62
     7
 10
-237.7324923521
 20
526.980638744
 30
0.0
 11
-237.0324923521
 21
526.280638744
 31
0.0
  0
ARC
  5
1FB
  8
1
  6
CONTINUOUS
 62
     7
 10
-304.1824923521
 20
396.3306386836
 30
0.0
 40
0.8
 50
270.0
 51
0.0
  0
LINE
  5
1FC
  8
1
  6
CONTINUOUS
 62
     7
 10
-232.3688571908
 20
526.280638744
 30
0.0
 11
-231.1324923521
 21
526.730638744
 31
0.0
  0
LINE
  5
1FD
  8
1
  6
CONTINUOUS
 62
     7
 10
-298.77941856
 20
415.6875703097
 30
0.0
 11
-298.6324923521
 21
416.0912467482
 31
0.0
  0
LINE
  5
1FE
  8
1
  6
CONTINUOUS
 62
     7
 10
-319.3324923521
 20
400.5306386836
 30
0.0
 11
-318.9324923521
 21
399.5306386836
 31
0.0
  0
LINE
  5
1FF
  8
1
  6
CONTINUOUS
 62
     7
 10
-300.2324923521
 20
396.5306386836
 30
0.0
 11
-299.9324923521
 21
397.5306386836
 31
0.0
  0
LINE
  5
200
  8
1
  6
CONTINUOUS
 62
     7
 10
-318.9324923521
 20
399.5306386836
 30
0.0
 11
-318.9324923521
 21
398.6806386836
 31
0.0
  0
LINE
  5
201
  8
1
  6
CONTINUOUS
 62
     7
 10
-231.1324923521
 20
552.330638744
 30
0.0
 11
-232.3688571908
 21
552.780638744
 31
0.0
  0
LINE
  5
202
  8
1
  6
CONTINUOUS
 62
     7
 10
-319.8824923521
 20
406.0806386836
 30
0.0
 11
-319.3324923521
 21
405.5306386836
 31
0.0
  0
LINE
  5
203
  8
1
  6
CONTINUOUS
 62
     7
 10
-243.4324923521
 20
526.280638744
 30
0.0
 11
-242.7324923521
 21
526.980638744
 31
0.0
  0
LINE
  5
204
  8
1
  6
CONTINUOUS
 62
     7
 10
-242.7324923521
 20
552.080638744
 30
0.0
 11
-243.4324923521
 21
552.780638744
 31
0.0
  0
LINE
  5
205
  8
1
  6
CONTINUOUS
 62
     7
 10
-237.0324923521
 20
552.780638744
 30
0.0
 11
-237.7324923521
 21
552.080638744
 31
0.0
  0
LINE
  5
206
  8
1
  6
CONTINUOUS
 62
     7
 10
-232.3688571908
 20
552.780638744
 30
0.0
 11
-237.0324923521
 21
552.780638744
 31
0.0
  0
LINE
  5
207
  8
1
  6
CONTINUOUS
 62
     7
 10
-298.6324923521
 20
419.9306386836
 30
0.0
 11
-299.3324923521
 21
420.6306386836
 31
0.0
  0
LINE
  5
208
  8
1
  6
CONTINUOUS
 62
     7
 10
-299.9324923521
 20
398.3806386836
 30
0.0
 11
-300.0824923521
 21
398.5306386836
 31
0.0
  0
LINE
  5
209
  8
1
  6
CONTINUOUS
 62
     7
 10
-246.9324923521
 20
552.780638744
 30
0.0
 11
-247.1324923521
 21
552.580638744
 31
0.0
  0
LINE
  5
20A
  8
1
  6
CONTINUOUS
 62
     7
 10
-237.0324923521
 20
526.280638744
 30
0.0
 11
-232.3688571908
 21
526.280638744
 31
0.0
  0
LINE
  5
20B
  8
1
  6
CONTINUOUS
 62
     7
 10
-320.6324923521
 20
426.3306386836
 30
0.0
 11
-319.9324923521
 21
425.6306386836
 31
0.0
  0
LINE
  5
20C
  8
1
  6
CONTINUOUS
 62
     7
 10
-243.4324923521
 20
552.780638744
 30
0.0
 11
-246.9324923521
 21
552.780638744
 31
0.0
  0
LINE
  5
20D
  8
1
  6
CONTINUOUS
 62
     7
 10
-247.1324923521
 20
526.480638744
 30
0.0
 11
-246.9324923521
 21
526.280638744
 31
0.0
  0
LINE
  5
20E
  8
1
  6
CONTINUOUS
 62
     7
 10
-299.9324923521
 20
405.5306386836
 30
0.0
 11
-299.3824923521
 21
406.0806386836
 31
0.0
  0
LINE
  5
20F
  8
1
  6
CONTINUOUS
 62
     7
 10
-319.3324923521
 20
405.5306386836
 30
0.0
 11
-319.3324923521
 21
400.5306386836
 31
0.0
  0
LINE
  5
210
  8
1
  6
CONTINUOUS
 62
     7
 10
-303.3824923521
 20
396.3306386836
 30
0.0
 11
-303.3824923521
 21
396.5306386836
 31
0.0
  0
LINE
  5
211
  8
1
  6
CONTINUOUS
 62
     7
 10
-298.6324923521
 20
429.8306386836
 30
0.0
 11
-298.8324923521
 21
430.0306386836
 31
0.0
  0
LINE
  5
212
  8
1
  6
CONTINUOUS
 62
     7
 10
-320.6324923521
 20
416.0912467482
 30
0.0
 11
-320.4855661442
 21
415.6875703097
 31
0.0
  0
LINE
  5
213
  8
1
  6
CONTINUOUS
 62
     7
 10
-299.9324923521
 20
400.5306386836
 30
0.0
 11
-299.9324923521
 21
405.5306386836
 31
0.0
  0
LINE
  5
214
  8
1
  6
CONTINUOUS
 62
     7
 10
-320.6324923521
 20
419.9306386836
 30
0.0
 11
-320.6324923521
 21
416.0912467482
 31
0.0
  0
ARC
  5
215
  8
1
  6
CONTINUOUS
 62
     7
 10
-319.0824923521
 20
398.6806386836
 30
0.0
 40
0.15
 50
270.0
 51
0.0
  0
LINE
  5
216
  8
1
  6
CONTINUOUS
 62
     7
 10
-315.8824923521
 20
396.5306386836
 30
0.0
 11
-315.8824923521
 21
396.3306386836
 31
0.0
  0
LINE
  5
217
  8
1
  6
CONTINUOUS
 62
     7
 10
-229.4824923521
 20
526.330638744
 30
0.0
 11
-228.5557265457
 21
526.330638744
 31
0.0
  0
LINE
  5
218
  8
1
  6
CONTINUOUS
 62
     7
 10
-320.6324923521
 20
429.8306386836
 30
0.0
 11
-320.6324923521
 21
426.3306386836
 31
0.0
  0
LINE
  5
219
  8
1
  6
CONTINUOUS
 62
     7
 10
-319.9324923521
 20
420.6306386836
 30
0.0
 11
-320.6324923521
 21
419.9306386836
 31
0.0
  0
ARC
  5
21A
  8
1
  6
CONTINUOUS
 62
     7
 10
-300.1824923521
 20
398.6806386836
 30
0.0
 40
0.15
 50
180.0
 51
270.0
  0
LINE
  5
21B
  8
1
  6
CONTINUOUS
 62
     7
 10
-298.6324923521
 20
426.3306386836
 30
0.0
 11
-298.6324923521
 21
429.8306386836
 31
0.0
  0
ARC
  5
21C
  8
1
  6
CONTINUOUS
 62
     7
 10
-329.8824923521
 20
412.2673688765
 30
0.0
 40
10.0
 50
0.0
 51
20.0
  0
LINE
  5
21D
  8
1
  6
CONTINUOUS
 62
     7
 10
-319.8824923521
 20
412.2673688765
 30
0.0
 11
-319.8824923521
 21
406.0806386836
 31
0.0
  0
LINE
  5
21E
  8
1
  6
CONTINUOUS
 62
     7
 10
-299.3824923521
 20
406.0806386836
 30
0.0
 11
-299.3824923521
 21
412.2673688765
 31
0.0
  0
LINE
  5
21F
  8
1
  6
CONTINUOUS
 62
     7
 10
-299.9324923521
 20
397.5306386836
 30
0.0
 11
-299.9324923521
 21
398.3806386836
 31
0.0
  0
LINE
  5
220
  8
1
  6
CONTINUOUS
 62
     7
 10
-319.3324923521
 20
398.3806386836
 30
0.0
 11
-319.3324923521
 21
397.5306386836
 31
0.0
  0
LINE
  5
221
  8
1
  6
CONTINUOUS
 62
     7
 10
-319.1824923521
 20
398.5306386836
 30
0.0
 11
-319.3324923521
 21
398.3806386836
 31
0.0
  0
LINE
  5
222
  8
1
  6
CONTINUOUS
 62
     7
 10
-300.3324923521
 20
399.5306386836
 30
0.0
 11
-299.9324923521
 21
400.5306386836
 31
0.0
  0
LINE
  5
223
  8
1
  6
CONTINUOUS
 62
     7
 10
-298.6324923521
 20
416.0912467482
 30
0.0
 11
-298.6324923521
 21
419.9306386836
 31
0.0
  0
LINE
  5
224
  8
1
  6
CONTINUOUS
 62
     7
 10
-320.4324923521
 20
430.0306386836
 30
0.0
 11
-320.6324923521
 21
429.8306386836
 31
0.0
  0
ARC
  5
225
  8
1
  6
CONTINUOUS
 62
     7
 10
-289.3824923521
 20
412.2673688765
 30
0.0
 40
10.0
 50
160.0
 51
180.0
  0
LINE
  5
226
  8
1
  6
CONTINUOUS
 62
     7
 10
-319.3324923521
 20
397.5306386836
 30
0.0
 11
-319.0324923521
 21
396.5306386836
 31
0.0
  0
LINE
  5
227
  8
1
  6
CONTINUOUS
 62
     7
 10
-300.3324923521
 20
398.6806386836
 30
0.0
 11
-300.3324923521
 21
399.5306386836
 31
0.0
  0
ARC
  5
228
  8
1
  6
CONTINUOUS
 62
     7
 10
-315.0824923521
 20
396.3306386836
 30
0.0
 40
0.8
 50
180.0
 51
270.0
  0
LINE
  5
229
  8
1
  6
CONTINUOUS
 62
     7
 10
-299.3324923521
 20
425.6306386836
 30
0.0
 11
-298.6324923521
 21
426.3306386836
 31
0.0
  0
LINE
  5
22A
  8
1
  6
CENTER
 62
     5
 10
-188.5221852098
 20
539.530638744
 30
0.0
 11
-150.5221852098
 21
539.530638744
 31
0.0
  0
ARC
  5
22C
  8
1
  6
CONTINUOUS
 62
     7
 10
-183.9221852098
 20
464.5306386836
 30
0.0
 40
1.5
 50
270.0
 51
0.0
  0
LINE
  5
22D
  8
1
  6
CONTINUOUS
 62
     7
 10
-180.8506337732
 20
438.4735155734
 30
0.0
 11
-181.0193261372
 21
438.3227072022
 31
0.0
  0
LINE
  5
22E
  8
1
  6
CENTER
 62
     5
 10
-169.5221852098
 20
520.530638744
 30
0.0
 11
-169.5221852098
 21
558.530638744
 31
0.0
  0
LINE
  5
22F
  8
1
  6
CONTINUOUS
 62
     7
 10
-156.6221852098
 20
473.280638744
 30
0.0
 11
-156.6221852098
 21
474.5306386836
 31
0.0
  0
LINE
  5
230
  8
1
  6
CONTINUOUS
 62
     7
 10
-180.911816687
 20
432.5004463357
 30
0.0
 11
-180.8546204111
 21
432.4878492869
 31
0.0
  0
LINE
  5
231
  8
1
  6
CENTER
 62
     5
 10
-309.6324923521
 20
392.5306386836
 30
0.0
 11
-309.6324923521
 21
539.530638744
 31
0.0
  0
ARC
  5
232
  8
1
  6
CONTINUOUS
 62
     7
 10
-182.4221852098
 20
472.530638744
 30
0.0
 40
0.75
 50
90.0
 51
270.0
  0
LINE
  5
233
  8
1
  6
CONTINUOUS
 62
     7
 10
-182.4221852098
 20
471.780638744
 30
0.0
 11
-182.4221852098
 21
464.5306386836
 31
0.0
  0
LINE
  5
234
  8
1
  6
CONTINUOUS
 62
     7
 10
-181.0221852098
 20
432.6722839604
 30
0.0
 11
-180.9929569946
 21
432.5695180237
 31
0.0
  0
LINE
  5
235
  8
1
  6
CONTINUOUS
 62
     7
 10
-180.9929569946
 20
432.5695180237
 30
0.0
 11
-180.911816687
 21
432.5004463357
 31
0.0
  0
LINE
  5
236
  8
1
  6
CONTINUOUS
 62
     7
 10
-181.0193261372
 20
438.3227072022
 30
0.0
 11
-181.0221852098
 21
438.2889935276
 31
0.0
  0
ARC
  5
237
  8
1
  6
CONTINUOUS
 62
     7
 10
-156.6221852098
 20
472.530638744
 30
0.0
 40
0.75
 50
270.0
 51
90.0
  0
ARC
  5
238
  8
1
  6
CONTINUOUS
 62
     7
 10
-155.1221852098
 20
464.5306386836
 30
0.0
 40
1.5
 50
180.0
 51
270.0
  0
LINE
  5
239
  8
1
  6
CONTINUOUS
 62
     7
 10
-180.8546204111
 20
432.4878492869
 30
0.0
 11
-180.8506337732
 21
432.4877619146
 31
0.0
  0
LINE
  5
23A
  8
1
  6
CONTINUOUS
 62
     7
 10
-182.4221852098
 20
474.5306386836
 30
0.0
 11
-182.4221852098
 21
473.280638744
 31
0.0
  0
LINE
  5
23B
  8
1
  6
CENTER
 62
     5
 10
-409.6324923521
 20
539.530638744
 30
0.0
 11
-209.6324923521
 21
539.530638744
 31
0.0
  0
LINE
  5
23C
  8
1
  6
CONTINUOUS
 62
     7
 10
-156.6221852098
 20
464.5306386836
 30
0.0
 11
-156.6221852098
 21
471.780638744
 31
0.0
  0
ENDSEC
  0
EOF
