  0
SECTION
  2
HEADER
  9
$ACADVER
  1
AC1006
  9
$DWGCODEPAGE
  3
ansi_932
  9
$INSBASE
 10
0.0
 20
0.0
 30
0.0
  9
$EXTMIN
 10
-870.5705514757
 20
405.4803637272727
  9
$EXTMAX
 10
-575.2969372007
 20
526.8882108551
  9
$LIMMIN
 10
0.0
 20
0.0
  9
$LIMMAX
 10
12.0
 20
9.0
  9
$ORTHOMODE
 70
     0
  9
$REGENMODE
 70
     1
  9
$FILLMODE
 70
     1
  9
$QTEXTMODE
 70
     0
  9
$MIRRTEXT
 70
     1
  9
$DRAGMODE
 70
     2
  9
$LTSCALE
 40
1.0
  9
$OSMODE
 70
    37
  9
$ATTMODE
 70
     1
  9
$TEXTSIZE
 40
0.2
  9
$TRACEWID
 40
0.05
  9
$TEXTSTYLE
  7
STANDARD
  9
$CLAYER
  8
0
  9
$CELTYPE
  6
BYLAYER
  9
$CECOLOR
 62
   256
  9
$DIMSCALE
 40
1.0
  9
$DIMASZ
 40
3.0
  9
$DIMEXO
 40
0.0625
  9
$DIMDLI
 40
0.38
  9
$DIMRND
 40
0.0
  9
$DIMDLE
 40
0.0
  9
$DIMEXE
 40
1.5
  9
$DIMTP
 40
0.0
  9
$DIMTM
 40
0.0
  9
$DIMTXT
 40
3.0
  9
$DIMCEN
 40
0.09
  9
$DIMTSZ
 40
0.0
  9
$DIMTOL
 70
     0
  9
$DIMLIM
 70
     0
  9
$DIMTIH
 70
     1
  9
$DIMTOH
 70
     1
  9
$DIMSE1
 70
     0
  9
$DIMSE2
 70
     0
  9
$DIMTAD
 70
     1
  9
$DIMZIN
 70
     0
  9
$DIMBLK
  1

  9
$DIMASO
 70
     1
  9
$DIMSHO
 70
     1
  9
$DIMPOST
  1

  9
$DIMAPOST
  1

  9
$DIMALT
 70
     0
  9
$DIMALTD
 70
     2
  9
$DIMALTF
 40
25.4
  9
$DIMLFAC
 40
1.0
  9
$DIMTOFL
 70
     0
  9
$DIMTVP
 40
0.0
  9
$DIMTIX
 70
     0
  9
$DIMSOXD
 70
     0
  9
$DIMSAH
 70
     0
  9
$DIMBLK1
  1

  9
$DIMBLK2
  1

  9
$LUNITS
 70
     2
  9
$LUPREC
 70
     4
  9
$SKETCHINC
 40
0.1
  9
$FILLETRAD
 40
0.5
  9
$AUNITS
 70
     0
  9
$AUPREC
 70
     0
  9
$MENU
  1
.
  9
$ELEVATION
 40
0.0
  9
$THICKNESS
 40
0.0
  9
$LIMCHECK
 70
     0
  9
$CHAMFERA
 40
0.0
  9
$CHAMFERB
 40
0.0
  9
$SKPOLY
 70
     0
  9
$TDCREATE
 40
2460445.573826192
  9
$TDUPDATE
 40
2460445.573826482
  9
$TDINDWG
 40
0.0000000116
  9
$TDUSRTIMER
 40
0.0000000116
  9
$USRTIMER
 70
     1
  9
$ANGBASE
 50
0.0
  9
$ANGDIR
 70
     0
  9
$PDMODE
 70
     0
  9
$PDSIZE
 40
0.0
  9
$PLINEWID
 40
0.0
  9
$COORDS
 70
     1
  9
$SPLFRAME
 70
     0
  9
$SPLINETYPE
 70
     6
  9
$SPLINESEGS
 70
     8
  9
$ATTDIA
 70
     0
  9
$ATTREQ
 70
     1
  9
$HANDLING
 70
     1
  9
$HANDSEED
  5
26C
  9
$SURFTAB1
 70
     6
  9
$SURFTAB2
 70
     6
  9
$SURFTYPE
 70
     6
  9
$SURFU
 70
     6
  9
$SURFV
 70
     6
  9
$UCSNAME
  2

  9
$UCSORG
 10
0.0
 20
0.0
 30
0.0
  9
$UCSXDIR
 10
1.0
 20
0.0
 30
0.0
  9
$UCSYDIR
 10
0.0
 20
1.0
 30
0.0
  9
$USERI1
 70
     0
  9
$USERI2
 70
     0
  9
$USERI3
 70
     0
  9
$USERI4
 70
     0
  9
$USERI5
 70
     0
  9
$USERR1
 40
0.0
  9
$USERR2
 40
0.0
  9
$USERR3
 40
0.0
  9
$USERR4
 40
0.0
  9
$USERR5
 40
0.0
  9
$WORLDVIEW
 70
     1
  0
ENDSEC
  0
SECTION
  2
TABLES
  0
TABLE
  2
VPORT
 70
     1
  0
VPORT
  2
*ACTIVE
 70
     0
 10
0.0
 20
0.0
 11
1.0
 21
1.0
 12
-722.9337443382
 22
466.1842872911864
 13
0.0
 23
0.0
 14
0.5
 24
0.5
 15
0.5
 25
0.5
 16
0.0
 26
0.0
 36
1.0
 17
0.0
 27
0.0
 37
0.0
 40
121.4078471278274
 41
1.6
 42
50.0
 43
0.0
 44
0.0
 50
0.0
 51
0.0
 71
     0
 72
   100
 73
     1
 74
     3
 75
     0
 76
     0
 77
     0
 78
     0
  0
ENDTAB
  0
TABLE
  2
LTYPE
 70
     2
  0
LTYPE
  2
CONTINUOUS
 70
     0
  3
Solid line
 72
    65
 73
     0
 40
0.0
  0
LTYPE
  2
CENTER
 70
     0
  3

 72
    65
 73
     0
 40
0.0
  0
ENDTAB
  0
TABLE
  2
LAYER
 70
     2
  0
LAYER
  2
0
 70
     0
 62
     7
  6
CONTINUOUS
  0
LAYER
  2
1
 70
     0
 62
     7
  6
CONTINUOUS
  0
ENDTAB
  0
TABLE
  2
STYLE
 70
     2
  0
STYLE
  2
STANDARD
 70
     0
 40
0.0
 41
1.0
 50
0.0
 71
     0
 42
0.2
  3
txt
  4

  0
STYLE
  2
ＭＳ_ゴシック
 70
     0
 40
0.0
 41
1.0
 50
0.0
 71
     0
 42
0.2
  3
ＭＳ ゴシック.shx
  4

  0
ENDTAB
  0
TABLE
  2
VIEW
 70
     0
  0
ENDTAB
  0
TABLE
  2
UCS
 70
     0
  0
ENDTAB
  0
ENDSEC
  0
SECTION
  2
BLOCKS
  0
ENDSEC
  0
SECTION
  2
ENTITIES
  0
LINE
  5
70
  8
1
  6
CONTINUOUS
 62
     7
 10
-714.6909482869
 20
496.4437488604
 30
0.0
 11
-714.7086128196
 21
496.3979552814
 31
0.0
  0
LINE
  5
71
  8
1
  6
CONTINUOUS
 62
     7
 10
-714.7086128196
 20
496.3979552814
 30
0.0
 11
-714.728503059
 21
496.3530836203
 31
0.0
  0
LINE
  5
72
  8
1
  6
CONTINUOUS
 62
     7
 10
-736.1132776325
 20
496.5855483918
 30
0.0
 11
-736.1216688621
 21
496.6339082393
 31
0.0
  0
LINE
  5
73
  8
1
  6
CONTINUOUS
 62
     7
 10
-714.6433158421
 20
496.6339082393
 30
0.0
 11
-714.6517070717
 21
496.5855483918
 31
0.0
  0
LINE
  5
74
  8
1
  6
CONTINUOUS
 62
     7
 10
-714.728503059
 20
496.3530836203
 30
0.0
 11
-714.7505710877
 21
496.309241977
 31
0.0
  0
LINE
  5
75
  8
1
  6
CONTINUOUS
 62
     7
 10
-714.7747637421
 20
496.2665359696
 30
0.0
 11
-714.8010227398
 21
496.2250684808
 31
0.0
  0
LINE
  5
76
  8
1
  6
CONTINUOUS
 62
     7
 10
-714.8010227398
 20
496.2250684808
 30
0.0
 11
-714.8292848206
 21
496.1849394093
 31
0.0
  0
LINE
  5
77
  8
1
  6
CONTINUOUS
 62
     7
 10
-714.7505710877
 20
496.309241977
 30
0.0
 11
-714.7747637421
 21
496.2665359696
 31
0.0
  0
LINE
  5
78
  8
1
  6
CONTINUOUS
 62
     7
 10
-736.0563718846
 20
496.3979552814
 30
0.0
 11
-736.0740364173
 21
496.4437488604
 31
0.0
  0
LINE
  5
79
  8
1
  6
CONTINUOUS
 62
     7
 10
-736.1025236053
 20
496.5376585339
 30
0.0
 11
-736.1132776325
 21
496.5855483918
 31
0.0
  0
LINE
  5
7A
  8
1
  6
CONTINUOUS
 62
     7
 10
-736.0740364173
 20
496.4437488604
 30
0.0
 11
-736.0894326878
 21
496.4903540365
 31
0.0
  0
LINE
  5
7B
  8
1
  6
CONTINUOUS
 62
     7
 10
-736.0894326878
 20
496.4903540365
 30
0.0
 11
-736.1025236053
 21
496.5376585339
 31
0.0
  0
LINE
  5
7C
  8
1
  6
CONTINUOUS
 62
     7
 10
-736.0364816452
 20
496.3530836203
 30
0.0
 11
-736.0563718846
 21
496.3979552814
 31
0.0
  0
LINE
  5
7D
  8
1
  6
CONTINUOUS
 62
     7
 10
-714.6517070717
 20
496.5855483918
 30
0.0
 11
-714.6624610989
 21
496.5376585339
 31
0.0
  0
LINE
  5
7E
  8
1
  6
CONTINUOUS
 62
     7
 10
-714.6624610989
 20
496.5376585339
 30
0.0
 11
-714.6755520164
 21
496.4903540365
 31
0.0
  0
LINE
  5
7F
  8
1
  6
CONTINUOUS
 62
     7
 10
-714.6755520164
 20
496.4903540365
 30
0.0
 11
-714.6909482869
 21
496.4437488604
 31
0.0
  0
TEXT
  5
80
  8
1
  6
CONTINUOUS
 62
     7
 10
-675.9985252578155
 20
405.1383292143303
 30
0.0
 40
3.0
  1
STRMXB161316
 41
1.353571
  0
LINE
  5
81
  8
1
  6
CONTINUOUS
 62
     7
 10
-607.5324923521
 20
428.5806387138
 30
0.0
 11
-606.9824923521
 21
428.0306387138
 31
0.0
  0
LINE
  5
82
  8
1
  6
CONTINUOUS
 62
     7
 10
-607.5824923521
 20
443.1306387138
 30
0.0
 11
-608.2824923521
 21
442.4306387138
 31
0.0
  0
LINE
  5
83
  8
1
  6
CONTINUOUS
 62
     7
 10
-607.5324923521
 20
434.7673689067
 30
0.0
 11
-607.5324923521
 21
428.5806387138
 31
0.0
  0
LINE
  5
84
  8
1
  6
CONTINUOUS
 62
     7
 10
-608.6208092461
 20
454.9824467653
 30
0.0
 11
-608.6333513011
 21
454.9806387168
 31
0.0
  0
LINE
  5
85
  8
1
  6
CONTINUOUS
 62
     7
 10
-610.6728206073
 20
519.7395650223
 30
0.0
 11
-610.6483602196
 21
519.585805004
 31
0.0
  0
LINE
  5
86
  8
1
  6
CONTINUOUS
 62
     7
 10
-601.7371929198
 20
522.177991349
 30
0.0
 11
-601.7313668747
 21
522.1799138352
 31
0.0
  0
LINE
  5
87
  8
1
  6
CONTINUOUS
 62
     7
 10
-587.9824923521
 20
422.0306387138
 30
0.0
 11
-587.5824923521
 21
423.0306387138
 31
0.0
  0
LINE
  5
88
  8
1
  6
CONTINUOUS
 62
     7
 10
-606.9824923521
 20
420.0306387138
 30
0.0
 11
-606.6824923521
 21
419.0306387138
 31
0.0
  0
LINE
  5
89
  8
1
  6
CONTINUOUS
 62
     7
 10
-610.6483602196
 20
518.7754724235
 30
0.0
 11
-610.6728236406
 21
518.6218053599
 31
0.0
  0
LINE
  5
8A
  8
1
  6
CONTINUOUS
 62
     7
 10
-610.5538974574
 20
519.405174207
 30
0.0
 11
-610.5538974574
 21
518.9561032206
 31
0.0
  0
LINE
  5
8B
  8
1
  6
CONTINUOUS
 62
     7
 10
-587.5824923521
 20
420.0306387138
 30
0.0
 11
-587.5824923521
 21
420.8806387138
 31
0.0
  0
LINE
  5
8C
  8
1
  6
CONTINUOUS
 62
     7
 10
-610.6728236406
 20
518.6218053599
 30
0.0
 11
-610.6617895752
 21
518.3526841993
 31
0.0
  0
LINE
  5
8D
  8
1
  6
CONTINUOUS
 62
     7
 10
-608.2824923521
 20
452.3306387138
 30
0.0
 11
-608.2824923521
 21
448.8306387138
 31
0.0
  0
ARC
  5
8E
  8
1
  6
CONTINUOUS
 62
     7
 10
-606.970505851
 20
505.2074812358001
 30
0.0
 40
26.2214186636
 50
329.9143928768
 51
2.892427376400008
  0
LINE
  5
8F
  8
1
  6
CONTINUOUS
 62
     7
 10
-584.2824923521
 20
495.7806387138
 30
0.0
 11
-585.0981544272
 21
495.7806387138
 31
0.0
  0
LINE
  5
90
  8
1
  6
CONTINUOUS
 62
     7
 10
-608.0824923521
 20
452.5306387138
 30
0.0
 11
-608.2824923521
 21
452.3306387138
 31
0.0
  0
ARC
  5
91
  8
1
  6
CONTINUOUS
 62
     7
 10
-603.2824923521
 20
519.1806387138
 30
0.0
 40
7.5
 50
162.4540485129
 51
170.3198344384
  0
LINE
  5
92
  8
1
  6
CONTINUOUS
 62
     7
 10
-606.9824923521
 20
420.8806387138
 30
0.0
 11
-606.9824923521
 21
420.0306387138
 31
0.0
  0
LINE
  5
93
  8
1
  6
CONTINUOUS
 62
     7
 10
-606.9824923521
 20
423.0306387138
 30
0.0
 11
-606.5824923521
 21
422.0306387138
 31
0.0
  0
ARC
  5
94
  8
1
  6
CONTINUOUS
 62
     7
 10
-608.8824923521
 20
521.8306387138
 30
0.0
 40
0.1
 50
0.0
 51
90.0
  0
ARC
  5
95
  8
1
  6
CONTINUOUS
 62
     7
 10
-617.5324923521
 20
434.7673689067
 30
0.0
 40
10.0
 50
0.0
 51
20.0
  0
LINE
  5
96
  8
1
  6
CONTINUOUS
 62
     7
 10
-585.7822804007
 20
494.2806387138
 30
0.0
 11
-584.2824923521
 21
494.2806387138
 31
0.0
  0
ARC
  5
97
  8
1
  6
CONTINUOUS
 62
     7
 10
-591.8324923521
 20
418.8306387138
 30
0.0
 40
0.8
 50
270.0
 51
0.0
  0
LINE
  5
98
  8
1
  6
CONTINUOUS
 62
     7
 10
-610.5538843297
 20
518.956124172
 30
0.0
 11
-610.6470336253
 21
518.778678303
 31
0.0
  0
LINE
  5
99
  8
1
  6
CONTINUOUS
 62
     7
 10
-587.5824923521
 20
420.8806387138
 30
0.0
 11
-587.7324923521
 21
421.0306387138
 31
0.0
  0
LINE
  5
9A
  8
1
  6
CONTINUOUS
 62
     7
 10
-610.6470336253
 20
519.5825991246
 30
0.0
 11
-610.5538843297
 21
519.4051532556
 31
0.0
  0
LINE
  5
9B
  8
1
  6
CONTINUOUS
 62
     7
 10
-586.2824923521
 20
452.3306387138
 30
0.0
 11
-586.4824923521
 21
452.5306387138
 31
0.0
  0
LINE
  5
9C
  8
1
  6
CONTINUOUS
 62
     7
 10
-587.5824923521
 20
428.0306387138
 30
0.0
 11
-587.0324923521
 21
428.5806387138
 31
0.0
  0
LINE
  5
9D
  8
1
  6
CONTINUOUS
 62
     7
 10
-608.7824923521
 20
460.7434907422
 30
0.0
 11
-608.8597381552
 21
460.6971899737
 31
0.0
  0
LINE
  5
9E
  8
1
  6
CONTINUOUS
 62
     7
 10
-585.9456073795
 20
460.9787721727
 30
0.0
 11
-585.9316278925
 21
460.980622954
 31
0.0
  0
LINE
  5
9F
  8
1
  6
CONTINUOUS
 62
     7
 10
-608.2824923521
 20
438.5912467784
 30
0.0
 11
-608.1355661442
 21
438.1875703399
 31
0.0
  0
LINE
  5
A0
  8
1
  6
CONTINUOUS
 62
     7
 10
-586.9824923521
 20
448.1306387138
 30
0.0
 11
-586.2824923521
 21
448.8306387138
 31
0.0
  0
LINE
  5
A1
  8
1
  6
CONTINUOUS
 62
     7
 10
-586.2824923521
 20
438.5912467784
 30
0.0
 11
-586.2824923521
 21
442.4306387138
 31
0.0
  0
LINE
  5
A2
  8
1
  6
CONTINUOUS
 62
     7
 10
-594.1183597147
 20
509.9350211834001
 30
0.0
 11
-594.1244200511
 21
509.8721842557
 31
0.0
  0
ARC
  5
A3
  8
1
  6
CONTINUOUS
 62
     7
 10
-577.0324923521
 20
434.7673689067
 30
0.0
 40
10.0
 50
160.0
 51
180.0
  0
LINE
  5
A4
  8
1
  6
CONTINUOUS
 62
     7
 10
-608.2824923521
 20
448.8306387138
 30
0.0
 11
-607.5824923521
 21
448.1306387138
 31
0.0
  0
LINE
  5
A5
  8
1
  6
CONTINUOUS
 62
     7
 10
-608.2824923521
 20
442.4306387138
 30
0.0
 11
-608.2824923521
 21
438.5912467784
 31
0.0
  0
LINE
  5
A6
  8
1
  6
CONTINUOUS
 62
     7
 10
-586.2824923521
 20
448.8306387138
 30
0.0
 11
-586.2824923521
 21
452.3306387138
 31
0.0
  0
LINE
  5
A7
  8
1
  6
CONTINUOUS
 62
     7
 10
-587.0324923521
 20
428.5806387138
 30
0.0
 11
-587.0324923521
 21
434.7673689067
 31
0.0
  0
LINE
  5
A8
  8
1
  6
CONTINUOUS
 62
     7
 10
-586.2824923521
 20
442.4306387138
 30
0.0
 11
-586.9824923521
 21
443.1306387138
 31
0.0
  0
LINE
  5
A9
  8
1
  6
CONTINUOUS
 62
     7
 10
-606.9824923521
 20
428.0306387138
 30
0.0
 11
-606.9824923521
 21
423.0306387138
 31
0.0
  0
LINE
  5
AA
  8
1
  6
CONTINUOUS
 62
     7
 10
-587.5824923521
 20
423.0306387138
 30
0.0
 11
-587.5824923521
 21
428.0306387138
 31
0.0
  0
ARC
  5
AB
  8
1
  6
CONTINUOUS
 62
     7
 10
-608.9758221309
 20
507.5178506421
 30
0.0
 40
28.2106084906
 50
357.9945619417
 51
26.33421921400003
  0
ARC
  5
AC
  8
1
  6
CONTINUOUS
 62
     7
 10
-589.7118692808
 20
517.6729805493
 30
0.0
 40
6.4648764485
 50
21.40377747240001
 51
78.910614377
  0
LINE
  5
AD
  8
1
  6
CONTINUOUS
 62
     7
 10
-606.8324923521
 20
421.0306387138
 30
0.0
 11
-606.9824923521
 21
420.8806387138
 31
0.0
  0
LINE
  5
AE
  8
1
  6
CONTINUOUS
 62
     7
 10
-587.8824923521
 20
419.0306387138
 30
0.0
 11
-587.5824923521
 21
420.0306387138
 31
0.0
  0
ARC
  5
AF
  8
1
  6
CONTINUOUS
 62
     7
 10
-606.7324923521
 20
421.1806387138
 30
0.0
 40
0.15
 50
270.0000000001
 51
0.0
  0
LINE
  5
B0
  8
1
  6
CONTINUOUS
 62
     7
 10
-603.5324923521
 20
419.0306387138
 30
0.0
 11
-603.5324923521
 21
418.8306387138
 31
0.0
  0
LINE
  5
B1
  8
1
  6
CONTINUOUS
 62
     7
 10
-591.0324923521
 20
418.8306387138
 30
0.0
 11
-591.0324923521
 21
419.0306387138
 31
0.0
  0
ARC
  5
B2
  8
1
  6
CONTINUOUS
 62
     7
 10
-588.0152143149
 20
457.9806387138
 30
0.0
 40
3.5522385469
 50
308.9424457527
 51
51.0575542473
  0
ARC
  5
B3
  8
1
  6
CONTINUOUS
 62
     7
 10
-602.7324923521
 20
418.8306387138
 30
0.0
 40
0.8
 50
180.0
 51
270.0
  0
ARC
  5
B4
  8
1
  6
CONTINUOUS
 62
     7
 10
-587.8324923521
 20
421.1806387138
 30
0.0
 40
0.15
 50
180.0
 51
269.9999999999
  0
CIRCLE
  5
B5
  8
1
  6
CONTINUOUS
 62
     7
 10
-597.2824923521
 20
506.5306387138
 30
0.0
 40
8.6
  0
LINE
  5
B6
  8
1
  6
CONTINUOUS
 62
     7
 10
-585.7824923521
 20
460.7814460671
 30
0.0
 11
-585.7824923521
 21
455.1798313604
 31
0.0
  0
ARC
  5
B7
  8
1
  6
CONTINUOUS
 62
     7
 10
-609.7661255928
 20
521.2306387138
 30
0.0
 40
0.7
 50
90.0
 51
162.4540485129
  0
ARC
  5
B8
  8
1
  6
CONTINUOUS
 62
     7
 10
-609.7661255928
 20
517.1306387138
 30
0.0
 40
0.7
 50
197.5459514871
 51
241.3118833165
  0
LINE
  5
B9
  8
1
  6
CONTINUOUS
 62
     7
 10
-606.5824923521
 20
422.0306387138
 30
0.0
 11
-606.5824923521
 21
421.1806387138
 31
0.0
  0
ARC
  5
BA
  8
1
  6
CONTINUOUS
 62
     7
 10
-588.7754949236
 20
520.1839293776
 30
0.0
 40
3.845498014
 50
85.41978595100001
 51
115.2566094979
  0
LINE
  5
BB
  8
1
  6
CONTINUOUS
 62
     7
 10
-608.8824923521
 20
521.9306387138
 30
0.0
 11
-609.7661255928
 21
521.9306387138
 31
0.0
  0
ARC
  5
BC
  8
1
  6
CONTINUOUS
 62
     7
 10
-603.2824923521
 20
519.1806387138
 30
0.0
 40
7.5
 50
189.6531163354
 51
197.5459514871
  0
LINE
  5
BD
  8
1
  6
CONTINUOUS
 62
     7
 10
-610.6587250909
 20
520.0336484388
 30
0.0
 11
-610.6599448926
 21
520.0240223584
 31
0.0
  0
LINE
  5
BE
  8
1
  6
CONTINUOUS
 62
     7
 10
-610.6599448926
 20
520.0240223584
 30
0.0
 11
-610.6728206073
 21
519.7395650223
 31
0.0
  0
LINE
  5
BF
  8
1
  6
CONTINUOUS
 62
     7
 10
-586.42941856
 20
438.1875703399
 30
0.0
 11
-586.2824923521
 21
438.5912467784
 31
0.0
  0
LINE
  5
C0
  8
1
  6
CONTINUOUS
 62
     7
 10
-587.9824923521
 20
421.1806387138
 30
0.0
 11
-587.9824923521
 21
422.0306387138
 31
0.0
  0
LINE
  5
C1
  8
1
  6
CONTINUOUS
 62
     7
 10
-610.5366407098
 20
457.0928867413
 30
0.0
 11
-610.6643749027
 21
456.878907125
 31
0.0
  0
LINE
  5
C2
  8
1
  6
CONTINUOUS
 62
     7
 10
-610.614668177
 20
458.8257932314
 30
0.0
 11
-610.6069560609
 21
458.8166117466
 31
0.0
  0
ARC
  5
C3
  8
1
  6
CONTINUOUS
 62
     7
 10
-609.7661255928
 20
491.8306387138
 30
0.0
 40
0.7
 50
197.5459514871
 51
270.0
  0
LINE
  5
C4
  8
1
  6
CONTINUOUS
 62
     7
 10
-610.6599448926
 20
494.7240223584
 30
0.0
 11
-610.6483602196
 21
494.285805004
 31
0.0
  0
LINE
  5
C5
  8
1
  6
CONTINUOUS
 62
     7
 10
-610.6482583331
 20
458.8858693316
 30
0.0
 11
-610.6424472249
 21
458.8718866514
 31
0.0
  0
LINE
  5
C6
  8
1
  6
CONTINUOUS
 62
     7
 10
-610.6470336253
 20
494.2825991246
 30
0.0
 11
-610.5538843297
 21
494.1051532556
 31
0.0
  0
LINE
  5
C7
  8
1
  6
CONTINUOUS
 62
     7
 10
-608.8824923521
 20
460.6806387742
 30
0.0
 11
-609.7661255928
 21
460.6806387742
 31
0.0
  0
LINE
  5
C8
  8
1
  6
CONTINUOUS
 62
     7
 10
-610.6617895752
 20
518.3526841993
 30
0.0
 11
-610.6599516349
 21
518.3373080075
 31
0.0
  0
ARC
  5
C9
  8
1
  6
CONTINUOUS
 62
     7
 10
-608.8824923521
 20
460.5806387742
 30
0.0
 40
0.1
 50
0.0
 51
90.0
  0
LINE
  5
CA
  8
1
  6
CONTINUOUS
 62
     7
 10
-610.628385588
 20
458.8453873047
 30
0.0
 11
-610.6218083407
 21
458.8353958359
 31
0.0
  0
LINE
  5
CB
  8
1
  6
CONTINUOUS
 62
     7
 10
-610.6701524593
 20
459.0043721155
 30
0.0
 11
-610.6688140577
 21
458.9825489126
 31
0.0
  0
LINE
  5
CC
  8
1
  6
CONTINUOUS
 62
     7
 10
-610.5302866941
 20
456.0053426313
 30
0.0
 11
-610.5262850614
 21
455.9870681026
 31
0.0
  0
LINE
  5
CD
  8
1
  6
CONTINUOUS
 62
     7
 10
-610.5302234896
 20
520.7979818773
 30
0.0
 11
-610.5778312498
 21
520.4946649525
 31
0.0
  0
ARC
  5
CE
  8
1
  6
CONTINUOUS
 62
     7
 10
-610.4785561383
 20
495.1081019453
 30
0.0
 40
0.2
 50
170.3199794086
 51
224.6522297193
  0
LINE
  5
CF
  8
1
  6
CONTINUOUS
 62
     7
 10
-610.5753787265
 20
457.3300260318
 30
0.0
 11
-610.5317764832
 21
456.9257133767
 31
0.0
  0
LINE
  5
D0
  8
1
  6
CONTINUOUS
 62
     7
 10
-610.6632751721
 20
458.9404344867
 30
0.0
 11
-610.6588914118
 21
458.920105439
 31
0.0
  0
LINE
  5
D1
  8
1
  6
CONTINUOUS
 62
     7
 10
-610.6358334169
 20
458.8583797982
 30
0.0
 11
-610.628385588
 21
458.8453873047
 31
0.0
  0
LINE
  5
D2
  8
1
  6
CONTINUOUS
 62
     7
 10
-609.7661255928
 20
491.1306387138
 30
0.0
 11
-608.8824923521
 21
491.1306387138
 31
0.0
  0
ARC
  5
D3
  8
1
  6
CONTINUOUS
 62
     7
 10
-603.2824923521
 20
493.8806387138
 30
0.0
 40
7.5
 50
162.4540485129
 51
170.3198344384
  0
LINE
  5
D4
  8
1
  6
CONTINUOUS
 62
     7
 10
-609.7661255928
 20
455.1806387742
 30
0.0
 11
-608.8824923521
 21
455.1806387742
 31
0.0
  0
LINE
  5
D5
  8
1
  6
CONTINUOUS
 62
     7
 10
-610.5538843297
 20
493.656124172
 30
0.0
 11
-610.6470336253
 21
493.478678303
 31
0.0
  0
LINE
  5
D6
  8
1
  6
CONTINUOUS
 62
     7
 10
-610.6483602196
 20
493.4754724235
 30
0.0
 11
-610.6728236406
 21
493.3218053599
 31
0.0
  0
LINE
  5
D7
  8
1
  6
CONTINUOUS
 62
     7
 10
-610.6587250909
 20
494.7336484388
 30
0.0
 11
-610.6599448926
 21
494.7240223584
 31
0.0
  0
LINE
  5
D8
  8
1
  6
CONTINUOUS
 62
     7
 10
-610.5778312498
 20
517.8666124751
 30
0.0
 11
-610.5300647581
 21
517.5698302357
 31
0.0
  0
ARC
  5
D9
  8
1
  6
CONTINUOUS
 62
     7
 10
-610.4785561383
 20
517.9531754822
 30
0.0
 40
0.2
 50
135.3477702837
 51
189.6800205914
  0
ARC
  5
DA
  8
1
  6
CONTINUOUS
 62
     7
 10
-609.7661255928
 20
455.8806387742
 30
0.0
 40
0.7
 50
197.5459514871
 51
270.0
  0
LINE
  5
DB
  8
1
  6
CONTINUOUS
 62
     7
 10
-610.5538974574
 20
494.105174207
 30
0.0
 11
-610.5538974574
 21
493.6561032206
 31
0.0
  0
LINE
  5
DC
  8
1
  6
CONTINUOUS
 62
     7
 10
-610.6609777672
 20
458.150922667
 30
0.0
 11
-610.6609780996
 21
457.7103570213
 31
0.0
  0
LINE
  5
DD
  8
1
  6
CONTINUOUS
 62
     7
 10
-610.667843431
 20
459.0968690851
 30
0.0
 11
-610.6694235986
 21
459.0730118323
 31
0.0
  0
LINE
  5
DE
  8
1
  6
CONTINUOUS
 62
     7
 10
-610.6688140577
 20
458.9825489126
 30
0.0
 11
-610.6665509622
 21
458.961249328
 31
0.0
  0
LINE
  5
DF
  8
1
  6
CONTINUOUS
 62
     7
 10
-610.6728236406
 20
493.3218053599
 30
0.0
 11
-610.6617895752
 21
493.0526841993
 31
0.0
  0
ARC
  5
E0
  8
1
  6
CONTINUOUS
 62
     7
 10
-610.4785561383
 20
492.6531754822
 30
0.0
 40
0.2
 50
135.3477702161
 51
189.6800205914
  0
LINE
  5
E1
  8
1
  6
CONTINUOUS
 62
     7
 10
-610.5350779092
 20
458.9490228447
 30
0.0
 11
-610.5753787265
 21
458.5312515166
 31
0.0
  0
LINE
  5
E2
  8
1
  6
CONTINUOUS
 62
     7
 10
-610.6596054771
 20
459.1731464606
 30
0.0
 11
-610.6629097019
 21
459.1468768249
 31
0.0
  0
ARC
  5
E3
  8
1
  6
CONTINUOUS
 62
     7
 10
-609.7661255928
 20
459.9806387742
 30
0.0
 40
0.7
 50
90.0
 51
162.4540485129
  0
ARC
  5
E4
  8
1
  6
CONTINUOUS
 62
     7
 10
-603.2824923521
 20
457.9306387742
 30
0.0
 40
7.5
 50
195.01891787
 51
197.5459514871
  0
ARC
  5
E5
  8
1
  6
CONTINUOUS
 62
     7
 10
-608.8824923521
 20
455.2806387742
 30
0.0
 40
0.1
 50
270.0
 51
0.0
  0
LINE
  5
E6
  8
1
  6
CONTINUOUS
 62
     7
 10
-610.6572177411
 20
458.1732276627
 30
0.0
 11
-610.6609777672
 21
458.150922667
 31
0.0
  0
LINE
  5
E7
  8
1
  6
CONTINUOUS
 62
     7
 10
-610.6629097019
 20
459.1468768249
 30
0.0
 11
-610.665667197
 21
459.1214295133
 31
0.0
  0
LINE
  5
E8
  8
1
  6
CONTINUOUS
 62
     7
 10
-610.6703744035
 20
459.0496955509
 30
0.0
 11
-610.670643499
 21
459.0267981506
 31
0.0
  0
LINE
  5
E9
  8
1
  6
CONTINUOUS
 62
     7
 10
-610.6588914118
 20
458.920105439
 30
0.0
 11
-610.6533009341
 21
458.9002999044
 31
0.0
  0
LINE
  5
EA
  8
1
  6
CONTINUOUS
 62
     7
 10
-610.6424472249
 20
458.8718866514
 30
0.0
 11
-610.6358334169
 21
458.8583797982
 31
0.0
  0
ARC
  5
EB
  8
1
  6
CONTINUOUS
 62
     7
 10
-603.2824923521
 20
457.9306387742
 30
0.0
 40
7.5
 50
162.4540485129
 51
164.98108213
  0
LINE
  5
EC
  8
1
  6
CONTINUOUS
 62
     7
 10
-610.665667197
 20
459.1214295133
 30
0.0
 11
-610.667843431
 21
459.0968690851
 31
0.0
  0
ARC
  5
ED
  8
1
  6
CONTINUOUS
 62
     7
 10
-610.4785561383
 20
520.4081019453
 30
0.0
 40
0.2
 50
170.3199794086
 51
224.6522297198
  0
ARC
  5
EE
  8
1
  6
CONTINUOUS
 62
     7
 10
-603.2824923521
 20
493.8806387138
 30
0.0
 40
7.5
 50
189.6531163354
 51
197.5459514871
  0
LINE
  5
EF
  8
1
  6
CONTINUOUS
 62
     7
 10
-610.6533009341
 20
458.9002999044
 30
0.0
 11
-610.6482583331
 21
458.8858693316
 31
0.0
  0
LINE
  5
F0
  8
1
  6
CONTINUOUS
 62
     7
 10
-610.6218083407
 20
458.8353958359
 30
0.0
 11
-610.614668177
 21
458.8257932314
 31
0.0
  0
LINE
  5
F1
  8
1
  6
CONTINUOUS
 62
     7
 10
-610.6069560609
 20
458.8166117466
 30
0.0
 11
-610.5986659215
 21
458.8078867111
 31
0.0
  0
LINE
  5
F2
  8
1
  6
CONTINUOUS
 62
     7
 10
-610.5986659215
 20
458.8078867111
 30
0.0
 11
-610.5897950658
 21
458.7996562461
 31
0.0
  0
LINE
  5
F3
  8
1
  6
CONTINUOUS
 62
     7
 10
-610.5897950658
 20
458.7996562461
 30
0.0
 11
-610.5819597549
 21
458.7932045635
 31
0.0
  0
LINE
  5
F4
  8
1
  6
CONTINUOUS
 62
     7
 10
-610.6694235986
 20
459.0730118323
 30
0.0
 11
-610.6703744035
 21
459.0496955509
 31
0.0
  0
ARC
  5
F5
  8
1
  6
CONTINUOUS
 62
     7
 10
-609.7661255928
 20
495.9306387138
 30
0.0
 40
0.7
 50
118.6881166835
 51
162.4540485129
  0
ARC
  5
F6
  8
1
  6
CONTINUOUS
 62
     7
 10
-608.6824923521
 20
456.0806387742
 30
0.0
 40
0.1
 50
90.0
 51
180.0
  0
LINE
  5
F7
  8
1
  6
CONTINUOUS
 62
     7
 10
-610.5737247144
 20
458.7871492032
 30
0.0
 11
-610.5650949986
 21
458.7815158063
 31
0.0
  0
LINE
  5
F8
  8
1
  6
CONTINUOUS
 62
     7
 10
-610.5650949986
 20
458.7815158063
 30
0.0
 11
-610.5560780279
 21
458.776330831
 31
0.0
  0
ARC
  5
F9
  8
1
  6
CONTINUOUS
 62
     7
 10
-608.8824923521
 20
491.2306387138
 30
0.0
 40
0.1
 50
270.0
 51
0.0
  0
LINE
  5
FA
  8
1
  6
CONTINUOUS
 62
     7
 10
-610.670643499
 20
459.0267981506
 30
0.0
 11
-610.6701524593
 21
459.0043721155
 31
0.0
  0
LINE
  5
FB
  8
1
  6
CONTINUOUS
 62
     7
 10
-610.6617895752
 20
493.0526841993
 30
0.0
 11
-610.6599516349
 21
493.0373080075
 31
0.0
  0
ARC
  5
FC
  8
1
  6
CONTINUOUS
 62
     7
 10
-608.6824923521
 20
459.7806387742
 30
0.0
 40
0.1
 50
180.0
 51
270.0
  0
LINE
  5
FD
  8
1
  6
CONTINUOUS
 62
     7
 10
-610.6665509622
 20
458.961249328
 30
0.0
 11
-610.6632751721
 21
458.9404344867
 31
0.0
  0
LINE
  5
FE
  8
1
  6
CONTINUOUS
 62
     7
 10
-610.5560780279
 20
458.776330831
 30
0.0
 11
-610.5466837534
 21
458.7716214195
 31
0.0
  0
LINE
  5
FF
  8
1
  6
CONTINUOUS
 62
     7
 10
-610.5819597549
 20
458.7932045635
 30
0.0
 11
-610.5737247144
 21
458.7871492032
 31
0.0
  0
LINE
  5
100
  8
1
  6
CONTINUOUS
 62
     7
 10
-610.5466837534
 20
458.7716214195
 30
0.0
 11
-610.5366340739
 21
458.7672907355
 31
0.0
  0
LINE
  5
101
  8
1
  6
CONTINUOUS
 62
     7
 10
-585.9327953535
 20
460.9806387138
 30
0.0
 11
-586.8822917649
 21
460.9806387138
 31
0.0
  0
ARC
  5
102
  8
1
  6
CONTINUOUS
 62
     7
 10
-608.2824923521
 20
491.3806387138
 30
0.0
 40
0.5
 50
180.0
 51
270.0
  0
LINE
  5
103
  8
1
  6
CENTER
 62
     5
 10
-725.3824923521
 20
506.5306387138
 30
0.0
 11
-725.3824923521
 21
413.4563669554
 31
0.0
  0
LINE
  5
105
  8
1
  6
CONTINUOUS
 62
     7
 10
-585.8461098316
 20
455.02980948
 30
0.0
 11
-585.7916321862
 21
455.1168583967
 31
0.0
  0
LINE
  5
106
  8
1
  6
CONTINUOUS
 62
     7
 10
-608.773352518
 20
460.8444190309
 30
0.0
 11
-608.7824923521
 21
460.7814460671
 31
0.0
  0
ARC
  5
107
  8
1
  6
CONTINUOUS
 62
     7
 10
-584.2824923521
 20
495.0306387138
 30
0.0
 40
0.75
 50
270.0
 51
90.0
  0
LINE
  5
108
  8
1
  6
CONTINUOUS
 62
     7
 10
-590.4126944352
 20
523.6533814975
 30
0.0
 11
-593.3873560654
 21
522.2989815477
 31
0.0
  0
LINE
  5
109
  8
1
  6
CONTINUOUS
 62
     7
 10
-585.9452976995
 20
454.988297257
 30
0.0
 11
-585.8461098316
 21
455.02980948
 31
0.0
  0
ARC
  5
10A
  8
1
  6
CONTINUOUS
 62
     7
 10
-612.0324923521
 20
484.1306387138
 30
0.0
 40
1.5
 50
94.0960437582
 51
180.0
  0
LINE
  5
10B
  8
1
  6
CONTINUOUS
 62
     7
 10
-608.6333718954
 20
454.9806387138
 30
0.0
 11
-607.6834545432
 21
454.9806387138
 31
0.0
  0
LINE
  5
10C
  8
1
  6
CONTINUOUS
 62
     7
 10
-608.7188748725
 20
460.9314679475
 30
0.0
 11
-608.773352518
 21
460.8444190309
 31
0.0
  0
LINE
  5
10D
  8
1
  6
CONTINUOUS
 62
     7
 10
-610.2824923521
 20
491.3580232571
 30
0.0
 11
-610.2824923521
 21
487.6216987247
 31
0.0
  0
LINE
  5
10E
  8
1
  6
CENTER
 62
     5
 10
-870.5705514757
 20
506.5306387138
 30
0.0
 11
-633.4746097163
 21
506.5306387138
 31
0.0
  0
ARC
  5
10F
  8
1
  6
CONTINUOUS
 62
     7
 10
-582.2824923521
 20
487.6216987247
 30
0.0
 40
2.0
 50
180.0
 51
265.9039562418
  0
LINE
  5
110
  8
1
  6
CONTINUOUS
 62
     7
 10
-610.2824923521
 20
496.5306387138
 30
0.0
 11
-610.2824923521
 21
496.4032541705
 31
0.0
  0
LINE
  5
111
  8
1
  6
CONTINUOUS
 62
     7
 10
-601.7440862512
 20
522.1806387138
 30
0.0
 11
-608.2831295572
 21
522.1806387138
 31
0.0
  0
LINE
  5
112
  8
1
  6
CONTINUOUS
 62
     7
 10
-586.2824923521
 20
522.1806387138
 30
0.0
 11
-592.8372039692
 21
522.1806387138
 31
0.0
  0
LINE
  5
113
  8
1
  6
CONTINUOUS
 62
     7
 10
-608.6236919519
 20
454.9884791077
 30
0.0
 11
-608.6196870047
 21
454.988297257
 31
0.0
  0
ARC
  5
114
  8
1
  6
CONTINUOUS
 62
     7
 10
-582.0324923521
 20
453.5306387138
 30
0.0
 40
1.0
 50
270.0
 51
0.0
  0
LINE
  5
115
  8
1
  6
CONTINUOUS
 62
     7
 10
-608.6196870047
 20
460.9729801706
 30
0.0
 11
-608.7188748725
 21
460.9314679475
 31
0.0
  0
ARC
  5
116
  8
1
  6
CONTINUOUS
 62
     7
 10
-586.2824923521
 20
521.6806387138
 30
0.0
 40
0.5
 50
0.0
 51
90.0
  0
LINE
  5
117
  8
1
  6
CONTINUOUS
 62
     7
 10
-610.5262850614
 20
459.8742094458
 30
0.0
 11
-610.5302866941
 21
459.8559349171
 31
0.0
  0
LINE
  5
118
  8
1
  6
CONTINUOUS
 62
     7
 10
-608.7824923521
 20
455.1798313604
 30
0.0
 11
-608.6236919519
 21
454.9884791077
 31
0.0
  0
ARC
  5
119
  8
1
  6
CONTINUOUS
 62
     7
 10
-586.2824923521
 20
491.3806387138
 30
0.0
 40
0.5
 50
270.0
 51
0.0
  0
LINE
  5
11A
  8
1
  6
CONTINUOUS
 62
     7
 10
-584.2824923521
 20
487.6216987247
 30
0.0
 11
-584.2824923521
 21
494.2806387138
 31
0.0
  0
ARC
  5
11B
  8
1
  6
CONTINUOUS
 62
     7
 10
-609.2824923521
 20
496.5306387138
 30
0.0
 40
1.0
 50
166.9143942204
 51
180.0
  0
ARC
  5
11C
  8
1
  6
CONTINUOUS
 62
     7
 10
-608.2824923521
 20
521.6806387138
 30
0.0
 40
0.5
 50
90.0
 51
180.0
  0
LINE
  5
11D
  8
1
  6
CONTINUOUS
 62
     7
 10
-613.5324923521
 20
484.1306387138
 30
0.0
 11
-613.5324923521
 21
453.5306387138
 31
0.0
  0
LINE
  5
11E
  8
1
  6
CONTINUOUS
 62
     7
 10
-586.8820221678
 20
454.9806387138
 30
0.0
 11
-585.9313501434
 21
454.9806387138
 31
0.0
  0
LINE
  5
11F
  8
1
  6
CONTINUOUS
 62
     7
 10
-607.6824037539
 20
460.9806387138
 30
0.0
 11
-608.6321897807
 21
460.9806387138
 31
0.0
  0
LINE
  5
120
  8
1
  6
CENTER
 62
     5
 10
-617.6877036065
 20
506.5306387138
 30
0.0
 11
-575.2969372007
 21
506.5306387138
 31
0.0
  0
ARC
  5
121
  8
1
  6
CONTINUOUS
 62
     7
 10
-582.5324923521
 20
484.1306387138
 30
0.0
 40
1.5
 50
0.0
 51
85.90395624180002
  0
LINE
  5
122
  8
1
  6
CONTINUOUS
 62
     7
 10
-608.2824923521
 20
490.8806387138
 30
0.0
 11
-601.727780735
 21
490.8806387138
 31
0.0
  0
ARC
  5
123
  8
1
  6
CONTINUOUS
 62
     7
 10
-612.2824923521
 20
487.6216987247
 30
0.0
 40
2.0
 50
274.0960437582
 51
0.0
  0
LINE
  5
124
  8
1
  6
CONTINUOUS
 62
     7
 10
-585.7916321862
 20
455.1168583967
 30
0.0
 11
-585.7824923521
 21
455.1798313604
 31
0.0
  0
LINE
  5
125
  8
1
  6
CONTINUOUS
 62
     7
 10
-592.8146360413
 20
490.8806387138
 30
0.0
 11
-586.2818551469
 21
490.8806387138
 31
0.0
  0
ARC
  5
126
  8
1
  6
CONTINUOUS
 62
     7
 10
-585.2824923521
 20
496.5306387138
 30
0.0
 40
1.0
 50
0.0
 51
13.0856057755
  0
LINE
  5
127
  8
1
  6
CONTINUOUS
 62
     7
 10
-585.9418354003
 20
460.9728298736
 30
0.0
 11
-585.9452976995
 21
460.9729801706
 31
0.0
  0
LINE
  5
128
  8
1
  6
CONTINUOUS
 62
     7
 10
-581.0324923521
 20
453.5306387138
 30
0.0
 11
-581.0324923521
 21
484.1306387138
 31
0.0
  0
ARC
  5
129
  8
1
  6
CONTINUOUS
 62
     7
 10
-612.5324923521
 20
453.5306387138
 30
0.0
 40
1.0
 50
180.0
 51
270.0
  0
LINE
  5
12A
  8
1
  6
CONTINUOUS
 62
     7
 10
-585.7824923521
 20
460.7814460671
 30
0.0
 11
-585.9418354003
 21
460.9728298736
 31
0.0
  0
LINE
  5
12B
  8
1
  6
CENTER
 62
     5
 10
-597.2824923521
 20
526.8882108551
 30
0.0
 11
-597.2824923521
 21
411.1175660502
 31
0.0
  0
LINE
  5
12C
  8
1
  6
CONTINUOUS
 62
     7
 10
-584.2824923521
 20
495.7806387138
 30
0.0
 11
-584.2824923521
 21
496.5306387138
 31
0.0
  0
LINE
  5
12D
  8
1
  6
CONTINUOUS
 62
     7
 10
-610.6597232463
 20
517.8443189729
 30
0.0
 11
-610.578985866
 21
517.5370463418
 31
0.0
  0
LINE
  5
12E
  8
1
  6
CONTINUOUS
 62
     7
 10
-610.6609247016
 20
458.1531454589
 30
0.0
 11
-610.6597232463
 21
458.1324155905
 31
0.0
  0
LINE
  5
12F
  8
1
  6
CONTINUOUS
 62
     7
 10
-610.6572176968
 20
458.1732278038
 30
0.0
 11
-610.6609247016
 21
458.1531454589
 31
0.0
  0
LINE
  5
130
  8
1
  6
CONTINUOUS
 62
     7
 10
-610.6609247016
 20
457.7081320895
 30
0.0
 11
-610.6572176968
 21
457.6880497446
 31
0.0
  0
LINE
  5
131
  8
1
  6
CONTINUOUS
 62
     7
 10
-601.7311047005
 20
457.8931245347
 30
0.0
 11
-601.7265897481
 21
458.0170963421
 31
0.0
  0
LINE
  5
132
  8
1
  6
CONTINUOUS
 62
     7
 10
-601.7265897481
 20
458.0170963421
 30
0.0
 11
-601.7457984687
 21
458.1447320685
 31
0.0
  0
ARC
  5
133
  8
1
  6
CONTINUOUS
 62
     7
 10
-608.1775094665
 20
452.1894230143
 30
0.0
 40
8.8145592522
 50
43.46615026260001
 51
82.44982550450001
  0
LINE
  5
134
  8
1
  6
CONTINUOUS
 62
     7
 10
-610.6610503278
 20
456.6811870035
 30
0.0
 11
-610.6597232463
 21
456.6724635229
 31
0.0
  0
ARC
  5
135
  8
1
  6
CONTINUOUS
 62
     7
 10
-607.711232174
 20
456.4542733487
 30
0.0
 40
4.5264822849
 50
81.20744939429999
 51
89.5832098321
  0
CIRCLE
  5
136
  8
1
  6
CONTINUOUS
 62
     7
 10
-597.2824923521
 20
506.5306387138
 30
0.0
 40
16.25
  0
LINE
  5
137
  8
1
  6
CONTINUOUS
 62
     7
 10
-610.5262849917
 20
459.8742097645
 30
0.0
 11
-610.5802958228
 21
459.6263114409
 31
0.0
  0
LINE
  5
138
  8
1
  6
CONTINUOUS
 62
     7
 10
-601.7457984687
 20
458.1447320685
 30
0.0
 11
-601.7800705699
 21
458.2531867278
 31
0.0
  0
ARC
  5
139
  8
1
  6
CONTINUOUS
 62
     7
 10
-608.586356322
 20
464.9182057179
 30
0.0
 40
9.9784586578
 50
275.1888564854
 51
312.3962921352
  0
LINE
  5
13A
  8
1
  6
CONTINUOUS
 62
     7
 10
-608.6333979799
 20
460.9806218382
 30
0.0
 11
-608.6193839099
 21
460.978773091
 31
0.0
  0
LINE
  5
13B
  8
1
  6
CONTINUOUS
 62
     7
 10
-610.6597232463
 20
456.6724635229
 30
0.0
 11
-610.578985866
 21
456.2289536822
 31
0.0
  0
LINE
  5
13C
  8
1
  6
CONTINUOUS
 62
     7
 10
-601.8583346966
 20
457.5491242152
 30
0.0
 11
-601.7988939458
 21
457.662360039
 31
0.0
  0
LINE
  5
13D
  8
1
  6
CONTINUOUS
 62
     7
 10
-610.5800452216
 20
458.5098131347
 30
0.0
 11
-610.578985866
 21
458.4872234631
 31
0.0
  0
LINE
  5
13E
  8
1
  6
CONTINUOUS
 62
     7
 10
-610.578985866
 20
458.4872234631
 30
0.0
 11
-610.6597232463
 21
458.1324155905
 31
0.0
  0
LINE
  5
13F
  8
1
  6
CONTINUOUS
 62
     7
 10
-610.6597232463
 20
457.7288619579
 30
0.0
 11
-610.578985866
 21
457.3740540853
 31
0.0
  0
LINE
  5
140
  8
1
  6
CONTINUOUS
 62
     7
 10
-582.0324923521
 20
452.5306387138
 30
0.0
 11
-612.5324923521
 21
452.5306387138
 31
0.0
  0
LINE
  5
141
  8
1
  6
CONTINUOUS
 62
     7
 10
-610.658725123
 20
520.0336484038
 30
0.0
 11
-610.6597232463
 21
520.023542433
 31
0.0
  0
LINE
  5
142
  8
1
  6
CONTINUOUS
 62
     7
 10
-606.9824923521
 20
428.0306387138
 30
0.0
 11
-587.5824923521
 21
428.0306387138
 31
0.0
  0
LINE
  5
143
  8
1
  6
CONTINUOUS
 62
     7
 10
-610.6597232463
 20
518.3377349945
 30
0.0
 11
-610.6587250744
 21
518.3276289709
 31
0.0
  0
LINE
  5
144
  8
1
  6
CONTINUOUS
 62
     7
 10
-610.5753598286
 20
458.5313036177
 30
0.0
 11
-610.5800452216
 21
458.5098131347
 31
0.0
  0
LINE
  5
145
  8
1
  6
CONTINUOUS
 62
     7
 10
-610.6597232463
 20
518.3377349945
 30
0.0
 11
-610.578985866
 21
517.8768260479
 31
0.0
  0
LINE
  5
146
  8
1
  6
CONTINUOUS
 62
     7
 10
-610.578985866
 20
457.3740540853
 30
0.0
 11
-610.5800468293
 21
457.3514839859
 31
0.0
  0
CIRCLE
  5
147
  8
1
  6
CONTINUOUS
 62
     7
 10
-597.2824923521
 20
506.5306387138
 30
0.0
 40
11.65
  0
LINE
  5
148
  8
1
  6
CONTINUOUS
 62
     7
 10
-610.658725123
 20
494.7336484038
 30
0.0
 11
-610.6597232463
 21
494.723542433
 31
0.0
  0
ARC
  5
149
  8
1
  6
CONTINUOUS
 62
     7
 10
-586.323898736
 20
451.9958757147
 30
0.0
 40
9.0022856938
 50
93.5756305129
 51
135.8524260785
  0
LINE
  5
14A
  8
1
  6
CONTINUOUS
 62
     7
 10
-606.9824923521
 20
423.0306387138
 30
0.0
 11
-587.5824923521
 21
423.0306387138
 31
0.0
  0
LINE
  5
14B
  8
1
  6
CONTINUOUS
 62
     7
 10
-610.5778147589
 20
520.4946813132
 30
0.0
 11
-610.578985866
 21
520.4844513797
 31
0.0
  0
LINE
  5
14C
  8
1
  6
CONTINUOUS
 62
     7
 10
-610.6757085707
 20
517.9195463519
 30
0.0
 11
-610.6751988105
 21
517.9171448929
 31
0.0
  0
LINE
  5
14D
  8
1
  6
CONTINUOUS
 62
     7
 10
-608.7824923521
 20
460.7814460671
 30
0.0
 11
-608.7824923521
 21
455.1798313604
 31
0.0
  0
LINE
  5
14E
  8
1
  6
CONTINUOUS
 62
     7
 10
-610.5800468293
 20
457.3514839859
 30
0.0
 11
-610.5753731203
 21
457.3300105643
 31
0.0
  0
LINE
  5
14F
  8
1
  6
CONTINUOUS
 62
     7
 10
-608.7824923521
 20
518.011601217
 30
0.0
 11
-608.7824923521
 21
521.8306387138
 31
0.0
  0
LINE
  5
150
  8
1
  6
CONTINUOUS
 62
     7
 10
-592.816906124
 20
458.1605553517
 30
0.0
 11
-592.8347815209
 21
458.0503286802
 31
0.0
  0
LINE
  5
151
  8
1
  6
CONTINUOUS
 62
     7
 10
-608.7824923521
 20
491.2306387138
 30
0.0
 11
-608.7824923521
 21
495.0496762106
 31
0.0
  0
LINE
  5
152
  8
1
  6
CONTINUOUS
 62
     7
 10
-610.6757085707
 20
492.6195463519
 30
0.0
 11
-610.6751988105
 21
492.6171448929
 31
0.0
  0
LINE
  5
153
  8
1
  6
CONTINUOUS
 62
     7
 10
-592.8347815209
 20
458.0503286802
 30
0.0
 11
-592.8336178295
 21
457.9146936908
 31
0.0
  0
LINE
  5
154
  8
1
  6
CONTINUOUS
 62
     7
 10
-592.8146835242
 20
457.8058939213
 30
0.0
 11
-592.7797891384
 21
457.6964845459
 31
0.0
  0
LINE
  5
155
  8
1
  6
CONTINUOUS
 62
     7
 10
-592.7797891384
 20
457.6964845459
 30
0.0
 11
-592.7289346721
 21
457.5866190315
 31
0.0
  0
LINE
  5
156
  8
1
  6
CONTINUOUS
 62
     7
 10
-606.6824923521
 20
419.0306387138
 30
0.0
 11
-587.8824923521
 21
419.0306387138
 31
0.0
  0
LINE
  5
157
  8
1
  6
CONTINUOUS
 62
     7
 10
-585.9313569044
 20
454.9806387141
 30
0.0
 11
-585.9439130953
 21
454.98246032
 31
0.0
  0
LINE
  5
158
  8
1
  6
CONTINUOUS
 62
     7
 10
-606.8324923521
 20
421.0306387138
 30
0.0
 11
-587.7324923521
 21
421.0306387138
 31
0.0
  0
LINE
  5
159
  8
1
  6
CONTINUOUS
 62
     7
 10
-585.7824923521
 20
491.3806387138
 30
0.0
 11
-585.7824923521
 21
495.0496762106
 31
0.0
  0
ARC
  5
15A
  8
1
  6
CONTINUOUS
 62
     7
 10
-586.1918469975
 20
464.3914035097
 30
0.0
 40
9.4360270802
 50
226.1494518242
 51
265.8065034535001
  0
LINE
  5
15B
  8
1
  6
CONTINUOUS
 62
     7
 10
-601.7988939458
 20
457.662360039
 30
0.0
 11
-601.7585556265
 21
457.7684054306
 31
0.0
  0
LINE
  5
15C
  8
1
  6
CONTINUOUS
 62
     7
 10
-601.7585556265
 20
457.7684054306
 30
0.0
 11
-601.7311047005
 21
457.8931245347
 31
0.0
  0
LINE
  5
15D
  8
1
  6
CONTINUOUS
 62
     7
 10
-610.578985866
 20
459.6323238662
 30
0.0
 11
-610.6597232463
 21
459.1888140255
 31
0.0
  0
LINE
  5
15E
  8
1
  6
CONTINUOUS
 62
     7
 10
-610.578985866
 20
517.8768260479
 30
0.0
 11
-610.5778134628
 21
517.8665948313
 31
0.0
  0
LINE
  5
15F
  8
1
  6
CONTINUOUS
 62
     7
 10
-592.8336178295
 20
457.9146936908
 30
0.0
 11
-592.8146835242
 21
457.8058939213
 31
0.0
  0
LINE
  5
160
  8
1
  6
CONTINUOUS
 62
     7
 10
-610.6597232463
 20
493.0377349945
 30
0.0
 11
-610.6587250744
 21
493.0276289709
 31
0.0
  0
LINE
  5
161
  8
1
  6
CONTINUOUS
 62
     7
 10
-610.5802958231
 20
456.2349661089
 30
0.0
 11
-610.5262849917
 21
455.9870677839
 31
0.0
  0
CIRCLE
  5
162
  8
1
  6
CONTINUOUS
 62
     7
 10
-597.2824923521
 20
506.5306387138
 30
0.0
 40
4.6
  0
LINE
  5
163
  8
1
  6
CONTINUOUS
 62
     7
 10
-610.6597232463
 20
459.1888140255
 30
0.0
 11
-610.6610498188
 21
459.180081585
 31
0.0
  0
LINE
  5
164
  8
1
  6
CONTINUOUS
 62
     7
 10
-591.8324923521
 20
418.0306387138
 30
0.0
 11
-602.7324923521
 21
418.0306387138
 31
0.0
  0
LINE
  5
165
  8
1
  6
CONTINUOUS
 62
     7
 10
-601.8409106335
 20
522.153665561
 30
0.0
 11
-601.7255235568
 21
522.1806345412
 31
0.0
  0
LINE
  5
166
  8
1
  6
CONTINUOUS
 62
     7
 10
-592.7240740706
 20
490.9076118666
 30
0.0
 11
-592.8394611474
 21
490.8806428864
 31
0.0
  0
LINE
  5
167
  8
1
  6
CONTINUOUS
 62
     7
 10
-610.578985866
 20
520.4844513797
 30
0.0
 11
-610.6597232463
 21
520.023542433
 31
0.0
  0
LINE
  5
168
  8
1
  6
CONTINUOUS
 62
     7
 10
-585.7824923521
 20
521.6806387138
 30
0.0
 11
-585.7824923521
 21
518.011601217
 31
0.0
  0
LINE
  5
169
  8
1
  6
CONTINUOUS
 62
     7
 10
-592.7834728014
 20
458.266047212
 30
0.0
 11
-592.816906124
 21
458.1605553517
 31
0.0
  0
LINE
  5
16A
  8
1
  6
CONTINUOUS
 62
     7
 10
-610.578985866
 20
520.8242310857
 30
0.0
 11
-610.6597232463
 21
520.5169584546
 31
0.0
  0
LINE
  5
16B
  8
1
  6
CONTINUOUS
 62
     7
 10
-610.6597232463
 20
457.7288619579
 30
0.0
 11
-610.6609247016
 21
457.7081320895
 31
0.0
  0
CIRCLE
  5
16C
  8
1
  6
CONTINUOUS
 62
     7
 10
-597.2824923521
 20
506.5306387138
 30
0.0
 40
14.65
  0
ARC
  5
16D
  8
1
  6
CONTINUOUS
 62
     7
 10
-790.3824923521
 20
519.5306387138
 30
0.0
 40
0.75
 50
0.0
 51
180.0
  0
ARC
  5
16E
  8
1
  6
CONTINUOUS
 62
     7
 10
-710.6324923521
 20
484.1306387138
 30
0.0
 40
1.5
 50
0.0
 51
85.90395624180002
  0
LINE
  5
16F
  8
1
  6
CONTINUOUS
 62
     7
 10
-604.2824923521
 20
448.1306387138
 30
0.0
 11
-604.2824923521
 21
443.1306387138
 31
0.0
  0
ARC
  5
170
  8
1
  6
CONTINUOUS
 62
     7
 10
-801.2824923521
 20
491.7806387138
 30
0.0
 40
1.5
 50
270.0
 51
355.9039562418
  0
LINE
  5
171
  8
1
  6
CONTINUOUS
 62
     7
 10
-741.6324923521
 20
484.1306387138
 30
0.0
 11
-741.6324923521
 21
453.5306387138
 31
0.0
  0
LINE
  5
172
  8
1
  6
CONTINUOUS
 62
     7
 10
-791.1324923521
 20
519.5306387138
 30
0.0
 11
-797.7914323411
 21
519.5306387138
 31
0.0
  0
LINE
  5
173
  8
1
  6
CONTINUOUS
 62
     7
 10
-608.2824923521
 20
438.5912467784
 30
0.0
 11
-586.2824923521
 21
438.5912467784
 31
0.0
  0
ARC
  5
174
  8
1
  6
CONTINUOUS
 62
     7
 10
-831.8824923521
 20
491.2806387138
 30
0.0
 40
1.0
 50
180.0
 51
270.0
  0
LINE
  5
175
  8
1
  6
CONTINUOUS
 62
     7
 10
-590.2824923521
 20
443.1306387138
 30
0.0
 11
-590.2824923521
 21
448.1306387138
 31
0.0
  0
LINE
  5
176
  8
1
  6
CONTINUOUS
 62
     7
 10
-789.6324923521
 20
493.5306387138
 30
0.0
 11
-781.3824923521
 21
493.5306387138
 31
0.0
  0
ARC
  5
177
  8
1
  6
CONTINUOUS
 62
     7
 10
-717.6185603296
 20
520.5306387138
 30
0.0
 40
2.0
 50
270.0
 51
318.1896851042
  0
LINE
  5
178
  8
1
  6
CONTINUOUS
 62
     7
 10
-770.8824923521
 20
489.0306387138
 30
0.0
 11
-745.8824923521
 21
489.0306387138
 31
0.0
  0
ARC
  5
179
  8
1
  6
CONTINUOUS
 62
     7
 10
-797.7914323411
 20
491.5306387138
 30
0.0
 40
2.0
 50
90.0
 51
175.9039562418
  0
LINE
  5
17A
  8
1
  6
CONTINUOUS
 62
     7
 10
-801.2824923521
 20
522.7806387138
 30
0.0
 11
-831.8824923521
 21
522.7806387138
 31
0.0
  0
ARC
  5
17B
  8
1
  6
CONTINUOUS
 62
     7
 10
-706.473552363
 20
491.5306387138
 30
0.0
 40
2.0
 50
4.096043758200001
 51
90.0
  0
ARC
  5
17C
  8
1
  6
CONTINUOUS
 62
     7
 10
-801.2824923521
 20
521.2806387138
 30
0.0
 40
1.5
 50
4.096043758200001
 51
90.0
  0
ARC
  5
17D
  8
1
  6
CONTINUOUS
 62
     7
 10
-710.3824923521
 20
487.6216987247
 30
0.0
 40
2.0
 50
180.0
 51
265.9039562418
  0
LINE
  5
17E
  8
1
  6
CONTINUOUS
 62
     7
 10
-770.8824923521
 20
524.0306387138
 30
0.0
 11
-781.3824923521
 21
519.5306387138
 31
0.0
  0
ARC
  5
17F
  8
1
  6
CONTINUOUS
 62
     7
 10
-713.8824923521
 20
519.5306387138
 30
0.0
 40
0.75
 50
0.0
 51
180.0
  0
LINE
  5
180
  8
1
  6
CONTINUOUS
 62
     7
 10
-714.6324923521
 20
519.5306387138
 30
0.0
 11
-715.3824923521
 21
519.5306387138
 31
0.0
  0
ARC
  5
181
  8
1
  6
CONTINUOUS
 62
     7
 10
-740.3824923521
 20
487.6216987247
 30
0.0
 40
2.0
 50
274.0960437582
 51
0.0
  0
ARC
  5
182
  8
1
  6
CONTINUOUS
 62
     7
 10
-740.1324923521
 20
484.1306387138
 30
0.0
 40
1.5
 50
94.0960437582
 51
180.0
  0
LINE
  5
183
  8
1
  6
CONTINUOUS
 62
     7
 10
-831.8824923521
 20
490.2806387138
 30
0.0
 11
-801.2824923521
 21
490.2806387138
 31
0.0
  0
ARC
  5
184
  8
1
  6
CONTINUOUS
 62
     7
 10
-797.7914323411
 20
521.5306387138
 30
0.0
 40
2.0
 50
184.0960437582
 51
270.0
  0
ARC
  5
185
  8
1
  6
CONTINUOUS
 62
     7
 10
-736.8824923521
 20
519.5306387138
 30
0.0
 40
0.75
 50
0.0
 51
180.0
  0
ARC
  5
186
  8
1
  6
CONTINUOUS
 62
     7
 10
-790.3824923521
 20
493.5306387138
 30
0.0
 40
0.75
 50
180.0
 51
0.0
  0
LINE
  5
187
  8
1
  6
CONTINUOUS
 62
     7
 10
-737.6324923521
 20
519.5306387138
 30
0.0
 11
-739.3824923521
 21
519.5306387138
 31
0.0
  0
LINE
  5
188
  8
1
  6
CONTINUOUS
 62
     7
 10
-710.3824923521
 20
493.5306387138
 30
0.0
 11
-706.473552363
 21
493.5306387138
 31
0.0
  0
ARC
  5
189
  8
1
  6
CONTINUOUS
 62
     7
 10
-715.3824923521
 20
518.5306387138
 30
0.0
 40
1.0
 50
90.0
 51
138.1896851042
  0
LINE
  5
18A
  8
1
  6
CONTINUOUS
 62
     7
 10
-712.3824923521
 20
487.6216987247
 30
0.0
 11
-712.3824923521
 21
491.5306387138
 31
0.0
  0
ARC
  5
18B
  8
1
  6
CONTINUOUS
 62
     7
 10
-735.3824923521
 20
518.5306387138
 30
0.0
 40
1.0
 50
41.81031489579999
 51
90.0
  0
LINE
  5
18C
  8
1
  6
CONTINUOUS
 62
     7
 10
-797.7914323411
 20
493.5306387138
 30
0.0
 11
-791.1324923521
 21
493.5306387138
 31
0.0
  0
ARC
  5
18D
  8
1
  6
CONTINUOUS
 62
     7
 10
-733.1464243746
 20
520.5306387138
 30
0.0
 40
2.0
 50
221.8103148958
 51
270.0
  0
LINE
  5
18E
  8
1
  6
CONTINUOUS
 62
     7
 10
-717.6185603296
 20
518.5306387138
 30
0.0
 11
-733.1464243746
 21
518.5306387138
 31
0.0
  0
ARC
  5
18F
  8
1
  6
CONTINUOUS
 62
     7
 10
-740.3824923521
 20
491.5306387138
 30
0.0
 40
2.0
 50
0.0
 51
60.00252309409998
  0
ARC
  5
190
  8
1
  6
CONTINUOUS
 62
     7
 10
-710.3824923521
 20
491.5306387138
 30
0.0
 40
2.0
 50
90.0
 51
180.0
  0
LINE
  5
191
  8
1
  6
CONTINUOUS
 62
     7
 10
-745.8824923521
 20
524.0306387138
 30
0.0
 11
-770.8824923521
 21
524.0306387138
 31
0.0
  0
LINE
  5
192
  8
1
  6
CONTINUOUS
 62
     7
 10
-607.5824923521
 20
443.1306387138
 30
0.0
 11
-586.9824923521
 21
443.1306387138
 31
0.0
  0
LINE
  5
193
  8
1
  6
CONTINUOUS
 62
     7
 10
-586.9824923521
 20
448.1306387138
 30
0.0
 11
-607.5824923521
 21
448.1306387138
 31
0.0
  0
ARC
  5
194
  8
1
  6
CONTINUOUS
 62
     7
 10
-831.8824923521
 20
521.7806387138
 30
0.0
 40
1.0
 50
90.0
 51
180.0
  0
LINE
  5
195
  8
1
  6
CONTINUOUS
 62
     7
 10
-706.473552363
 20
519.5306387138
 30
0.0
 11
-713.1324923521
 21
519.5306387138
 31
0.0
  0
LINE
  5
196
  8
1
  6
CONTINUOUS
 62
     7
 10
-739.3824923521
 20
519.5306387138
 30
0.0
 11
-745.8824923521
 21
524.0306387138
 31
0.0
  0
LINE
  5
197
  8
1
  6
CONTINUOUS
 62
     7
 10
-735.3824923521
 20
519.5306387138
 30
0.0
 11
-736.1324923521
 21
519.5306387138
 31
0.0
  0
ARC
  5
198
  8
1
  6
CONTINUOUS
 62
     7
 10
-706.473552363
 20
521.5306387138
 30
0.0
 40
2.0
 50
270.0
 51
355.9039562418
  0
LINE
  5
199
  8
1
  6
CONTINUOUS
 62
     7
 10
-745.8824923521
 20
489.0306387138
 30
0.0
 11
-739.3824923521
 21
493.539700773
 31
0.0
  0
LINE
  5
19A
  8
1
  6
CONTINUOUS
 62
     7
 10
-738.3824923521
 20
491.5306387138
 30
0.0
 11
-738.3824923521
 21
487.6216987247
 31
0.0
  0
LINE
  5
19B
  8
1
  6
CONTINUOUS
 62
     7
 10
-781.3824923521
 20
519.5306387138
 30
0.0
 11
-789.6324923521
 21
519.5306387138
 31
0.0
  0
CIRCLE
  5
19C
  8
1
  6
CONTINUOUS
 62
     7
 10
-597.2824923521
 20
445.6306387138
 30
0.0
 40
2.5
  0
LINE
  5
19D
  8
1
  6
CONTINUOUS
 62
     7
 10
-781.3824923521
 20
493.539700773
 30
0.0
 11
-770.8824923521
 21
489.0306387138
 31
0.0
  0
LINE
  5
19E
  8
1
  6
CONTINUOUS
 62
     7
 10
-714.8594818987
 20
496.1462454296
 30
0.0
 11
-714.8915412267
 21
496.1090797589
 31
0.0
  0
LINE
  5
19F
  8
1
  6
CONTINUOUS
 62
     7
 10
-714.8915412267
 20
496.1090797589
 30
0.0
 11
-714.9253855709
 21
496.0735319326
 31
0.0
  0
LINE
  5
1A0
  8
1
  6
CONTINUOUS
 62
     7
 10
-714.9609333972
 20
496.0396875884
 30
0.0
 11
-714.9980990679
 21
496.0076282604
 31
0.0
  0
LINE
  5
1A1
  8
1
  6
CONTINUOUS
 62
     7
 10
-714.9980990679
 20
496.0076282604
 30
0.0
 11
-715.0367930476
 21
495.9774311823
 31
0.0
  0
LINE
  5
1A2
  8
1
  6
CONTINUOUS
 62
     7
 10
-715.0367930476
 20
495.9774311823
 30
0.0
 11
-715.0769221191
 21
495.9491691015
 31
0.0
  0
LINE
  5
1A3
  8
1
  6
CONTINUOUS
 62
     7
 10
-714.9253855709
 20
496.0735319326
 30
0.0
 11
-714.9609333972
 21
496.0396875884
 31
0.0
  0
LINE
  5
1A4
  8
1
  6
CONTINUOUS
 62
     7
 10
-715.0769221191
 20
495.9491691015
 30
0.0
 11
-715.1183896079
 21
495.9229101038
 31
0.0
  0
LINE
  5
1A5
  8
1
  6
CONTINUOUS
 62
     7
 10
-714.8292848206
 20
496.1849394093
 30
0.0
 11
-714.8594818987
 21
496.1462454296
 31
0.0
  0
LINE
  5
1A6
  8
1
  6
CONTINUOUS
 62
     7
 10
-655.3824923521
 20
493.7306387138
 30
0.0
 11
-654.0324923521
 21
493.7306387138
 31
0.0
  0
LINE
  5
1A7
  8
1
  6
CONTINUOUS
 62
     7
 10
-714.3824923521
 20
452.3306387138
 30
0.0
 11
-714.5824923521
 21
452.5306387138
 31
0.0
  0
LINE
  5
1A8
  8
1
  6
CONTINUOUS
 62
     7
 10
-736.3824923521
 20
452.3306387138
 30
0.0
 11
-736.3824923521
 21
448.8306387138
 31
0.0
  0
LINE
  5
1A9
  8
1
  6
CONTINUOUS
 62
     7
 10
-714.3824923521
 20
448.8306387138
 30
0.0
 11
-714.3824923521
 21
452.3306387138
 31
0.0
  0
LINE
  5
1AA
  8
1
  6
CONTINUOUS
 62
     7
 10
-735.0824923521
 20
420.0306387138
 30
0.0
 11
-734.7824923521
 21
419.0306387138
 31
0.0
  0
ARC
  5
1AB
  8
1
  6
CONTINUOUS
 62
     7
 10
-734.8324923521
 20
421.1806387138
 30
0.0
 40
0.15
 50
270.0
 51
0.0
  0
LINE
  5
1AC
  8
1
  6
CONTINUOUS
 62
     7
 10
-736.3824923521
 20
448.8306387138
 30
0.0
 11
-735.6824923521
 21
448.1306387138
 31
0.0
  0
LINE
  5
1AD
  8
1
  6
CONTINUOUS
 62
     7
 10
-715.3422076748
 20
495.823698378
 30
0.0
 11
-715.3895121722
 21
495.8106074606
 31
0.0
  0
LINE
  5
1AE
  8
1
  6
CONTINUOUS
 62
     7
 10
-735.0824923521
 20
423.0306387138
 30
0.0
 11
-734.6824923521
 21
422.0306387138
 31
0.0
  0
LINE
  5
1AF
  8
1
  6
CONTINUOUS
 62
     7
 10
-715.1324923521
 20
428.5806387138
 30
0.0
 11
-715.1324923521
 21
434.7673689067
 31
0.0
  0
ARC
  5
1B0
  8
1
  6
CONTINUOUS
 62
     7
 10
-719.9324923521
 20
418.8306387138
 30
0.0
 40
0.8
 50
270.0
 51
0.0
  0
ARC
  5
1B1
  8
1
  6
CONTINUOUS
 62
     7
 10
-730.8324923521
 20
418.8306387138
 30
0.0
 40
0.8
 50
180.0
 51
270.0
  0
LINE
  5
1B2
  8
1
  6
CONTINUOUS
 62
     7
 10
-667.6824923521
 20
493.2806387138
 30
0.0
 11
-666.9824923521
 21
493.9806387138
 31
0.0
  0
LINE
  5
1B3
  8
1
  6
CONTINUOUS
 62
     7
 10
-666.9824923521
 20
519.0806387138
 30
0.0
 11
-667.6824923521
 21
519.7806387138
 31
0.0
  0
LINE
  5
1B4
  8
1
  6
CONTINUOUS
 62
     7
 10
-667.6824923521
 20
519.7806387138
 30
0.0
 11
-671.1824923521
 21
519.7806387138
 31
0.0
  0
ARC
  5
1B5
  8
1
  6
CONTINUOUS
 62
     7
 10
-715.9324923521
 20
421.1806387138
 30
0.0
 40
0.15
 50
180.0
 51
270.0
  0
LINE
  5
1B6
  8
1
  6
CONTINUOUS
 62
     7
 10
-655.3824923521
 20
519.3306387138
 30
0.0
 11
-656.6188571908
 21
519.7806387138
 31
0.0
  0
LINE
  5
1B7
  8
1
  6
CONTINUOUS
 62
     7
 10
-716.0824923521
 20
421.1806387138
 30
0.0
 11
-716.0824923521
 21
422.0306387138
 31
0.0
  0
LINE
  5
1B8
  8
1
  6
CONTINUOUS
 62
     7
 10
-671.1824923521
 20
493.2806387138
 30
0.0
 11
-667.6824923521
 21
493.2806387138
 31
0.0
  0
LINE
  5
1B9
  8
1
  6
CONTINUOUS
 62
     7
 10
-671.1824923521
 20
519.7806387138
 30
0.0
 11
-671.3824923521
 21
519.5806387138
 31
0.0
  0
LINE
  5
1BA
  8
1
  6
CONTINUOUS
 62
     7
 10
-736.3824923521
 20
438.5912467784
 30
0.0
 11
-736.2355661442
 21
438.1875703399
 31
0.0
  0
LINE
  5
1BB
  8
1
  6
CONTINUOUS
 62
     7
 10
-735.6324923521
 20
434.7673689067
 30
0.0
 11
-735.6324923521
 21
428.5806387138
 31
0.0
  0
LINE
  5
1BC
  8
1
  6
CONTINUOUS
 62
     7
 10
-715.0824923521
 20
448.1306387138
 30
0.0
 11
-714.3824923521
 21
448.8306387138
 31
0.0
  0
LINE
  5
1BD
  8
1
  6
CONTINUOUS
 62
     7
 10
-739.3824923521
 20
493.2626895213
 30
0.0
 11
-739.3824923521
 21
494.3940130268
 31
0.0
  0
LINE
  5
1BE
  8
1
  6
CONTINUOUS
 62
     7
 10
-715.6824923521
 20
420.0306387138
 30
0.0
 11
-715.6824923521
 21
420.8806387138
 31
0.0
  0
LINE
  5
1BF
  8
1
  6
CONTINUOUS
 62
     7
 10
-716.0824923521
 20
422.0306387138
 30
0.0
 11
-715.6824923521
 21
423.0306387138
 31
0.0
  0
LINE
  5
1C0
  8
1
  6
CONTINUOUS
 62
     7
 10
-714.52941856
 20
438.1875703399
 30
0.0
 11
-714.3824923521
 21
438.5912467784
 31
0.0
  0
LINE
  5
1C1
  8
1
  6
CONTINUOUS
 62
     7
 10
-656.6188571908
 20
493.2806387138
 30
0.0
 11
-655.3824923521
 21
493.7306387138
 31
0.0
  0
LINE
  5
1C2
  8
1
  6
CONTINUOUS
 62
     7
 10
-661.2824923521
 20
493.2806387138
 30
0.0
 11
-656.6188571908
 21
493.2806387138
 31
0.0
  0
LINE
  5
1C3
  8
1
  6
CONTINUOUS
 62
     7
 10
-715.6824923521
 20
423.0306387138
 30
0.0
 11
-715.6824923521
 21
428.0306387138
 31
0.0
  0
LINE
  5
1C4
  8
1
  6
CONTINUOUS
 62
     7
 10
-656.6188571908
 20
519.7806387138
 30
0.0
 11
-661.2824923521
 21
519.7806387138
 31
0.0
  0
LINE
  5
1C5
  8
1
  6
CONTINUOUS
 62
     7
 10
-735.6824923521
 20
443.1306387138
 30
0.0
 11
-736.3824923521
 21
442.4306387138
 31
0.0
  0
LINE
  5
1C6
  8
1
  6
CONTINUOUS
 62
     7
 10
-734.9324923521
 20
421.0306387138
 30
0.0
 11
-735.0824923521
 21
420.8806387138
 31
0.0
  0
LINE
  5
1C7
  8
1
  6
CONTINUOUS
 62
     7
 10
-719.1324923521
 20
418.8306387138
 30
0.0
 11
-719.1324923521
 21
419.0306387138
 31
0.0
  0
LINE
  5
1C8
  8
1
  6
CONTINUOUS
 62
     7
 10
-661.9824923521
 20
493.9806387138
 30
0.0
 11
-661.2824923521
 21
493.2806387138
 31
0.0
  0
LINE
  5
1C9
  8
1
  6
CONTINUOUS
 62
     7
 10
-671.3824923521
 20
493.4806387138
 30
0.0
 11
-671.1824923521
 21
493.2806387138
 31
0.0
  0
LINE
  5
1CA
  8
1
  6
CONTINUOUS
 62
     7
 10
-653.7324923521
 20
493.3306387138
 30
0.0
 11
-652.8057265457
 21
493.3306387138
 31
0.0
  0
ARC
  5
1CB
  8
1
  6
CONTINUOUS
 62
     7
 10
-745.6324923521
 20
434.7673689067
 30
0.0
 40
10.0
 50
0.0
 51
20.0
  0
LINE
  5
1CC
  8
1
  6
CONTINUOUS
 62
     7
 10
-736.3824923521
 20
442.4306387138
 30
0.0
 11
-736.3824923521
 21
438.5912467784
 31
0.0
  0
LINE
  5
1CD
  8
1
  6
CONTINUOUS
 62
     7
 10
-731.6324923521
 20
419.0306387138
 30
0.0
 11
-731.6324923521
 21
418.8306387138
 31
0.0
  0
LINE
  5
1CE
  8
1
  6
CONTINUOUS
 62
     7
 10
-652.8057265457
 20
493.3306387138
 30
0.0
 11
-652.5394239783
 21
493.4275649216
 31
0.0
  0
LINE
  5
1CF
  8
1
  6
CONTINUOUS
 62
     7
 10
-652.5394239783
 20
519.6337125059
 30
0.0
 11
-652.8057265457
 21
519.7306387138
 31
0.0
  0
LINE
  5
1D0
  8
1
  6
CONTINUOUS
 62
     7
 10
-714.3824923521
 20
442.4306387138
 30
0.0
 11
-715.0824923521
 21
443.1306387138
 31
0.0
  0
LINE
  5
1D1
  8
1
  6
CONTINUOUS
 62
     7
 10
-714.3824923521
 20
438.5912467784
 30
0.0
 11
-714.3824923521
 21
442.4306387138
 31
0.0
  0
LINE
  5
1D2
  8
1
  6
CONTINUOUS
 62
     7
 10
-715.4374020301
 20
495.7998534334
 30
0.0
 11
-715.4857618776
 21
495.7914622038
 31
0.0
  0
LINE
  5
1D3
  8
1
  6
CONTINUOUS
 62
     7
 10
-735.0824923521
 20
420.8806387138
 30
0.0
 11
-735.0824923521
 21
420.0306387138
 31
0.0
  0
LINE
  5
1D4
  8
1
  6
CONTINUOUS
 62
     7
 10
-652.8057265457
 20
519.7306387138
 30
0.0
 11
-653.7324923521
 21
519.7306387138
 31
0.0
  0
ARC
  5
1D5
  8
1
  6
CONTINUOUS
 62
     7
 10
-649.119222545
 20
484.0306387138
 30
0.0
 40
10.0
 50
90.0
 51
110.0
  0
ARC
  5
1D6
  8
1
  6
CONTINUOUS
 62
     7
 10
-649.119222545
 20
529.0306387138
 30
0.0
 40
10.0
 50
250.0
 51
270.0
  0
ARC
  5
1D7
  8
1
  6
CONTINUOUS
 62
     7
 10
-705.1324923521
 20
434.7673689067
 30
0.0
 40
10.0
 50
160.0
 51
180.0
  0
ARC
  5
1D8
  8
1
  6
CONTINUOUS
 62
     7
 10
-654.0324923521
 20
493.5806387138
 30
0.0
 40
0.15
 50
0.0
 51
90.0
  0
LINE
  5
1D9
  8
1
  6
CONTINUOUS
 62
     7
 10
-715.6824923521
 20
420.8806387138
 30
0.0
 11
-715.8324923521
 21
421.0306387138
 31
0.0
  0
LINE
  5
1DA
  8
1
  6
CONTINUOUS
 62
     7
 10
-734.6824923521
 20
422.0306387138
 30
0.0
 11
-734.6824923521
 21
421.1806387138
 31
0.0
  0
LINE
  5
1DB
  8
1
  6
CONTINUOUS
 62
     7
 10
-653.8824923521
 20
493.4806387138
 30
0.0
 11
-653.7324923521
 21
493.3306387138
 31
0.0
  0
ARC
  5
1DC
  8
1
  6
CONTINUOUS
 62
     7
 10
-654.0324923521
 20
519.4806387138
 30
0.0
 40
0.15
 50
270.0
 51
0.0
  0
LINE
  5
1DD
  8
1
  6
CONTINUOUS
 62
     7
 10
-653.7324923521
 20
519.7306387138
 30
0.0
 11
-653.8824923521
 21
519.5806387138
 31
0.0
  0
LINE
  5
1DE
  8
1
  6
CONTINUOUS
 62
     7
 10
-654.0324923521
 20
519.3306387138
 30
0.0
 11
-655.3824923521
 21
519.3306387138
 31
0.0
  0
LINE
  5
1DF
  8
1
  6
CONTINUOUS
 62
     7
 10
-735.0824923521
 20
428.0306387138
 30
0.0
 11
-735.0824923521
 21
423.0306387138
 31
0.0
  0
LINE
  5
1E0
  8
1
  6
CONTINUOUS
 62
     7
 10
-736.1824923521
 20
452.5306387138
 30
0.0
 11
-736.3824923521
 21
452.3306387138
 31
0.0
  0
LINE
  5
1E1
  8
1
  6
CONTINUOUS
 62
     7
 10
-735.6324923521
 20
428.5806387138
 30
0.0
 11
-735.0824923521
 21
428.0306387138
 31
0.0
  0
LINE
  5
1E2
  8
1
  6
CONTINUOUS
 62
     7
 10
-715.9824923521
 20
419.0306387138
 30
0.0
 11
-715.6824923521
 21
420.0306387138
 31
0.0
  0
LINE
  5
1E3
  8
1
  6
CONTINUOUS
 62
     7
 10
-715.3895121722
 20
495.8106074606
 30
0.0
 11
-715.4374020301
 21
495.7998534334
 31
0.0
  0
LINE
  5
1E4
  8
1
  6
CONTINUOUS
 62
     7
 10
-715.6824923521
 20
428.0306387138
 30
0.0
 11
-715.1324923521
 21
428.5806387138
 31
0.0
  0
LINE
  5
1E5
  8
1
  6
CONTINUOUS
 62
     7
 10
-661.2824923521
 20
519.7806387138
 30
0.0
 11
-661.9824923521
 21
519.0806387138
 31
0.0
  0
LINE
  5
1E6
  8
1
  6
CONTINUOUS
 62
     7
 10
-864.5619028054
 20
494.0306387138
 30
0.0
 11
-855.1457621592
 21
494.0306387138
 31
0.0
  0
LINE
  5
1E7
  8
1
  6
CONTINUOUS
 62
     7
 10
-842.9824923521
 20
493.2806387138
 30
0.0
 11
-842.2824923521
 21
493.9806387138
 31
0.0
  0
LINE
  5
1E8
  8
1
  6
CONTINUOUS
 62
     7
 10
-855.1457621592
 20
519.0306387138
 30
0.0
 11
-864.5619028054
 21
519.0306387138
 31
0.0
  0
ARC
  5
1E9
  8
1
  6
CONTINUOUS
 62
     7
 10
-855.1457621592
 20
529.0306387138
 30
0.0
 40
10.0
 50
270.0
 51
289.9999999999999
  0
LINE
  5
1EA
  8
1
  6
CONTINUOUS
 62
     7
 10
-832.8824923521
 20
519.5806387138
 30
0.0
 11
-833.0824923521
 21
519.7806387138
 31
0.0
  0
ARC
  5
1EB
  8
1
  6
CONTINUOUS
 62
     7
 10
-672.3824923521
 20
521.7806387138
 30
0.0
 40
1.0
 50
0.0
 51
90.0
  0
ARC
  5
1EC
  8
1
  6
CONTINUOUS
 62
     7
 10
-710.1324923521
 20
453.5306387138
 30
0.0
 40
1.0
 50
270.0
 51
0.0
  0
ARC
  5
1ED
  8
1
  6
CONTINUOUS
 62
     7
 10
-855.1457621592
 20
484.0306387138
 30
0.0
 40
10.0
 50
70.0
 51
90.0
  0
ARC
  5
1EE
  8
1
  6
CONTINUOUS
 62
     7
 10
-850.2324923521
 20
493.5806387138
 30
0.0
 40
0.15
 50
90.0
 51
180.0
  0
ARC
  5
1EF
  8
1
  6
CONTINUOUS
 62
     7
 10
-702.9824923521
 20
521.2806387138
 30
0.0
 40
1.5
 50
90.0
 51
175.9039562418
  0
ARC
  5
1F0
  8
1
  6
CONTINUOUS
 62
     7
 10
-702.9824923521
 20
491.7806387138
 30
0.0
 40
1.5
 50
184.0960437582
 51
270.0
  0
LINE
  5
1F1
  8
1
  6
CONTINUOUS
 62
     7
 10
-709.1324923521
 20
453.5306387138
 30
0.0
 11
-709.1324923521
 21
484.1306387138
 31
0.0
  0
LINE
  5
1F2
  8
1
  6
CONTINUOUS
 62
     7
 10
-851.4592581585
 20
493.3306387138
 30
0.0
 11
-850.5324923521
 21
493.3306387138
 31
0.0
  0
LINE
  5
1F3
  8
1
  6
CONTINUOUS
 62
     7
 10
-833.0824923521
 20
519.7806387138
 30
0.0
 11
-836.5824923521
 21
519.7806387138
 31
0.0
  0
LINE
  5
1F4
  8
1
  6
CONTINUOUS
 62
     7
 10
-836.5824923521
 20
493.2806387138
 30
0.0
 11
-833.0824923521
 21
493.2806387138
 31
0.0
  0
LINE
  5
1F5
  8
1
  6
CONTINUOUS
 62
     7
 10
-836.5824923521
 20
519.7806387138
 30
0.0
 11
-837.2824923521
 21
519.0806387138
 31
0.0
  0
LINE
  5
1F6
  8
1
  6
CONTINUOUS
 62
     7
 10
-634.8824923521
 20
518.1806387138
 30
0.0
 11
-639.7030818988
 21
519.0306387138
 31
0.0
  0
LINE
  5
1F7
  8
1
  6
CONTINUOUS
 62
     7
 10
-634.8824923521
 20
498.5806387138
 30
0.0
 11
-634.6824923521
 21
498.5806387138
 31
0.0
  0
LINE
  5
1F8
  8
1
  6
CONTINUOUS
 62
     7
 10
-837.2824923521
 20
493.9806387138
 30
0.0
 11
-836.5824923521
 21
493.2806387138
 31
0.0
  0
LINE
  5
1F9
  8
1
  6
CONTINUOUS
 62
     7
 10
-842.2824923521
 20
519.0806387138
 30
0.0
 11
-842.9824923521
 21
519.7806387138
 31
0.0
  0
LINE
  5
1FA
  8
1
  6
CONTINUOUS
 62
     7
 10
-851.4592581585
 20
519.7306387138
 30
0.0
 11
-851.7255607259
 21
519.6337125059
 31
0.0
  0
LINE
  5
1FB
  8
1
  6
CONTINUOUS
 62
     7
 10
-848.8824923521
 20
519.3306387138
 30
0.0
 11
-850.2324923521
 21
519.3306387138
 31
0.0
  0
LINE
  5
1FC
  8
1
  6
CONTINUOUS
 62
     7
 10
-842.9824923521
 20
519.7806387138
 30
0.0
 11
-847.6461275133
 21
519.7806387138
 31
0.0
  0
LINE
  5
1FD
  8
1
  6
CONTINUOUS
 62
     7
 10
-847.6461275133
 20
519.7806387138
 30
0.0
 11
-848.8824923521
 21
519.3306387138
 31
0.0
  0
ARC
  5
1FE
  8
1
  6
CONTINUOUS
 62
     7
 10
-869.5824923521
 20
499.3806387138
 30
0.0
 40
0.8
 50
180.0
 51
270.0
  0
LINE
  5
1FF
  8
1
  6
CONTINUOUS
 62
     7
 10
-672.3824923521
 20
522.7806387138
 30
0.0
 11
-702.9824923521
 21
522.7806387138
 31
0.0
  0
ARC
  5
200
  8
1
  6
CONTINUOUS
 62
     7
 10
-634.6824923521
 20
513.6806387138
 30
0.0
 40
0.8
 50
0.0
 51
90.0
  0
LINE
  5
201
  8
1
  6
CONTINUOUS
 62
     7
 10
-639.7030818988
 20
519.0306387138
 30
0.0
 11
-649.119222545
 21
519.0306387138
 31
0.0
  0
LINE
  5
202
  8
1
  6
CONTINUOUS
 62
     7
 10
-869.3824923521
 20
514.4806387138
 30
0.0
 11
-869.5824923521
 21
514.4806387138
 31
0.0
  0
LINE
  5
203
  8
1
  6
CONTINUOUS
 62
     7
 10
-702.9824923521
 20
490.2806387138
 30
0.0
 11
-672.3824923521
 21
490.2806387138
 31
0.0
  0
LINE
  5
204
  8
1
  6
CONTINUOUS
 62
     7
 10
-869.5824923521
 20
498.5806387138
 30
0.0
 11
-869.3824923521
 21
498.5806387138
 31
0.0
  0
ARC
  5
205
  8
1
  6
CONTINUOUS
 62
     7
 10
-672.3824923521
 20
491.2806387138
 30
0.0
 40
1.0
 50
270.0
 51
0.0
  0
LINE
  5
206
  8
1
  6
CONTINUOUS
 62
     7
 10
-649.119222545
 20
494.0306387138
 30
0.0
 11
-639.7030818988
 21
494.0306387138
 31
0.0
  0
ARC
  5
207
  8
1
  6
CONTINUOUS
 62
     7
 10
-740.6324923521
 20
453.5306387138
 30
0.0
 40
1.0
 50
180.0
 51
270.0
  0
LINE
  5
208
  8
1
  6
CONTINUOUS
 62
     7
 10
-851.7255607259
 20
493.4275649216
 30
0.0
 11
-851.4592581585
 21
493.3306387138
 31
0.0
  0
LINE
  5
209
  8
1
  6
CONTINUOUS
 62
     7
 10
-869.3824923521
 20
494.8806387138
 30
0.0
 11
-864.5619028054
 21
494.0306387138
 31
0.0
  0
LINE
  5
20A
  8
1
  6
CONTINUOUS
 62
     7
 10
-850.2324923521
 20
493.7306387138
 30
0.0
 11
-848.8824923521
 21
493.7306387138
 31
0.0
  0
LINE
  5
20B
  8
1
  6
CONTINUOUS
 62
     7
 10
-850.3824923521
 20
519.5806387138
 30
0.0
 11
-850.5324923521
 21
519.7306387138
 31
0.0
  0
LINE
  5
20C
  8
1
  6
CONTINUOUS
 62
     7
 10
-639.7030818988
 20
494.0306387138
 30
0.0
 11
-634.8824923521
 21
494.8806387138
 31
0.0
  0
LINE
  5
20D
  8
1
  6
CONTINUOUS
 62
     7
 10
-634.6824923521
 20
514.4806387138
 30
0.0
 11
-634.8824923521
 21
514.4806387138
 31
0.0
  0
ARC
  5
20E
  8
1
  6
CONTINUOUS
 62
     7
 10
-634.6824923521
 20
499.3806387138
 30
0.0
 40
0.8
 50
270.0
 51
0.0
  0
LINE
  5
20F
  8
1
  6
CONTINUOUS
 62
     7
 10
-848.8824923521
 20
493.7306387138
 30
0.0
 11
-847.6461275133
 21
493.2806387138
 31
0.0
  0
LINE
  5
210
  8
1
  6
CONTINUOUS
 62
     7
 10
-833.0824923521
 20
493.2806387138
 30
0.0
 11
-832.8824923521
 21
493.4806387138
 31
0.0
  0
LINE
  5
211
  8
1
  6
CONTINUOUS
 62
     7
 10
-850.5324923521
 20
519.7306387138
 30
0.0
 11
-851.4592581585
 21
519.7306387138
 31
0.0
  0
LINE
  5
212
  8
1
  6
CONTINUOUS
 62
     7
 10
-847.6461275133
 20
493.2806387138
 30
0.0
 11
-842.9824923521
 21
493.2806387138
 31
0.0
  0
LINE
  5
213
  8
1
  6
CONTINUOUS
 62
     7
 10
-850.5324923521
 20
493.3306387138
 30
0.0
 11
-850.3824923521
 21
493.4806387138
 31
0.0
  0
ARC
  5
214
  8
1
  6
CONTINUOUS
 62
     7
 10
-850.2324923521
 20
519.4806387138
 30
0.0
 40
0.15
 50
180.0
 51
270.0
  0
LINE
  5
215
  8
1
  6
CONTINUOUS
 62
     7
 10
-864.5619028054
 20
519.0306387138
 30
0.0
 11
-869.3824923521
 21
518.1806387138
 31
0.0
  0
ARC
  5
216
  8
1
  6
CONTINUOUS
 62
     7
 10
-869.5824923521
 20
513.6806387138
 30
0.0
 40
0.8
 50
90.0
 51
180.0
  0
LINE
  5
217
  8
1
  6
CONTINUOUS
 62
     7
 10
-715.1183896079
 20
495.9229101038
 30
0.0
 11
-715.1610956153
 21
495.8987174494
 31
0.0
  0
LINE
  5
218
  8
1
  6
CONTINUOUS
 62
     7
 10
-715.1610956153
 20
495.8987174494
 30
0.0
 11
-715.2049372587
 21
495.8766494207
 31
0.0
  0
LINE
  5
219
  8
1
  6
CONTINUOUS
 62
     7
 10
-715.2049372587
 20
495.8766494207
 30
0.0
 11
-715.2498089197
 21
495.8567591813
 31
0.0
  0
LINE
  5
21A
  8
1
  6
CONTINUOUS
 62
     7
 10
-715.2498089197
 20
495.8567591813
 30
0.0
 11
-715.2956024987
 21
495.8390946486
 31
0.0
  0
LINE
  5
21B
  8
1
  6
CONTINUOUS
 62
     7
 10
-715.2956024987
 20
495.8390946486
 30
0.0
 11
-715.3422076748
 21
495.823698378
 31
0.0
  0
LINE
  5
21C
  8
1
  6
CONTINUOUS
 62
     7
 10
-850.3824923521
 20
519.5806387138
 30
0.0
 11
-850.3824923521
 21
493.4806387138
 31
0.0
  0
LINE
  5
21D
  8
1
  6
CONTINUOUS
 62
     7
 10
-735.0824923521
 20
423.0306387138
 30
0.0
 11
-715.6824923521
 21
423.0306387138
 31
0.0
  0
ARC
  5
21E
  8
1
  6
CONTINUOUS
 62
     7
 10
-664.4824923521
 20
481.6820359268
 30
0.0
 40
12.550124721
 50
78.509748277
 51
101.490251723
  0
ARC
  5
21F
  8
1
  6
CONTINUOUS
 62
     7
 10
-664.4824923521
 20
531.3795590743
 30
0.0
 40
12.55043593
 50
258.5100370789
 51
281.4899629211
  0
LINE
  5
220
  8
1
  6
CONTINUOUS
 62
     7
 10
-633.8824923521
 20
499.3806387138
 30
0.0
 11
-633.8824923521
 21
513.6806387138
 31
0.0
  0
LINE
  5
221
  8
1
  6
CONTINUOUS
 62
     7
 10
-719.9324923521
 20
418.0306387138
 30
0.0
 11
-730.8324923521
 21
418.0306387138
 31
0.0
  0
LINE
  5
222
  8
1
  6
CONTINUOUS
 62
     7
 10
-661.9824923521
 20
519.0806387138
 30
0.0
 11
-661.9824923521
 21
493.9806387138
 31
0.0
  0
LINE
  5
223
  8
1
  6
CONTINUOUS
 62
     7
 10
-666.9824923521
 20
519.0806387138
 30
0.0
 11
-666.9824923521
 21
493.9806387138
 31
0.0
  0
LINE
  5
224
  8
1
  6
CONTINUOUS
 62
     7
 10
-656.6188571908
 20
519.7806387138
 30
0.0
 11
-656.6188571908
 21
493.2806387138
 31
0.0
  0
LINE
  5
225
  8
1
  6
CONTINUOUS
 62
     7
 10
-735.0824923521
 20
428.0306387138
 30
0.0
 11
-715.6824923521
 21
428.0306387138
 31
0.0
  0
ARC
  5
226
  8
1
  6
CONTINUOUS
 62
     7
 10
-745.6763243298
 20
445.6306387138
 30
0.0
 40
10.3017803121
 50
345.9554363692
 51
14.04456363079998
  0
LINE
  5
227
  8
1
  6
CONTINUOUS
 62
     7
 10
-734.9324923521
 20
421.0306387138
 30
0.0
 11
-715.8324923521
 21
421.0306387138
 31
0.0
  0
LINE
  5
228
  8
1
  6
CONTINUOUS
 62
     7
 10
-731.2756207985
 20
443.1306387138
 30
0.0
 11
-731.2756207985
 21
448.1306387138
 31
0.0
  0
LINE
  5
229
  8
1
  6
CONTINUOUS
 62
     7
 10
-661.9824923521
 20
513.6462334811
 30
0.0
 11
-666.9824923521
 21
513.6462334811
 31
0.0
  0
LINE
  5
22A
  8
1
  6
CONTINUOUS
 62
     7
 10
-666.9824923521
 20
519.0806387138
 30
0.0
 11
-666.9725399628
 21
519.0786599563
 31
0.0
  0
LINE
  5
22B
  8
1
  6
CONTINUOUS
 62
     7
 10
-719.4893639056
 20
448.1306387138
 30
0.0
 11
-719.4893639056
 21
443.1306387138
 31
0.0
  0
ARC
  5
22C
  8
1
  6
CONTINUOUS
 62
     7
 10
-705.0893009452
 20
445.6306387138
 30
0.0
 40
10.3011588909
 50
165.9545717371
 51
194.0454282628999
  0
LINE
  5
22D
  8
1
  6
CONTINUOUS
 62
     7
 10
-837.2824923521
 20
519.0806387138
 30
0.0
 11
-837.2824923521
 21
493.9806387138
 31
0.0
  0
LINE
  5
22E
  8
1
  6
CONTINUOUS
 62
     7
 10
-734.7824923521
 20
419.0306387138
 30
0.0
 11
-715.9824923521
 21
419.0306387138
 31
0.0
  0
LINE
  5
22F
  8
1
  6
CONTINUOUS
 62
     7
 10
-634.8824923521
 20
518.1806387138
 30
0.0
 11
-634.8824923521
 21
494.8806387138
 31
0.0
  0
LINE
  5
230
  8
1
  6
CONTINUOUS
 62
     7
 10
-715.0824923521
 20
443.1306387138
 30
0.0
 11
-715.082755395
 21
443.1317226719
 31
0.0
  0
LINE
  5
231
  8
1
  6
CONTINUOUS
 62
     7
 10
-653.8824923521
 20
519.5806387138
 30
0.0
 11
-653.8824923521
 21
493.4806387138
 31
0.0
  0
LINE
  5
232
  8
1
  6
CONTINUOUS
 62
     7
 10
-666.9824923521
 20
499.4150439465
 30
0.0
 11
-661.9824923521
 21
499.4150439465
 31
0.0
  0
LINE
  5
233
  8
1
  6
CONTINUOUS
 62
     7
 10
-661.9824923521
 20
493.9806387138
 30
0.0
 11
-661.9886488064
 21
493.9818636488
 31
0.0
  0
LINE
  5
234
  8
1
  6
CONTINUOUS
 62
     7
 10
-842.2824923521
 20
519.0806387138
 30
0.0
 11
-842.2824923521
 21
493.9806387138
 31
0.0
  0
LINE
  5
235
  8
1
  6
CONTINUOUS
 62
     7
 10
-735.6824923521
 20
448.1306387138
 30
0.0
 11
-715.0824923521
 21
448.1306387138
 31
0.0
  0
LINE
  5
236
  8
1
  6
CONTINUOUS
 62
     7
 10
-735.6824923521
 20
443.1306387138
 30
0.0
 11
-715.0824923521
 21
443.1306387138
 31
0.0
  0
LINE
  5
237
  8
1
  6
CONTINUOUS
 62
     7
 10
-847.6461275133
 20
519.7806387138
 30
0.0
 11
-847.6461275133
 21
493.2806387138
 31
0.0
  0
LINE
  5
238
  8
1
  6
CONTINUOUS
 62
     7
 10
-791.1324923521
 20
493.5306387138
 30
0.0
 11
-791.1324923521
 21
519.5306387138
 31
0.0
  0
CIRCLE
  5
239
  8
1
  6
CONTINUOUS
 62
     7
 10
-827.4824923521
 20
519.1806387138
 30
0.0
 40
2.75
  0
LINE
  5
23A
  8
1
  6
CONTINUOUS
 62
     7
 10
-735.7668856363
 20
496.0076282604
 30
0.0
 11
-735.8040513069
 21
496.0396875884
 31
0.0
  0
LINE
  5
23B
  8
1
  6
CONTINUOUS
 62
     7
 10
-671.3824923521
 20
521.7806387138
 30
0.0
 11
-671.3824923521
 21
491.2806387138
 31
0.0
  0
LINE
  5
23C
  8
1
  6
CONTINUOUS
 62
     7
 10
-735.8040513069
 20
496.0396875884
 30
0.0
 11
-735.8395991333
 21
496.0735319326
 31
0.0
  0
ARC
  5
23D
  8
1
  6
CONTINUOUS
 62
     7
 10
-839.7824923521
 20
481.6820359268
 30
0.0
 40
12.550124721
 50
78.509748277
 51
101.490251723
  0
CIRCLE
  5
23E
  8
1
  6
CONTINUOUS
 62
     7
 10
-676.7824923521
 20
519.1806387138
 30
0.0
 40
2.75
  0
ARC
  5
23F
  8
1
  6
CONTINUOUS
 62
     7
 10
-839.7824923521
 20
531.3795590743
 30
0.0
 40
12.55043593
 50
258.5100370789
 51
281.4899629211
  0
CIRCLE
  5
240
  8
1
  6
CONTINUOUS
 62
     7
 10
-827.4824923521
 20
493.8806387138
 30
0.0
 40
2.75
  0
LINE
  5
241
  8
1
  6
CONTINUOUS
 62
     7
 10
-735.5151757845
 20
495.8567591813
 30
0.0
 11
-735.5600474455
 21
495.8766494207
 31
0.0
  0
LINE
  5
242
  8
1
  6
CONTINUOUS
 62
     7
 10
-735.8395991333
 20
496.0735319326
 30
0.0
 11
-735.8734434774
 21
496.1090797589
 31
0.0
  0
LINE
  5
243
  8
1
  6
CONTINUOUS
 62
     7
 10
-735.6465950963
 20
495.9229101038
 30
0.0
 11
-735.6880625851
 21
495.9491691015
 31
0.0
  0
LINE
  5
244
  8
1
  6
CONTINUOUS
 62
     7
 10
-735.8734434774
 20
496.1090797589
 30
0.0
 11
-735.9055028055
 21
496.1462454296
 31
0.0
  0
LINE
  5
245
  8
1
  6
CONTINUOUS
 62
     7
 10
-735.2792228265
 20
495.7914622038
 30
0.0
 11
-735.3275826741
 21
495.7998534334
 31
0.0
  0
LINE
  5
246
  8
1
  6
CONTINUOUS
 62
     7
 10
-870.3824923521
 20
499.3806387138
 30
0.0
 11
-870.3824923521
 21
513.6806387138
 31
0.0
  0
LINE
  5
247
  8
1
  6
CONTINUOUS
 62
     7
 10
-735.9055028055
 20
496.1462454296
 30
0.0
 11
-735.9356998836
 21
496.1849394093
 31
0.0
  0
LINE
  5
248
  8
1
  6
CONTINUOUS
 62
     7
 10
-735.9356998836
 20
496.1849394093
 30
0.0
 11
-735.9639619644
 21
496.2250684808
 31
0.0
  0
LINE
  5
249
  8
1
  6
CONTINUOUS
 62
     7
 10
-735.9639619644
 20
496.2250684808
 30
0.0
 11
-735.9902209621
 21
496.2665359696
 31
0.0
  0
LINE
  5
24A
  8
1
  6
CONTINUOUS
 62
     7
 10
-735.9902209621
 20
496.2665359696
 30
0.0
 11
-736.0144136164
 21
496.309241977
 31
0.0
  0
LINE
  5
24B
  8
1
  6
CONTINUOUS
 62
     7
 10
-736.0144136164
 20
496.309241977
 30
0.0
 11
-736.0364816452
 21
496.3530836203
 31
0.0
  0
LINE
  5
24C
  8
1
  6
CONTINUOUS
 62
     7
 10
-869.3824923521
 20
518.1806387138
 30
0.0
 11
-869.3824923521
 21
494.8806387138
 31
0.0
  0
LINE
  5
24D
  8
1
  6
CONTINUOUS
 62
     7
 10
-837.2824923521
 20
499.4150439465
 30
0.0
 11
-842.2824923521
 21
499.4150439465
 31
0.0
  0
LINE
  5
24E
  8
1
  6
CONTINUOUS
 62
     7
 10
-789.6324923521
 20
519.5306387138
 30
0.0
 11
-789.6324923521
 21
493.5306387138
 31
0.0
  0
LINE
  5
24F
  8
1
  6
CONTINUOUS
 62
     7
 10
-710.1324923521
 20
452.5306387138
 30
0.0
 11
-740.6324923521
 21
452.5306387138
 31
0.0
  0
CIRCLE
  5
250
  8
1
  6
CONTINUOUS
 62
     7
 10
-738.0324923521
 20
457.9306387742
 30
0.0
 40
2.75
  0
LINE
  5
251
  8
1
  6
CONTINUOUS
 62
     7
 10
-714.6324923521
 20
519.5306387138
 30
0.0
 11
-714.6324923521
 21
496.7806387138
 31
0.0
  0
LINE
  5
252
  8
1
  6
CONTINUOUS
 62
     7
 10
-739.3824923521
 20
519.5306387138
 30
0.0
 11
-739.3824923521
 21
494.3973053804
 31
0.0
  0
LINE
  5
253
  8
1
  6
CONTINUOUS
 62
     7
 10
-745.8824923521
 20
524.0306387138
 30
0.0
 11
-745.8824923521
 21
489.0306387138
 31
0.0
  0
LINE
  5
254
  8
1
  6
CONTINUOUS
 62
     7
 10
-735.375472532
 20
495.8106074606
 30
0.0
 11
-735.4227770293
 21
495.823698378
 31
0.0
  0
LINE
  5
255
  8
1
  6
CONTINUOUS
 62
     7
 10
-735.4693822055
 20
495.8390946486
 30
0.0
 11
-735.5151757845
 21
495.8567591813
 31
0.0
  0
LINE
  5
256
  8
1
  6
CONTINUOUS
 62
     7
 10
-735.5600474455
 20
495.8766494207
 30
0.0
 11
-735.6038890889
 21
495.8987174494
 31
0.0
  0
LINE
  5
257
  8
1
  6
CONTINUOUS
 62
     7
 10
-842.2824923521
 20
493.9806387138
 30
0.0
 11
-842.2763358977
 21
493.9818636488
 31
0.0
  0
LINE
  5
258
  8
1
  6
CONTINUOUS
 62
     7
 10
-832.8824923521
 20
491.2806387138
 30
0.0
 11
-832.8824923521
 21
521.7806387138
 31
0.0
  0
CIRCLE
  5
259
  8
1
  6
CONTINUOUS
 62
     7
 10
-712.7324923521
 20
457.9306387742
 30
0.0
 40
2.75
  0
LINE
  5
25A
  8
1
  6
CONTINUOUS
 62
     7
 10
-715.6324923521
 20
495.7806387138
 30
0.0
 11
-735.1324923521
 21
495.7806387138
 31
0.0
  0
CIRCLE
  5
25B
  8
1
  6
CONTINUOUS
 62
     7
 10
-676.7824923521
 20
493.8806387138
 30
0.0
 40
2.75
  0
LINE
  5
25C
  8
1
  6
CONTINUOUS
 62
     7
 10
-736.1324923521
 20
496.7806387138
 30
0.0
 11
-736.1324923521
 21
519.5306387138
 31
0.0
  0
LINE
  5
25D
  8
1
  6
CONTINUOUS
 62
     7
 10
-842.2824923521
 20
513.6462334811
 30
0.0
 11
-837.2824923521
 21
513.6462334811
 31
0.0
  0
LINE
  5
25E
  8
1
  6
CONTINUOUS
 62
     7
 10
-770.8824923521
 20
524.0306387138
 30
0.0
 11
-770.8824923521
 21
489.0306387138
 31
0.0
  0
LINE
  5
25F
  8
1
  6
CONTINUOUS
 62
     7
 10
-735.3275826741
 20
495.7998534334
 30
0.0
 11
-735.375472532
 21
495.8106074606
 31
0.0
  0
LINE
  5
260
  8
1
  6
CONTINUOUS
 62
     7
 10
-781.3824923521
 20
493.5306387142
 30
0.0
 11
-781.3824923521
 21
519.5306387138
 31
0.0
  0
LINE
  5
261
  8
1
  6
CONTINUOUS
 62
     7
 10
-735.4227770293
 20
495.823698378
 30
0.0
 11
-735.4693822055
 21
495.8390946486
 31
0.0
  0
LINE
  5
262
  8
1
  6
CONTINUOUS
 62
     7
 10
-735.6038890889
 20
495.8987174494
 30
0.0
 11
-735.6465950963
 21
495.9229101038
 31
0.0
  0
LINE
  5
263
  8
1
  6
CONTINUOUS
 62
     7
 10
-735.6880625851
 20
495.9491691015
 30
0.0
 11
-735.7281916566
 21
495.9774311823
 31
0.0
  0
LINE
  5
264
  8
1
  6
CONTINUOUS
 62
     7
 10
-735.7281916566
 20
495.9774311823
 30
0.0
 11
-735.7668856363
 21
496.0076282604
 31
0.0
  0
ENDSEC
  0
EOF
