  0
SECTION
  2
HEADER
  9
$ACADVER
  1
AC1006
  9
$DWGCODEPAGE
  3
ansi_932
  9
$INSBASE
 10
0.0
 20
0.0
 30
0.0
  9
$EXTMIN
 10
162.7024326952
 20
-180.1881023636364
  9
$EXTMAX
 10
297.2024326952
 20
-28.15509720610002
  9
$LIMMIN
 10
0.0
 20
0.0
  9
$LIMMAX
 10
12.0
 20
9.0
  9
$ORTHOMODE
 70
     0
  9
$REGENMODE
 70
     1
  9
$FILLMODE
 70
     1
  9
$QTEXTMODE
 70
     0
  9
$MIRRTEXT
 70
     1
  9
$DRAGMODE
 70
     2
  9
$LTSCALE
 40
1.0
  9
$OSMODE
 70
    37
  9
$ATTMODE
 70
     1
  9
$TEXTSIZE
 40
0.2
  9
$TRACEWID
 40
0.05
  9
$TEXTSTYLE
  7
STANDARD
  9
$CLAYER
  8
0
  9
$CELTYPE
  6
BYLAYER
  9
$CECOLOR
 62
   256
  9
$DIMSCALE
 40
1.0
  9
$DIMASZ
 40
2.0
  9
$DIMEXO
 40
0.0625
  9
$DIMDLI
 40
0.38
  9
$DIMRND
 40
0.0
  9
$DIMDLE
 40
0.0
  9
$DIMEXE
 40
1.0
  9
$DIMTP
 40
0.0
  9
$DIMTM
 40
0.0
  9
$DIMTXT
 40
3.5
  9
$DIMCEN
 40
0.09
  9
$DIMTSZ
 40
0.0
  9
$DIMTOL
 70
     0
  9
$DIMLIM
 70
     0
  9
$DIMTIH
 70
     1
  9
$DIMTOH
 70
     1
  9
$DIMSE1
 70
     0
  9
$DIMSE2
 70
     0
  9
$DIMTAD
 70
     1
  9
$DIMZIN
 70
     0
  9
$DIMBLK
  1

  9
$DIMASO
 70
     1
  9
$DIMSHO
 70
     1
  9
$DIMPOST
  1

  9
$DIMAPOST
  1

  9
$DIMALT
 70
     0
  9
$DIMALTD
 70
     2
  9
$DIMALTF
 40
25.4
  9
$DIMLFAC
 40
1.0
  9
$DIMTOFL
 70
     0
  9
$DIMTVP
 40
0.0
  9
$DIMTIX
 70
     0
  9
$DIMSOXD
 70
     0
  9
$DIMSAH
 70
     0
  9
$DIMBLK1
  1

  9
$DIMBLK2
  1

  9
$LUNITS
 70
     2
  9
$LUPREC
 70
     4
  9
$SKETCHINC
 40
0.1
  9
$FILLETRAD
 40
0.5
  9
$AUNITS
 70
     0
  9
$AUPREC
 70
     0
  9
$MENU
  1
.
  9
$ELEVATION
 40
0.0
  9
$THICKNESS
 40
0.0
  9
$LIMCHECK
 70
     0
  9
$CHAMFERA
 40
0.0
  9
$CHAMFERB
 40
0.0
  9
$SKPOLY
 70
     0
  9
$TDCREATE
 40
2460768.547991516
  9
$TDUPDATE
 40
2460768.547991736
  9
$TDINDWG
 40
0.0000000116
  9
$TDUSRTIMER
 40
0.0000000116
  9
$USRTIMER
 70
     1
  9
$ANGBASE
 50
0.0
  9
$ANGDIR
 70
     0
  9
$PDMODE
 70
     0
  9
$PDSIZE
 40
0.0
  9
$PLINEWID
 40
0.0
  9
$COORDS
 70
     1
  9
$SPLFRAME
 70
     0
  9
$SPLINETYPE
 70
     6
  9
$SPLINESEGS
 70
     8
  9
$ATTDIA
 70
     0
  9
$ATTREQ
 70
     1
  9
$HANDLING
 70
     1
  9
$HANDSEED
  5
D9
  9
$SURFTAB1
 70
     6
  9
$SURFTAB2
 70
     6
  9
$SURFTYPE
 70
     6
  9
$SURFU
 70
     6
  9
$SURFV
 70
     6
  9
$UCSNAME
  2

  9
$UCSORG
 10
0.0
 20
0.0
 30
0.0
  9
$UCSXDIR
 10
1.0
 20
0.0
 30
0.0
  9
$UCSYDIR
 10
0.0
 20
1.0
 30
0.0
  9
$USERI1
 70
     0
  9
$USERI2
 70
     0
  9
$USERI3
 70
     0
  9
$USERI4
 70
     0
  9
$USERI5
 70
     0
  9
$USERR1
 40
0.0
  9
$USERR2
 40
0.0
  9
$USERR3
 40
0.0
  9
$USERR4
 40
0.0
  9
$USERR5
 40
0.0
  9
$WORLDVIEW
 70
     1
  0
ENDSEC
  0
SECTION
  2
TABLES
  0
TABLE
  2
VPORT
 70
     1
  0
VPORT
  2
*ACTIVE
 70
     0
 10
0.0
 20
0.0
 11
1.0
 21
1.0
 12
229.9524326952
 22
-104.1715997848682
 13
0.0
 23
0.0
 14
0.5
 24
0.5
 15
0.5
 25
0.5
 16
0.0
 26
0.0
 36
1.0
 17
0.0
 27
0.0
 37
0.0
 40
152.0330051575364
 41
1.6
 42
50.0
 43
0.0
 44
0.0
 50
0.0
 51
0.0
 71
     0
 72
   100
 73
     1
 74
     3
 75
     0
 76
     0
 77
     0
 78
     0
  0
ENDTAB
  0
TABLE
  2
LTYPE
 70
     2
  0
LTYPE
  2
CONTINUOUS
 70
     0
  3
Solid line
 72
    65
 73
     0
 40
0.0
  0
LTYPE
  2
CENTER
 70
     0
  3

 72
    65
 73
     0
 40
0.0
  0
ENDTAB
  0
TABLE
  2
LAYER
 70
     2
  0
LAYER
  2
0
 70
     0
 62
     7
  6
CONTINUOUS
  0
LAYER
  2
1
 70
     0
 62
     7
  6
CONTINUOUS
  0
ENDTAB
  0
TABLE
  2
STYLE
 70
     2
  0
STYLE
  2
STANDARD
 70
     0
 40
0.0
 41
1.0
 50
0.0
 71
     0
 42
0.2
  3
txt
  4

  0
STYLE
  2
ＭＳ_ゴシック
 70
     0
 40
0.0
 41
1.0
 50
0.0
 71
     0
 42
0.2
  3
ＭＳ ゴシック.shx
  4

  0
ENDTAB
  0
TABLE
  2
VIEW
 70
     0
  0
ENDTAB
  0
TABLE
  2
UCS
 70
     0
  0
ENDTAB
  0
ENDSEC
  0
SECTION
  2
BLOCKS
  0
ENDSEC
  0
SECTION
  2
ENTITIES
  0
TEXT
  5
70
  8
1
  6
CONTINUOUS
 62
     7
 10
265.7050177874814
 20
-180.5017387272728
 30
0.0
 40
3.0
  1
ＳＶＣ－５Ｍ
 41
0.87752
 51
14.999825
  0
ARC
  5
71
  8
1
  6
CONTINUOUS
 62
     7
 10
175.2024326952
 20
-73.1277076306
 30
0.0
 40
3.000000000000003
 50
180.0
 51
270.0
  0
ARC
  5
72
  8
1
  6
CONTINUOUS
 62
     7
 10
214.2024326952
 20
-34.12770763060002
 30
0.0
 40
3.000000000000003
 50
0.0
 51
90.0
  0
LINE
  5
73
  8
1
  6
CONTINUOUS
 62
     7
 10
162.7025192748
 20
-41.6277076306
 30
0.0
 11
162.7025192748
 21
-65.62770763039998
 31
0.0
  0
LINE
  5
74
  8
1
  6
CONTINUOUS
 62
     7
 10
214.2024326952
 20
-31.12770763060002
 30
0.0
 11
175.2024326952
 21
-31.12770763060002
 31
0.0
  0
LINE
  5
75
  8
1
  6
CONTINUOUS
 62
     7
 10
219.0024326951
 20
-65.62770763039998
 30
0.0
 11
226.7023461156
 21
-65.62770763039998
 31
0.0
  0
LINE
  5
76
  8
1
  6
CONTINUOUS
 62
     7
 10
170.4024326952
 20
-41.6277076306
 30
0.0
 11
162.7025192748
 21
-41.6277076306
 31
0.0
  0
ARC
  5
77
  8
1
  6
CONTINUOUS
 62
     7
 10
170.4024326952
 20
-39.8277076306
 30
0.0
 40
1.799999999999996
 50
270.0
 51
0.0
  0
ARC
  5
78
  8
1
  6
CONTINUOUS
 62
     7
 10
219.0024326952
 20
-39.8277076306
 30
0.0
 40
1.799999999999996
 50
180.0
 51
270.0
  0
LINE
  5
79
  8
1
  6
CONTINUOUS
 62
     7
 10
172.2024326952
 20
-34.12770763060002
 30
0.0
 11
172.2024326952
 21
-73.1277076306
 31
0.0
  0
ARC
  5
7A
  8
1
  6
CONTINUOUS
 62
     7
 10
175.2024326952
 20
-34.12770763060002
 30
0.0
 40
3.000000000000003
 50
90.0
 51
180.0
  0
ARC
  5
7B
  8
1
  6
CONTINUOUS
 62
     7
 10
219.0024326952
 20
-67.42770763039998
 30
0.0
 40
1.799999999999996
 50
90.0000000013
 51
180.0
  0
LINE
  5
7C
  8
1
  6
CENTER
 62
     7
 10
194.7024326952
 20
-79.1277076306
 30
0.0
 11
194.7024326952
 21
-28.15509720610002
 31
0.0
  0
LINE
  5
7E
  8
1
  6
CONTINUOUS
 62
     7
 10
192.8898171211
 20
-160.2995898144
 30
0.0
 11
190.7024326952
 21
-155.6087287752
 31
0.0
  0
CIRCLE
  5
7F
  8
1
  6
CONTINUOUS
 62
     7
 10
194.7024326952
 20
-34.12770763060002
 30
0.0
 40
1.500000000000001
  0
LINE
  5
80
  8
1
  6
CONTINUOUS
 62
     7
 10
219.0024326952
 20
-41.6277076306
 30
0.0
 11
226.7023461156
 21
-41.6277076306
 31
0.0
  0
LINE
  5
81
  8
1
  6
CONTINUOUS
 62
     7
 10
170.4024326952
 20
-65.62770763039998
 30
0.0
 11
162.7025192748
 21
-65.62770763039998
 31
0.0
  0
CIRCLE
  5
82
  8
1
  6
CONTINUOUS
 62
     7
 10
177.7024326952
 20
-73.1277076306
 30
0.0
 40
1.500000000000001
  0
LINE
  5
83
  8
1
  6
CONTINUOUS
 62
     7
 10
226.7023461156
 20
-41.6277076306
 30
0.0
 11
226.7023461156
 21
-65.62770763039998
 31
0.0
  0
ARC
  5
84
  8
1
  6
CONTINUOUS
 62
     7
 10
194.7024326952
 20
-159.454353291
 30
0.0
 40
2.000000000000002
 50
205.0
 51
334.9999999999999
  0
LINE
  5
85
  8
1
  6
CONTINUOUS
 62
     7
 10
217.2024326952
 20
-73.1277076306
 30
0.0
 11
217.2024326952
 21
-34.12770763060002
 31
0.0
  0
ARC
  5
86
  8
1
  6
CONTINUOUS
 62
     7
 10
170.4024326952
 20
-67.4277076303
 30
0.0
 40
1.799999999999996
 50
0.0
 51
89.9999999988
  0
CIRCLE
  5
87
  8
1
  6
CONTINUOUS
 62
     7
 10
211.7024326952
 20
-73.1277076306
 30
0.0
 40
1.500000000000001
  0
ARC
  5
88
  8
1
  6
CONTINUOUS
 62
     7
 10
274.7024326952
 20
-159.454353291
 30
0.0
 40
2.000000000000002
 50
205.0
 51
334.9999999999999
  0
ARC
  5
89
  8
1
  6
CONTINUOUS
 62
     7
 10
214.2024326952
 20
-73.1277076306
 30
0.0
 40
3.000000000000003
 50
270.0
 51
0.0
  0
LINE
  5
8A
  8
1
  6
CONTINUOUS
 62
     7
 10
196.5150482692
 20
-160.2995898144
 30
0.0
 11
198.7024326952
 21
-155.6087287752
 31
0.0
  0
LINE
  5
8B
  8
1
  6
CONTINUOUS
 62
     7
 10
214.2024326952
 20
-76.1277076306
 30
0.0
 11
175.2024326952
 21
-76.1277076306
 31
0.0
  0
LINE
  5
8C
  8
1
  6
CONTINUOUS
 62
     7
 10
224.6668987892
 20
-147.3305541822
 30
0.0
 11
225.8237530387
 21
-148.4874084317
 31
0.0
  0
ARC
  5
8D
  8
1
  6
CONTINUOUS
 62
     7
 10
218.0455784457
 20
-150.6087287752
 30
0.0
 40
3.000000000000003
 50
45.0
 51
90.0
  0
ARC
  5
8E
  8
1
  6
CONTINUOUS
 62
     7
 10
165.2024326952
 20
-145.4518745257
 30
0.0
 40
3.000000000000003
 50
315.0
 51
0.0
  0
LINE
  5
8F
  8
1
  6
CONTINUOUS
 62
     7
 10
168.2024326952
 20
-145.4518745257
 30
0.0
 11
168.2024326952
 21
-127.6087287752
 31
0.0
  0
LINE
  5
90
  8
1
  6
CONTINUOUS
 62
     7
 10
218.1201023189
 20
-147.6087287752
 30
0.0
 11
213.2024326952
 21
-147.6087287752
 31
0.0
  0
LINE
  5
91
  8
1
  6
CONTINUOUS
 62
     7
 10
221.2024326952
 20
-145.4518745257
 30
0.0
 11
221.2024326952
 21
-127.6087287752
 31
0.0
  0
LINE
  5
92
  8
1
  6
CONTINUOUS
 62
     7
 10
276.5150482692
 20
-160.2995898144
 30
0.0
 11
278.7024326952
 21
-155.6087287752
 31
0.0
  0
ARC
  5
93
  8
1
  6
CONTINUOUS
 62
     7
 10
198.0762963742
 20
-138.4087287752
 30
0.0
 40
0.7999999999999952
 50
90.0
 51
200.9789350145
  0
LINE
  5
94
  8
1
  6
CONTINUOUS
 62
     7
 10
198.370035721
 20
-137.6087287752
 30
0.0
 11
198.0762963742
 21
-137.6087287752
 31
0.0
  0
LINE
  5
95
  8
1
  6
CONTINUOUS
 62
     7
 10
216.4632480694
 20
-149.6087287752
 30
0.0
 11
213.2024326952
 21
-149.6087287752
 31
0.0
  0
ARC
  5
96
  8
1
  6
CONTINUOUS
 62
     7
 10
176.2024326952
 20
-132.6087287752
 30
0.0
 40
16.99999999999999
 50
270.0
 51
339.0210649854999
  0
ARC
  5
97
  8
1
  6
CONTINUOUS
 62
     7
 10
176.2024326952
 20
-132.6087287752
 30
0.0
 40
14.99999999999999
 50
270.0
 51
337.9756871629999
  0
ARC
  5
98
  8
1
  6
CONTINUOUS
 62
     7
 10
213.2024326952
 20
-132.6087287752
 30
0.0
 40
15.00000000000001
 50
202.024312837
 51
270.0
  0
LINE
  5
99
  8
1
  6
CONTINUOUS
 62
     7
 10
252.2024326952
 20
-112.6087287752
 30
0.0
 11
252.2024326952
 21
-115.6087287752
 31
0.0
  0
LINE
  5
9A
  8
1
  6
CONTINUOUS
 62
     7
 10
164.7379666011
 20
-147.3305541822
 30
0.0
 11
163.5811123516
 21
-148.4874084317
 31
0.0
  0
LINE
  5
9B
  8
1
  6
CONTINUOUS
 62
     7
 10
166.2024326952
 20
-143.7950202762
 30
0.0
 11
166.2024326952
 21
-127.6087287752
 31
0.0
  0
ARC
  5
9C
  8
1
  6
CONTINUOUS
 62
     7
 10
190.7024326952
 20
-117.6087287754
 30
0.0
 40
2.000000000000002
 50
0.0
 51
90.0
  0
LINE
  5
9D
  8
1
  6
CONTINUOUS
 62
     7
 10
297.2024326952
 20
-112.6087287752
 30
0.0
 11
252.2024326952
 21
-112.6087287752
 31
0.0
  0
LINE
  5
9E
  8
1
  6
CONTINUOUS
 62
     7
 10
286.7024326952
 20
-117.6087287752
 30
0.0
 11
286.7024326952
 21
-153.6065395596
 31
0.0
  0
ARC
  5
9F
  8
1
  6
CONTINUOUS
 62
     7
 10
260.7024326952
 20
-117.6087287752
 30
0.0
 40
2.000000000000002
 50
0.0
 51
90.0
  0
ARC
  5
A0
  8
1
  6
CONTINUOUS
 62
     7
 10
181.2024326952
 20
-127.6087287752
 30
0.0
 40
13.00000000000001
 50
112.619864948
 51
180.0
  0
ARC
  5
A1
  8
1
  6
CONTINUOUS
 62
     7
 10
170.2024326952
 20
-114.6472473784
 30
0.0
 40
2.000000000000002
 50
310.32021507
 51
0.0
  0
ARC
  5
A2
  8
1
  6
CONTINUOUS
 62
     7
 10
181.2024326952
 20
-127.6087287752
 30
0.0
 40
14.99999999999999
 50
130.32021507
 51
180.0
  0
LINE
  5
A3
  8
1
  6
CONTINUOUS
 62
     7
 10
252.2024326952
 20
-115.6087287752
 30
0.0
 11
260.7024326952
 21
-115.6087287752
 31
0.0
  0
ARC
  5
A4
  8
1
  6
CONTINUOUS
 62
     7
 10
223.7024326952
 20
-150.6087287752
 30
0.0
 40
3.000000000000003
 50
225.0
 51
45.0
  0
ARC
  5
A5
  8
1
  6
CONTINUOUS
 62
     7
 10
219.2024326952
 20
-114.6472473784
 30
0.0
 40
2.000000000000002
 50
180.0
 51
229.67978493
  0
ARC
  5
A6
  8
1
  6
CONTINUOUS
 62
     7
 10
198.7024326952
 20
-117.6087287754
 30
0.0
 40
2.000000000000002
 50
90.0
 51
180.0
  0
LINE
  5
A7
  8
1
  6
CONTINUOUS
 62
     7
 10
288.7024326952
 20
-115.6087287752
 30
0.0
 11
297.2024326952
 21
-115.6087287752
 31
0.0
  0
ARC
  5
A8
  8
1
  6
CONTINUOUS
 62
     7
 10
208.2024326952
 20
-127.6087287752
 30
0.0
 40
13.00000000000001
 50
0.0
 51
67.380135052
  0
LINE
  5
A9
  8
1
  6
CONTINUOUS
 62
     7
 10
272.7024326952
 20
-153.6065395596
 30
0.0
 11
272.7024326952
 21
-155.6087287752
 31
0.0
  0
ARC
  5
AA
  8
1
  6
CONTINUOUS
 62
     7
 10
165.7024326952
 20
-150.6087287752
 30
0.0
 40
3.000000000000003
 50
135.0
 51
315.0
  0
LINE
  5
AB
  8
1
  6
CONTINUOUS
 62
     7
 10
272.8898171211
 20
-160.2995898144
 30
0.0
 11
270.7024326952
 21
-155.6087287752
 31
0.0
  0
ARC
  5
AC
  8
1
  6
CONTINUOUS
 62
     7
 10
165.7024326952
 20
-150.6087287752
 30
0.0
 40
1.000000000000001
 50
135.0
 51
315.0
  0
LINE
  5
AD
  8
1
  6
CONTINUOUS
 62
     7
 10
172.2024326952
 20
-114.6472473784
 30
0.0
 11
172.2024326952
 21
-112.6087287752
 31
0.0
  0
LINE
  5
AE
  8
1
  6
CONTINUOUS
 62
     7
 10
262.7024326952
 20
-117.6087287752
 30
0.0
 11
262.7024326952
 21
-153.6065395596
 31
0.0
  0
LINE
  5
AF
  8
1
  6
CONTINUOUS
 62
     7
 10
217.4487070827
 20
-115.6087287751
 30
0.0
 11
171.9561583074
 21
-115.6087287751
 31
0.0
  0
LINE
  5
B0
  8
1
  6
CONTINUOUS
 62
     7
 10
167.3237530387
 20
-147.5731948693
 30
0.0
 11
164.995325914
 21
-149.901621994
 31
0.0
  0
LINE
  5
B1
  8
1
  6
CONTINUOUS
 62
     7
 10
278.7024326952
 20
-155.6087287752
 30
0.0
 11
270.7024326952
 21
-155.6087287752
 31
0.0
  0
LINE
  5
B2
  8
1
  6
CONTINUOUS
 62
     7
 10
172.2024326952
 20
-112.6087287752
 30
0.0
 11
217.2024326952
 21
-112.6087287752
 31
0.0
  0
ARC
  5
B3
  8
1
  6
CONTINUOUS
 62
     7
 10
223.7024326952
 20
-150.6087287752
 30
0.0
 40
1.000000000000001
 50
225.0
 51
45.0
  0
ARC
  5
B4
  8
1
  6
CONTINUOUS
 62
     7
 10
171.3592869447
 20
-150.6087287752
 30
0.0
 40
3.000000000000003
 50
90.0
 51
135.0
  0
LINE
  5
B5
  8
1
  6
CENTER
 62
     7
 10
274.7024326952
 20
-163.056481685
 30
0.0
 11
274.7024326952
 21
-107.6251596964
 31
0.0
  0
LINE
  5
B6
  8
1
  6
CONTINUOUS
 62
     7
 10
276.7024326952
 20
-153.6065395596
 30
0.0
 11
276.7024326952
 21
-155.6087287752
 31
0.0
  0
ARC
  5
B7
  8
1
  6
CONTINUOUS
 62
     7
 10
173.0161411942
 20
-154.6087287752
 30
0.0
 40
5.000000000000004
 50
90.0
 51
135.0
  0
LINE
  5
B8
  8
1
  6
CONTINUOUS
 62
     7
 10
262.7024326952
 20
-153.6065395596
 30
0.0
 11
286.7024326952
 21
-153.6065395596
 31
0.0
  0
ARC
  5
B9
  8
1
  6
CONTINUOUS
 62
     7
 10
288.7024326952
 20
-117.6087287752
 30
0.0
 40
2.000000000000002
 50
90.0
 51
180.0
  0
ARC
  5
BA
  8
1
  6
CONTINUOUS
 62
     7
 10
161.2024326952
 20
-143.7950202762
 30
0.0
 40
5.000000000000004
 50
315.0
 51
0.0
  0
LINE
  5
BB
  8
1
  6
CONTINUOUS
 62
     7
 10
169.2379666011
 20
-148.4874084317
 30
0.0
 11
166.4095394764
 21
-151.3158355564
 31
0.0
  0
ARC
  5
BC
  8
1
  6
CONTINUOUS
 62
     7
 10
208.2024326952
 20
-127.6087287752
 30
0.0
 40
15.00000000000001
 50
0.0
 51
49.67978493
  0
LINE
  5
BD
  8
1
  6
CONTINUOUS
 62
     7
 10
297.2024326952
 20
-115.6087287752
 30
0.0
 11
297.2024326952
 21
-112.6087287752
 31
0.0
  0
LINE
  5
BE
  8
1
  6
CONTINUOUS
 62
     7
 10
217.2024326952
 20
-114.6472473784
 30
0.0
 11
217.2024326952
 21
-112.6087287752
 31
0.0
  0
LINE
  5
BF
  8
1
  6
CONTINUOUS
 62
     7
 10
169.4806072882
 20
-151.0731948693
 30
0.0
 11
167.8237530387
 21
-152.7300491188
 31
0.0
  0
LINE
  5
C0
  8
1
  6
CONTINUOUS
 62
     7
 10
220.1668987892
 20
-148.4874084317
 30
0.0
 11
222.995325914
 21
-151.3158355564
 31
0.0
  0
LINE
  5
C1
  8
1
  6
CONTINUOUS
 62
     7
 10
191.0348296694
 20
-137.6087287752
 30
0.0
 11
191.3285690161
 21
-137.6087287752
 31
0.0
  0
ARC
  5
C2
  8
1
  6
CONTINUOUS
 62
     7
 10
224.2024326952
 20
-145.4518745257
 30
0.0
 40
3.000000000000003
 50
180.0
 51
225.0
  0
ARC
  5
C3
  8
1
  6
CONTINUOUS
 62
     7
 10
198.370035721
 20
-138.6087287752
 30
0.0
 40
1.000000000000001
 50
22.024312837
 51
90.0
  0
LINE
  5
C4
  8
1
  6
CENTER
 62
     7
 10
194.7024326952
 20
-106.7415118556
 30
0.0
 11
194.7024326952
 21
-163.8372966972
 31
0.0
  0
ARC
  5
C5
  8
1
  6
CONTINUOUS
 62
     7
 10
216.3887241962
 20
-154.6087287752
 30
0.0
 40
5.000000000000004
 50
45.0
 51
90.0
  0
LINE
  5
C6
  8
1
  6
CONTINUOUS
 62
     7
 10
198.7024326952
 20
-155.6087287752
 30
0.0
 11
190.7024326952
 21
-155.6087287752
 31
0.0
  0
ARC
  5
C7
  8
1
  6
CONTINUOUS
 62
     7
 10
228.2024326952
 20
-143.7950202762
 30
0.0
 40
5.000000000000004
 50
180.0
 51
225.0
  0
ARC
  5
C8
  8
1
  6
CONTINUOUS
 62
     7
 10
191.3285690161
 20
-138.4087287752
 30
0.0
 40
0.7999999999999952
 50
339.0210649854999
 51
90.0
  0
LINE
  5
C9
  8
1
  6
CONTINUOUS
 62
     7
 10
171.3592869447
 20
-147.6087287752
 30
0.0
 11
176.2024326952
 21
-147.6087287752
 31
0.0
  0
LINE
  5
CA
  8
1
  6
CONTINUOUS
 62
     7
 10
196.7024326952
 20
-117.6087287754
 30
0.0
 11
196.7024326952
 21
-155.6087287752
 31
0.0
  0
ARC
  5
CB
  8
1
  6
CONTINUOUS
 62
     7
 10
213.2024326952
 20
-132.6087287752
 30
0.0
 40
17.00000000000001
 50
200.9789350145
 51
270.0
  0
LINE
  5
CC
  8
1
  6
CONTINUOUS
 62
     7
 10
223.2024326952
 20
-143.7950202762
 30
0.0
 11
223.2024326952
 21
-127.6087287752
 31
0.0
  0
LINE
  5
CD
  8
1
  6
CONTINUOUS
 62
     7
 10
192.7024326952
 20
-117.6087287754
 30
0.0
 11
192.7024326952
 21
-155.6087287752
 31
0.0
  0
LINE
  5
CE
  8
1
  6
CONTINUOUS
 62
     7
 10
173.0161411942
 20
-149.6087287752
 30
0.0
 11
176.2024326952
 21
-149.6087287752
 31
0.0
  0
LINE
  5
CF
  8
1
  6
CONTINUOUS
 62
     7
 10
219.9242581021
 20
-151.0731948693
 30
0.0
 11
221.5811123516
 21
-152.7300491188
 31
0.0
  0
LINE
  5
D0
  8
1
  6
CONTINUOUS
 62
     7
 10
222.0811123516
 20
-147.5731948693
 30
0.0
 11
224.4095394764
 21
-149.901621994
 31
0.0
  0
ARC
  5
D1
  8
1
  6
CONTINUOUS
 62
     7
 10
191.0348296694
 20
-138.6087287752
 30
0.0
 40
1.000000000000001
 50
90.0
 51
157.975687163
  0
ENDSEC
  0
EOF
