  0
SECTION
  2
HEADER
  9
$ACADVER
  1
AC1006
  9
$DWGCODEPAGE
  3
ansi_932
  9
$INSBASE
 10
0.0
 20
0.0
 30
0.0
  9
$EXTMIN
 10
-251.0
 20
336.9250218832063
  9
$EXTMAX
 10
236.2000000000001
 20
689.7000000000002
  9
$LIMMIN
 10
0.0
 20
0.0
  9
$LIMMAX
 10
12.0
 20
9.0
  9
$ORTHOMODE
 70
     0
  9
$REGENMODE
 70
     1
  9
$FILLMODE
 70
     1
  9
$QTEXTMODE
 70
     0
  9
$MIRRTEXT
 70
     1
  9
$DRAGMODE
 70
     2
  9
$LTSCALE
 40
1.0
  9
$OSMODE
 70
    37
  9
$ATTMODE
 70
     1
  9
$TEXTSIZE
 40
0.2
  9
$TRACEWID
 40
0.05
  9
$TEXTSTYLE
  7
STANDARD
  9
$CLAYER
  8
0
  9
$CELTYPE
  6
BYLAYER
  9
$CECOLOR
 62
   256
  9
$DIMSCALE
 40
1.0
  9
$DIMASZ
 40
3.0
  9
$DIMEXO
 40
0.0625
  9
$DIMDLI
 40
0.38
  9
$DIMRND
 40
0.0
  9
$DIMDLE
 40
0.0
  9
$DIMEXE
 40
1.5
  9
$DIMTP
 40
0.0
  9
$DIMTM
 40
0.0
  9
$DIMTXT
 40
3.0
  9
$DIMCEN
 40
0.09
  9
$DIMTSZ
 40
0.0
  9
$DIMTOL
 70
     0
  9
$DIMLIM
 70
     0
  9
$DIMTIH
 70
     1
  9
$DIMTOH
 70
     1
  9
$DIMSE1
 70
     0
  9
$DIMSE2
 70
     0
  9
$DIMTAD
 70
     1
  9
$DIMZIN
 70
     0
  9
$DIMBLK
  1

  9
$DIMASO
 70
     1
  9
$DIMSHO
 70
     1
  9
$DIMPOST
  1

  9
$DIMAPOST
  1

  9
$DIMALT
 70
     0
  9
$DIMALTD
 70
     2
  9
$DIMALTF
 40
25.4
  9
$DIMLFAC
 40
1.0
  9
$DIMTOFL
 70
     0
  9
$DIMTVP
 40
0.0
  9
$DIMTIX
 70
     0
  9
$DIMSOXD
 70
     0
  9
$DIMSAH
 70
     0
  9
$DIMBLK1
  1

  9
$DIMBLK2
  1

  9
$LUNITS
 70
     2
  9
$LUPREC
 70
     4
  9
$SKETCHINC
 40
0.1
  9
$FILLETRAD
 40
0.5
  9
$AUNITS
 70
     0
  9
$AUPREC
 70
     0
  9
$MENU
  1
.
  9
$ELEVATION
 40
0.0
  9
$THICKNESS
 40
0.0
  9
$LIMCHECK
 70
     0
  9
$CHAMFERA
 40
0.0
  9
$CHAMFERB
 40
0.0
  9
$SKPOLY
 70
     0
  9
$TDCREATE
 40
2460650.77516581
  9
$TDUPDATE
 40
2460650.775166007
  9
$TDINDWG
 40
0.0000000116
  9
$TDUSRTIMER
 40
0.0000000116
  9
$USRTIMER
 70
     1
  9
$ANGBASE
 50
0.0
  9
$ANGDIR
 70
     0
  9
$PDMODE
 70
     0
  9
$PDSIZE
 40
0.0
  9
$PLINEWID
 40
0.0
  9
$COORDS
 70
     1
  9
$SPLFRAME
 70
     0
  9
$SPLINETYPE
 70
     6
  9
$SPLINESEGS
 70
     8
  9
$ATTDIA
 70
     0
  9
$ATTREQ
 70
     1
  9
$HANDLING
 70
     1
  9
$HANDSEED
  5
FB
  9
$SURFTAB1
 70
     6
  9
$SURFTAB2
 70
     6
  9
$SURFTYPE
 70
     6
  9
$SURFU
 70
     6
  9
$SURFV
 70
     6
  9
$UCSNAME
  2

  9
$UCSORG
 10
0.0
 20
0.0
 30
0.0
  9
$UCSXDIR
 10
1.0
 20
0.0
 30
0.0
  9
$UCSYDIR
 10
0.0
 20
1.0
 30
0.0
  9
$USERI1
 70
     0
  9
$USERI2
 70
     0
  9
$USERI3
 70
     0
  9
$USERI4
 70
     0
  9
$USERI5
 70
     0
  9
$USERR1
 40
0.0
  9
$USERR2
 40
0.0
  9
$USERR3
 40
0.0
  9
$USERR4
 40
0.0
  9
$USERR5
 40
0.0
  9
$WORLDVIEW
 70
     1
  0
ENDSEC
  0
SECTION
  2
TABLES
  0
TABLE
  2
VPORT
 70
     1
  0
VPORT
  2
*ACTIVE
 70
     0
 10
0.0
 20
0.0
 11
1.0
 21
1.0
 12
-7.399999999999963
 22
513.3125109416033
 13
0.0
 23
0.0
 14
0.5
 24
0.5
 15
0.5
 25
0.5
 16
0.0
 26
0.0
 36
1.0
 17
0.0
 27
0.0
 37
0.0
 40
352.7749781167938
 41
1.6
 42
50.0
 43
0.0
 44
0.0
 50
0.0
 51
0.0
 71
     0
 72
   100
 73
     1
 74
     3
 75
     0
 76
     0
 77
     0
 78
     0
  0
ENDTAB
  0
TABLE
  2
LTYPE
 70
     2
  0
LTYPE
  2
CONTINUOUS
 70
     0
  3
Solid line
 72
    65
 73
     0
 40
0.0
  0
LTYPE
  2
CENTER
 70
     0
  3

 72
    65
 73
     0
 40
0.0
  0
ENDTAB
  0
TABLE
  2
LAYER
 70
     1
  0
LAYER
  2
0
 70
     0
 62
     7
  6
CONTINUOUS
  0
ENDTAB
  0
TABLE
  2
STYLE
 70
     2
  0
STYLE
  2
STANDARD
 70
     0
 40
0.0
 41
1.0
 50
0.0
 71
     0
 42
0.2
  3
txt
  4

  0
STYLE
  2
ＭＳ_ゴシック
 70
     0
 40
0.0
 41
1.0
 50
0.0
 71
     0
 42
0.2
  3
ＭＳ ゴシック.shx
  4

  0
ENDTAB
  0
TABLE
  2
VIEW
 70
     0
  0
ENDTAB
  0
TABLE
  2
UCS
 70
     0
  0
ENDTAB
  0
ENDSEC
  0
SECTION
  2
BLOCKS
  0
ENDSEC
  0
SECTION
  2
ENTITIES
  0
LINE
  5
6F
  8
0
  6
CONTINUOUS
 62
     7
 10
235.0000000000001
 20
367.7
 30
0.0
 11
235.0000000000001
 21
366.5000000000001
 31
0.0
  0
LINE
  5
70
  8
0
  6
CONTINUOUS
 62
     7
 10
235.0000000000001
 20
366.5000000000001
 30
0.0
 11
220.0000000000001
 21
366.5000000000001
 31
0.0
  0
LINE
  5
71
  8
0
  6
CONTINUOUS
 62
     7
 10
220.0000000000001
 20
367.7
 30
0.0
 11
235.0000000000001
 21
367.7
 31
0.0
  0
LINE
  5
72
  8
0
  6
CONTINUOUS
 62
     7
 10
175.0000000000001
 20
366.5000000000001
 30
0.0
 11
190.0000000000001
 21
366.5000000000001
 31
0.0
  0
LINE
  5
73
  8
0
  6
CONTINUOUS
 62
     7
 10
175.0000000000001
 20
367.7
 30
0.0
 11
175.0000000000001
 21
366.5000000000001
 31
0.0
  0
LINE
  5
74
  8
0
  6
CONTINUOUS
 62
     7
 10
190.0000000000001
 20
367.7
 30
0.0
 11
175.0000000000001
 21
367.7
 31
0.0
  0
LINE
  5
75
  8
0
  6
CONTINUOUS
 62
     7
 10
190.0000000000001
 20
366.5000000000001
 30
0.0
 11
220.0000000000001
 21
366.5000000000001
 31
0.0
  0
LINE
  5
76
  8
0
  6
CONTINUOUS
 62
     7
 10
190.0000000000001
 20
367.7
 30
0.0
 11
220.0000000000001
 21
367.7
 31
0.0
  0
LINE
  5
77
  8
0
  6
CONTINUOUS
 62
     7
 10
175.0000000000001
 20
527.3000000000001
 30
0.0
 11
175.0000000000001
 21
516.5000000000001
 31
0.0
  0
LINE
  5
78
  8
0
  6
CONTINUOUS
 62
     7
 10
235.0000000000001
 20
527.3000000000001
 30
0.0
 11
235.0000000000001
 21
516.5000000000001
 31
0.0
  0
LINE
  5
79
  8
0
  6
CONTINUOUS
 62
     7
 10
175.0000000000001
 20
371.5000000000001
 30
0.0
 11
175.0000000000001
 21
367.7
 31
0.0
  0
LINE
  5
7A
  8
0
  6
CONTINUOUS
 62
     7
 10
235.0000000000001
 20
371.5000000000001
 30
0.0
 11
235.0000000000001
 21
367.7
 31
0.0
  0
LINE
  5
7B
  8
0
  6
CONTINUOUS
 62
     7
 10
236.2000000000001
 20
516.5
 30
0.0
 11
236.2000000000001
 21
371.4999999999999
 31
0.0
  0
LINE
  5
7C
  8
0
  6
CONTINUOUS
 62
     7
 10
236.2000000000001
 20
371.5000000000001
 30
0.0
 11
235.0000000000001
 21
371.5000000000001
 31
0.0
  0
LINE
  5
7D
  8
0
  6
CONTINUOUS
 62
     7
 10
235.0000000000001
 20
516.5
 30
0.0
 11
236.2000000000001
 21
516.5
 31
0.0
  0
LINE
  5
7E
  8
0
  6
CONTINUOUS
 62
     7
 10
173.8000000000001
 20
371.5000000000001
 30
0.0
 11
175.0000000000001
 21
371.5000000000001
 31
0.0
  0
LINE
  5
7F
  8
0
  6
CONTINUOUS
 62
     7
 10
173.8000000000001
 20
516.5
 30
0.0
 11
173.8000000000001
 21
371.4999999999999
 31
0.0
  0
LINE
  5
80
  8
0
  6
CONTINUOUS
 62
     7
 10
175.0000000000001
 20
516.5
 30
0.0
 11
173.8000000000001
 21
516.5
 31
0.0
  0
LINE
  5
81
  8
0
  6
CONTINUOUS
 62
     7
 10
175.0000000000001
 20
528.148528137424
 30
0.0
 11
175.0000000000001
 21
527.3000000000001
 31
0.0
  0
LINE
  5
82
  8
0
  6
CONTINUOUS
 62
     7
 10
235.0000000000001
 20
528.148528137424
 30
0.0
 11
235.0000000000001
 21
527.3000000000001
 31
0.0
  0
LINE
  5
83
  8
0
  6
CONTINUOUS
 62
     7
 10
175.0000000000001
 20
558.1485281374241
 30
0.0
 11
175.0000000000001
 21
528.148528137424
 31
0.0
  0
LINE
  5
84
  8
0
  6
CONTINUOUS
 62
     7
 10
235.0000000000001
 20
558.1485281374241
 30
0.0
 11
235.0000000000001
 21
528.148528137424
 31
0.0
  0
LINE
  5
85
  8
0
  6
CONTINUOUS
 62
     7
 10
175.0000000000001
 20
558.5
 30
0.0
 11
235.0000000000001
 21
558.5
 31
0.0
  0
LINE
  5
86
  8
0
  6
CONTINUOUS
 62
     7
 10
175.0000000000001
 20
558.5
 30
0.0
 11
175.0000000000001
 21
558.148528137424
 31
0.0
  0
LINE
  5
87
  8
0
  6
CONTINUOUS
 62
     7
 10
235.0000000000001
 20
558.5
 30
0.0
 11
235.0000000000001
 21
558.148528137424
 31
0.0
  0
LINE
  5
88
  8
0
  6
CONTINUOUS
 62
     7
 10
11.80000000000009
 20
682.5000000000001
 30
0.0
 11
12.6485281374239
 21
682.5000000000001
 31
0.0
  0
LINE
  5
89
  8
0
  6
CONTINUOUS
 62
     7
 10
11.80000000000009
 20
622.5
 30
0.0
 11
12.6485281374239
 21
622.5
 31
0.0
  0
LINE
  5
8A
  8
0
  6
CONTINUOUS
 62
     7
 10
-181.8
 20
622.5
 30
0.0
 11
-182.6485281374238
 21
622.5
 31
0.0
  0
LINE
  5
8B
  8
0
  6
CONTINUOUS
 62
     7
 10
-181.8
 20
682.5000000000001
 30
0.0
 11
-182.6485281374238
 21
682.5000000000001
 31
0.0
  0
LINE
  5
8C
  8
0
  6
CONTINUOUS
 62
     7
 10
11.80000000000009
 20
682.5000000000001
 30
0.0
 11
-181.8
 21
682.5000000000001
 31
0.0
  0
LINE
  5
8D
  8
0
  6
CONTINUOUS
 62
     7
 10
11.80000000000009
 20
622.5
 30
0.0
 11
-181.8
 21
622.5
 31
0.0
  0
LINE
  5
8E
  8
0
  6
CONTINUOUS
 62
     7
 10
-182.6485281374238
 20
682.5000000000001
 30
0.0
 11
-212.6485281374238
 21
682.5000000000001
 31
0.0
  0
LINE
  5
8F
  8
0
  6
CONTINUOUS
 62
     7
 10
-182.6485281374238
 20
622.5
 30
0.0
 11
-212.6485281374238
 21
622.5
 31
0.0
  0
LINE
  5
90
  8
0
  6
CONTINUOUS
 62
     7
 10
12.6485281374239
 20
682.5000000000001
 30
0.0
 11
42.64852813742387
 21
682.5000000000001
 31
0.0
  0
LINE
  5
91
  8
0
  6
CONTINUOUS
 62
     7
 10
12.6485281374239
 20
622.5
 30
0.0
 11
42.64852813742387
 21
622.5
 31
0.0
  0
LINE
  5
92
  8
0
  6
CONTINUOUS
 62
     7
 10
-212.9999999999999
 20
622.5
 30
0.0
 11
-212.9999999999999
 21
682.5000000000001
 31
0.0
  0
LINE
  5
93
  8
0
  6
CONTINUOUS
 62
     7
 10
-212.6485281374238
 20
682.5000000000001
 30
0.0
 11
-212.9999999999999
 21
682.5000000000001
 31
0.0
  0
LINE
  5
94
  8
0
  6
CONTINUOUS
 62
     7
 10
-212.6485281374238
 20
622.5
 30
0.0
 11
-212.9999999999999
 21
622.5
 31
0.0
  0
LINE
  5
95
  8
0
  6
CONTINUOUS
 62
     7
 10
43.00000000000009
 20
622.5
 30
0.0
 11
43.00000000000009
 21
682.5000000000001
 31
0.0
  0
LINE
  5
96
  8
0
  6
CONTINUOUS
 62
     7
 10
42.64852813742387
 20
682.5000000000001
 30
0.0
 11
43.00000000000009
 21
682.5000000000001
 31
0.0
  0
LINE
  5
97
  8
0
  6
CONTINUOUS
 62
     7
 10
42.64852813742387
 20
622.5
 30
0.0
 11
43.00000000000009
 21
622.5
 31
0.0
  0
LINE
  5
98
  8
0
  6
CONTINUOUS
 62
     7
 10
-204.9999999999999
 20
622.5
 30
0.0
 11
-204.9999999999999
 21
621.3
 31
0.0
  0
LINE
  5
99
  8
0
  6
CONTINUOUS
 62
     7
 10
-204.9999999999999
 20
621.3
 30
0.0
 11
-211.7999999999999
 21
621.3
 31
0.0
  0
ARC
  5
9A
  8
0
  6
CONTINUOUS
 62
     7
 10
-211.7999999999999
 20
622.5
 30
0.0
 40
1.199999999999979
 50
180.0
 51
270.0
  0
LINE
  5
9B
  8
0
  6
CONTINUOUS
 62
     7
 10
-204.9999999999999
 20
683.6999999999999
 30
0.0
 11
-211.7999999999999
 21
683.6999999999999
 31
0.0
  0
LINE
  5
9C
  8
0
  6
CONTINUOUS
 62
     7
 10
-204.9999999999999
 20
682.5000000000001
 30
0.0
 11
-204.9999999999999
 21
683.7
 31
0.0
  0
ARC
  5
9D
  8
0
  6
CONTINUOUS
 62
     7
 10
-211.7999999999999
 20
682.5000000000001
 30
0.0
 40
1.199999999999979
 50
90.0
 51
180.0
  0
ARC
  5
9E
  8
0
  6
CONTINUOUS
 62
     7
 10
41.80000000000011
 20
622.5
 30
0.0
 40
1.200000000000034
 50
270.0
 51
0.0
  0
LINE
  5
9F
  8
0
  6
CONTINUOUS
 62
     7
 10
35.00000000000009
 20
621.3
 30
0.0
 11
41.80000000000011
 21
621.3
 31
0.0
  0
LINE
  5
A0
  8
0
  6
CONTINUOUS
 62
     7
 10
35.00000000000009
 20
622.5
 30
0.0
 11
35.00000000000009
 21
621.3
 31
0.0
  0
LINE
  5
A1
  8
0
  6
CONTINUOUS
 62
     7
 10
35.00000000000009
 20
682.5000000000001
 30
0.0
 11
35.00000000000009
 21
683.7
 31
0.0
  0
LINE
  5
A2
  8
0
  6
CONTINUOUS
 62
     7
 10
35.00000000000009
 20
683.6999999999999
 30
0.0
 11
41.80000000000011
 21
683.6999999999999
 31
0.0
  0
ARC
  5
A3
  8
0
  6
CONTINUOUS
 62
     7
 10
41.80000000000011
 20
682.5000000000001
 30
0.0
 40
1.200000000000034
 50
0.0
 51
90.0
  0
LINE
  5
A4
  8
0
  6
CONTINUOUS
 62
     7
 10
-199.9999999999999
 20
622.5
 30
0.0
 11
-199.9999999999999
 21
621.3
 31
0.0
  0
LINE
  5
A5
  8
0
  6
CONTINUOUS
 62
     7
 10
-199.9999999999999
 20
621.3
 30
0.0
 11
-204.9999999999999
 21
621.3
 31
0.0
  0
LINE
  5
A6
  8
0
  6
CONTINUOUS
 62
     7
 10
-199.9999999999999
 20
682.5000000000001
 30
0.0
 11
-199.9999999999999
 21
683.7
 31
0.0
  0
LINE
  5
A7
  8
0
  6
CONTINUOUS
 62
     7
 10
-199.9999999999999
 20
683.6999999999999
 30
0.0
 11
-204.9999999999999
 21
683.6999999999999
 31
0.0
  0
LINE
  5
A8
  8
0
  6
CONTINUOUS
 62
     7
 10
30.00000000000008
 20
622.5
 30
0.0
 11
30.00000000000008
 21
621.3
 31
0.0
  0
LINE
  5
A9
  8
0
  6
CONTINUOUS
 62
     7
 10
30.00000000000008
 20
621.3
 30
0.0
 11
35.00000000000009
 21
621.3
 31
0.0
  0
LINE
  5
AA
  8
0
  6
CONTINUOUS
 62
     7
 10
30.00000000000008
 20
682.5000000000001
 30
0.0
 11
30.00000000000008
 21
683.7
 31
0.0
  0
LINE
  5
AB
  8
0
  6
CONTINUOUS
 62
     7
 10
30.00000000000008
 20
683.6999999999999
 30
0.0
 11
35.00000000000009
 21
683.6999999999999
 31
0.0
  0
LINE
  5
AC
  8
0
  6
CONTINUOUS
 62
     7
 10
-244.9999999999999
 20
637.4999999999999
 30
0.0
 11
-244.9999999999999
 21
667.5
 31
0.0
  0
ARC
  5
AD
  8
0
  6
CONTINUOUS
 62
     7
 10
-229.9999999999999
 20
667.5
 30
0.0
 40
15.00000000000001
 50
90.0
 51
180.0
  0
CIRCLE
  5
AE
  8
0
  6
CONTINUOUS
 62
     7
 10
-229.9999999999999
 20
652.5000000000001
 30
0.0
 40
5.500000000000004
  0
ARC
  5
AF
  8
0
  6
CONTINUOUS
 62
     7
 10
-229.9999999999999
 20
637.4999999999999
 30
0.0
 40
15.00000000000001
 50
180.0
 51
270.0
  0
LINE
  5
B0
  8
0
  6
CONTINUOUS
 62
     7
 10
-212.9999999999999
 20
682.5000000000001
 30
0.0
 11
-229.9999999999999
 21
682.5000000000001
 31
0.0
  0
LINE
  5
B1
  8
0
  6
CONTINUOUS
 62
     7
 10
-212.9999999999999
 20
622.5
 30
0.0
 11
-229.9999999999999
 21
622.5
 31
0.0
  0
ARC
  5
B2
  8
0
  6
CONTINUOUS
 62
     7
 10
60.00000000000005
 20
667.5
 30
0.0
 40
15.00000000000001
 50
0.0
 51
90.0
  0
LINE
  5
B3
  8
0
  6
CONTINUOUS
 62
     7
 10
75.00000000000007
 20
637.4999999999999
 30
0.0
 11
75.00000000000007
 21
667.5
 31
0.0
  0
ARC
  5
B4
  8
0
  6
CONTINUOUS
 62
     7
 10
60.00000000000005
 20
637.4999999999999
 30
0.0
 40
15.00000000000001
 50
270.0
 51
0.0
  0
CIRCLE
  5
B5
  8
0
  6
CONTINUOUS
 62
     7
 10
60.00000000000005
 20
652.5000000000001
 30
0.0
 40
5.500000000000004
  0
LINE
  5
B6
  8
0
  6
CONTINUOUS
 62
     7
 10
43.00000000000009
 20
682.5000000000001
 30
0.0
 11
60.00000000000005
 21
682.5000000000001
 31
0.0
  0
LINE
  5
B7
  8
0
  6
CONTINUOUS
 62
     7
 10
43.00000000000009
 20
622.5
 30
0.0
 11
60.00000000000005
 21
622.5
 31
0.0
  0
LINE
  5
B8
  8
0
  6
CONTINUOUS
 62
     7
 10
43.00000000000009
 20
371.5000000000001
 30
0.0
 11
43.00000000000009
 21
516.5000000000001
 31
0.0
  0
LINE
  5
B9
  8
0
  6
CONTINUOUS
 62
     7
 10
41.80000000000011
 20
371.5000000000001
 30
0.0
 11
43.00000000000009
 21
371.5000000000001
 31
0.0
  0
LINE
  5
BA
  8
0
  6
CONTINUOUS
 62
     7
 10
43.00000000000009
 20
516.5
 30
0.0
 11
41.80000000000011
 21
516.5
 31
0.0
  0
LINE
  5
BB
  8
0
  6
CONTINUOUS
 62
     7
 10
-211.7999999999999
 20
371.5000000000001
 30
0.0
 11
-212.9999999999999
 21
371.5000000000001
 31
0.0
  0
LINE
  5
BC
  8
0
  6
CONTINUOUS
 62
     7
 10
-212.9999999999999
 20
371.5000000000001
 30
0.0
 11
-212.9999999999999
 21
516.5000000000001
 31
0.0
  0
LINE
  5
BD
  8
0
  6
CONTINUOUS
 62
     7
 10
-212.9999999999999
 20
516.5
 30
0.0
 11
-211.7999999999999
 21
516.5
 31
0.0
  0
LINE
  5
BE
  8
0
  6
CONTINUOUS
 62
     7
 10
30.00000000000008
 20
511.5000000000001
 30
0.0
 11
35.00000000000009
 21
516.5000000000001
 31
0.0
  0
LINE
  5
BF
  8
0
  6
CONTINUOUS
 62
     7
 10
30.00000000000008
 20
376.5000000000001
 30
0.0
 11
30.00000000000008
 21
511.5000000000001
 31
0.0
  0
LINE
  5
C0
  8
0
  6
CONTINUOUS
 62
     7
 10
35.00000000000009
 20
371.5000000000001
 30
0.0
 11
30.00000000000008
 21
376.5000000000001
 31
0.0
  0
LINE
  5
C1
  8
0
  6
CONTINUOUS
 62
     7
 10
41.80000000000011
 20
371.5000000000001
 30
0.0
 11
35.00000000000009
 21
371.5000000000001
 31
0.0
  0
LINE
  5
C2
  8
0
  6
CONTINUOUS
 62
     7
 10
35.00000000000009
 20
516.5
 30
0.0
 11
41.80000000000011
 21
516.5
 31
0.0
  0
LINE
  5
C3
  8
0
  6
CONTINUOUS
 62
     7
 10
-199.9999999999999
 20
511.5000000000001
 30
0.0
 11
-204.9999999999999
 21
516.5000000000001
 31
0.0
  0
LINE
  5
C4
  8
0
  6
CONTINUOUS
 62
     7
 10
-199.9999999999999
 20
376.5000000000001
 30
0.0
 11
-199.9999999999999
 21
511.5000000000001
 31
0.0
  0
LINE
  5
C5
  8
0
  6
CONTINUOUS
 62
     7
 10
-204.9999999999999
 20
371.5000000000001
 30
0.0
 11
-199.9999999999999
 21
376.5000000000001
 31
0.0
  0
LINE
  5
C6
  8
0
  6
CONTINUOUS
 62
     7
 10
-211.7999999999999
 20
371.5000000000001
 30
0.0
 11
-204.9999999999999
 21
371.5000000000001
 31
0.0
  0
LINE
  5
C7
  8
0
  6
CONTINUOUS
 62
     7
 10
-204.9999999999999
 20
516.5
 30
0.0
 11
-211.7999999999999
 21
516.5
 31
0.0
  0
LINE
  5
C8
  8
0
  6
CONTINUOUS
 62
     7
 10
-212.9999999999999
 20
527.3000000000001
 30
0.0
 11
-212.9999999999999
 21
516.5000000000001
 31
0.0
  0
ARC
  5
C9
  8
0
  6
CONTINUOUS
 62
     7
 10
-211.7999999999999
 20
527.3000000000001
 30
0.0
 40
1.200000000000007
 50
135.0
 51
180.0
  0
LINE
  5
CA
  8
0
  6
CONTINUOUS
 62
     7
 10
-182.6485281374238
 20
558.1485281374241
 30
0.0
 11
-212.6485281374238
 21
528.1485281374241
 31
0.0
  0
ARC
  5
CB
  8
0
  6
CONTINUOUS
 62
     7
 10
-181.8
 20
557.3
 30
0.0
 40
1.199999999999979
 50
89.99999999999935
 51
135.0
  0
LINE
  5
CC
  8
0
  6
CONTINUOUS
 62
     7
 10
11.80000000000009
 20
558.5
 30
0.0
 11
-181.8
 21
558.5
 31
0.0
  0
ARC
  5
CD
  8
0
  6
CONTINUOUS
 62
     7
 10
11.80000000000009
 20
557.3
 30
0.0
 40
1.199999999999979
 50
45.0
 51
90.00000000000068
  0
LINE
  5
CE
  8
0
  6
CONTINUOUS
 62
     7
 10
12.6485281374239
 20
558.1485281374241
 30
0.0
 11
42.64852813742387
 21
528.1485281374238
 31
0.0
  0
ARC
  5
CF
  8
0
  6
CONTINUOUS
 62
     7
 10
41.80000000000011
 20
527.3000000000001
 30
0.0
 40
1.200000000000034
 50
0.0
 51
45.0
  0
LINE
  5
D0
  8
0
  6
CONTINUOUS
 62
     7
 10
43.00000000000009
 20
527.3000000000001
 30
0.0
 11
43.00000000000009
 21
516.5000000000001
 31
0.0
  0
LINE
  5
D1
  8
0
  6
CONTINUOUS
 62
     7
 10
41.80000000000011
 20
516.5
 30
0.0
 11
41.80000000000011
 21
527.3
 31
0.0
  0
LINE
  5
D2
  8
0
  6
CONTINUOUS
 62
     7
 10
41.80000000000011
 20
527.3000000000001
 30
0.0
 11
11.80000000000009
 21
557.3000000000001
 31
0.0
  0
LINE
  5
D3
  8
0
  6
CONTINUOUS
 62
     7
 10
-181.7999999999999
 20
557.3
 30
0.0
 11
11.80000000000009
 21
557.3
 31
0.0
  0
LINE
  5
D4
  8
0
  6
CONTINUOUS
 62
     7
 10
-211.7999999999999
 20
527.3000000000001
 30
0.0
 11
-181.7999999999999
 21
557.3000000000001
 31
0.0
  0
LINE
  5
D5
  8
0
  6
CONTINUOUS
 62
     7
 10
-211.7999999999999
 20
516.5
 30
0.0
 11
-211.7999999999999
 21
527.3
 31
0.0
  0
LINE
  5
D6
  8
0
  6
CONTINUOUS
 62
     7
 10
-211.7999999999999
 20
367.7
 30
0.0
 11
-211.7999999999999
 21
371.5000000000001
 31
0.0
  0
ARC
  5
D7
  8
0
  6
CONTINUOUS
 62
     7
 10
-212.9999999999999
 20
367.7
 30
0.0
 40
1.199999999999979
 50
270.0
 51
0.0
  0
LINE
  5
D8
  8
0
  6
CONTINUOUS
 62
     7
 10
-229.9999999999999
 20
366.5000000000001
 30
0.0
 11
-212.9999999999999
 21
366.5000000000001
 31
0.0
  0
LINE
  5
D9
  8
0
  6
CONTINUOUS
 62
     7
 10
-212.9999999999999
 20
367.7
 30
0.0
 11
-229.9999999999999
 21
367.7
 31
0.0
  0
LINE
  5
DA
  8
0
  6
CONTINUOUS
 62
     7
 10
-212.9999999999999
 20
371.5000000000001
 30
0.0
 11
-212.9999999999999
 21
367.7
 31
0.0
  0
LINE
  5
DB
  8
0
  6
CONTINUOUS
 62
     7
 10
60.00000000000005
 20
366.5000000000001
 30
0.0
 11
43.00000000000009
 21
366.5000000000001
 31
0.0
  0
ARC
  5
DC
  8
0
  6
CONTINUOUS
 62
     7
 10
43.00000000000009
 20
367.7
 30
0.0
 40
1.200000000000034
 50
180.0
 51
270.0
  0
LINE
  5
DD
  8
0
  6
CONTINUOUS
 62
     7
 10
41.80000000000011
 20
367.7
 30
0.0
 11
41.80000000000011
 21
371.5000000000001
 31
0.0
  0
LINE
  5
DE
  8
0
  6
CONTINUOUS
 62
     7
 10
43.00000000000009
 20
367.7
 30
0.0
 11
60.00000000000005
 21
367.7
 31
0.0
  0
LINE
  5
DF
  8
0
  6
CONTINUOUS
 62
     7
 10
43.00000000000009
 20
371.5000000000001
 30
0.0
 11
43.00000000000009
 21
367.7
 31
0.0
  0
LINE
  5
E0
  8
0
  6
CONTINUOUS
 62
     7
 10
-229.9999999999999
 20
366.5000000000001
 30
0.0
 11
-244.9999999999999
 21
366.5000000000001
 31
0.0
  0
LINE
  5
E1
  8
0
  6
CONTINUOUS
 62
     7
 10
-244.9999999999999
 20
366.5000000000001
 30
0.0
 11
-244.9999999999999
 21
367.7
 31
0.0
  0
LINE
  5
E2
  8
0
  6
CONTINUOUS
 62
     7
 10
-245.0
 20
367.7
 30
0.0
 11
-229.9999999999999
 21
367.7
 31
0.0
  0
LINE
  5
E3
  8
0
  6
CONTINUOUS
 62
     7
 10
75.00000000000007
 20
366.5000000000001
 30
0.0
 11
75.00000000000007
 21
367.7
 31
0.0
  0
LINE
  5
E4
  8
0
  6
CONTINUOUS
 62
     7
 10
75.00000000000007
 20
367.7
 30
0.0
 11
60.00000000000005
 21
367.7
 31
0.0
  0
LINE
  5
E5
  8
0
  6
CONTINUOUS
 62
     7
 10
60.00000000000005
 20
366.5000000000001
 30
0.0
 11
75.00000000000007
 21
366.5000000000001
 31
0.0
  0
TEXT
  5
E6
  8
0
  6
CONTINUOUS
 62
     7
 10
30.08590721520569
 20
336.2409528573216
 30
0.0
 40
6.0
  1
TFS-200S
  0
POINT
  5
E7
  8
0
 62
     1
 10
-84.99999999999993
 20
462.5
 30
0.0
  0
POINT
  5
E8
  8
0
 62
     1
 10
-84.99999999999993
 20
652.5000000000001
 30
0.0
  0
LINE
  5
E9
  8
0
  6
CENTER
 62
     1
 10
-239.4999999999999
 20
652.5000000000001
 30
0.0
 11
-220.4999999999999
 21
652.5000000000001
 31
0.0
  0
LINE
  5
EB
  8
0
  6
CENTER
 62
     1
 10
205.0000000000001
 20
360.5000000000001
 30
0.0
 11
205.0000000000001
 21
564.5
 31
0.0
  0
LINE
  5
EC
  8
0
  6
CENTER
 62
     1
 10
60.00000000000005
 20
382.5000000000001
 30
0.0
 11
60.00000000000005
 21
360.5000000000001
 31
0.0
  0
LINE
  5
ED
  8
0
  6
CENTER
 62
     1
 10
60.00000000000005
 20
643.0
 30
0.0
 11
60.00000000000005
 21
662.0000000000001
 31
0.0
  0
LINE
  5
EE
  8
0
  6
CENTER
 62
     1
 10
-84.99999999999993
 20
615.3000000000001
 30
0.0
 11
-84.99999999999993
 21
689.7000000000002
 31
0.0
  0
LINE
  5
EF
  8
0
  6
CENTER
 62
     1
 10
50.5000000000001
 20
652.5000000000001
 30
0.0
 11
69.50000000000006
 21
652.5000000000001
 31
0.0
  0
LINE
  5
F0
  8
0
  6
CENTER
 62
     1
 10
-229.9999999999999
 20
382.5000000000001
 30
0.0
 11
-229.9999999999999
 21
360.5000000000001
 31
0.0
  0
LINE
  5
F1
  8
0
  6
CENTER
 62
     1
 10
-84.99999999999993
 20
360.5000000000001
 30
0.0
 11
-84.99999999999993
 21
564.5
 31
0.0
  0
LINE
  5
F2
  8
0
  6
CENTER
 62
     1
 10
-229.9999999999999
 20
643.0
 30
0.0
 11
-229.9999999999999
 21
662.0000000000001
 31
0.0
  0
LINE
  5
F3
  8
0
  6
CENTER
 62
     1
 10
-251.0
 20
652.5000000000001
 30
0.0
 11
81.00000000000007
 21
652.5000000000001
 31
0.0
  0
ENDSEC
  0
EOF
