  0
SECTION
  2
HEADER
  9
$ACADVER
  1
AC1006
  9
$DWGCODEPAGE
  3
ansi_932
  9
$INSBASE
 10
0.0
 20
0.0
 30
0.0
  9
$EXTMIN
 10
-148.5
 20
324.4250218832063
  9
$EXTMAX
 10
308.7000000000001
 20
647.1999999999999
  9
$LIMMIN
 10
0.0
 20
0.0
  9
$LIMMAX
 10
12.0
 20
9.0
  9
$ORTHOMODE
 70
     0
  9
$REGENMODE
 70
     1
  9
$FILLMODE
 70
     1
  9
$QTEXTMODE
 70
     0
  9
$MIRRTEXT
 70
     1
  9
$DRAGMODE
 70
     2
  9
$LTSCALE
 40
1.0
  9
$OSMODE
 70
    37
  9
$ATTMODE
 70
     1
  9
$TEXTSIZE
 40
0.2
  9
$TRACEWID
 40
0.05
  9
$TEXTSTYLE
  7
STANDARD
  9
$CLAYER
  8
0
  9
$CELTYPE
  6
BYLAYER
  9
$CECOLOR
 62
   256
  9
$DIMSCALE
 40
1.0
  9
$DIMASZ
 40
3.0
  9
$DIMEXO
 40
0.0625
  9
$DIMDLI
 40
0.38
  9
$DIMRND
 40
0.0
  9
$DIMDLE
 40
0.0
  9
$DIMEXE
 40
1.5
  9
$DIMTP
 40
0.0
  9
$DIMTM
 40
0.0
  9
$DIMTXT
 40
3.0
  9
$DIMCEN
 40
0.09
  9
$DIMTSZ
 40
0.0
  9
$DIMTOL
 70
     0
  9
$DIMLIM
 70
     0
  9
$DIMTIH
 70
     1
  9
$DIMTOH
 70
     1
  9
$DIMSE1
 70
     0
  9
$DIMSE2
 70
     0
  9
$DIMTAD
 70
     1
  9
$DIMZIN
 70
     0
  9
$DIMBLK
  1

  9
$DIMASO
 70
     1
  9
$DIMSHO
 70
     1
  9
$DIMPOST
  1

  9
$DIMAPOST
  1

  9
$DIMALT
 70
     0
  9
$DIMALTD
 70
     2
  9
$DIMALTF
 40
25.4
  9
$DIMLFAC
 40
1.0
  9
$DIMTOFL
 70
     0
  9
$DIMTVP
 40
0.0
  9
$DIMTIX
 70
     0
  9
$DIMSOXD
 70
     0
  9
$DIMSAH
 70
     0
  9
$DIMBLK1
  1

  9
$DIMBLK2
  1

  9
$LUNITS
 70
     2
  9
$LUPREC
 70
     4
  9
$SKETCHINC
 40
0.1
  9
$FILLETRAD
 40
0.5
  9
$AUNITS
 70
     0
  9
$AUPREC
 70
     0
  9
$MENU
  1
.
  9
$ELEVATION
 40
0.0
  9
$THICKNESS
 40
0.0
  9
$LIMCHECK
 70
     0
  9
$CHAMFERA
 40
0.0
  9
$CHAMFERB
 40
0.0
  9
$SKPOLY
 70
     0
  9
$TDCREATE
 40
2460650.776769664
  9
$TDUPDATE
 40
2460650.776769861
  9
$TDINDWG
 40
0.0000000116
  9
$TDUSRTIMER
 40
0.0000000116
  9
$USRTIMER
 70
     1
  9
$ANGBASE
 50
0.0
  9
$ANGDIR
 70
     0
  9
$PDMODE
 70
     0
  9
$PDSIZE
 40
0.0
  9
$PLINEWID
 40
0.0
  9
$COORDS
 70
     1
  9
$SPLFRAME
 70
     0
  9
$SPLINETYPE
 70
     6
  9
$SPLINESEGS
 70
     8
  9
$ATTDIA
 70
     0
  9
$ATTREQ
 70
     1
  9
$HANDLING
 70
     1
  9
$HANDSEED
  5
10B
  9
$SURFTAB1
 70
     6
  9
$SURFTAB2
 70
     6
  9
$SURFTYPE
 70
     6
  9
$SURFU
 70
     6
  9
$SURFV
 70
     6
  9
$UCSNAME
  2

  9
$UCSORG
 10
0.0
 20
0.0
 30
0.0
  9
$UCSXDIR
 10
1.0
 20
0.0
 30
0.0
  9
$UCSYDIR
 10
0.0
 20
1.0
 30
0.0
  9
$USERI1
 70
     0
  9
$USERI2
 70
     0
  9
$USERI3
 70
     0
  9
$USERI4
 70
     0
  9
$USERI5
 70
     0
  9
$USERR1
 40
0.0
  9
$USERR2
 40
0.0
  9
$USERR3
 40
0.0
  9
$USERR4
 40
0.0
  9
$USERR5
 40
0.0
  9
$WORLDVIEW
 70
     1
  0
ENDSEC
  0
SECTION
  2
TABLES
  0
TABLE
  2
VPORT
 70
     1
  0
VPORT
  2
*ACTIVE
 70
     0
 10
0.0
 20
0.0
 11
1.0
 21
1.0
 12
80.10000000000007
 22
485.8125109416031
 13
0.0
 23
0.0
 14
0.5
 24
0.5
 15
0.5
 25
0.5
 16
0.0
 26
0.0
 36
1.0
 17
0.0
 27
0.0
 37
0.0
 40
322.7749781167936
 41
1.6
 42
50.0
 43
0.0
 44
0.0
 50
0.0
 51
0.0
 71
     0
 72
   100
 73
     1
 74
     3
 75
     0
 76
     0
 77
     0
 78
     0
  0
ENDTAB
  0
TABLE
  2
LTYPE
 70
     2
  0
LTYPE
  2
CONTINUOUS
 70
     0
  3
Solid line
 72
    65
 73
     0
 40
0.0
  0
LTYPE
  2
CENTER
 70
     0
  3

 72
    65
 73
     0
 40
0.0
  0
ENDTAB
  0
TABLE
  2
LAYER
 70
     2
  0
LAYER
  2
0
 70
     0
 62
     7
  6
CONTINUOUS
  0
LAYER
  2
1
 70
     0
 62
     7
  6
CONTINUOUS
  0
ENDTAB
  0
TABLE
  2
STYLE
 70
     2
  0
STYLE
  2
STANDARD
 70
     0
 40
0.0
 41
1.0
 50
0.0
 71
     0
 42
0.2
  3
txt
  4

  0
STYLE
  2
ＭＳ_ゴシック
 70
     0
 40
0.0
 41
1.0
 50
0.0
 71
     0
 42
0.2
  3
ＭＳ ゴシック.shx
  4

  0
ENDTAB
  0
TABLE
  2
VIEW
 70
     0
  0
ENDTAB
  0
TABLE
  2
UCS
 70
     0
  0
ENDTAB
  0
ENDSEC
  0
SECTION
  2
BLOCKS
  0
ENDSEC
  0
SECTION
  2
ENTITIES
  0
LINE
  5
70
  8
1
  6
CONTINUOUS
 62
     7
 10
307.5000000000001
 20
344.6999999999999
 30
0.0
 11
307.5000000000001
 21
343.4999999999999
 31
0.0
  0
LINE
  5
71
  8
1
  6
CONTINUOUS
 62
     7
 10
307.5000000000001
 20
343.4999999999999
 30
0.0
 11
292.5000000000001
 21
343.4999999999999
 31
0.0
  0
LINE
  5
72
  8
1
  6
CONTINUOUS
 62
   253
 10
292.5000000000001
 20
343.4999999999999
 30
0.0
 11
292.5000000000001
 21
344.6999999999999
 31
0.0
  0
LINE
  5
73
  8
1
  6
CONTINUOUS
 62
     7
 10
292.5000000000001
 20
344.6999999999999
 30
0.0
 11
307.5000000000001
 21
344.6999999999999
 31
0.0
  0
LINE
  5
74
  8
1
  6
CONTINUOUS
 62
   253
 10
262.5000000000001
 20
343.4999999999999
 30
0.0
 11
262.5000000000001
 21
344.6999999999999
 31
0.0
  0
LINE
  5
75
  8
1
  6
CONTINUOUS
 62
     7
 10
247.5000000000001
 20
343.4999999999999
 30
0.0
 11
262.5000000000001
 21
343.4999999999999
 31
0.0
  0
LINE
  5
76
  8
1
  6
CONTINUOUS
 62
     7
 10
247.5000000000001
 20
344.6999999999999
 30
0.0
 11
247.5000000000001
 21
343.4999999999999
 31
0.0
  0
LINE
  5
77
  8
1
  6
CONTINUOUS
 62
     7
 10
262.5000000000001
 20
344.6999999999999
 30
0.0
 11
247.5000000000001
 21
344.6999999999999
 31
0.0
  0
LINE
  5
78
  8
1
  6
CONTINUOUS
 62
     7
 10
262.5000000000001
 20
343.4999999999999
 30
0.0
 11
292.5000000000001
 21
343.4999999999999
 31
0.0
  0
LINE
  5
79
  8
1
  6
CONTINUOUS
 62
     7
 10
262.5000000000001
 20
344.6999999999999
 30
0.0
 11
292.5000000000001
 21
344.6999999999999
 31
0.0
  0
LINE
  5
7A
  8
1
  6
CONTINUOUS
 62
   253
 10
247.5000000000001
 20
348.4999999999999
 30
0.0
 11
247.5000000000001
 21
448.5
 31
0.0
  0
LINE
  5
7B
  8
1
  6
CONTINUOUS
 62
     7
 10
247.5000000000001
 20
455.2999999999997
 30
0.0
 11
247.5000000000001
 21
448.5
 31
0.0
  0
LINE
  5
7C
  8
1
  6
CONTINUOUS
 62
   253
 10
247.5000000000001
 20
455.2999999999997
 30
0.0
 11
307.5000000000001
 21
455.2999999999997
 31
0.0
  0
LINE
  5
7D
  8
1
  6
CONTINUOUS
 62
     7
 10
307.5000000000001
 20
455.2999999999997
 30
0.0
 11
307.5000000000001
 21
448.5
 31
0.0
  0
LINE
  5
7E
  8
1
  6
CONTINUOUS
 62
   253
 10
307.5000000000001
 20
348.4999999999999
 30
0.0
 11
307.5000000000001
 21
448.5
 31
0.0
  0
LINE
  5
7F
  8
1
  6
CONTINUOUS
 62
     7
 10
247.5000000000001
 20
348.4999999999999
 30
0.0
 11
247.5000000000001
 21
344.6999999999999
 31
0.0
  0
LINE
  5
80
  8
1
  6
CONTINUOUS
 62
     7
 10
307.5000000000001
 20
348.4999999999999
 30
0.0
 11
307.5000000000001
 21
344.6999999999999
 31
0.0
  0
LINE
  5
81
  8
1
  6
CONTINUOUS
 62
     7
 10
308.7000000000001
 20
448.4999999999999
 30
0.0
 11
308.7000000000001
 21
348.4999999999999
 31
0.0
  0
LINE
  5
82
  8
1
  6
CONTINUOUS
 62
     7
 10
307.5000000000001
 20
448.4999999999999
 30
0.0
 11
308.7000000000001
 21
448.4999999999999
 31
0.0
  0
LINE
  5
83
  8
1
  6
CONTINUOUS
 62
     7
 10
308.7000000000001
 20
348.4999999999999
 30
0.0
 11
307.5000000000001
 21
348.4999999999999
 31
0.0
  0
LINE
  5
84
  8
1
  6
CONTINUOUS
 62
     7
 10
246.3000000000001
 20
448.4999999999999
 30
0.0
 11
246.3000000000001
 21
348.4999999999999
 31
0.0
  0
LINE
  5
85
  8
1
  6
CONTINUOUS
 62
     7
 10
246.3000000000001
 20
348.4999999999999
 30
0.0
 11
247.5000000000001
 21
348.4999999999999
 31
0.0
  0
LINE
  5
86
  8
1
  6
CONTINUOUS
 62
     7
 10
247.5000000000001
 20
448.4999999999999
 30
0.0
 11
246.3000000000001
 21
448.4999999999999
 31
0.0
  0
LINE
  5
87
  8
1
  6
CONTINUOUS
 62
   253
 10
247.5000000000001
 20
456.1485281374239
 30
0.0
 11
307.5000000000001
 21
456.1485281374239
 31
0.0
  0
LINE
  5
88
  8
1
  6
CONTINUOUS
 62
     7
 10
247.5000000000001
 20
456.1485281374239
 30
0.0
 11
247.5000000000001
 21
455.2999999999998
 31
0.0
  0
LINE
  5
89
  8
1
  6
CONTINUOUS
 62
     7
 10
307.5000000000001
 20
456.1485281374239
 30
0.0
 11
307.5000000000001
 21
455.2999999999998
 31
0.0
  0
LINE
  5
8A
  8
1
  6
CONTINUOUS
 62
   253
 10
247.5000000000001
 20
486.1485281374239
 30
0.0
 11
307.5000000000001
 21
486.1485281374239
 31
0.0
  0
LINE
  5
8B
  8
1
  6
CONTINUOUS
 62
     7
 10
247.5000000000001
 20
486.1485281374239
 30
0.0
 11
247.5000000000001
 21
456.1485281374239
 31
0.0
  0
LINE
  5
8C
  8
1
  6
CONTINUOUS
 62
     7
 10
307.5000000000001
 20
486.1485281374239
 30
0.0
 11
307.5000000000001
 21
456.1485281374239
 31
0.0
  0
LINE
  5
8D
  8
1
  6
CONTINUOUS
 62
     7
 10
247.5000000000001
 20
486.5
 30
0.0
 11
307.5000000000001
 21
486.5
 31
0.0
  0
LINE
  5
8E
  8
1
  6
CONTINUOUS
 62
     7
 10
247.5000000000001
 20
486.5
 30
0.0
 11
247.5000000000001
 21
486.1485281374238
 31
0.0
  0
LINE
  5
8F
  8
1
  6
CONTINUOUS
 62
     7
 10
307.5000000000001
 20
486.5
 30
0.0
 11
307.5000000000001
 21
486.1485281374238
 31
0.0
  0
LINE
  5
90
  8
1
  6
CONTINUOUS
 62
     7
 10
145.5000000000001
 20
348.4999999999999
 30
0.0
 11
145.5000000000001
 21
448.5
 31
0.0
  0
LINE
  5
91
  8
1
  6
CONTINUOUS
 62
     7
 10
144.3000000000001
 20
348.4999999999999
 30
0.0
 11
145.5000000000001
 21
348.4999999999999
 31
0.0
  0
LINE
  5
92
  8
1
  6
CONTINUOUS
 62
   253
 10
144.3000000000001
 20
448.4999999999999
 30
0.0
 11
144.3000000000001
 21
348.4999999999999
 31
0.0
  0
LINE
  5
93
  8
1
  6
CONTINUOUS
 62
     7
 10
145.5000000000001
 20
448.4999999999999
 30
0.0
 11
144.3000000000001
 21
448.4999999999999
 31
0.0
  0
LINE
  5
94
  8
1
  6
CONTINUOUS
 62
   253
 10
-109.2999999999999
 20
448.4999999999999
 30
0.0
 11
-109.2999999999999
 21
348.4999999999999
 31
0.0
  0
LINE
  5
95
  8
1
  6
CONTINUOUS
 62
     7
 10
-109.2999999999999
 20
348.4999999999999
 30
0.0
 11
-110.4999999999999
 21
348.4999999999999
 31
0.0
  0
LINE
  5
96
  8
1
  6
CONTINUOUS
 62
     7
 10
-110.4999999999999
 20
348.4999999999999
 30
0.0
 11
-110.4999999999999
 21
448.5
 31
0.0
  0
LINE
  5
97
  8
1
  6
CONTINUOUS
 62
     7
 10
-110.4999999999999
 20
448.4999999999999
 30
0.0
 11
-109.2999999999999
 21
448.4999999999999
 31
0.0
  0
LINE
  5
98
  8
1
  6
CONTINUOUS
 62
     7
 10
132.5000000000001
 20
443.5000000000001
 30
0.0
 11
137.5000000000001
 21
448.5000000000001
 31
0.0
  0
LINE
  5
99
  8
1
  6
CONTINUOUS
 62
     7
 10
132.5000000000001
 20
353.5
 30
0.0
 11
132.5000000000001
 21
443.4999999999999
 31
0.0
  0
LINE
  5
9A
  8
1
  6
CONTINUOUS
 62
     7
 10
137.5000000000001
 20
348.4999999999999
 30
0.0
 11
132.5000000000001
 21
353.5
 31
0.0
  0
LINE
  5
9B
  8
1
  6
CONTINUOUS
 62
     7
 10
144.3000000000001
 20
348.4999999999999
 30
0.0
 11
137.5000000000001
 21
348.4999999999999
 31
0.0
  0
LINE
  5
9C
  8
1
  6
CONTINUOUS
 62
     7
 10
137.5000000000001
 20
448.4999999999999
 30
0.0
 11
144.3000000000001
 21
448.4999999999999
 31
0.0
  0
LINE
  5
9D
  8
1
  6
CONTINUOUS
 62
     7
 10
-97.49999999999991
 20
443.5000000000001
 30
0.0
 11
-102.4999999999999
 21
448.5000000000001
 31
0.0
  0
LINE
  5
9E
  8
1
  6
CONTINUOUS
 62
     7
 10
-97.49999999999991
 20
353.5
 30
0.0
 11
-97.49999999999991
 21
443.4999999999999
 31
0.0
  0
LINE
  5
9F
  8
1
  6
CONTINUOUS
 62
     7
 10
-102.4999999999999
 20
348.4999999999999
 30
0.0
 11
-97.49999999999991
 21
353.5
 31
0.0
  0
LINE
  5
A0
  8
1
  6
CONTINUOUS
 62
     7
 10
-109.2999999999999
 20
348.4999999999999
 30
0.0
 11
-102.4999999999999
 21
348.4999999999999
 31
0.0
  0
LINE
  5
A1
  8
1
  6
CONTINUOUS
 62
     7
 10
-102.4999999999999
 20
448.4999999999999
 30
0.0
 11
-109.2999999999999
 21
448.4999999999999
 31
0.0
  0
LINE
  5
A2
  8
1
  6
CONTINUOUS
 62
     7
 10
-110.4999999999999
 20
455.2999999999997
 30
0.0
 11
-110.4999999999999
 21
448.5
 31
0.0
  0
ARC
  5
A3
  8
1
  6
CONTINUOUS
 62
     7
 10
-109.2999999999999
 20
455.2999999999997
 30
0.0
 40
1.199999999999979
 50
134.9999999999995
 51
180.0000000000007
  0
LINE
  5
A4
  8
1
  6
CONTINUOUS
 62
     7
 10
-80.14852813742377
 20
486.1485281374239
 30
0.0
 11
-110.1485281374238
 21
456.1485281374239
 31
0.0
  0
ARC
  5
A5
  8
1
  6
CONTINUOUS
 62
     7
 10
-79.29999999999987
 20
485.3
 30
0.0
 40
1.200000000000034
 50
89.99999999999935
 51
135.0000000000005
  0
LINE
  5
A6
  8
1
  6
CONTINUOUS
 62
     7
 10
114.3000000000001
 20
486.5
 30
0.0
 11
-79.29999999999984
 21
486.5
 31
0.0
  0
ARC
  5
A7
  8
1
  6
CONTINUOUS
 62
     7
 10
114.3000000000001
 20
485.3
 30
0.0
 40
1.200000000000034
 50
44.99999999999955
 51
90.00000000000068
  0
LINE
  5
A8
  8
1
  6
CONTINUOUS
 62
     7
 10
115.1485281374239
 20
486.1485281374239
 30
0.0
 11
145.1485281374241
 21
456.1485281374239
 31
0.0
  0
ARC
  5
A9
  8
1
  6
CONTINUOUS
 62
     7
 10
144.3000000000001
 20
455.2999999999997
 30
0.0
 40
1.199999999999979
 50
359.9999999999993
 51
45.00000000000045
  0
LINE
  5
AA
  8
1
  6
CONTINUOUS
 62
     7
 10
145.5000000000001
 20
455.2999999999997
 30
0.0
 11
145.5000000000001
 21
448.5
 31
0.0
  0
LINE
  5
AB
  8
1
  6
CONTINUOUS
 62
     7
 10
144.3000000000001
 20
448.4999999999999
 30
0.0
 11
144.3000000000001
 21
455.2999999999997
 31
0.0
  0
LINE
  5
AC
  8
1
  6
CONTINUOUS
 62
     7
 10
144.3000000000001
 20
455.2999999999997
 30
0.0
 11
114.3000000000001
 21
485.3
 31
0.0
  0
LINE
  5
AD
  8
1
  6
CONTINUOUS
 62
     7
 10
-79.29999999999987
 20
485.3
 30
0.0
 11
114.3
 21
485.3
 31
0.0
  0
LINE
  5
AE
  8
1
  6
CONTINUOUS
 62
     7
 10
-109.2999999999999
 20
455.2999999999997
 30
0.0
 11
-79.29999999999987
 21
485.3
 31
0.0
  0
LINE
  5
AF
  8
1
  6
CONTINUOUS
 62
     7
 10
-109.2999999999999
 20
448.4999999999999
 30
0.0
 11
-109.2999999999999
 21
455.2999999999997
 31
0.0
  0
LINE
  5
B0
  8
1
  6
CONTINUOUS
 62
     7
 10
-109.2999999999999
 20
344.6999999999999
 30
0.0
 11
-109.2999999999999
 21
348.4999999999999
 31
0.0
  0
ARC
  5
B1
  8
1
  6
CONTINUOUS
 62
     7
 10
-110.4999999999999
 20
344.6999999999999
 30
0.0
 40
1.199999999999979
 50
270.0
 51
0.0
  0
LINE
  5
B2
  8
1
  6
CONTINUOUS
 62
     7
 10
-127.4999999999999
 20
343.4999999999999
 30
0.0
 11
-110.4999999999999
 21
343.4999999999999
 31
0.0
  0
LINE
  5
B3
  8
1
  6
CONTINUOUS
 62
   253
 10
-127.4999999999999
 20
344.6999999999999
 30
0.0
 11
-127.4999999999999
 21
343.4999999999999
 31
0.0
  0
LINE
  5
B4
  8
1
  6
CONTINUOUS
 62
     7
 10
-110.4999999999999
 20
344.6999999999999
 30
0.0
 11
-127.4999999999999
 21
344.6999999999999
 31
0.0
  0
LINE
  5
B5
  8
1
  6
CONTINUOUS
 62
     7
 10
-110.4999999999999
 20
348.4999999999999
 30
0.0
 11
-110.4999999999999
 21
344.6999999999999
 31
0.0
  0
LINE
  5
B6
  8
1
  6
CONTINUOUS
 62
   253
 10
162.5
 20
344.6999999999999
 30
0.0
 11
162.5
 21
343.4999999999999
 31
0.0
  0
LINE
  5
B7
  8
1
  6
CONTINUOUS
 62
     7
 10
162.5
 20
343.4999999999999
 30
0.0
 11
145.5000000000001
 21
343.4999999999999
 31
0.0
  0
ARC
  5
B8
  8
1
  6
CONTINUOUS
 62
     7
 10
145.5000000000001
 20
344.6999999999999
 30
0.0
 40
1.199999999999979
 50
180.0
 51
270.0
  0
LINE
  5
B9
  8
1
  6
CONTINUOUS
 62
     7
 10
144.3000000000001
 20
344.6999999999999
 30
0.0
 11
144.3000000000001
 21
348.4999999999999
 31
0.0
  0
LINE
  5
BA
  8
1
  6
CONTINUOUS
 62
     7
 10
145.5000000000001
 20
344.6999999999999
 30
0.0
 11
162.5
 21
344.6999999999999
 31
0.0
  0
LINE
  5
BB
  8
1
  6
CONTINUOUS
 62
     7
 10
145.5000000000001
 20
348.4999999999999
 30
0.0
 11
145.5000000000001
 21
344.6999999999999
 31
0.0
  0
LINE
  5
BC
  8
1
  6
CONTINUOUS
 62
     7
 10
-127.4999999999999
 20
343.4999999999999
 30
0.0
 11
-142.4999999999999
 21
343.4999999999999
 31
0.0
  0
LINE
  5
BD
  8
1
  6
CONTINUOUS
 62
     7
 10
-142.4999999999999
 20
343.4999999999999
 30
0.0
 11
-142.4999999999999
 21
344.6999999999999
 31
0.0
  0
LINE
  5
BE
  8
1
  6
CONTINUOUS
 62
     7
 10
-142.4999999999999
 20
344.6999999999999
 30
0.0
 11
-127.4999999999999
 21
344.6999999999999
 31
0.0
  0
LINE
  5
BF
  8
1
  6
CONTINUOUS
 62
     7
 10
177.5000000000001
 20
343.4999999999999
 30
0.0
 11
177.5000000000001
 21
344.6999999999999
 31
0.0
  0
LINE
  5
C0
  8
1
  6
CONTINUOUS
 62
     7
 10
177.5000000000001
 20
344.6999999999999
 30
0.0
 11
162.5
 21
344.6999999999999
 31
0.0
  0
LINE
  5
C1
  8
1
  6
CONTINUOUS
 62
     7
 10
162.5
 20
343.4999999999999
 30
0.0
 11
177.5000000000001
 21
343.4999999999999
 31
0.0
  0
LINE
  5
C2
  8
1
  6
CONTINUOUS
 62
     7
 10
114.3000000000001
 20
639.9999999999999
 30
0.0
 11
115.1485281374239
 21
639.9999999999999
 31
0.0
  0
LINE
  5
C3
  8
1
  6
CONTINUOUS
 62
   253
 10
115.1485281374239
 20
580.0000000000001
 30
0.0
 11
115.1485281374239
 21
640.0000000000001
 31
0.0
  0
LINE
  5
C4
  8
1
  6
CONTINUOUS
 62
     7
 10
114.3000000000001
 20
580.0000000000001
 30
0.0
 11
115.1485281374239
 21
580.0000000000001
 31
0.0
  0
LINE
  5
C5
  8
1
  6
CONTINUOUS
 62
   253
 10
114.3000000000001
 20
580.0000000000001
 30
0.0
 11
114.3000000000001
 21
640.0000000000001
 31
0.0
  0
LINE
  5
C6
  8
1
  6
CONTINUOUS
 62
     7
 10
-79.29999999999987
 20
580.0000000000001
 30
0.0
 11
-80.14852813742374
 21
580.0000000000001
 31
0.0
  0
LINE
  5
C7
  8
1
  6
CONTINUOUS
 62
   253
 10
-80.14852813742377
 20
580.0000000000001
 30
0.0
 11
-80.14852813742377
 21
640.0000000000001
 31
0.0
  0
LINE
  5
C8
  8
1
  6
CONTINUOUS
 62
     7
 10
-79.29999999999987
 20
639.9999999999999
 30
0.0
 11
-80.14852813742374
 21
639.9999999999999
 31
0.0
  0
LINE
  5
C9
  8
1
  6
CONTINUOUS
 62
   253
 10
-79.29999999999987
 20
580.0000000000001
 30
0.0
 11
-79.29999999999987
 21
640.0000000000001
 31
0.0
  0
LINE
  5
CA
  8
1
  6
CONTINUOUS
 62
     7
 10
114.3000000000001
 20
639.9999999999999
 30
0.0
 11
-79.29999999999984
 21
639.9999999999999
 31
0.0
  0
LINE
  5
CB
  8
1
  6
CONTINUOUS
 62
     7
 10
114.3000000000001
 20
580.0000000000001
 30
0.0
 11
-79.29999999999984
 21
580.0000000000001
 31
0.0
  0
LINE
  5
CC
  8
1
  6
CONTINUOUS
 62
   253
 10
-110.1485281374238
 20
580.0000000000001
 30
0.0
 11
-110.1485281374238
 21
640.0000000000001
 31
0.0
  0
LINE
  5
CD
  8
1
  6
CONTINUOUS
 62
     7
 10
-80.14852813742377
 20
639.9999999999999
 30
0.0
 11
-110.1485281374238
 21
639.9999999999999
 31
0.0
  0
LINE
  5
CE
  8
1
  6
CONTINUOUS
 62
     7
 10
-80.14852813742377
 20
580.0000000000001
 30
0.0
 11
-110.1485281374238
 21
580.0000000000001
 31
0.0
  0
LINE
  5
CF
  8
1
  6
CONTINUOUS
 62
   253
 10
145.1485281374241
 20
580.0000000000001
 30
0.0
 11
145.1485281374241
 21
640.0000000000001
 31
0.0
  0
LINE
  5
D0
  8
1
  6
CONTINUOUS
 62
     7
 10
115.1485281374239
 20
639.9999999999999
 30
0.0
 11
145.1485281374241
 21
639.9999999999999
 31
0.0
  0
LINE
  5
D1
  8
1
  6
CONTINUOUS
 62
     7
 10
115.1485281374239
 20
580.0000000000001
 30
0.0
 11
145.1485281374241
 21
580.0000000000001
 31
0.0
  0
LINE
  5
D2
  8
1
  6
CONTINUOUS
 62
     7
 10
-110.4999999999999
 20
580.0000000000001
 30
0.0
 11
-110.4999999999999
 21
640.0000000000001
 31
0.0
  0
LINE
  5
D3
  8
1
  6
CONTINUOUS
 62
     7
 10
-110.1485281374237
 20
639.9999999999999
 30
0.0
 11
-110.4999999999999
 21
639.9999999999999
 31
0.0
  0
LINE
  5
D4
  8
1
  6
CONTINUOUS
 62
     7
 10
-110.1485281374237
 20
580.0000000000001
 30
0.0
 11
-110.4999999999999
 21
580.0000000000001
 31
0.0
  0
LINE
  5
D5
  8
1
  6
CONTINUOUS
 62
     7
 10
145.5000000000001
 20
580.0000000000001
 30
0.0
 11
145.5000000000001
 21
640.0000000000001
 31
0.0
  0
LINE
  5
D6
  8
1
  6
CONTINUOUS
 62
     7
 10
145.1485281374239
 20
639.9999999999999
 30
0.0
 11
145.5000000000001
 21
639.9999999999999
 31
0.0
  0
LINE
  5
D7
  8
1
  6
CONTINUOUS
 62
     7
 10
145.1485281374239
 20
580.0000000000001
 30
0.0
 11
145.5000000000001
 21
580.0000000000001
 31
0.0
  0
LINE
  5
D8
  8
1
  6
CONTINUOUS
 62
     7
 10
-102.4999999999999
 20
580.0000000000001
 30
0.0
 11
-102.4999999999999
 21
578.8000000000001
 31
0.0
  0
LINE
  5
D9
  8
1
  6
CONTINUOUS
 62
     7
 10
-102.4999999999999
 20
578.8
 30
0.0
 11
-109.2999999999999
 21
578.8
 31
0.0
  0
ARC
  5
DA
  8
1
  6
CONTINUOUS
 62
     7
 10
-109.2999999999999
 20
580.0000000000001
 30
0.0
 40
1.200000000000007
 50
180.0
 51
270.0
  0
LINE
  5
DB
  8
1
  6
CONTINUOUS
 62
     7
 10
-102.4999999999999
 20
641.1999999999999
 30
0.0
 11
-109.2999999999999
 21
641.1999999999999
 31
0.0
  0
LINE
  5
DC
  8
1
  6
CONTINUOUS
 62
     7
 10
-102.4999999999999
 20
639.9999999999999
 30
0.0
 11
-102.4999999999999
 21
641.1999999999999
 31
0.0
  0
ARC
  5
DD
  8
1
  6
CONTINUOUS
 62
     7
 10
-109.2999999999999
 20
639.9999999999999
 30
0.0
 40
1.200000000000007
 50
90.0
 51
180.0
  0
ARC
  5
DE
  8
1
  6
CONTINUOUS
 62
     7
 10
144.3000000000001
 20
580.0000000000001
 30
0.0
 40
1.199999999999979
 50
270.0
 51
0.0
  0
LINE
  5
DF
  8
1
  6
CONTINUOUS
 62
     7
 10
137.5000000000001
 20
578.8
 30
0.0
 11
144.3000000000001
 21
578.8
 31
0.0
  0
LINE
  5
E0
  8
1
  6
CONTINUOUS
 62
     7
 10
137.5000000000001
 20
580.0000000000001
 30
0.0
 11
137.5000000000001
 21
578.8000000000001
 31
0.0
  0
LINE
  5
E1
  8
1
  6
CONTINUOUS
 62
     7
 10
137.5000000000001
 20
639.9999999999999
 30
0.0
 11
137.5000000000001
 21
641.1999999999999
 31
0.0
  0
LINE
  5
E2
  8
1
  6
CONTINUOUS
 62
     7
 10
137.5000000000001
 20
641.1999999999999
 30
0.0
 11
144.3000000000001
 21
641.1999999999999
 31
0.0
  0
ARC
  5
E3
  8
1
  6
CONTINUOUS
 62
     7
 10
144.3000000000001
 20
639.9999999999999
 30
0.0
 40
1.199999999999979
 50
0.0
 51
90.0
  0
LINE
  5
E4
  8
1
  6
CONTINUOUS
 62
     7
 10
-97.49999999999991
 20
580.0000000000001
 30
0.0
 11
-97.49999999999991
 21
578.8000000000001
 31
0.0
  0
LINE
  5
E5
  8
1
  6
CONTINUOUS
 62
     7
 10
-97.49999999999991
 20
578.8
 30
0.0
 11
-102.4999999999999
 21
578.8
 31
0.0
  0
LINE
  5
E6
  8
1
  6
CONTINUOUS
 62
     7
 10
-97.49999999999991
 20
639.9999999999999
 30
0.0
 11
-97.49999999999991
 21
641.1999999999999
 31
0.0
  0
LINE
  5
E7
  8
1
  6
CONTINUOUS
 62
     7
 10
-97.49999999999991
 20
641.1999999999999
 30
0.0
 11
-102.4999999999999
 21
641.1999999999999
 31
0.0
  0
LINE
  5
E8
  8
1
  6
CONTINUOUS
 62
     7
 10
132.5000000000001
 20
580.0000000000001
 30
0.0
 11
132.5000000000001
 21
578.8000000000001
 31
0.0
  0
LINE
  5
E9
  8
1
  6
CONTINUOUS
 62
     7
 10
132.5000000000001
 20
578.8
 30
0.0
 11
137.5000000000001
 21
578.8
 31
0.0
  0
LINE
  5
EA
  8
1
  6
CONTINUOUS
 62
     7
 10
132.5000000000001
 20
639.9999999999999
 30
0.0
 11
132.5000000000001
 21
641.1999999999999
 31
0.0
  0
LINE
  5
EB
  8
1
  6
CONTINUOUS
 62
     7
 10
132.5000000000001
 20
641.1999999999999
 30
0.0
 11
137.5000000000001
 21
641.1999999999999
 31
0.0
  0
LINE
  5
EC
  8
1
  6
CONTINUOUS
 62
     7
 10
-142.4999999999999
 20
595.0
 30
0.0
 11
-142.4999999999999
 21
625.0
 31
0.0
  0
ARC
  5
ED
  8
1
  6
CONTINUOUS
 62
     7
 10
-127.4999999999999
 20
625.0
 30
0.0
 40
15.00000000000001
 50
90.0
 51
180.0
  0
CIRCLE
  5
EE
  8
1
  6
CONTINUOUS
 62
     7
 10
-127.4999999999999
 20
609.9999999999999
 30
0.0
 40
5.500000000000004
  0
ARC
  5
EF
  8
1
  6
CONTINUOUS
 62
     7
 10
-127.4999999999999
 20
595.0
 30
0.0
 40
15.00000000000001
 50
180.0
 51
270.0
  0
LINE
  5
F0
  8
1
  6
CONTINUOUS
 62
     7
 10
-110.4999999999999
 20
639.9999999999999
 30
0.0
 11
-127.4999999999999
 21
639.9999999999999
 31
0.0
  0
LINE
  5
F1
  8
1
  6
CONTINUOUS
 62
     7
 10
-110.4999999999999
 20
580.0000000000001
 30
0.0
 11
-127.4999999999999
 21
580.0000000000001
 31
0.0
  0
ARC
  5
F2
  8
1
  6
CONTINUOUS
 62
     7
 10
162.5
 20
625.0
 30
0.0
 40
15.00000000000001
 50
0.0
 51
90.0
  0
LINE
  5
F3
  8
1
  6
CONTINUOUS
 62
     7
 10
177.5000000000001
 20
595.0
 30
0.0
 11
177.5000000000001
 21
625.0
 31
0.0
  0
ARC
  5
F4
  8
1
  6
CONTINUOUS
 62
     7
 10
162.5
 20
595.0
 30
0.0
 40
15.00000000000001
 50
270.0
 51
0.0
  0
CIRCLE
  5
F5
  8
1
  6
CONTINUOUS
 62
     7
 10
162.5
 20
609.9999999999999
 30
0.0
 40
5.499999999999949
  0
LINE
  5
F6
  8
1
  6
CONTINUOUS
 62
     7
 10
145.5000000000001
 20
639.9999999999999
 30
0.0
 11
162.5
 21
639.9999999999999
 31
0.0
  0
LINE
  5
F7
  8
1
  6
CONTINUOUS
 62
     7
 10
145.5000000000001
 20
580.0000000000001
 30
0.0
 11
162.5
 21
580.0000000000001
 31
0.0
  0
TEXT
  5
F8
  8
1
  6
CONTINUOUS
 62
     7
 10
137.5859072152057
 20
323.7409528573216
 30
0.0
 40
6.0
  1
TFS-F200S
  0
POINT
  5
F9
  8
1
 62
     1
 10
17.50000000000007
 20
609.9999999999999
 30
0.0
  0
POINT
  5
FA
  8
1
 62
     1
 10
17.50000000000007
 20
414.9999999999999
 30
0.0
  0
LINE
  5
FB
  8
1
  6
CENTER
 62
     1
 10
162.5
 20
600.5
 30
0.0
 11
162.5
 21
619.5
 31
0.0
  0
LINE
  5
FD
  8
1
  6
CENTER
 62
     1
 10
153.0000000000001
 20
609.9999999999999
 30
0.0
 11
172.0
 21
609.9999999999999
 31
0.0
  0
LINE
  5
FE
  8
1
  6
CENTER
 62
     1
 10
-148.5
 20
609.9999999999999
 30
0.0
 11
183.5000000000001
 21
609.9999999999999
 31
0.0
  0
LINE
  5
FF
  8
1
  6
CENTER
 62
     1
 10
277.5000000000001
 20
337.4999999999999
 30
0.0
 11
277.5000000000001
 21
492.4999999999999
 31
0.0
  0
LINE
  5
100
  8
1
  6
CENTER
 62
     1
 10
-127.4999999999999
 20
600.5
 30
0.0
 11
-127.4999999999999
 21
619.5
 31
0.0
  0
LINE
  5
101
  8
1
  6
CENTER
 62
     1
 10
17.50000000000007
 20
337.4999999999999
 30
0.0
 11
17.50000000000007
 21
492.4999999999999
 31
0.0
  0
LINE
  5
102
  8
1
  6
CENTER
 62
     1
 10
17.50000000000007
 20
572.8
 30
0.0
 11
17.50000000000007
 21
647.1999999999999
 31
0.0
  0
LINE
  5
103
  8
1
  6
CENTER
 62
     1
 10
-136.9999999999999
 20
609.9999999999999
 30
0.0
 11
-117.9999999999999
 21
609.9999999999999
 31
0.0
  0
ENDSEC
  0
EOF
