  0
SECTION
  2
HEADER
  9
$ACADVER
  1
AC1027
  9
$ACADMAINTVER
 70
   105
  9
$DWGCODEPAGE
  3
ANSI_932
  9
$REQUIREDVERSIONS
160
                 0
  9
$INSBASE
 10
0.0
 20
0.0
 30
0.0
  9
$EXTMIN
 10
-1195.0
 20
-706.9318181818182
 30
0.0
  9
$EXTMAX
 10
-519.900000599995
 20
-369.9999999999999
 30
0.0
  9
$LIMMIN
 10
0.0
 20
0.0
  9
$LIMMAX
 10
12.0
 20
9.0
  9
$ORTHOMODE
 70
     0
  9
$REGENMODE
 70
     1
  9
$FILLMODE
 70
     1
  9
$QTEXTMODE
 70
     0
  9
$MIRRTEXT
 70
     1
  9
$LTSCALE
 40
1.0
  9
$ATTMODE
 70
     1
  9
$TEXTSIZE
 40
0.2
  9
$TRACEWID
 40
0.05
  9
$TEXTSTYLE
  7
Standard
  9
$CLAYER
  8
0
  9
$CELTYPE
  6
ByLayer
  9
$CECOLOR
 62
   256
  9
$CELTSCALE
 40
1.0
  9
$DISPSILH
 70
     0
  9
$DIMSCALE
 40
1.0
  9
$DIMASZ
 40
3.0
  9
$DIMEXO
 40
0.0625
  9
$DIMDLI
 40
0.38
  9
$DIMRND
 40
0.0
  9
$DIMDLE
 40
0.0
  9
$DIMEXE
 40
1.5
  9
$DIMTP
 40
0.0
  9
$DIMTM
 40
0.0
  9
$DIMTXT
 40
3.0
  9
$DIMCEN
 40
0.09
  9
$DIMTSZ
 40
0.0
  9
$DIMTOL
 70
     0
  9
$DIMLIM
 70
     0
  9
$DIMTIH
 70
     1
  9
$DIMTOH
 70
     1
  9
$DIMSE1
 70
     0
  9
$DIMSE2
 70
     0
  9
$DIMTAD
 70
     1
  9
$DIMZIN
 70
     0
  9
$DIMBLK
  1

  9
$DIMASO
 70
     1
  9
$DIMSHO
 70
     1
  9
$DIMPOST
  1

  9
$DIMAPOST
  1

  9
$DIMALT
 70
     0
  9
$DIMALTD
 70
     2
  9
$DIMALTF
 40
25.4
  9
$DIMLFAC
 40
1.0
  9
$DIMTOFL
 70
     0
  9
$DIMTVP
 40
0.0
  9
$DIMTIX
 70
     0
  9
$DIMSOXD
 70
     0
  9
$DIMSAH
 70
     0
  9
$DIMBLK1
  1

  9
$DIMBLK2
  1

  9
$DIMSTYLE
  2
Standard
  9
$DIMCLRD
 70
     0
  9
$DIMCLRE
 70
     0
  9
$DIMCLRT
 70
     0
  9
$DIMTFAC
 40
1.0
  9
$DIMGAP
 40
1.5
  9
$DIMJUST
 70
     0
  9
$DIMSD1
 70
     0
  9
$DIMSD2
 70
     0
  9
$DIMTOLJ
 70
     1
  9
$DIMTZIN
 70
     0
  9
$DIMALTZ
 70
     0
  9
$DIMALTTZ
 70
     0
  9
$DIMUPT
 70
     0
  9
$DIMDEC
 70
     2
  9
$DIMTDEC
 70
     4
  9
$DIMALTU
 70
     2
  9
$DIMALTTD
 70
     2
  9
$DIMTXSTY
  7
ＭＳ ゴシック
  9
$DIMAUNIT
 70
     0
  9
$DIMADEC
 70
     2
  9
$DIMALTRND
 40
0.0
  9
$DIMAZIN
 70
     0
  9
$DIMDSEP
 70
    46
  9
$DIMATFIT
 70
     3
  9
$DIMFRAC
 70
     0
  9
$DIMLDRBLK
  1

  9
$DIMLUNIT
 70
     2
  9
$DIMLWD
 70
    -2
  9
$DIMLWE
 70
    -2
  9
$DIMTMOVE
 70
     0
  9
$DIMFXL
 40
1.0
  9
$DIMFXLON
 70
     0
  9
$DIMJOGANG
 40
0.7853981633974483
  9
$DIMTFILL
 70
     0
  9
$DIMTFILLCLR
 70
     0
  9
$DIMARCSYM
 70
     0
  9
$DIMLTYPE
  6

  9
$DIMLTEX1
  6

  9
$DIMLTEX2
  6

  9
$DIMTXTDIRECTION
 70
     0
  9
$LUNITS
 70
     2
  9
$LUPREC
 70
     4
  9
$SKETCHINC
 40
0.1
  9
$FILLETRAD
 40
0.5
  9
$AUNITS
 70
     0
  9
$AUPREC
 70
     0
  9
$MENU
  1
.
  9
$ELEVATION
 40
0.0
  9
$PELEVATION
 40
0.0
  9
$THICKNESS
 40
0.0
  9
$LIMCHECK
 70
     0
  9
$CHAMFERA
 40
0.0
  9
$CHAMFERB
 40
0.0
  9
$CHAMFERC
 40
0.0
  9
$CHAMFERD
 40
0.0
  9
$SKPOLY
 70
     0
  9
$TDCREATE
 40
2460322.559428877
  9
$TDUCREATE
 40
2460322.184428877
  9
$TDUPDATE
 40
2460322.559428993
  9
$TDUUPDATE
 40
2460322.184428993
  9
$TDINDWG
 40
0.0000000116
  9
$TDUSRTIMER
 40
0.0000000116
  9
$USRTIMER
 70
     1
  9
$ANGBASE
 50
0.0
  9
$ANGDIR
 70
     0
  9
$PDMODE
 70
     0
  9
$PDSIZE
 40
0.0
  9
$PLINEWID
 40
0.0
  9
$SPLFRAME
 70
     0
  9
$SPLINETYPE
 70
     6
  9
$SPLINESEGS
 70
     8
  9
$HANDSEED
  5
5A9
  9
$SURFTAB1
 70
     6
  9
$SURFTAB2
 70
     6
  9
$SURFTYPE
 70
     6
  9
$SURFU
 70
     6
  9
$SURFV
 70
     6
  9
$UCSBASE
  2

  9
$UCSNAME
  2

  9
$UCSORG
 10
0.0
 20
0.0
 30
0.0
  9
$UCSXDIR
 10
1.0
 20
0.0
 30
0.0
  9
$UCSYDIR
 10
0.0
 20
1.0
 30
0.0
  9
$UCSORTHOREF
  2

  9
$UCSORTHOVIEW
 70
     0
  9
$UCSORGTOP
 10
0.0
 20
0.0
 30
0.0
  9
$UCSORGBOTTOM
 10
0.0
 20
0.0
 30
0.0
  9
$UCSORGLEFT
 10
0.0
 20
0.0
 30
0.0
  9
$UCSORGRIGHT
 10
0.0
 20
0.0
 30
0.0
  9
$UCSORGFRONT
 10
0.0
 20
0.0
 30
0.0
  9
$UCSORGBACK
 10
0.0
 20
0.0
 30
0.0
  9
$PUCSBASE
  2

  9
$PUCSNAME
  2

  9
$PUCSORG
 10
0.0
 20
0.0
 30
0.0
  9
$PUCSXDIR
 10
1.0
 20
0.0
 30
0.0
  9
$PUCSYDIR
 10
0.0
 20
1.0
 30
0.0
  9
$PUCSORTHOREF
  2

  9
$PUCSORTHOVIEW
 70
     0
  9
$PUCSORGTOP
 10
0.0
 20
0.0
 30
0.0
  9
$PUCSORGBOTTOM
 10
0.0
 20
0.0
 30
0.0
  9
$PUCSORGLEFT
 10
0.0
 20
0.0
 30
0.0
  9
$PUCSORGRIGHT
 10
0.0
 20
0.0
 30
0.0
  9
$PUCSORGFRONT
 10
0.0
 20
0.0
 30
0.0
  9
$PUCSORGBACK
 10
0.0
 20
0.0
 30
0.0
  9
$USERI1
 70
     0
  9
$USERI2
 70
     0
  9
$USERI3
 70
     0
  9
$USERI4
 70
     0
  9
$USERI5
 70
     0
  9
$USERR1
 40
0.0
  9
$USERR2
 40
0.0
  9
$USERR3
 40
0.0
  9
$USERR4
 40
0.0
  9
$USERR5
 40
0.0
  9
$WORLDVIEW
 70
     1
  9
$SHADEDGE
 70
     3
  9
$SHADEDIF
 70
    70
  9
$TILEMODE
 70
     1
  9
$MAXACTVP
 70
    64
  9
$PINSBASE
 10
0.0
 20
0.0
 30
0.0
  9
$PLIMCHECK
 70
     0
  9
$PEXTMIN
 10
1.000000000000000E+20
 20
1.000000000000000E+20
 30
1.000000000000000E+20
  9
$PEXTMAX
 10
-1.000000000000000E+20
 20
-1.000000000000000E+20
 30
-1.000000000000000E+20
  9
$PLIMMIN
 10
0.0
 20
0.0
  9
$PLIMMAX
 10
12.0
 20
9.0
  9
$UNITMODE
 70
     0
  9
$VISRETAIN
 70
     1
  9
$PLINEGEN
 70
     0
  9
$PSLTSCALE
 70
     1
  9
$TREEDEPTH
 70
  3020
  9
$CMLSTYLE
  2
Standard
  9
$CMLJUST
 70
     0
  9
$CMLSCALE
 40
1.0
  9
$PROXYGRAPHICS
 70
     1
  9
$MEASUREMENT
 70
     1
  9
$CELWEIGHT
370
    -1
  9
$ENDCAPS
280
     0
  9
$JOINSTYLE
280
     0
  9
$LWDISPLAY
290
     1
  9
$INSUNITS
 70
     4
  9
$HYPERLINKBASE
  1

  9
$STYLESHEET
  1

  9
$XEDIT
290
     1
  9
$CEPSNTYPE
380
     0
  9
$PSTYLEMODE
290
     1
  9
$FINGERPRINTGUID
  2
{E7FF56D0-62B2-4F6E-9C47-28DB5DB60601}
  9
$VERSIONGUID
  2
{FAEB1C32-E019-11D5-929B-00C0DF256EC4}
  9
$EXTNAMES
290
     1
  9
$PSVPSCALE
 40
0.0
  9
$OLESTARTUP
290
     0
  9
$SORTENTS
280
   127
  9
$INDEXCTL
280
     0
  9
$HIDETEXT
280
     1
  9
$XCLIPFRAME
280
     2
  9
$HALOGAP
280
     0
  9
$OBSCOLOR
 70
   257
  9
$OBSLTYPE
280
     0
  9
$INTERSECTIONDISPLAY
280
     0
  9
$INTERSECTIONCOLOR
 70
   257
  9
$DIMASSOC
280
     2
  9
$PROJECTNAME
  1

  9
$CAMERADISPLAY
290
     0
  9
$LENSLENGTH
 40
50.0
  9
$CAMERAHEIGHT
 40
0.0
  9
$STEPSPERSEC
 40
2.0
  9
$STEPSIZE
 40
6.0
  9
$3DDWFPREC
 40
2.0
  9
$PSOLWIDTH
 40
0.25
  9
$PSOLHEIGHT
 40
4.0
  9
$LOFTANG1
 40
1.570796326794897
  9
$LOFTANG2
 40
1.570796326794897
  9
$LOFTMAG1
 40
0.0
  9
$LOFTMAG2
 40
0.0
  9
$LOFTPARAM
 70
     7
  9
$LOFTNORMALS
280
     1
  9
$LATITUDE
 40
37.795
  9
$LONGITUDE
 40
-122.394
  9
$NORTHDIRECTION
 40
0.0
  9
$TIMEZONE
 70
 -8000
  9
$LIGHTGLYPHDISPLAY
280
     1
  9
$TILEMODELIGHTSYNCH
280
     1
  9
$CMATERIAL
347
44
  9
$SOLIDHIST
280
     0
  9
$SHOWHIST
280
     1
  9
$DWFFRAME
280
     2
  9
$DGNFRAME
280
     2
  9
$REALWORLDSCALE
290
     1
  9
$INTERFERECOLOR
 62
   256
  9
$CSHADOW
280
     0
  9
$SHADOWPLANELOCATION
 40
0.0
  0
ENDSEC
  0
SECTION
  2
CLASSES
  0
CLASS
  1
ACDBDICTIONARYWDFLT
  2
AcDbDictionaryWithDefault
  3
ObjectDBX Classes
 90
        0
 91
        3
280
     0
281
     0
  0
CLASS
  1
VISUALSTYLE
  2
AcDbVisualStyle
  3
ObjectDBX Classes
 90
     4095
 91
        3
280
     0
281
     0
  0
CLASS
  1
MATERIAL
  2
AcDbMaterial
  3
ObjectDBX Classes
 90
     1153
 91
        3
280
     0
281
     0
  0
CLASS
  1
SCALE
  2
AcDbScale
  3
ObjectDBX Classes
 90
     1153
 91
        3
280
     0
281
     0
  0
CLASS
  1
TABLESTYLE
  2
AcDbTableStyle
  3
ObjectDBX Classes
 90
     4095
 91
        3
280
     0
281
     0
  0
CLASS
  1
MLEADERSTYLE
  2
AcDbMLeaderStyle
  3
ACDB_MLEADERSTYLE_CLASS
 90
     4095
 91
        3
280
     0
281
     0
  0
CLASS
  1
SUN
  2
AcDbSun
  3
SCENEOE
 90
     1153
 91
        3
280
     0
281
     0
  0
CLASS
  1
DICTIONARYVAR
  2
AcDbDictionaryVar
  3
ObjectDBX Classes
 90
        0
 91
        3
280
     0
281
     0
  0
CLASS
  1
CELLSTYLEMAP
  2
AcDbCellStyleMap
  3
ObjectDBX Classes
 90
     1152
 91
        3
280
     0
281
     0
  0
ENDSEC
  0
SECTION
  2
TABLES
  0
TABLE
  2
VPORT
  5
8
330
0
100
AcDbSymbolTable
 70
     1
  0
VPORT
  5
29
330
8
100
AcDbSymbolTableRecord
100
AcDbViewportTableRecord
  2
*Active
 70
     0
 10
0.0
 20
0.0
 11
1.0
 21
1.0
 12
-857.4500002999973
 22
-538.4659090909091
 13
0.0
 23
0.0
 14
0.5
 24
0.5
 15
0.5
 25
0.5
 16
0.0
 26
0.0
 36
1.0
 17
0.0
 27
0.0
 37
0.0
 40
336.9318181818183
 41
1.6
 42
50.0
 43
0.0
 44
0.0
 50
0.0
 51
0.0
 71
     0
 72
   100
 73
     1
 74
     3
 75
     0
 76
     0
 77
     0
 78
     0
281
     0
 65
     1
110
0.0
120
0.0
130
0.0
111
1.0
121
0.0
131
0.0
112
0.0
122
1.0
132
0.0
 79
     0
146
0.0
348
2F
 60
     3
 61
     5
292
     1
282
     1
141
0.0
142
0.0
 63
   250
361
6D
  0
ENDTAB
  0
TABLE
  2
LTYPE
  5
5
330
0
100
AcDbSymbolTable
 70
     2
  0
LTYPE
  5
14
330
5
100
AcDbSymbolTableRecord
100
AcDbLinetypeTableRecord
  2
ByBlock
 70
     0
  3

 72
    65
 73
     0
 40
0.0
  0
LTYPE
  5
15
330
5
100
AcDbSymbolTableRecord
100
AcDbLinetypeTableRecord
  2
ByLayer
 70
     0
  3

 72
    65
 73
     0
 40
0.0
  0
LTYPE
  5
16
330
5
100
AcDbSymbolTableRecord
100
AcDbLinetypeTableRecord
  2
Continuous
 70
     0
  3
Solid line
 72
    65
 73
     0
 40
0.0
  0
LTYPE
  5
70
330
5
100
AcDbSymbolTableRecord
100
AcDbLinetypeTableRecord
  2
CENTER
 70
     0
  3

 72
    65
 73
     0
 40
0.0
  0
ENDTAB
  0
TABLE
  2
LAYER
  5
2
330
0
100
AcDbSymbolTable
 70
     1
  0
LAYER
  5
10
330
2
100
AcDbSymbolTableRecord
100
AcDbLayerTableRecord
  2
0
 70
     0
 62
     7
  6
Continuous
370
    -3
390
F
347
46
348
0
  0
ENDTAB
  0
TABLE
  2
STYLE
  5
3
330
0
100
AcDbSymbolTable
 70
     2
  0
STYLE
  5
11
330
3
100
AcDbSymbolTableRecord
100
AcDbTextStyleTableRecord
  2
Standard
 70
     0
 40
0.0
 41
1.0
 50
0.0
 71
     0
 42
0.2
  3
txt
  4

  0
STYLE
  5
6E
330
3
100
AcDbSymbolTableRecord
100
AcDbTextStyleTableRecord
  2
ＭＳ ゴシック
 70
     0
 40
0.0
 41
1.0
 50
0.0
 71
     0
 42
0.2
  3
ＭＳ ゴシック.shx
  4

  0
ENDTAB
  0
TABLE
  2
VIEW
  5
6
330
0
100
AcDbSymbolTable
 70
     0
  0
ENDTAB
  0
TABLE
  2
UCS
  5
7
330
0
100
AcDbSymbolTable
 70
     0
  0
ENDTAB
  0
TABLE
  2
APPID
  5
9
330
0
100
AcDbSymbolTable
 70
     1
  0
APPID
  5
12
330
9
100
AcDbSymbolTableRecord
100
AcDbRegAppTableRecord
  2
ACAD
 70
     0
  0
ENDTAB
  0
TABLE
  2
DIMSTYLE
  5
A
330
0
100
AcDbSymbolTable
 70
     1
100
AcDbDimStyleTable
  0
DIMSTYLE
105
27
330
A
100
AcDbSymbolTableRecord
100
AcDbDimStyleTableRecord
  2
Standard
 70
     0
178
     0
340
11
  0
ENDTAB
  0
TABLE
  2
BLOCK_RECORD
  5
1
330
0
100
AcDbSymbolTable
 70
     3
  0
BLOCK_RECORD
  5
1F
330
1
100
AcDbSymbolTableRecord
100
AcDbBlockTableRecord
  2
*Model_Space
340
22
 70
     0
280
     1
281
     0
  0
BLOCK_RECORD
  5
1B
330
1
100
AcDbSymbolTableRecord
100
AcDbBlockTableRecord
  2
*Paper_Space
340
1E
 70
     0
280
     1
281
     0
  0
BLOCK_RECORD
  5
23
330
1
100
AcDbSymbolTableRecord
100
AcDbBlockTableRecord
  2
*Paper_Space0
340
26
 70
     0
280
     1
281
     0
  0
BLOCK_RECORD
  5
74
330
1
100
AcDbSymbolTableRecord
100
AcDbBlockTableRecord
  2
D_FRAME_VIEW@3598
340
0
102
{BLKREFS
331
185
102
}
 70
     0
280
     1
281
     0
  0
BLOCK_RECORD
  5
186
330
1
100
AcDbSymbolTableRecord
100
AcDbBlockTableRecord
  2
D_FRAME_VIEW@4916
340
0
102
{BLKREFS
331
59D
102
}
 70
     0
280
     1
281
     0
  0
ENDTAB
  0
ENDSEC
  0
SECTION
  2
BLOCKS
  0
BLOCK
  5
20
330
1F
100
AcDbEntity
  8
0
100
AcDbBlockBegin
  2
*Model_Space
 70
     0
 10
0.0
 20
0.0
 30
0.0
  3
*Model_Space
  1

  0
ENDBLK
  5
21
330
1F
100
AcDbEntity
  8
0
100
AcDbBlockEnd
  0
BLOCK
  5
1C
330
1B
100
AcDbEntity
 67
     1
  8
0
100
AcDbBlockBegin
  2
*Paper_Space
 70
     0
 10
0.0
 20
0.0
 30
0.0
  3
*Paper_Space
  1

  0
ENDBLK
  5
1D
330
1B
100
AcDbEntity
 67
     1
  8
0
100
AcDbBlockEnd
  0
BLOCK
  5
24
330
23
100
AcDbEntity
  8
0
100
AcDbBlockBegin
  2
*Paper_Space0
 70
     0
 10
0.0
 20
0.0
 30
0.0
  3
*Paper_Space0
  1

  0
ENDBLK
  5
25
330
23
100
AcDbEntity
  8
0
100
AcDbBlockEnd
  0
BLOCK
  5
187
330
74
100
AcDbEntity
  8
0
100
AcDbBlockBegin
  2
D_FRAME_VIEW@3598
 70
     0
 10
0.0
 20
0.0
 30
0.0
  3
D_FRAME_VIEW@3598
  1

  0
LINE
  5
75
330
74
100
AcDbEntity
  8
0
  6
Continuous
 62
     7
370
     9
100
AcDbLine
 10
-1195.0
 20
-372.9999999999999
 30
0.0
 11
-1195.0
 21
-651.9999999999999
 31
0.0
  0
LINE
  5
76
330
74
100
AcDbEntity
  8
0
  6
Continuous
 62
     7
370
     9
100
AcDbLine
 10
-1192.0
 20
-369.9999999999999
 30
0.0
 11
-1195.0
 21
-372.9999999999999
 31
0.0
  0
LINE
  5
77
330
74
100
AcDbEntity
  8
0
  6
Continuous
 62
     7
370
     9
100
AcDbLine
 10
-613.0
 20
-369.9999999999999
 30
0.0
 11
-1192.0
 21
-369.9999999999999
 31
0.0
  0
LINE
  5
78
330
74
100
AcDbEntity
  8
0
  6
Continuous
 62
     7
370
     9
100
AcDbLine
 10
-610.0
 20
-372.9999999999999
 30
0.0
 11
-613.0
 21
-369.9999999999999
 31
0.0
  0
LINE
  5
79
330
74
100
AcDbEntity
  8
0
  6
Continuous
 62
     7
370
     9
100
AcDbLine
 10
-610.0
 20
-651.9999999999999
 30
0.0
 11
-610.0
 21
-372.9999999999999
 31
0.0
  0
LINE
  5
7A
330
74
100
AcDbEntity
  8
0
  6
Continuous
 62
     7
370
     9
100
AcDbLine
 10
-613.0
 20
-655.0
 30
0.0
 11
-610.0
 21
-652.0
 31
0.0
  0
LINE
  5
7B
330
74
100
AcDbEntity
  8
0
  6
Continuous
 62
     7
370
     9
100
AcDbLine
 10
-1192.0
 20
-655.0
 30
0.0
 11
-613.0
 21
-655.0
 31
0.0
  0
LINE
  5
7C
330
74
100
AcDbEntity
  8
0
  6
Continuous
 62
     7
370
     9
100
AcDbLine
 10
-1195.0
 20
-651.9999999999999
 30
0.0
 11
-1192.0
 21
-654.9999999999999
 31
0.0
  0
CIRCLE
  5
7D
330
74
100
AcDbEntity
  8
0
  6
Continuous
 62
     7
370
     9
100
AcDbCircle
 10
-1165.0
 20
-625.0
 30
0.0
 40
2.500000000000002
  0
CIRCLE
  5
7E
330
74
100
AcDbEntity
  8
0
  6
Continuous
 62
     7
370
     9
100
AcDbCircle
 10
-1190.0
 20
-650.0
 30
0.0
 40
2.500000000000002
  0
CIRCLE
  5
7F
330
74
100
AcDbEntity
  8
0
  6
Continuous
 62
     7
370
     9
100
AcDbCircle
 10
-1165.0
 20
-650.0
 30
0.0
 40
2.500000000000002
  0
CIRCLE
  5
80
330
74
100
AcDbEntity
  8
0
  6
Continuous
 62
     7
370
     9
100
AcDbCircle
 10
-1140.0
 20
-650.0
 30
0.0
 40
2.500000000000002
  0
CIRCLE
  5
81
330
74
100
AcDbEntity
  8
0
  6
Continuous
 62
     7
370
     9
100
AcDbCircle
 10
-1115.0
 20
-650.0
 30
0.0
 40
2.500000000000002
  0
CIRCLE
  5
82
330
74
100
AcDbEntity
  8
0
  6
Continuous
 62
     7
370
     9
100
AcDbCircle
 10
-1090.0
 20
-650.0
 30
0.0
 40
2.500000000000002
  0
CIRCLE
  5
83
330
74
100
AcDbEntity
  8
0
  6
Continuous
 62
     7
370
     9
100
AcDbCircle
 10
-1065.0
 20
-650.0
 30
0.0
 40
2.500000000000002
  0
CIRCLE
  5
84
330
74
100
AcDbEntity
  8
0
  6
Continuous
 62
     7
370
     9
100
AcDbCircle
 10
-1040.0
 20
-650.0
 30
0.0
 40
2.500000000000002
  0
CIRCLE
  5
85
330
74
100
AcDbEntity
  8
0
  6
Continuous
 62
     7
370
     9
100
AcDbCircle
 10
-1015.0
 20
-650.0
 30
0.0
 40
2.500000000000002
  0
CIRCLE
  5
86
330
74
100
AcDbEntity
  8
0
  6
Continuous
 62
     7
370
     9
100
AcDbCircle
 10
-990.0
 20
-650.0
 30
0.0
 40
2.500000000000002
  0
CIRCLE
  5
87
330
74
100
AcDbEntity
  8
0
  6
Continuous
 62
     7
370
     9
100
AcDbCircle
 10
-965.0000000000001
 20
-650.0
 30
0.0
 40
2.500000000000002
  0
CIRCLE
  5
88
330
74
100
AcDbEntity
  8
0
  6
Continuous
 62
     7
370
     9
100
AcDbCircle
 10
-940.0
 20
-650.0
 30
0.0
 40
2.500000000000002
  0
CIRCLE
  5
89
330
74
100
AcDbEntity
  8
0
  6
Continuous
 62
     7
370
     9
100
AcDbCircle
 10
-915.0
 20
-650.0
 30
0.0
 40
2.500000000000002
  0
CIRCLE
  5
8A
330
74
100
AcDbEntity
  8
0
  6
Continuous
 62
     7
370
     9
100
AcDbCircle
 10
-890.0
 20
-650.0
 30
0.0
 40
2.500000000000002
  0
CIRCLE
  5
8B
330
74
100
AcDbEntity
  8
0
  6
Continuous
 62
     7
370
     9
100
AcDbCircle
 10
-865.0
 20
-650.0
 30
0.0
 40
2.500000000000002
  0
CIRCLE
  5
8C
330
74
100
AcDbEntity
  8
0
  6
Continuous
 62
     7
370
     9
100
AcDbCircle
 10
-840.0000000000001
 20
-650.0
 30
0.0
 40
2.500000000000002
  0
CIRCLE
  5
8D
330
74
100
AcDbEntity
  8
0
  6
Continuous
 62
     7
370
     9
100
AcDbCircle
 10
-815.0
 20
-650.0
 30
0.0
 40
2.500000000000002
  0
CIRCLE
  5
8E
330
74
100
AcDbEntity
  8
0
  6
Continuous
 62
     7
370
     9
100
AcDbCircle
 10
-790.0
 20
-650.0
 30
0.0
 40
2.500000000000002
  0
CIRCLE
  5
8F
330
74
100
AcDbEntity
  8
0
  6
Continuous
 62
     7
370
     9
100
AcDbCircle
 10
-765.0
 20
-650.0
 30
0.0
 40
2.499999999999947
  0
CIRCLE
  5
90
330
74
100
AcDbEntity
  8
0
  6
Continuous
 62
     7
370
     9
100
AcDbCircle
 10
-740.0000000000001
 20
-650.0
 30
0.0
 40
2.500000000000058
  0
CIRCLE
  5
91
330
74
100
AcDbEntity
  8
0
  6
Continuous
 62
     7
370
     9
100
AcDbCircle
 10
-715.0000000000001
 20
-650.0
 30
0.0
 40
2.500000000000058
  0
CIRCLE
  5
92
330
74
100
AcDbEntity
  8
0
  6
Continuous
 62
     7
370
     9
100
AcDbCircle
 10
-690.0
 20
-650.0
 30
0.0
 40
2.499999999999947
  0
CIRCLE
  5
93
330
74
100
AcDbEntity
  8
0
  6
Continuous
 62
     7
370
     9
100
AcDbCircle
 10
-665.0
 20
-650.0
 30
0.0
 40
2.500000000000058
  0
CIRCLE
  5
94
330
74
100
AcDbEntity
  8
0
  6
Continuous
 62
     7
370
     9
100
AcDbCircle
 10
-640.0000000000001
 20
-650.0
 30
0.0
 40
2.499999999999947
  0
CIRCLE
  5
95
330
74
100
AcDbEntity
  8
0
  6
Continuous
 62
     7
370
     9
100
AcDbCircle
 10
-615.0
 20
-650.0
 30
0.0
 40
2.499999999999947
  0
CIRCLE
  5
96
330
74
100
AcDbEntity
  8
0
  6
Continuous
 62
     7
370
     9
100
AcDbCircle
 10
-615.0
 20
-625.0
 30
0.0
 40
2.499999999999947
  0
CIRCLE
  5
97
330
74
100
AcDbEntity
  8
0
  6
Continuous
 62
     7
370
     9
100
AcDbCircle
 10
-615.0
 20
-600.0
 30
0.0
 40
2.499999999999947
  0
CIRCLE
  5
98
330
74
100
AcDbEntity
  8
0
  6
Continuous
 62
     7
370
     9
100
AcDbCircle
 10
-615.0
 20
-575.0
 30
0.0
 40
2.499999999999947
  0
CIRCLE
  5
99
330
74
100
AcDbEntity
  8
0
  6
Continuous
 62
     7
370
     9
100
AcDbCircle
 10
-615.0
 20
-550.0
 30
0.0
 40
2.499999999999947
  0
CIRCLE
  5
9A
330
74
100
AcDbEntity
  8
0
  6
Continuous
 62
     7
370
     9
100
AcDbCircle
 10
-615.0
 20
-525.0
 30
0.0
 40
2.499999999999947
  0
CIRCLE
  5
9B
330
74
100
AcDbEntity
  8
0
  6
Continuous
 62
     7
370
     9
100
AcDbCircle
 10
-615.0
 20
-500.0
 30
0.0
 40
2.499999999999947
  0
CIRCLE
  5
9C
330
74
100
AcDbEntity
  8
0
  6
Continuous
 62
     7
370
     9
100
AcDbCircle
 10
-615.0
 20
-474.9999999999999
 30
0.0
 40
2.499999999999947
  0
CIRCLE
  5
9D
330
74
100
AcDbEntity
  8
0
  6
Continuous
 62
     7
370
     9
100
AcDbCircle
 10
-615.0
 20
-450.0
 30
0.0
 40
2.499999999999947
  0
CIRCLE
  5
9E
330
74
100
AcDbEntity
  8
0
  6
Continuous
 62
     7
370
     9
100
AcDbCircle
 10
-615.0
 20
-425.0000000000001
 30
0.0
 40
2.499999999999947
  0
CIRCLE
  5
9F
330
74
100
AcDbEntity
  8
0
  6
Continuous
 62
     7
370
     9
100
AcDbCircle
 10
-615.0
 20
-400.0
 30
0.0
 40
2.499999999999947
  0
CIRCLE
  5
A0
330
74
100
AcDbEntity
  8
0
  6
Continuous
 62
     7
370
     9
100
AcDbCircle
 10
-615.0
 20
-375.0
 30
0.0
 40
2.499999999999947
  0
CIRCLE
  5
A1
330
74
100
AcDbEntity
  8
0
  6
Continuous
 62
     7
370
     9
100
AcDbCircle
 10
-640.0000000000001
 20
-375.0
 30
0.0
 40
2.499999999999947
  0
CIRCLE
  5
A2
330
74
100
AcDbEntity
  8
0
  6
Continuous
 62
     7
370
     9
100
AcDbCircle
 10
-665.0
 20
-375.0
 30
0.0
 40
2.500000000000058
  0
CIRCLE
  5
A3
330
74
100
AcDbEntity
  8
0
  6
Continuous
 62
     7
370
     9
100
AcDbCircle
 10
-690.0
 20
-375.0
 30
0.0
 40
2.499999999999947
  0
CIRCLE
  5
A4
330
74
100
AcDbEntity
  8
0
  6
Continuous
 62
     7
370
     9
100
AcDbCircle
 10
-715.0000000000001
 20
-375.0
 30
0.0
 40
2.500000000000058
  0
CIRCLE
  5
A5
330
74
100
AcDbEntity
  8
0
  6
Continuous
 62
     7
370
     9
100
AcDbCircle
 10
-740.0000000000001
 20
-375.0
 30
0.0
 40
2.500000000000058
  0
CIRCLE
  5
A6
330
74
100
AcDbEntity
  8
0
  6
Continuous
 62
     7
370
     9
100
AcDbCircle
 10
-765.0
 20
-375.0
 30
0.0
 40
2.499999999999947
  0
CIRCLE
  5
A7
330
74
100
AcDbEntity
  8
0
  6
Continuous
 62
     7
370
     9
100
AcDbCircle
 10
-790.0
 20
-375.0
 30
0.0
 40
2.500000000000002
  0
CIRCLE
  5
A8
330
74
100
AcDbEntity
  8
0
  6
Continuous
 62
     7
370
     9
100
AcDbCircle
 10
-815.0
 20
-375.0
 30
0.0
 40
2.500000000000002
  0
CIRCLE
  5
A9
330
74
100
AcDbEntity
  8
0
  6
Continuous
 62
     7
370
     9
100
AcDbCircle
 10
-840.0000000000001
 20
-375.0
 30
0.0
 40
2.500000000000002
  0
CIRCLE
  5
AA
330
74
100
AcDbEntity
  8
0
  6
Continuous
 62
     7
370
     9
100
AcDbCircle
 10
-865.0
 20
-375.0
 30
0.0
 40
2.500000000000002
  0
CIRCLE
  5
AB
330
74
100
AcDbEntity
  8
0
  6
Continuous
 62
     7
370
     9
100
AcDbCircle
 10
-890.0
 20
-375.0
 30
0.0
 40
2.500000000000002
  0
CIRCLE
  5
AC
330
74
100
AcDbEntity
  8
0
  6
Continuous
 62
     7
370
     9
100
AcDbCircle
 10
-915.0
 20
-375.0
 30
0.0
 40
2.500000000000002
  0
CIRCLE
  5
AD
330
74
100
AcDbEntity
  8
0
  6
Continuous
 62
     7
370
     9
100
AcDbCircle
 10
-940.0
 20
-375.0
 30
0.0
 40
2.500000000000002
  0
CIRCLE
  5
AE
330
74
100
AcDbEntity
  8
0
  6
Continuous
 62
     7
370
     9
100
AcDbCircle
 10
-965.0000000000001
 20
-375.0
 30
0.0
 40
2.500000000000002
  0
CIRCLE
  5
AF
330
74
100
AcDbEntity
  8
0
  6
Continuous
 62
     7
370
     9
100
AcDbCircle
 10
-990.0
 20
-375.0
 30
0.0
 40
2.500000000000002
  0
CIRCLE
  5
B0
330
74
100
AcDbEntity
  8
0
  6
Continuous
 62
     7
370
     9
100
AcDbCircle
 10
-1015.0
 20
-375.0
 30
0.0
 40
2.500000000000002
  0
CIRCLE
  5
B1
330
74
100
AcDbEntity
  8
0
  6
Continuous
 62
     7
370
     9
100
AcDbCircle
 10
-1040.0
 20
-375.0
 30
0.0
 40
2.500000000000002
  0
CIRCLE
  5
B2
330
74
100
AcDbEntity
  8
0
  6
Continuous
 62
     7
370
     9
100
AcDbCircle
 10
-1065.0
 20
-375.0
 30
0.0
 40
2.500000000000002
  0
CIRCLE
  5
B3
330
74
100
AcDbEntity
  8
0
  6
Continuous
 62
     7
370
     9
100
AcDbCircle
 10
-1090.0
 20
-375.0
 30
0.0
 40
2.500000000000002
  0
CIRCLE
  5
B4
330
74
100
AcDbEntity
  8
0
  6
Continuous
 62
     7
370
     9
100
AcDbCircle
 10
-1115.0
 20
-375.0
 30
0.0
 40
2.500000000000002
  0
CIRCLE
  5
B5
330
74
100
AcDbEntity
  8
0
  6
Continuous
 62
     7
370
     9
100
AcDbCircle
 10
-1140.0
 20
-375.0
 30
0.0
 40
2.500000000000002
  0
CIRCLE
  5
B6
330
74
100
AcDbEntity
  8
0
  6
Continuous
 62
     7
370
     9
100
AcDbCircle
 10
-1165.0
 20
-375.0
 30
0.0
 40
2.500000000000002
  0
CIRCLE
  5
B7
330
74
100
AcDbEntity
  8
0
  6
Continuous
 62
     7
370
     9
100
AcDbCircle
 10
-1190.0
 20
-375.0
 30
0.0
 40
2.500000000000002
  0
CIRCLE
  5
B8
330
74
100
AcDbEntity
  8
0
  6
Continuous
 62
     7
370
     9
100
AcDbCircle
 10
-1190.0
 20
-400.0
 30
0.0
 40
2.500000000000002
  0
CIRCLE
  5
B9
330
74
100
AcDbEntity
  8
0
  6
Continuous
 62
     7
370
     9
100
AcDbCircle
 10
-1190.0
 20
-425.0000000000001
 30
0.0
 40
2.500000000000002
  0
CIRCLE
  5
BA
330
74
100
AcDbEntity
  8
0
  6
Continuous
 62
     7
370
     9
100
AcDbCircle
 10
-1190.0
 20
-450.0
 30
0.0
 40
2.500000000000002
  0
CIRCLE
  5
BB
330
74
100
AcDbEntity
  8
0
  6
Continuous
 62
     7
370
     9
100
AcDbCircle
 10
-1190.0
 20
-474.9999999999999
 30
0.0
 40
2.500000000000002
  0
CIRCLE
  5
BC
330
74
100
AcDbEntity
  8
0
  6
Continuous
 62
     7
370
     9
100
AcDbCircle
 10
-1190.0
 20
-500.0
 30
0.0
 40
2.500000000000002
  0
CIRCLE
  5
BD
330
74
100
AcDbEntity
  8
0
  6
Continuous
 62
     7
370
     9
100
AcDbCircle
 10
-1190.0
 20
-525.0
 30
0.0
 40
2.500000000000002
  0
CIRCLE
  5
BE
330
74
100
AcDbEntity
  8
0
  6
Continuous
 62
     7
370
     9
100
AcDbCircle
 10
-1190.0
 20
-550.0
 30
0.0
 40
2.500000000000002
  0
CIRCLE
  5
BF
330
74
100
AcDbEntity
  8
0
  6
Continuous
 62
     7
370
     9
100
AcDbCircle
 10
-1190.0
 20
-575.0
 30
0.0
 40
2.500000000000002
  0
CIRCLE
  5
C0
330
74
100
AcDbEntity
  8
0
  6
Continuous
 62
     7
370
     9
100
AcDbCircle
 10
-1190.0
 20
-600.0
 30
0.0
 40
2.500000000000002
  0
CIRCLE
  5
C1
330
74
100
AcDbEntity
  8
0
  6
Continuous
 62
     7
370
     9
100
AcDbCircle
 10
-1190.0
 20
-625.0
 30
0.0
 40
2.500000000000002
  0
CIRCLE
  5
C2
330
74
100
AcDbEntity
  8
0
  6
Continuous
 62
     7
370
     9
100
AcDbCircle
 10
-740.0
 20
-400.0
 30
0.0
 40
2.499999999999947
  0
CIRCLE
  5
C3
330
74
100
AcDbEntity
  8
0
  6
Continuous
 62
     7
370
     9
100
AcDbCircle
 10
-1140.0
 20
-625.0
 30
0.0
 40
2.500000000000002
  0
CIRCLE
  5
C4
330
74
100
AcDbEntity
  8
0
  6
Continuous
 62
     7
370
     9
100
AcDbCircle
 10
-1115.0
 20
-625.0
 30
0.0
 40
2.500000000000002
  0
CIRCLE
  5
C5
330
74
100
AcDbEntity
  8
0
  6
Continuous
 62
     7
370
     9
100
AcDbCircle
 10
-1090.0
 20
-625.0
 30
0.0
 40
2.500000000000002
  0
CIRCLE
  5
C6
330
74
100
AcDbEntity
  8
0
  6
Continuous
 62
     7
370
     9
100
AcDbCircle
 10
-1065.0
 20
-625.0
 30
0.0
 40
2.500000000000002
  0
CIRCLE
  5
C7
330
74
100
AcDbEntity
  8
0
  6
Continuous
 62
     7
370
     9
100
AcDbCircle
 10
-1040.0
 20
-625.0
 30
0.0
 40
2.500000000000002
  0
CIRCLE
  5
C8
330
74
100
AcDbEntity
  8
0
  6
Continuous
 62
     7
370
     9
100
AcDbCircle
 10
-1015.0
 20
-625.0
 30
0.0
 40
2.500000000000002
  0
CIRCLE
  5
C9
330
74
100
AcDbEntity
  8
0
  6
Continuous
 62
     7
370
     9
100
AcDbCircle
 10
-990.0
 20
-625.0
 30
0.0
 40
2.500000000000002
  0
CIRCLE
  5
CA
330
74
100
AcDbEntity
  8
0
  6
Continuous
 62
     7
370
     9
100
AcDbCircle
 10
-965.0000000000001
 20
-625.0
 30
0.0
 40
2.500000000000002
  0
CIRCLE
  5
CB
330
74
100
AcDbEntity
  8
0
  6
Continuous
 62
     7
370
     9
100
AcDbCircle
 10
-940.0
 20
-625.0
 30
0.0
 40
2.500000000000058
  0
CIRCLE
  5
CC
330
74
100
AcDbEntity
  8
0
  6
Continuous
 62
     7
370
     9
100
AcDbCircle
 10
-915.0
 20
-625.0
 30
0.0
 40
2.500000000000002
  0
CIRCLE
  5
CD
330
74
100
AcDbEntity
  8
0
  6
Continuous
 62
     7
370
     9
100
AcDbCircle
 10
-890.0
 20
-625.0
 30
0.0
 40
2.500000000000002
  0
CIRCLE
  5
CE
330
74
100
AcDbEntity
  8
0
  6
Continuous
 62
     7
370
     9
100
AcDbCircle
 10
-865.0
 20
-625.0
 30
0.0
 40
2.500000000000002
  0
CIRCLE
  5
CF
330
74
100
AcDbEntity
  8
0
  6
Continuous
 62
     7
370
     9
100
AcDbCircle
 10
-840.0000000000001
 20
-625.0
 30
0.0
 40
2.500000000000002
  0
CIRCLE
  5
D0
330
74
100
AcDbEntity
  8
0
  6
Continuous
 62
     7
370
     9
100
AcDbCircle
 10
-814.9999999999999
 20
-625.0
 30
0.0
 40
2.500000000000002
  0
CIRCLE
  5
D1
330
74
100
AcDbEntity
  8
0
  6
Continuous
 62
     7
370
     9
100
AcDbCircle
 10
-790.0
 20
-625.0
 30
0.0
 40
2.500000000000002
  0
CIRCLE
  5
D2
330
74
100
AcDbEntity
  8
0
  6
Continuous
 62
     7
370
     9
100
AcDbCircle
 10
-765.0
 20
-625.0
 30
0.0
 40
2.499999999999947
  0
CIRCLE
  5
D3
330
74
100
AcDbEntity
  8
0
  6
Continuous
 62
     7
370
     9
100
AcDbCircle
 10
-740.0
 20
-625.0
 30
0.0
 40
2.499999999999947
  0
CIRCLE
  5
D4
330
74
100
AcDbEntity
  8
0
  6
Continuous
 62
     7
370
     9
100
AcDbCircle
 10
-715.0000000000001
 20
-625.0
 30
0.0
 40
2.500000000000058
  0
CIRCLE
  5
D5
330
74
100
AcDbEntity
  8
0
  6
Continuous
 62
     7
370
     9
100
AcDbCircle
 10
-690.0
 20
-625.0
 30
0.0
 40
2.500000000000058
  0
CIRCLE
  5
D6
330
74
100
AcDbEntity
  8
0
  6
Continuous
 62
     7
370
     9
100
AcDbCircle
 10
-665.0
 20
-625.0
 30
0.0
 40
2.500000000000058
  0
CIRCLE
  5
D7
330
74
100
AcDbEntity
  8
0
  6
Continuous
 62
     7
370
     9
100
AcDbCircle
 10
-640.0000000000001
 20
-625.0
 30
0.0
 40
2.499999999999947
  0
CIRCLE
  5
D8
330
74
100
AcDbEntity
  8
0
  6
Continuous
 62
     7
370
     9
100
AcDbCircle
 10
-640.0000000000001
 20
-600.0
 30
0.0
 40
2.499999999999947
  0
CIRCLE
  5
D9
330
74
100
AcDbEntity
  8
0
  6
Continuous
 62
     7
370
     9
100
AcDbCircle
 10
-640.0000000000001
 20
-575.0
 30
0.0
 40
2.499999999999947
  0
CIRCLE
  5
DA
330
74
100
AcDbEntity
  8
0
  6
Continuous
 62
     7
370
     9
100
AcDbCircle
 10
-640.0000000000001
 20
-550.0
 30
0.0
 40
2.499999999999947
  0
CIRCLE
  5
DB
330
74
100
AcDbEntity
  8
0
  6
Continuous
 62
     7
370
     9
100
AcDbCircle
 10
-640.0000000000001
 20
-525.0
 30
0.0
 40
2.499999999999947
  0
CIRCLE
  5
DC
330
74
100
AcDbEntity
  8
0
  6
Continuous
 62
     7
370
     9
100
AcDbCircle
 10
-640.0000000000001
 20
-500.0
 30
0.0
 40
2.499999999999947
  0
CIRCLE
  5
DD
330
74
100
AcDbEntity
  8
0
  6
Continuous
 62
     7
370
     9
100
AcDbCircle
 10
-640.0000000000001
 20
-474.9999999999999
 30
0.0
 40
2.499999999999947
  0
CIRCLE
  5
DE
330
74
100
AcDbEntity
  8
0
  6
Continuous
 62
     7
370
     9
100
AcDbCircle
 10
-640.0000000000001
 20
-449.9999999999999
 30
0.0
 40
2.499999999999947
  0
CIRCLE
  5
DF
330
74
100
AcDbEntity
  8
0
  6
Continuous
 62
     7
370
     9
100
AcDbCircle
 10
-640.0000000000001
 20
-425.0000000000001
 30
0.0
 40
2.499999999999947
  0
CIRCLE
  5
E0
330
74
100
AcDbEntity
  8
0
  6
Continuous
 62
     7
370
     9
100
AcDbCircle
 10
-640.0000000000001
 20
-400.0
 30
0.0
 40
2.499999999999947
  0
CIRCLE
  5
E1
330
74
100
AcDbEntity
  8
0
  6
Continuous
 62
     7
370
     9
100
AcDbCircle
 10
-665.0
 20
-400.0
 30
0.0
 40
2.500000000000058
  0
CIRCLE
  5
E2
330
74
100
AcDbEntity
  8
0
  6
Continuous
 62
     7
370
     9
100
AcDbCircle
 10
-690.0
 20
-400.0
 30
0.0
 40
2.500000000000058
  0
CIRCLE
  5
E3
330
74
100
AcDbEntity
  8
0
  6
Continuous
 62
     7
370
     9
100
AcDbCircle
 10
-715.0000000000001
 20
-400.0
 30
0.0
 40
2.500000000000058
  0
CIRCLE
  5
E4
330
74
100
AcDbEntity
  8
0
  6
Continuous
 62
     7
370
     9
100
AcDbCircle
 10
-1165.0
 20
-400.0
 30
0.0
 40
2.500000000000002
  0
CIRCLE
  5
E5
330
74
100
AcDbEntity
  8
0
  6
Continuous
 62
     7
370
     9
100
AcDbCircle
 10
-765.0
 20
-400.0
 30
0.0
 40
2.499999999999947
  0
CIRCLE
  5
E6
330
74
100
AcDbEntity
  8
0
  6
Continuous
 62
     7
370
     9
100
AcDbCircle
 10
-790.0
 20
-400.0
 30
0.0
 40
2.500000000000002
  0
CIRCLE
  5
E7
330
74
100
AcDbEntity
  8
0
  6
Continuous
 62
     7
370
     9
100
AcDbCircle
 10
-814.9999999999999
 20
-400.0
 30
0.0
 40
2.500000000000002
  0
CIRCLE
  5
E8
330
74
100
AcDbEntity
  8
0
  6
Continuous
 62
     7
370
     9
100
AcDbCircle
 10
-840.0000000000001
 20
-400.0
 30
0.0
 40
2.500000000000002
  0
CIRCLE
  5
E9
330
74
100
AcDbEntity
  8
0
  6
Continuous
 62
     7
370
     9
100
AcDbCircle
 10
-865.0
 20
-400.0
 30
0.0
 40
2.500000000000002
  0
CIRCLE
  5
EA
330
74
100
AcDbEntity
  8
0
  6
Continuous
 62
     7
370
     9
100
AcDbCircle
 10
-890.0
 20
-400.0
 30
0.0
 40
2.500000000000002
  0
CIRCLE
  5
EB
330
74
100
AcDbEntity
  8
0
  6
Continuous
 62
     7
370
     9
100
AcDbCircle
 10
-915.0
 20
-400.0
 30
0.0
 40
2.500000000000002
  0
CIRCLE
  5
EC
330
74
100
AcDbEntity
  8
0
  6
Continuous
 62
     7
370
     9
100
AcDbCircle
 10
-940.0
 20
-400.0
 30
0.0
 40
2.500000000000058
  0
CIRCLE
  5
ED
330
74
100
AcDbEntity
  8
0
  6
Continuous
 62
     7
370
     9
100
AcDbCircle
 10
-965.0000000000001
 20
-400.0
 30
0.0
 40
2.500000000000002
  0
CIRCLE
  5
EE
330
74
100
AcDbEntity
  8
0
  6
Continuous
 62
     7
370
     9
100
AcDbCircle
 10
-990.0
 20
-400.0
 30
0.0
 40
2.500000000000002
  0
CIRCLE
  5
EF
330
74
100
AcDbEntity
  8
0
  6
Continuous
 62
     7
370
     9
100
AcDbCircle
 10
-1015.0
 20
-400.0
 30
0.0
 40
2.500000000000002
  0
CIRCLE
  5
F0
330
74
100
AcDbEntity
  8
0
  6
Continuous
 62
     7
370
     9
100
AcDbCircle
 10
-1040.0
 20
-400.0
 30
0.0
 40
2.500000000000002
  0
CIRCLE
  5
F1
330
74
100
AcDbEntity
  8
0
  6
Continuous
 62
     7
370
     9
100
AcDbCircle
 10
-1065.0
 20
-400.0
 30
0.0
 40
2.500000000000002
  0
CIRCLE
  5
F2
330
74
100
AcDbEntity
  8
0
  6
Continuous
 62
     7
370
     9
100
AcDbCircle
 10
-1090.0
 20
-400.0
 30
0.0
 40
2.500000000000002
  0
CIRCLE
  5
F3
330
74
100
AcDbEntity
  8
0
  6
Continuous
 62
     7
370
     9
100
AcDbCircle
 10
-1115.0
 20
-400.0
 30
0.0
 40
2.500000000000002
  0
CIRCLE
  5
F4
330
74
100
AcDbEntity
  8
0
  6
Continuous
 62
     7
370
     9
100
AcDbCircle
 10
-1140.0
 20
-400.0
 30
0.0
 40
2.500000000000002
  0
CIRCLE
  5
F5
330
74
100
AcDbEntity
  8
0
  6
Continuous
 62
     7
370
     9
100
AcDbCircle
 10
-1165.0
 20
-600.0
 30
0.0
 40
2.500000000000002
  0
CIRCLE
  5
F6
330
74
100
AcDbEntity
  8
0
  6
Continuous
 62
     7
370
     9
100
AcDbCircle
 10
-1165.0
 20
-425.0000000000001
 30
0.0
 40
2.500000000000002
  0
CIRCLE
  5
F7
330
74
100
AcDbEntity
  8
0
  6
Continuous
 62
     7
370
     9
100
AcDbCircle
 10
-1165.0
 20
-449.9999999999999
 30
0.0
 40
2.500000000000002
  0
CIRCLE
  5
F8
330
74
100
AcDbEntity
  8
0
  6
Continuous
 62
     7
370
     9
100
AcDbCircle
 10
-1165.0
 20
-474.9999999999999
 30
0.0
 40
2.500000000000002
  0
CIRCLE
  5
F9
330
74
100
AcDbEntity
  8
0
  6
Continuous
 62
     7
370
     9
100
AcDbCircle
 10
-1165.0
 20
-500.0
 30
0.0
 40
2.500000000000002
  0
CIRCLE
  5
FA
330
74
100
AcDbEntity
  8
0
  6
Continuous
 62
     7
370
     9
100
AcDbCircle
 10
-1165.0
 20
-525.0
 30
0.0
 40
2.500000000000002
  0
CIRCLE
  5
FB
330
74
100
AcDbEntity
  8
0
  6
Continuous
 62
     7
370
     9
100
AcDbCircle
 10
-1165.0
 20
-550.0
 30
0.0
 40
2.500000000000002
  0
CIRCLE
  5
FC
330
74
100
AcDbEntity
  8
0
  6
Continuous
 62
     7
370
     9
100
AcDbCircle
 10
-1165.0
 20
-575.0
 30
0.0
 40
2.500000000000002
  0
CIRCLE
  5
FD
330
74
100
AcDbEntity
  8
0
  6
Continuous
 62
     7
370
     9
100
AcDbCircle
 10
-1165.0
 20
-575.0
 30
0.0
 40
2.500000000000002
  0
CIRCLE
  5
FE
330
74
100
AcDbEntity
  8
0
  6
Continuous
 62
     7
370
     9
100
AcDbCircle
 10
-1165.0
 20
-550.0
 30
0.0
 40
2.500000000000002
  0
CIRCLE
  5
FF
330
74
100
AcDbEntity
  8
0
  6
Continuous
 62
     7
370
     9
100
AcDbCircle
 10
-1165.0
 20
-525.0
 30
0.0
 40
2.500000000000002
  0
CIRCLE
  5
100
330
74
100
AcDbEntity
  8
0
  6
Continuous
 62
     7
370
     9
100
AcDbCircle
 10
-1165.0
 20
-500.0
 30
0.0
 40
2.500000000000002
  0
CIRCLE
  5
101
330
74
100
AcDbEntity
  8
0
  6
Continuous
 62
     7
370
     9
100
AcDbCircle
 10
-1165.0
 20
-474.9999999999999
 30
0.0
 40
2.500000000000002
  0
CIRCLE
  5
102
330
74
100
AcDbEntity
  8
0
  6
Continuous
 62
     7
370
     9
100
AcDbCircle
 10
-1165.0
 20
-449.9999999999999
 30
0.0
 40
2.500000000000002
  0
CIRCLE
  5
103
330
74
100
AcDbEntity
  8
0
  6
Continuous
 62
     7
370
     9
100
AcDbCircle
 10
-1165.0
 20
-425.0000000000001
 30
0.0
 40
2.500000000000002
  0
CIRCLE
  5
104
330
74
100
AcDbEntity
  8
0
  6
Continuous
 62
     7
370
     9
100
AcDbCircle
 10
-1165.0
 20
-600.0
 30
0.0
 40
2.500000000000002
  0
CIRCLE
  5
105
330
74
100
AcDbEntity
  8
0
  6
Continuous
 62
     7
370
     9
100
AcDbCircle
 10
-1140.0
 20
-400.0
 30
0.0
 40
2.500000000000002
  0
CIRCLE
  5
106
330
74
100
AcDbEntity
  8
0
  6
Continuous
 62
     7
370
     9
100
AcDbCircle
 10
-1115.0
 20
-400.0
 30
0.0
 40
2.500000000000002
  0
CIRCLE
  5
107
330
74
100
AcDbEntity
  8
0
  6
Continuous
 62
     7
370
     9
100
AcDbCircle
 10
-1090.0
 20
-400.0
 30
0.0
 40
2.500000000000002
  0
CIRCLE
  5
108
330
74
100
AcDbEntity
  8
0
  6
Continuous
 62
     7
370
     9
100
AcDbCircle
 10
-1065.0
 20
-400.0
 30
0.0
 40
2.500000000000002
  0
CIRCLE
  5
109
330
74
100
AcDbEntity
  8
0
  6
Continuous
 62
     7
370
     9
100
AcDbCircle
 10
-1040.0
 20
-400.0
 30
0.0
 40
2.500000000000002
  0
CIRCLE
  5
10A
330
74
100
AcDbEntity
  8
0
  6
Continuous
 62
     7
370
     9
100
AcDbCircle
 10
-1015.0
 20
-400.0
 30
0.0
 40
2.500000000000002
  0
CIRCLE
  5
10B
330
74
100
AcDbEntity
  8
0
  6
Continuous
 62
     7
370
     9
100
AcDbCircle
 10
-990.0
 20
-400.0
 30
0.0
 40
2.500000000000002
  0
CIRCLE
  5
10C
330
74
100
AcDbEntity
  8
0
  6
Continuous
 62
     7
370
     9
100
AcDbCircle
 10
-965.0000000000001
 20
-400.0
 30
0.0
 40
2.500000000000002
  0
CIRCLE
  5
10D
330
74
100
AcDbEntity
  8
0
  6
Continuous
 62
     7
370
     9
100
AcDbCircle
 10
-940.0
 20
-400.0
 30
0.0
 40
2.500000000000058
  0
CIRCLE
  5
10E
330
74
100
AcDbEntity
  8
0
  6
Continuous
 62
     7
370
     9
100
AcDbCircle
 10
-915.0
 20
-400.0
 30
0.0
 40
2.500000000000002
  0
CIRCLE
  5
10F
330
74
100
AcDbEntity
  8
0
  6
Continuous
 62
     7
370
     9
100
AcDbCircle
 10
-890.0
 20
-400.0
 30
0.0
 40
2.500000000000002
  0
CIRCLE
  5
110
330
74
100
AcDbEntity
  8
0
  6
Continuous
 62
     7
370
     9
100
AcDbCircle
 10
-865.0
 20
-400.0
 30
0.0
 40
2.500000000000002
  0
CIRCLE
  5
111
330
74
100
AcDbEntity
  8
0
  6
Continuous
 62
     7
370
     9
100
AcDbCircle
 10
-840.0000000000001
 20
-400.0
 30
0.0
 40
2.500000000000002
  0
CIRCLE
  5
112
330
74
100
AcDbEntity
  8
0
  6
Continuous
 62
     7
370
     9
100
AcDbCircle
 10
-814.9999999999999
 20
-400.0
 30
0.0
 40
2.500000000000002
  0
CIRCLE
  5
113
330
74
100
AcDbEntity
  8
0
  6
Continuous
 62
     7
370
     9
100
AcDbCircle
 10
-790.0
 20
-400.0
 30
0.0
 40
2.500000000000002
  0
CIRCLE
  5
114
330
74
100
AcDbEntity
  8
0
  6
Continuous
 62
     7
370
     9
100
AcDbCircle
 10
-765.0
 20
-400.0
 30
0.0
 40
2.499999999999947
  0
CIRCLE
  5
115
330
74
100
AcDbEntity
  8
0
  6
Continuous
 62
     7
370
     9
100
AcDbCircle
 10
-1165.0
 20
-400.0
 30
0.0
 40
2.500000000000002
  0
CIRCLE
  5
116
330
74
100
AcDbEntity
  8
0
  6
Continuous
 62
     7
370
     9
100
AcDbCircle
 10
-715.0000000000001
 20
-400.0
 30
0.0
 40
2.500000000000058
  0
CIRCLE
  5
117
330
74
100
AcDbEntity
  8
0
  6
Continuous
 62
     7
370
     9
100
AcDbCircle
 10
-690.0
 20
-400.0
 30
0.0
 40
2.500000000000058
  0
CIRCLE
  5
118
330
74
100
AcDbEntity
  8
0
  6
Continuous
 62
     7
370
     9
100
AcDbCircle
 10
-665.0
 20
-400.0
 30
0.0
 40
2.500000000000058
  0
CIRCLE
  5
119
330
74
100
AcDbEntity
  8
0
  6
Continuous
 62
     7
370
     9
100
AcDbCircle
 10
-640.0000000000001
 20
-400.0
 30
0.0
 40
2.499999999999947
  0
CIRCLE
  5
11A
330
74
100
AcDbEntity
  8
0
  6
Continuous
 62
     7
370
     9
100
AcDbCircle
 10
-640.0000000000001
 20
-425.0000000000001
 30
0.0
 40
2.499999999999947
  0
CIRCLE
  5
11B
330
74
100
AcDbEntity
  8
0
  6
Continuous
 62
     7
370
     9
100
AcDbCircle
 10
-640.0000000000001
 20
-449.9999999999999
 30
0.0
 40
2.499999999999947
  0
CIRCLE
  5
11C
330
74
100
AcDbEntity
  8
0
  6
Continuous
 62
     7
370
     9
100
AcDbCircle
 10
-640.0000000000001
 20
-474.9999999999999
 30
0.0
 40
2.499999999999947
  0
CIRCLE
  5
11D
330
74
100
AcDbEntity
  8
0
  6
Continuous
 62
     7
370
     9
100
AcDbCircle
 10
-640.0000000000001
 20
-500.0
 30
0.0
 40
2.499999999999947
  0
CIRCLE
  5
11E
330
74
100
AcDbEntity
  8
0
  6
Continuous
 62
     7
370
     9
100
AcDbCircle
 10
-640.0000000000001
 20
-525.0
 30
0.0
 40
2.499999999999947
  0
CIRCLE
  5
11F
330
74
100
AcDbEntity
  8
0
  6
Continuous
 62
     7
370
     9
100
AcDbCircle
 10
-640.0000000000001
 20
-550.0
 30
0.0
 40
2.499999999999947
  0
CIRCLE
  5
120
330
74
100
AcDbEntity
  8
0
  6
Continuous
 62
     7
370
     9
100
AcDbCircle
 10
-640.0000000000001
 20
-575.0
 30
0.0
 40
2.499999999999947
  0
CIRCLE
  5
121
330
74
100
AcDbEntity
  8
0
  6
Continuous
 62
     7
370
     9
100
AcDbCircle
 10
-640.0000000000001
 20
-600.0
 30
0.0
 40
2.499999999999947
  0
CIRCLE
  5
122
330
74
100
AcDbEntity
  8
0
  6
Continuous
 62
     7
370
     9
100
AcDbCircle
 10
-640.0000000000001
 20
-625.0
 30
0.0
 40
2.499999999999947
  0
CIRCLE
  5
123
330
74
100
AcDbEntity
  8
0
  6
Continuous
 62
     7
370
     9
100
AcDbCircle
 10
-665.0
 20
-625.0
 30
0.0
 40
2.500000000000058
  0
CIRCLE
  5
124
330
74
100
AcDbEntity
  8
0
  6
Continuous
 62
     7
370
     9
100
AcDbCircle
 10
-690.0
 20
-625.0
 30
0.0
 40
2.500000000000058
  0
CIRCLE
  5
125
330
74
100
AcDbEntity
  8
0
  6
Continuous
 62
     7
370
     9
100
AcDbCircle
 10
-715.0000000000001
 20
-625.0
 30
0.0
 40
2.500000000000058
  0
CIRCLE
  5
126
330
74
100
AcDbEntity
  8
0
  6
Continuous
 62
     7
370
     9
100
AcDbCircle
 10
-740.0
 20
-625.0
 30
0.0
 40
2.499999999999947
  0
CIRCLE
  5
127
330
74
100
AcDbEntity
  8
0
  6
Continuous
 62
     7
370
     9
100
AcDbCircle
 10
-765.0
 20
-625.0
 30
0.0
 40
2.499999999999947
  0
CIRCLE
  5
128
330
74
100
AcDbEntity
  8
0
  6
Continuous
 62
     7
370
     9
100
AcDbCircle
 10
-790.0
 20
-625.0
 30
0.0
 40
2.500000000000002
  0
CIRCLE
  5
129
330
74
100
AcDbEntity
  8
0
  6
Continuous
 62
     7
370
     9
100
AcDbCircle
 10
-814.9999999999999
 20
-625.0
 30
0.0
 40
2.500000000000002
  0
CIRCLE
  5
12A
330
74
100
AcDbEntity
  8
0
  6
Continuous
 62
     7
370
     9
100
AcDbCircle
 10
-840.0000000000001
 20
-625.0
 30
0.0
 40
2.500000000000002
  0
CIRCLE
  5
12B
330
74
100
AcDbEntity
  8
0
  6
Continuous
 62
     7
370
     9
100
AcDbCircle
 10
-865.0
 20
-625.0
 30
0.0
 40
2.500000000000002
  0
CIRCLE
  5
12C
330
74
100
AcDbEntity
  8
0
  6
Continuous
 62
     7
370
     9
100
AcDbCircle
 10
-890.0
 20
-625.0
 30
0.0
 40
2.500000000000002
  0
CIRCLE
  5
12D
330
74
100
AcDbEntity
  8
0
  6
Continuous
 62
     7
370
     9
100
AcDbCircle
 10
-915.0
 20
-625.0
 30
0.0
 40
2.500000000000002
  0
CIRCLE
  5
12E
330
74
100
AcDbEntity
  8
0
  6
Continuous
 62
     7
370
     9
100
AcDbCircle
 10
-940.0
 20
-625.0
 30
0.0
 40
2.500000000000058
  0
CIRCLE
  5
12F
330
74
100
AcDbEntity
  8
0
  6
Continuous
 62
     7
370
     9
100
AcDbCircle
 10
-965.0000000000001
 20
-625.0
 30
0.0
 40
2.500000000000002
  0
CIRCLE
  5
130
330
74
100
AcDbEntity
  8
0
  6
Continuous
 62
     7
370
     9
100
AcDbCircle
 10
-990.0
 20
-625.0
 30
0.0
 40
2.500000000000002
  0
CIRCLE
  5
131
330
74
100
AcDbEntity
  8
0
  6
Continuous
 62
     7
370
     9
100
AcDbCircle
 10
-1015.0
 20
-625.0
 30
0.0
 40
2.500000000000002
  0
CIRCLE
  5
132
330
74
100
AcDbEntity
  8
0
  6
Continuous
 62
     7
370
     9
100
AcDbCircle
 10
-1040.0
 20
-625.0
 30
0.0
 40
2.500000000000002
  0
CIRCLE
  5
133
330
74
100
AcDbEntity
  8
0
  6
Continuous
 62
     7
370
     9
100
AcDbCircle
 10
-1065.0
 20
-625.0
 30
0.0
 40
2.500000000000002
  0
CIRCLE
  5
134
330
74
100
AcDbEntity
  8
0
  6
Continuous
 62
     7
370
     9
100
AcDbCircle
 10
-1090.0
 20
-625.0
 30
0.0
 40
2.500000000000002
  0
CIRCLE
  5
135
330
74
100
AcDbEntity
  8
0
  6
Continuous
 62
     7
370
     9
100
AcDbCircle
 10
-1115.0
 20
-625.0
 30
0.0
 40
2.500000000000002
  0
CIRCLE
  5
136
330
74
100
AcDbEntity
  8
0
  6
Continuous
 62
     7
370
     9
100
AcDbCircle
 10
-1140.0
 20
-625.0
 30
0.0
 40
2.500000000000002
  0
CIRCLE
  5
137
330
74
100
AcDbEntity
  8
0
  6
Continuous
 62
     7
370
     9
100
AcDbCircle
 10
-740.0
 20
-400.0
 30
0.0
 40
2.499999999999947
  0
CIRCLE
  5
138
330
74
100
AcDbEntity
  8
0
  6
Continuous
 62
     7
370
     9
100
AcDbCircle
 10
-1190.0
 20
-625.0
 30
0.0
 40
2.500000000000002
  0
CIRCLE
  5
139
330
74
100
AcDbEntity
  8
0
  6
Continuous
 62
     7
370
     9
100
AcDbCircle
 10
-1190.0
 20
-600.0
 30
0.0
 40
2.500000000000002
  0
CIRCLE
  5
13A
330
74
100
AcDbEntity
  8
0
  6
Continuous
 62
     7
370
     9
100
AcDbCircle
 10
-1190.0
 20
-575.0
 30
0.0
 40
2.500000000000002
  0
CIRCLE
  5
13B
330
74
100
AcDbEntity
  8
0
  6
Continuous
 62
     7
370
     9
100
AcDbCircle
 10
-1190.0
 20
-550.0
 30
0.0
 40
2.500000000000002
  0
CIRCLE
  5
13C
330
74
100
AcDbEntity
  8
0
  6
Continuous
 62
     7
370
     9
100
AcDbCircle
 10
-1190.0
 20
-525.0
 30
0.0
 40
2.500000000000002
  0
CIRCLE
  5
13D
330
74
100
AcDbEntity
  8
0
  6
Continuous
 62
     7
370
     9
100
AcDbCircle
 10
-1190.0
 20
-500.0
 30
0.0
 40
2.500000000000002
  0
CIRCLE
  5
13E
330
74
100
AcDbEntity
  8
0
  6
Continuous
 62
     7
370
     9
100
AcDbCircle
 10
-1190.0
 20
-474.9999999999999
 30
0.0
 40
2.500000000000002
  0
CIRCLE
  5
13F
330
74
100
AcDbEntity
  8
0
  6
Continuous
 62
     7
370
     9
100
AcDbCircle
 10
-1190.0
 20
-450.0
 30
0.0
 40
2.500000000000002
  0
CIRCLE
  5
140
330
74
100
AcDbEntity
  8
0
  6
Continuous
 62
     7
370
     9
100
AcDbCircle
 10
-1190.0
 20
-425.0000000000001
 30
0.0
 40
2.500000000000002
  0
CIRCLE
  5
141
330
74
100
AcDbEntity
  8
0
  6
Continuous
 62
     7
370
     9
100
AcDbCircle
 10
-1190.0
 20
-400.0
 30
0.0
 40
2.500000000000002
  0
CIRCLE
  5
142
330
74
100
AcDbEntity
  8
0
  6
Continuous
 62
     7
370
     9
100
AcDbCircle
 10
-1190.0
 20
-375.0
 30
0.0
 40
2.500000000000002
  0
CIRCLE
  5
143
330
74
100
AcDbEntity
  8
0
  6
Continuous
 62
     7
370
     9
100
AcDbCircle
 10
-1165.0
 20
-375.0
 30
0.0
 40
2.500000000000002
  0
CIRCLE
  5
144
330
74
100
AcDbEntity
  8
0
  6
Continuous
 62
     7
370
     9
100
AcDbCircle
 10
-1140.0
 20
-375.0
 30
0.0
 40
2.500000000000002
  0
CIRCLE
  5
145
330
74
100
AcDbEntity
  8
0
  6
Continuous
 62
     7
370
     9
100
AcDbCircle
 10
-1115.0
 20
-375.0
 30
0.0
 40
2.500000000000002
  0
CIRCLE
  5
146
330
74
100
AcDbEntity
  8
0
  6
Continuous
 62
     7
370
     9
100
AcDbCircle
 10
-1090.0
 20
-375.0
 30
0.0
 40
2.500000000000002
  0
CIRCLE
  5
147
330
74
100
AcDbEntity
  8
0
  6
Continuous
 62
     7
370
     9
100
AcDbCircle
 10
-1065.0
 20
-375.0
 30
0.0
 40
2.500000000000002
  0
CIRCLE
  5
148
330
74
100
AcDbEntity
  8
0
  6
Continuous
 62
     7
370
     9
100
AcDbCircle
 10
-1040.0
 20
-375.0
 30
0.0
 40
2.500000000000002
  0
CIRCLE
  5
149
330
74
100
AcDbEntity
  8
0
  6
Continuous
 62
     7
370
     9
100
AcDbCircle
 10
-1015.0
 20
-375.0
 30
0.0
 40
2.500000000000002
  0
CIRCLE
  5
14A
330
74
100
AcDbEntity
  8
0
  6
Continuous
 62
     7
370
     9
100
AcDbCircle
 10
-990.0
 20
-375.0
 30
0.0
 40
2.500000000000002
  0
CIRCLE
  5
14B
330
74
100
AcDbEntity
  8
0
  6
Continuous
 62
     7
370
     9
100
AcDbCircle
 10
-965.0000000000001
 20
-375.0
 30
0.0
 40
2.500000000000002
  0
CIRCLE
  5
14C
330
74
100
AcDbEntity
  8
0
  6
Continuous
 62
     7
370
     9
100
AcDbCircle
 10
-940.0
 20
-375.0
 30
0.0
 40
2.500000000000002
  0
CIRCLE
  5
14D
330
74
100
AcDbEntity
  8
0
  6
Continuous
 62
     7
370
     9
100
AcDbCircle
 10
-915.0
 20
-375.0
 30
0.0
 40
2.500000000000002
  0
CIRCLE
  5
14E
330
74
100
AcDbEntity
  8
0
  6
Continuous
 62
     7
370
     9
100
AcDbCircle
 10
-890.0
 20
-375.0
 30
0.0
 40
2.500000000000002
  0
CIRCLE
  5
14F
330
74
100
AcDbEntity
  8
0
  6
Continuous
 62
     7
370
     9
100
AcDbCircle
 10
-865.0
 20
-375.0
 30
0.0
 40
2.500000000000002
  0
CIRCLE
  5
150
330
74
100
AcDbEntity
  8
0
  6
Continuous
 62
     7
370
     9
100
AcDbCircle
 10
-840.0000000000001
 20
-375.0
 30
0.0
 40
2.500000000000002
  0
CIRCLE
  5
151
330
74
100
AcDbEntity
  8
0
  6
Continuous
 62
     7
370
     9
100
AcDbCircle
 10
-815.0
 20
-375.0
 30
0.0
 40
2.500000000000002
  0
CIRCLE
  5
152
330
74
100
AcDbEntity
  8
0
  6
Continuous
 62
     7
370
     9
100
AcDbCircle
 10
-790.0
 20
-375.0
 30
0.0
 40
2.500000000000002
  0
CIRCLE
  5
153
330
74
100
AcDbEntity
  8
0
  6
Continuous
 62
     7
370
     9
100
AcDbCircle
 10
-765.0
 20
-375.0
 30
0.0
 40
2.499999999999947
  0
CIRCLE
  5
154
330
74
100
AcDbEntity
  8
0
  6
Continuous
 62
     7
370
     9
100
AcDbCircle
 10
-740.0000000000001
 20
-375.0
 30
0.0
 40
2.500000000000058
  0
CIRCLE
  5
155
330
74
100
AcDbEntity
  8
0
  6
Continuous
 62
     7
370
     9
100
AcDbCircle
 10
-715.0000000000001
 20
-375.0
 30
0.0
 40
2.500000000000058
  0
CIRCLE
  5
156
330
74
100
AcDbEntity
  8
0
  6
Continuous
 62
     7
370
     9
100
AcDbCircle
 10
-690.0
 20
-375.0
 30
0.0
 40
2.499999999999947
  0
CIRCLE
  5
157
330
74
100
AcDbEntity
  8
0
  6
Continuous
 62
     7
370
     9
100
AcDbCircle
 10
-665.0
 20
-375.0
 30
0.0
 40
2.500000000000058
  0
CIRCLE
  5
158
330
74
100
AcDbEntity
  8
0
  6
Continuous
 62
     7
370
     9
100
AcDbCircle
 10
-640.0000000000001
 20
-375.0
 30
0.0
 40
2.499999999999947
  0
CIRCLE
  5
159
330
74
100
AcDbEntity
  8
0
  6
Continuous
 62
     7
370
     9
100
AcDbCircle
 10
-615.0
 20
-375.0
 30
0.0
 40
2.499999999999947
  0
CIRCLE
  5
15A
330
74
100
AcDbEntity
  8
0
  6
Continuous
 62
     7
370
     9
100
AcDbCircle
 10
-615.0
 20
-400.0
 30
0.0
 40
2.499999999999947
  0
CIRCLE
  5
15B
330
74
100
AcDbEntity
  8
0
  6
Continuous
 62
     7
370
     9
100
AcDbCircle
 10
-615.0
 20
-425.0000000000001
 30
0.0
 40
2.499999999999947
  0
CIRCLE
  5
15C
330
74
100
AcDbEntity
  8
0
  6
Continuous
 62
     7
370
     9
100
AcDbCircle
 10
-615.0
 20
-450.0
 30
0.0
 40
2.499999999999947
  0
CIRCLE
  5
15D
330
74
100
AcDbEntity
  8
0
  6
Continuous
 62
     7
370
     9
100
AcDbCircle
 10
-615.0
 20
-474.9999999999999
 30
0.0
 40
2.499999999999947
  0
CIRCLE
  5
15E
330
74
100
AcDbEntity
  8
0
  6
Continuous
 62
     7
370
     9
100
AcDbCircle
 10
-615.0
 20
-500.0
 30
0.0
 40
2.499999999999947
  0
CIRCLE
  5
15F
330
74
100
AcDbEntity
  8
0
  6
Continuous
 62
     7
370
     9
100
AcDbCircle
 10
-615.0
 20
-525.0
 30
0.0
 40
2.499999999999947
  0
CIRCLE
  5
160
330
74
100
AcDbEntity
  8
0
  6
Continuous
 62
     7
370
     9
100
AcDbCircle
 10
-615.0
 20
-550.0
 30
0.0
 40
2.499999999999947
  0
CIRCLE
  5
161
330
74
100
AcDbEntity
  8
0
  6
Continuous
 62
     7
370
     9
100
AcDbCircle
 10
-615.0
 20
-575.0
 30
0.0
 40
2.499999999999947
  0
CIRCLE
  5
162
330
74
100
AcDbEntity
  8
0
  6
Continuous
 62
     7
370
     9
100
AcDbCircle
 10
-615.0
 20
-600.0
 30
0.0
 40
2.499999999999947
  0
CIRCLE
  5
163
330
74
100
AcDbEntity
  8
0
  6
Continuous
 62
     7
370
     9
100
AcDbCircle
 10
-615.0
 20
-625.0
 30
0.0
 40
2.499999999999947
  0
CIRCLE
  5
164
330
74
100
AcDbEntity
  8
0
  6
Continuous
 62
     7
370
     9
100
AcDbCircle
 10
-615.0
 20
-650.0
 30
0.0
 40
2.499999999999947
  0
CIRCLE
  5
165
330
74
100
AcDbEntity
  8
0
  6
Continuous
 62
     7
370
     9
100
AcDbCircle
 10
-640.0000000000001
 20
-650.0
 30
0.0
 40
2.499999999999947
  0
CIRCLE
  5
166
330
74
100
AcDbEntity
  8
0
  6
Continuous
 62
     7
370
     9
100
AcDbCircle
 10
-665.0
 20
-650.0
 30
0.0
 40
2.500000000000058
  0
CIRCLE
  5
167
330
74
100
AcDbEntity
  8
0
  6
Continuous
 62
     7
370
     9
100
AcDbCircle
 10
-690.0
 20
-650.0
 30
0.0
 40
2.499999999999947
  0
CIRCLE
  5
168
330
74
100
AcDbEntity
  8
0
  6
Continuous
 62
     7
370
     9
100
AcDbCircle
 10
-715.0000000000001
 20
-650.0
 30
0.0
 40
2.500000000000058
  0
CIRCLE
  5
169
330
74
100
AcDbEntity
  8
0
  6
Continuous
 62
     7
370
     9
100
AcDbCircle
 10
-740.0000000000001
 20
-650.0
 30
0.0
 40
2.500000000000058
  0
CIRCLE
  5
16A
330
74
100
AcDbEntity
  8
0
  6
Continuous
 62
     7
370
     9
100
AcDbCircle
 10
-765.0
 20
-650.0
 30
0.0
 40
2.499999999999947
  0
CIRCLE
  5
16B
330
74
100
AcDbEntity
  8
0
  6
Continuous
 62
     7
370
     9
100
AcDbCircle
 10
-790.0
 20
-650.0
 30
0.0
 40
2.500000000000002
  0
CIRCLE
  5
16C
330
74
100
AcDbEntity
  8
0
  6
Continuous
 62
     7
370
     9
100
AcDbCircle
 10
-815.0
 20
-650.0
 30
0.0
 40
2.500000000000002
  0
CIRCLE
  5
16D
330
74
100
AcDbEntity
  8
0
  6
Continuous
 62
     7
370
     9
100
AcDbCircle
 10
-840.0000000000001
 20
-650.0
 30
0.0
 40
2.500000000000002
  0
CIRCLE
  5
16E
330
74
100
AcDbEntity
  8
0
  6
Continuous
 62
     7
370
     9
100
AcDbCircle
 10
-865.0
 20
-650.0
 30
0.0
 40
2.500000000000002
  0
CIRCLE
  5
16F
330
74
100
AcDbEntity
  8
0
  6
Continuous
 62
     7
370
     9
100
AcDbCircle
 10
-890.0
 20
-650.0
 30
0.0
 40
2.500000000000002
  0
CIRCLE
  5
170
330
74
100
AcDbEntity
  8
0
  6
Continuous
 62
     7
370
     9
100
AcDbCircle
 10
-915.0
 20
-650.0
 30
0.0
 40
2.500000000000002
  0
CIRCLE
  5
171
330
74
100
AcDbEntity
  8
0
  6
Continuous
 62
     7
370
     9
100
AcDbCircle
 10
-940.0
 20
-650.0
 30
0.0
 40
2.500000000000002
  0
CIRCLE
  5
172
330
74
100
AcDbEntity
  8
0
  6
Continuous
 62
     7
370
     9
100
AcDbCircle
 10
-965.0000000000001
 20
-650.0
 30
0.0
 40
2.500000000000002
  0
CIRCLE
  5
173
330
74
100
AcDbEntity
  8
0
  6
Continuous
 62
     7
370
     9
100
AcDbCircle
 10
-990.0
 20
-650.0
 30
0.0
 40
2.500000000000002
  0
CIRCLE
  5
174
330
74
100
AcDbEntity
  8
0
  6
Continuous
 62
     7
370
     9
100
AcDbCircle
 10
-1015.0
 20
-650.0
 30
0.0
 40
2.500000000000002
  0
CIRCLE
  5
175
330
74
100
AcDbEntity
  8
0
  6
Continuous
 62
     7
370
     9
100
AcDbCircle
 10
-1040.0
 20
-650.0
 30
0.0
 40
2.500000000000002
  0
CIRCLE
  5
176
330
74
100
AcDbEntity
  8
0
  6
Continuous
 62
     7
370
     9
100
AcDbCircle
 10
-1065.0
 20
-650.0
 30
0.0
 40
2.500000000000002
  0
CIRCLE
  5
177
330
74
100
AcDbEntity
  8
0
  6
Continuous
 62
     7
370
     9
100
AcDbCircle
 10
-1090.0
 20
-650.0
 30
0.0
 40
2.500000000000002
  0
CIRCLE
  5
178
330
74
100
AcDbEntity
  8
0
  6
Continuous
 62
     7
370
     9
100
AcDbCircle
 10
-1115.0
 20
-650.0
 30
0.0
 40
2.500000000000002
  0
CIRCLE
  5
179
330
74
100
AcDbEntity
  8
0
  6
Continuous
 62
     7
370
     9
100
AcDbCircle
 10
-1140.0
 20
-650.0
 30
0.0
 40
2.500000000000002
  0
CIRCLE
  5
17A
330
74
100
AcDbEntity
  8
0
  6
Continuous
 62
     7
370
     9
100
AcDbCircle
 10
-1165.0
 20
-650.0
 30
0.0
 40
2.500000000000002
  0
CIRCLE
  5
17B
330
74
100
AcDbEntity
  8
0
  6
Continuous
 62
     7
370
     9
100
AcDbCircle
 10
-1190.0
 20
-650.0
 30
0.0
 40
2.500000000000002
  0
CIRCLE
  5
17C
330
74
100
AcDbEntity
  8
0
  6
Continuous
 62
     7
370
     9
100
AcDbCircle
 10
-1165.0
 20
-625.0
 30
0.0
 40
2.500000000000002
  0
LINE
  5
17D
330
74
100
AcDbEntity
  8
0
  6
Continuous
 62
     7
370
     9
100
AcDbLine
 10
-1195.0
 20
-372.9999999999999
 30
0.0
 11
-1195.0
 21
-651.9999999999999
 31
0.0
  0
LINE
  5
17E
330
74
100
AcDbEntity
  8
0
  6
Continuous
 62
     7
370
     9
100
AcDbLine
 10
-1192.0
 20
-369.9999999999999
 30
0.0
 11
-1195.0
 21
-372.9999999999999
 31
0.0
  0
LINE
  5
17F
330
74
100
AcDbEntity
  8
0
  6
Continuous
 62
     7
370
     9
100
AcDbLine
 10
-613.0
 20
-369.9999999999999
 30
0.0
 11
-1192.0
 21
-369.9999999999999
 31
0.0
  0
LINE
  5
180
330
74
100
AcDbEntity
  8
0
  6
Continuous
 62
     7
370
     9
100
AcDbLine
 10
-610.0
 20
-372.9999999999999
 30
0.0
 11
-613.0
 21
-369.9999999999999
 31
0.0
  0
LINE
  5
181
330
74
100
AcDbEntity
  8
0
  6
Continuous
 62
     7
370
     9
100
AcDbLine
 10
-610.0
 20
-651.9999999999999
 30
0.0
 11
-610.0
 21
-372.9999999999999
 31
0.0
  0
LINE
  5
182
330
74
100
AcDbEntity
  8
0
  6
Continuous
 62
     7
370
     9
100
AcDbLine
 10
-613.0
 20
-655.0
 30
0.0
 11
-610.0
 21
-652.0
 31
0.0
  0
LINE
  5
183
330
74
100
AcDbEntity
  8
0
  6
Continuous
 62
     7
370
     9
100
AcDbLine
 10
-1192.0
 20
-655.0
 30
0.0
 11
-613.0
 21
-655.0
 31
0.0
  0
LINE
  5
184
330
74
100
AcDbEntity
  8
0
  6
Continuous
 62
     7
370
     9
100
AcDbLine
 10
-1195.0
 20
-651.9999999999999
 30
0.0
 11
-1192.0
 21
-654.9999999999999
 31
0.0
  0
ENDBLK
  5
188
330
74
100
AcDbEntity
  8
0
100
AcDbBlockEnd
  0
BLOCK
  5
59E
330
186
100
AcDbEntity
  8
0
100
AcDbBlockBegin
  2
D_FRAME_VIEW@4916
 70
     0
 10
0.0
 20
0.0
 30
0.0
  3
D_FRAME_VIEW@4916
  1

  0
LINE
  5
189
330
186
100
AcDbEntity
  8
0
  6
Continuous
 62
     7
370
     9
100
AcDbLine
 10
-521.900000599995
 20
-655.0
 30
0.0
 11
-521.900000599995
 21
-651.9999999999999
 31
0.0
  0
LINE
  5
18A
330
186
100
AcDbEntity
  8
0
  6
Continuous
 62
     7
370
     9
100
AcDbLine
 10
-523.1000005999949
 20
-655.0
 30
0.0
 11
-523.1000005999949
 21
-651.9999999999999
 31
0.0
  0
LINE
  5
18B
330
186
100
AcDbEntity
  8
0
  6
Continuous
 62
     7
370
     9
100
AcDbLine
 10
-523.1000005999949
 20
-651.9999999999999
 30
0.0
 11
-521.900000599995
 21
-651.9999999999999
 31
0.0
  0
LINE
  5
18C
330
186
100
AcDbEntity
  8
0
  6
Continuous
 62
     7
370
     9
100
AcDbLine
 10
-521.900000599995
 20
-651.9999999999999
 30
0.0
 11
-521.900000599995
 21
-372.9999999999999
 31
0.0
  0
LINE
  5
18D
330
186
100
AcDbEntity
  8
0
  6
Continuous
 62
     7
370
     9
100
AcDbLine
 10
-523.1000005999949
 20
-651.9999999999999
 30
0.0
 11
-523.1000005999949
 21
-372.9999999999999
 31
0.0
  0
LINE
  5
18E
330
186
100
AcDbEntity
  8
0
  6
Continuous
 62
     7
370
     9
100
AcDbLine
 10
-523.1000005999949
 20
-372.9999999999999
 30
0.0
 11
-521.900000599995
 21
-372.9999999999999
 31
0.0
  0
LINE
  5
18F
330
186
100
AcDbEntity
  8
0
  6
Continuous
 62
     7
370
     9
100
AcDbLine
 10
-521.900000599995
 20
-372.9999999999999
 30
0.0
 11
-521.900000599995
 21
-369.9999999999999
 31
0.0
  0
LINE
  5
190
330
186
100
AcDbEntity
  8
0
  6
Continuous
 62
     7
370
     9
100
AcDbLine
 10
-523.1000005999949
 20
-372.9999999999999
 30
0.0
 11
-523.1000005999949
 21
-369.9999999999999
 31
0.0
  0
LINE
  5
191
330
186
100
AcDbEntity
  8
0
  6
Continuous
 62
     7
370
     9
100
AcDbLine
 10
-521.899999400005
 20
-502.4999999999999
 30
0.0
 11
-521.899999400005
 21
-500.0
 31
0.0
  0
LINE
  5
192
330
186
100
AcDbEntity
  8
0
  6
Continuous
 62
     7
370
     9
100
AcDbLine
 10
-521.899999400005
 20
-502.4999999999999
 30
0.0
 11
-521.899999400005
 21
-497.5000000000001
 31
0.0
  0
LINE
  5
193
330
186
100
AcDbEntity
  8
0
  6
Continuous
 62
     7
370
     9
100
AcDbLine
 10
-523.1000005999949
 20
-502.4999999999999
 30
0.0
 11
-523.1000005999949
 21
-500.0
 31
0.0
  0
LINE
  5
194
330
186
100
AcDbEntity
  8
0
  6
Continuous
 62
     7
370
     9
100
AcDbLine
 10
-523.1000005999949
 20
-502.4999999999999
 30
0.0
 11
-523.1000005999949
 21
-497.5000000000001
 31
0.0
  0
LINE
  5
195
330
186
100
AcDbEntity
  8
0
  6
Continuous
 62
     7
370
     9
100
AcDbLine
 10
-521.899999400005
 20
-500.0
 30
0.0
 11
-521.899999400005
 21
-497.5000000000001
 31
0.0
  0
LINE
  5
196
330
186
100
AcDbEntity
  8
0
  6
Continuous
 62
     7
370
     9
100
AcDbLine
 10
-523.1000005999949
 20
-500.0
 30
0.0
 11
-523.1000005999949
 21
-497.5000000000001
 31
0.0
  0
LINE
  5
197
330
186
100
AcDbEntity
  8
0
  6
Continuous
 62
     7
370
     9
100
AcDbLine
 10
-521.899999400005
 20
-477.4999999999999
 30
0.0
 11
-521.899999400005
 21
-474.9999999999999
 31
0.0
  0
LINE
  5
198
330
186
100
AcDbEntity
  8
0
  6
Continuous
 62
     7
370
     9
100
AcDbLine
 10
-521.899999400005
 20
-477.4999999999999
 30
0.0
 11
-521.899999400005
 21
-472.5
 31
0.0
  0
LINE
  5
199
330
186
100
AcDbEntity
  8
0
  6
Continuous
 62
     7
370
     9
100
AcDbLine
 10
-523.1000005999949
 20
-477.4999999999999
 30
0.0
 11
-523.1000005999949
 21
-474.9999999999999
 31
0.0
  0
LINE
  5
19A
330
186
100
AcDbEntity
  8
0
  6
Continuous
 62
     7
370
     9
100
AcDbLine
 10
-523.1000005999949
 20
-477.4999999999999
 30
0.0
 11
-523.1000005999949
 21
-472.5
 31
0.0
  0
LINE
  5
19B
330
186
100
AcDbEntity
  8
0
  6
Continuous
 62
     7
370
     9
100
AcDbLine
 10
-521.899999400005
 20
-474.9999999999999
 30
0.0
 11
-521.899999400005
 21
-472.5
 31
0.0
  0
LINE
  5
19C
330
186
100
AcDbEntity
  8
0
  6
Continuous
 62
     7
370
     9
100
AcDbLine
 10
-523.1000005999949
 20
-474.9999999999999
 30
0.0
 11
-523.1000005999949
 21
-472.5
 31
0.0
  0
LINE
  5
19D
330
186
100
AcDbEntity
  8
0
  6
Continuous
 62
     7
370
     9
100
AcDbLine
 10
-521.899999400005
 20
-452.4999999999999
 30
0.0
 11
-521.899999400005
 21
-450.0
 31
0.0
  0
LINE
  5
19E
330
186
100
AcDbEntity
  8
0
  6
Continuous
 62
     7
370
     9
100
AcDbLine
 10
-521.899999400005
 20
-452.4999999999999
 30
0.0
 11
-521.899999400005
 21
-447.5000000000001
 31
0.0
  0
LINE
  5
19F
330
186
100
AcDbEntity
  8
0
  6
Continuous
 62
     7
370
     9
100
AcDbLine
 10
-523.1000005999949
 20
-452.4999999999999
 30
0.0
 11
-523.1000005999949
 21
-450.0
 31
0.0
  0
LINE
  5
1A0
330
186
100
AcDbEntity
  8
0
  6
Continuous
 62
     7
370
     9
100
AcDbLine
 10
-523.1000005999949
 20
-452.4999999999999
 30
0.0
 11
-523.1000005999949
 21
-447.5000000000001
 31
0.0
  0
LINE
  5
1A1
330
186
100
AcDbEntity
  8
0
  6
Continuous
 62
     7
370
     9
100
AcDbLine
 10
-521.899999400005
 20
-450.0
 30
0.0
 11
-521.899999400005
 21
-447.5000000000001
 31
0.0
  0
LINE
  5
1A2
330
186
100
AcDbEntity
  8
0
  6
Continuous
 62
     7
370
     9
100
AcDbLine
 10
-523.1000005999949
 20
-450.0
 30
0.0
 11
-523.1000005999949
 21
-447.5000000000001
 31
0.0
  0
LINE
  5
1A3
330
186
100
AcDbEntity
  8
0
  6
Continuous
 62
     7
370
     9
100
AcDbLine
 10
-521.899999400005
 20
-627.4999999999999
 30
0.0
 11
-521.899999400005
 21
-625.0
 31
0.0
  0
LINE
  5
1A4
330
186
100
AcDbEntity
  8
0
  6
Continuous
 62
     7
370
     9
100
AcDbLine
 10
-521.899999400005
 20
-627.4999999999999
 30
0.0
 11
-521.899999400005
 21
-622.5
 31
0.0
  0
LINE
  5
1A5
330
186
100
AcDbEntity
  8
0
  6
Continuous
 62
     7
370
     9
100
AcDbLine
 10
-523.1000005999949
 20
-627.4999999999999
 30
0.0
 11
-523.1000005999949
 21
-625.0
 31
0.0
  0
LINE
  5
1A6
330
186
100
AcDbEntity
  8
0
  6
Continuous
 62
     7
370
     9
100
AcDbLine
 10
-523.1000005999949
 20
-627.4999999999999
 30
0.0
 11
-523.1000005999949
 21
-622.5
 31
0.0
  0
LINE
  5
1A7
330
186
100
AcDbEntity
  8
0
  6
Continuous
 62
     7
370
     9
100
AcDbLine
 10
-521.899999400005
 20
-625.0
 30
0.0
 11
-521.899999400005
 21
-622.5
 31
0.0
  0
LINE
  5
1A8
330
186
100
AcDbEntity
  8
0
  6
Continuous
 62
     7
370
     9
100
AcDbLine
 10
-523.1000005999949
 20
-625.0
 30
0.0
 11
-523.1000005999949
 21
-622.5
 31
0.0
  0
LINE
  5
1A9
330
186
100
AcDbEntity
  8
0
  6
Continuous
 62
     7
370
     9
100
AcDbLine
 10
-521.899999400005
 20
-602.4999999999999
 30
0.0
 11
-521.899999400005
 21
-600.0
 31
0.0
  0
LINE
  5
1AA
330
186
100
AcDbEntity
  8
0
  6
Continuous
 62
     7
370
     9
100
AcDbLine
 10
-521.899999400005
 20
-602.4999999999999
 30
0.0
 11
-521.899999400005
 21
-597.5
 31
0.0
  0
LINE
  5
1AB
330
186
100
AcDbEntity
  8
0
  6
Continuous
 62
     7
370
     9
100
AcDbLine
 10
-523.1000005999949
 20
-602.4999999999999
 30
0.0
 11
-523.1000005999949
 21
-600.0
 31
0.0
  0
LINE
  5
1AC
330
186
100
AcDbEntity
  8
0
  6
Continuous
 62
     7
370
     9
100
AcDbLine
 10
-523.1000005999949
 20
-602.4999999999999
 30
0.0
 11
-523.1000005999949
 21
-597.5
 31
0.0
  0
LINE
  5
1AD
330
186
100
AcDbEntity
  8
0
  6
Continuous
 62
     7
370
     9
100
AcDbLine
 10
-521.899999400005
 20
-600.0
 30
0.0
 11
-521.899999400005
 21
-597.5
 31
0.0
  0
LINE
  5
1AE
330
186
100
AcDbEntity
  8
0
  6
Continuous
 62
     7
370
     9
100
AcDbLine
 10
-523.1000005999949
 20
-600.0
 30
0.0
 11
-523.1000005999949
 21
-597.5
 31
0.0
  0
LINE
  5
1AF
330
186
100
AcDbEntity
  8
0
  6
Continuous
 62
     7
370
     9
100
AcDbLine
 10
-521.899999400005
 20
-377.4999999999999
 30
0.0
 11
-521.899999400005
 21
-375.0
 31
0.0
  0
LINE
  5
1B0
330
186
100
AcDbEntity
  8
0
  6
Continuous
 62
     7
370
     9
100
AcDbLine
 10
-521.899999400005
 20
-377.4999999999999
 30
0.0
 11
-521.899999400005
 21
-372.5000000000001
 31
0.0
  0
LINE
  5
1B1
330
186
100
AcDbEntity
  8
0
  6
Continuous
 62
     7
370
     9
100
AcDbLine
 10
-523.1000005999949
 20
-377.4999999999999
 30
0.0
 11
-523.1000005999949
 21
-375.0
 31
0.0
  0
LINE
  5
1B2
330
186
100
AcDbEntity
  8
0
  6
Continuous
 62
     7
370
     9
100
AcDbLine
 10
-523.1000005999949
 20
-377.4999999999999
 30
0.0
 11
-523.1000005999949
 21
-372.5000000000001
 31
0.0
  0
LINE
  5
1B3
330
186
100
AcDbEntity
  8
0
  6
Continuous
 62
     7
370
     9
100
AcDbLine
 10
-521.899999400005
 20
-375.0
 30
0.0
 11
-521.899999400005
 21
-372.5000000000001
 31
0.0
  0
LINE
  5
1B4
330
186
100
AcDbEntity
  8
0
  6
Continuous
 62
     7
370
     9
100
AcDbLine
 10
-523.1000005999949
 20
-375.0
 30
0.0
 11
-523.1000005999949
 21
-372.5000000000001
 31
0.0
  0
LINE
  5
1B5
330
186
100
AcDbEntity
  8
0
  6
Continuous
 62
     7
370
     9
100
AcDbLine
 10
-521.899999400005
 20
-577.4999999999999
 30
0.0
 11
-521.899999400005
 21
-575.0
 31
0.0
  0
LINE
  5
1B6
330
186
100
AcDbEntity
  8
0
  6
Continuous
 62
     7
370
     9
100
AcDbLine
 10
-521.899999400005
 20
-577.4999999999999
 30
0.0
 11
-521.899999400005
 21
-572.5
 31
0.0
  0
LINE
  5
1B7
330
186
100
AcDbEntity
  8
0
  6
Continuous
 62
     7
370
     9
100
AcDbLine
 10
-523.1000005999949
 20
-577.4999999999999
 30
0.0
 11
-523.1000005999949
 21
-575.0
 31
0.0
  0
LINE
  5
1B8
330
186
100
AcDbEntity
  8
0
  6
Continuous
 62
     7
370
     9
100
AcDbLine
 10
-523.1000005999949
 20
-577.4999999999999
 30
0.0
 11
-523.1000005999949
 21
-572.5
 31
0.0
  0
LINE
  5
1B9
330
186
100
AcDbEntity
  8
0
  6
Continuous
 62
     7
370
     9
100
AcDbLine
 10
-521.899999400005
 20
-575.0
 30
0.0
 11
-521.899999400005
 21
-572.5
 31
0.0
  0
LINE
  5
1BA
330
186
100
AcDbEntity
  8
0
  6
Continuous
 62
     7
370
     9
100
AcDbLine
 10
-523.1000005999949
 20
-575.0
 30
0.0
 11
-523.1000005999949
 21
-572.5
 31
0.0
  0
LINE
  5
1BB
330
186
100
AcDbEntity
  8
0
  6
Continuous
 62
     7
370
     9
100
AcDbLine
 10
-521.899999400005
 20
-552.5
 30
0.0
 11
-521.899999400005
 21
-550.0
 31
0.0
  0
LINE
  5
1BC
330
186
100
AcDbEntity
  8
0
  6
Continuous
 62
     7
370
     9
100
AcDbLine
 10
-521.899999400005
 20
-552.5
 30
0.0
 11
-521.899999400005
 21
-547.5000000000001
 31
0.0
  0
LINE
  5
1BD
330
186
100
AcDbEntity
  8
0
  6
Continuous
 62
     7
370
     9
100
AcDbLine
 10
-523.1000005999949
 20
-552.5
 30
0.0
 11
-523.1000005999949
 21
-550.0
 31
0.0
  0
LINE
  5
1BE
330
186
100
AcDbEntity
  8
0
  6
Continuous
 62
     7
370
     9
100
AcDbLine
 10
-523.1000005999949
 20
-552.5
 30
0.0
 11
-523.1000005999949
 21
-547.5000000000001
 31
0.0
  0
LINE
  5
1BF
330
186
100
AcDbEntity
  8
0
  6
Continuous
 62
     7
370
     9
100
AcDbLine
 10
-521.899999400005
 20
-550.0
 30
0.0
 11
-521.899999400005
 21
-547.5000000000001
 31
0.0
  0
LINE
  5
1C0
330
186
100
AcDbEntity
  8
0
  6
Continuous
 62
     7
370
     9
100
AcDbLine
 10
-523.1000005999949
 20
-550.0
 30
0.0
 11
-523.1000005999949
 21
-547.5000000000001
 31
0.0
  0
LINE
  5
1C1
330
186
100
AcDbEntity
  8
0
  6
Continuous
 62
     7
370
     9
100
AcDbLine
 10
-521.899999400005
 20
-527.5
 30
0.0
 11
-521.899999400005
 21
-525.0
 31
0.0
  0
LINE
  5
1C2
330
186
100
AcDbEntity
  8
0
  6
Continuous
 62
     7
370
     9
100
AcDbLine
 10
-521.899999400005
 20
-527.5
 30
0.0
 11
-521.899999400005
 21
-522.5000000000001
 31
0.0
  0
LINE
  5
1C3
330
186
100
AcDbEntity
  8
0
  6
Continuous
 62
     7
370
     9
100
AcDbLine
 10
-523.1000005999949
 20
-527.5
 30
0.0
 11
-523.1000005999949
 21
-525.0
 31
0.0
  0
LINE
  5
1C4
330
186
100
AcDbEntity
  8
0
  6
Continuous
 62
     7
370
     9
100
AcDbLine
 10
-523.1000005999949
 20
-527.5
 30
0.0
 11
-523.1000005999949
 21
-522.5000000000001
 31
0.0
  0
LINE
  5
1C5
330
186
100
AcDbEntity
  8
0
  6
Continuous
 62
     7
370
     9
100
AcDbLine
 10
-521.899999400005
 20
-525.0
 30
0.0
 11
-521.899999400005
 21
-522.5000000000001
 31
0.0
  0
LINE
  5
1C6
330
186
100
AcDbEntity
  8
0
  6
Continuous
 62
     7
370
     9
100
AcDbLine
 10
-523.1000005999949
 20
-525.0
 30
0.0
 11
-523.1000005999949
 21
-522.5000000000001
 31
0.0
  0
LINE
  5
1C7
330
186
100
AcDbEntity
  8
0
  6
Continuous
 62
     7
370
     9
100
AcDbLine
 10
-521.899999400005
 20
-402.4999999999999
 30
0.0
 11
-521.899999400005
 21
-400.0
 31
0.0
  0
LINE
  5
1C8
330
186
100
AcDbEntity
  8
0
  6
Continuous
 62
     7
370
     9
100
AcDbLine
 10
-521.899999400005
 20
-402.4999999999999
 30
0.0
 11
-521.899999400005
 21
-397.5000000000001
 31
0.0
  0
LINE
  5
1C9
330
186
100
AcDbEntity
  8
0
  6
Continuous
 62
     7
370
     9
100
AcDbLine
 10
-523.1000005999949
 20
-402.4999999999999
 30
0.0
 11
-523.1000005999949
 21
-400.0
 31
0.0
  0
LINE
  5
1CA
330
186
100
AcDbEntity
  8
0
  6
Continuous
 62
     7
370
     9
100
AcDbLine
 10
-523.1000005999949
 20
-402.4999999999999
 30
0.0
 11
-523.1000005999949
 21
-397.5000000000001
 31
0.0
  0
LINE
  5
1CB
330
186
100
AcDbEntity
  8
0
  6
Continuous
 62
     7
370
     9
100
AcDbLine
 10
-521.899999400005
 20
-400.0
 30
0.0
 11
-521.899999400005
 21
-397.5000000000001
 31
0.0
  0
LINE
  5
1CC
330
186
100
AcDbEntity
  8
0
  6
Continuous
 62
     7
370
     9
100
AcDbLine
 10
-523.1000005999949
 20
-400.0
 30
0.0
 11
-523.1000005999949
 21
-397.5000000000001
 31
0.0
  0
LINE
  5
1CD
330
186
100
AcDbEntity
  8
0
  6
Continuous
 62
     7
370
     9
100
AcDbLine
 10
-521.899999400005
 20
-427.5
 30
0.0
 11
-521.899999400005
 21
-425.0000000000001
 31
0.0
  0
LINE
  5
1CE
330
186
100
AcDbEntity
  8
0
  6
Continuous
 62
     7
370
     9
100
AcDbLine
 10
-521.899999400005
 20
-427.5
 30
0.0
 11
-521.899999400005
 21
-422.5000000000001
 31
0.0
  0
LINE
  5
1CF
330
186
100
AcDbEntity
  8
0
  6
Continuous
 62
     7
370
     9
100
AcDbLine
 10
-523.1000005999949
 20
-427.5
 30
0.0
 11
-523.1000005999949
 21
-425.0000000000001
 31
0.0
  0
LINE
  5
1D0
330
186
100
AcDbEntity
  8
0
  6
Continuous
 62
     7
370
     9
100
AcDbLine
 10
-523.1000005999949
 20
-427.5
 30
0.0
 11
-523.1000005999949
 21
-422.5000000000001
 31
0.0
  0
LINE
  5
1D1
330
186
100
AcDbEntity
  8
0
  6
Continuous
 62
     7
370
     9
100
AcDbLine
 10
-521.899999400005
 20
-425.0000000000001
 30
0.0
 11
-521.899999400005
 21
-422.5000000000001
 31
0.0
  0
LINE
  5
1D2
330
186
100
AcDbEntity
  8
0
  6
Continuous
 62
     7
370
     9
100
AcDbLine
 10
-523.1000005999949
 20
-425.0000000000001
 30
0.0
 11
-523.1000005999949
 21
-422.5000000000001
 31
0.0
  0
LINE
  5
1D3
330
186
100
AcDbEntity
  8
0
  6
Continuous
 62
     7
370
     9
100
AcDbLine
 10
-521.899999400005
 20
-652.5
 30
0.0
 11
-521.899999400005
 21
-650.0
 31
0.0
  0
LINE
  5
1D4
330
186
100
AcDbEntity
  8
0
  6
Continuous
 62
     7
370
     9
100
AcDbLine
 10
-521.899999400005
 20
-652.5
 30
0.0
 11
-521.899999400005
 21
-647.5000000000001
 31
0.0
  0
LINE
  5
1D5
330
186
100
AcDbEntity
  8
0
  6
Continuous
 62
     7
370
     9
100
AcDbLine
 10
-523.1000005999949
 20
-652.5
 30
0.0
 11
-523.1000005999949
 21
-650.0
 31
0.0
  0
LINE
  5
1D6
330
186
100
AcDbEntity
  8
0
  6
Continuous
 62
     7
370
     9
100
AcDbLine
 10
-523.1000005999949
 20
-652.5
 30
0.0
 11
-523.1000005999949
 21
-647.5000000000001
 31
0.0
  0
LINE
  5
1D7
330
186
100
AcDbEntity
  8
0
  6
Continuous
 62
     7
370
     9
100
AcDbLine
 10
-521.899999400005
 20
-650.0
 30
0.0
 11
-521.899999400005
 21
-647.5000000000001
 31
0.0
  0
LINE
  5
1D8
330
186
100
AcDbEntity
  8
0
  6
Continuous
 62
     7
370
     9
100
AcDbLine
 10
-523.1000005999949
 20
-650.0
 30
0.0
 11
-523.1000005999949
 21
-647.5000000000001
 31
0.0
  0
LINE
  5
1D9
330
186
100
AcDbEntity
  8
0
  6
Continuous
 62
     7
370
     9
100
AcDbLine
 10
-523.1000005999949
 20
-369.9999999999999
 30
0.0
 11
-521.900000599995
 21
-369.9999999999999
 31
0.0
  0
LINE
  5
1DA
330
186
100
AcDbEntity
  8
0
  6
Continuous
 62
     7
370
     9
100
AcDbLine
 10
-523.1000005999949
 20
-655.0
 30
0.0
 11
-521.900000599995
 21
-655.0
 31
0.0
  0
LINE
  5
1DB
330
186
100
AcDbEntity
  8
0
  6
Continuous
 62
     7
370
     9
100
AcDbLine
 10
-521.899999400005
 20
-652.5
 30
0.0
 11
-521.899999400005
 21
-650.0
 31
0.0
  0
LINE
  5
1DC
330
186
100
AcDbEntity
  8
0
  6
Continuous
 62
     7
370
     9
100
AcDbLine
 10
-521.899999400005
 20
-652.5
 30
0.0
 11
-521.899999400005
 21
-647.5000000000001
 31
0.0
  0
LINE
  5
1DD
330
186
100
AcDbEntity
  8
0
  6
Continuous
 62
     7
370
     9
100
AcDbLine
 10
-523.1000005999949
 20
-652.5
 30
0.0
 11
-523.1000005999949
 21
-650.0
 31
0.0
  0
LINE
  5
1DE
330
186
100
AcDbEntity
  8
0
  6
Continuous
 62
     7
370
     9
100
AcDbLine
 10
-523.1000005999949
 20
-652.5
 30
0.0
 11
-523.1000005999949
 21
-647.5000000000001
 31
0.0
  0
LINE
  5
1DF
330
186
100
AcDbEntity
  8
0
  6
Continuous
 62
     7
370
     9
100
AcDbLine
 10
-521.899999400005
 20
-650.0
 30
0.0
 11
-521.899999400005
 21
-647.5000000000001
 31
0.0
  0
LINE
  5
1E0
330
186
100
AcDbEntity
  8
0
  6
Continuous
 62
     7
370
     9
100
AcDbLine
 10
-523.1000005999949
 20
-650.0
 30
0.0
 11
-523.1000005999949
 21
-647.5000000000001
 31
0.0
  0
LINE
  5
1E1
330
186
100
AcDbEntity
  8
0
  6
Continuous
 62
     7
370
     9
100
AcDbLine
 10
-521.899999400005
 20
-377.4999999999999
 30
0.0
 11
-521.899999400005
 21
-375.0
 31
0.0
  0
LINE
  5
1E2
330
186
100
AcDbEntity
  8
0
  6
Continuous
 62
     7
370
     9
100
AcDbLine
 10
-521.899999400005
 20
-377.4999999999999
 30
0.0
 11
-521.899999400005
 21
-372.5000000000001
 31
0.0
  0
LINE
  5
1E3
330
186
100
AcDbEntity
  8
0
  6
Continuous
 62
     7
370
     9
100
AcDbLine
 10
-523.1000005999949
 20
-377.4999999999999
 30
0.0
 11
-523.1000005999949
 21
-375.0
 31
0.0
  0
LINE
  5
1E4
330
186
100
AcDbEntity
  8
0
  6
Continuous
 62
     7
370
     9
100
AcDbLine
 10
-523.1000005999949
 20
-377.4999999999999
 30
0.0
 11
-523.1000005999949
 21
-372.5000000000001
 31
0.0
  0
LINE
  5
1E5
330
186
100
AcDbEntity
  8
0
  6
Continuous
 62
     7
370
     9
100
AcDbLine
 10
-521.899999400005
 20
-375.0
 30
0.0
 11
-521.899999400005
 21
-372.5000000000001
 31
0.0
  0
LINE
  5
1E6
330
186
100
AcDbEntity
  8
0
  6
Continuous
 62
     7
370
     9
100
AcDbLine
 10
-523.1000005999949
 20
-375.0
 30
0.0
 11
-523.1000005999949
 21
-372.5000000000001
 31
0.0
  0
LINE
  5
1E7
330
186
100
AcDbEntity
  8
0
  6
Continuous
 62
     7
370
     9
100
AcDbLine
 10
-521.899999400005
 20
-627.4999999999999
 30
0.0
 11
-521.899999400005
 21
-625.0
 31
0.0
  0
LINE
  5
1E8
330
186
100
AcDbEntity
  8
0
  6
Continuous
 62
     7
370
     9
100
AcDbLine
 10
-521.899999400005
 20
-627.4999999999999
 30
0.0
 11
-521.899999400005
 21
-622.5
 31
0.0
  0
LINE
  5
1E9
330
186
100
AcDbEntity
  8
0
  6
Continuous
 62
     7
370
     9
100
AcDbLine
 10
-523.1000005999949
 20
-627.4999999999999
 30
0.0
 11
-523.1000005999949
 21
-625.0
 31
0.0
  0
LINE
  5
1EA
330
186
100
AcDbEntity
  8
0
  6
Continuous
 62
     7
370
     9
100
AcDbLine
 10
-523.1000005999949
 20
-627.4999999999999
 30
0.0
 11
-523.1000005999949
 21
-622.5
 31
0.0
  0
LINE
  5
1EB
330
186
100
AcDbEntity
  8
0
  6
Continuous
 62
     7
370
     9
100
AcDbLine
 10
-521.899999400005
 20
-625.0
 30
0.0
 11
-521.899999400005
 21
-622.5
 31
0.0
  0
LINE
  5
1EC
330
186
100
AcDbEntity
  8
0
  6
Continuous
 62
     7
370
     9
100
AcDbLine
 10
-523.1000005999949
 20
-625.0
 30
0.0
 11
-523.1000005999949
 21
-622.5
 31
0.0
  0
LINE
  5
1ED
330
186
100
AcDbEntity
  8
0
  6
Continuous
 62
     7
370
     9
100
AcDbLine
 10
-521.899999400005
 20
-502.4999999999999
 30
0.0
 11
-521.899999400005
 21
-500.0
 31
0.0
  0
LINE
  5
1EE
330
186
100
AcDbEntity
  8
0
  6
Continuous
 62
     7
370
     9
100
AcDbLine
 10
-521.899999400005
 20
-502.4999999999999
 30
0.0
 11
-521.899999400005
 21
-497.5000000000001
 31
0.0
  0
LINE
  5
1EF
330
186
100
AcDbEntity
  8
0
  6
Continuous
 62
     7
370
     9
100
AcDbLine
 10
-523.1000005999949
 20
-502.4999999999999
 30
0.0
 11
-523.1000005999949
 21
-500.0
 31
0.0
  0
LINE
  5
1F0
330
186
100
AcDbEntity
  8
0
  6
Continuous
 62
     7
370
     9
100
AcDbLine
 10
-523.1000005999949
 20
-502.4999999999999
 30
0.0
 11
-523.1000005999949
 21
-497.5000000000001
 31
0.0
  0
LINE
  5
1F1
330
186
100
AcDbEntity
  8
0
  6
Continuous
 62
     7
370
     9
100
AcDbLine
 10
-521.899999400005
 20
-500.0
 30
0.0
 11
-521.899999400005
 21
-497.5000000000001
 31
0.0
  0
LINE
  5
1F2
330
186
100
AcDbEntity
  8
0
  6
Continuous
 62
     7
370
     9
100
AcDbLine
 10
-523.1000005999949
 20
-500.0
 30
0.0
 11
-523.1000005999949
 21
-497.5000000000001
 31
0.0
  0
LINE
  5
1F3
330
186
100
AcDbEntity
  8
0
  6
Continuous
 62
     7
370
     9
100
AcDbLine
 10
-521.899999400005
 20
-402.4999999999999
 30
0.0
 11
-521.899999400005
 21
-400.0
 31
0.0
  0
LINE
  5
1F4
330
186
100
AcDbEntity
  8
0
  6
Continuous
 62
     7
370
     9
100
AcDbLine
 10
-521.899999400005
 20
-402.4999999999999
 30
0.0
 11
-521.899999400005
 21
-397.5000000000001
 31
0.0
  0
LINE
  5
1F5
330
186
100
AcDbEntity
  8
0
  6
Continuous
 62
     7
370
     9
100
AcDbLine
 10
-523.1000005999949
 20
-402.4999999999999
 30
0.0
 11
-523.1000005999949
 21
-400.0
 31
0.0
  0
LINE
  5
1F6
330
186
100
AcDbEntity
  8
0
  6
Continuous
 62
     7
370
     9
100
AcDbLine
 10
-523.1000005999949
 20
-402.4999999999999
 30
0.0
 11
-523.1000005999949
 21
-397.5000000000001
 31
0.0
  0
LINE
  5
1F7
330
186
100
AcDbEntity
  8
0
  6
Continuous
 62
     7
370
     9
100
AcDbLine
 10
-521.899999400005
 20
-400.0
 30
0.0
 11
-521.899999400005
 21
-397.5000000000001
 31
0.0
  0
LINE
  5
1F8
330
186
100
AcDbEntity
  8
0
  6
Continuous
 62
     7
370
     9
100
AcDbLine
 10
-523.1000005999949
 20
-400.0
 30
0.0
 11
-523.1000005999949
 21
-397.5000000000001
 31
0.0
  0
LINE
  5
1F9
330
186
100
AcDbEntity
  8
0
  6
Continuous
 62
     7
370
     9
100
AcDbLine
 10
-521.899999400005
 20
-602.4999999999999
 30
0.0
 11
-521.899999400005
 21
-600.0
 31
0.0
  0
LINE
  5
1FA
330
186
100
AcDbEntity
  8
0
  6
Continuous
 62
     7
370
     9
100
AcDbLine
 10
-521.899999400005
 20
-602.4999999999999
 30
0.0
 11
-521.899999400005
 21
-597.5
 31
0.0
  0
LINE
  5
1FB
330
186
100
AcDbEntity
  8
0
  6
Continuous
 62
     7
370
     9
100
AcDbLine
 10
-523.1000005999949
 20
-602.4999999999999
 30
0.0
 11
-523.1000005999949
 21
-600.0
 31
0.0
  0
LINE
  5
1FC
330
186
100
AcDbEntity
  8
0
  6
Continuous
 62
     7
370
     9
100
AcDbLine
 10
-523.1000005999949
 20
-602.4999999999999
 30
0.0
 11
-523.1000005999949
 21
-597.5
 31
0.0
  0
LINE
  5
1FD
330
186
100
AcDbEntity
  8
0
  6
Continuous
 62
     7
370
     9
100
AcDbLine
 10
-521.899999400005
 20
-600.0
 30
0.0
 11
-521.899999400005
 21
-597.5
 31
0.0
  0
LINE
  5
1FE
330
186
100
AcDbEntity
  8
0
  6
Continuous
 62
     7
370
     9
100
AcDbLine
 10
-523.1000005999949
 20
-600.0
 30
0.0
 11
-523.1000005999949
 21
-597.5
 31
0.0
  0
LINE
  5
1FF
330
186
100
AcDbEntity
  8
0
  6
Continuous
 62
     7
370
     9
100
AcDbLine
 10
-521.899999400005
 20
-552.5
 30
0.0
 11
-521.899999400005
 21
-550.0
 31
0.0
  0
LINE
  5
200
330
186
100
AcDbEntity
  8
0
  6
Continuous
 62
     7
370
     9
100
AcDbLine
 10
-521.899999400005
 20
-552.5
 30
0.0
 11
-521.899999400005
 21
-547.5000000000001
 31
0.0
  0
LINE
  5
201
330
186
100
AcDbEntity
  8
0
  6
Continuous
 62
     7
370
     9
100
AcDbLine
 10
-523.1000005999949
 20
-552.5
 30
0.0
 11
-523.1000005999949
 21
-550.0
 31
0.0
  0
LINE
  5
202
330
186
100
AcDbEntity
  8
0
  6
Continuous
 62
     7
370
     9
100
AcDbLine
 10
-523.1000005999949
 20
-552.5
 30
0.0
 11
-523.1000005999949
 21
-547.5000000000001
 31
0.0
  0
LINE
  5
203
330
186
100
AcDbEntity
  8
0
  6
Continuous
 62
     7
370
     9
100
AcDbLine
 10
-521.899999400005
 20
-550.0
 30
0.0
 11
-521.899999400005
 21
-547.5000000000001
 31
0.0
  0
LINE
  5
204
330
186
100
AcDbEntity
  8
0
  6
Continuous
 62
     7
370
     9
100
AcDbLine
 10
-523.1000005999949
 20
-550.0
 30
0.0
 11
-523.1000005999949
 21
-547.5000000000001
 31
0.0
  0
LINE
  5
205
330
186
100
AcDbEntity
  8
0
  6
Continuous
 62
     7
370
     9
100
AcDbLine
 10
-521.899999400005
 20
-452.4999999999999
 30
0.0
 11
-521.899999400005
 21
-449.9999999999999
 31
0.0
  0
LINE
  5
206
330
186
100
AcDbEntity
  8
0
  6
Continuous
 62
     7
370
     9
100
AcDbLine
 10
-521.899999400005
 20
-452.4999999999999
 30
0.0
 11
-521.899999400005
 21
-447.5
 31
0.0
  0
LINE
  5
207
330
186
100
AcDbEntity
  8
0
  6
Continuous
 62
     7
370
     9
100
AcDbLine
 10
-523.1000005999949
 20
-452.4999999999999
 30
0.0
 11
-523.1000005999949
 21
-449.9999999999999
 31
0.0
  0
LINE
  5
208
330
186
100
AcDbEntity
  8
0
  6
Continuous
 62
     7
370
     9
100
AcDbLine
 10
-523.1000005999949
 20
-452.4999999999999
 30
0.0
 11
-523.1000005999949
 21
-447.5
 31
0.0
  0
LINE
  5
209
330
186
100
AcDbEntity
  8
0
  6
Continuous
 62
     7
370
     9
100
AcDbLine
 10
-521.899999400005
 20
-449.9999999999999
 30
0.0
 11
-521.899999400005
 21
-447.5
 31
0.0
  0
LINE
  5
20A
330
186
100
AcDbEntity
  8
0
  6
Continuous
 62
     7
370
     9
100
AcDbLine
 10
-523.1000005999949
 20
-449.9999999999999
 30
0.0
 11
-523.1000005999949
 21
-447.5
 31
0.0
  0
LINE
  5
20B
330
186
100
AcDbEntity
  8
0
  6
Continuous
 62
     7
370
     9
100
AcDbLine
 10
-521.899999400005
 20
-527.5
 30
0.0
 11
-521.899999400005
 21
-525.0
 31
0.0
  0
LINE
  5
20C
330
186
100
AcDbEntity
  8
0
  6
Continuous
 62
     7
370
     9
100
AcDbLine
 10
-521.899999400005
 20
-527.5
 30
0.0
 11
-521.899999400005
 21
-522.5000000000001
 31
0.0
  0
LINE
  5
20D
330
186
100
AcDbEntity
  8
0
  6
Continuous
 62
     7
370
     9
100
AcDbLine
 10
-523.1000005999949
 20
-527.5
 30
0.0
 11
-523.1000005999949
 21
-525.0
 31
0.0
  0
LINE
  5
20E
330
186
100
AcDbEntity
  8
0
  6
Continuous
 62
     7
370
     9
100
AcDbLine
 10
-523.1000005999949
 20
-527.5
 30
0.0
 11
-523.1000005999949
 21
-522.5000000000001
 31
0.0
  0
LINE
  5
20F
330
186
100
AcDbEntity
  8
0
  6
Continuous
 62
     7
370
     9
100
AcDbLine
 10
-521.899999400005
 20
-525.0
 30
0.0
 11
-521.899999400005
 21
-522.5000000000001
 31
0.0
  0
LINE
  5
210
330
186
100
AcDbEntity
  8
0
  6
Continuous
 62
     7
370
     9
100
AcDbLine
 10
-523.1000005999949
 20
-525.0
 30
0.0
 11
-523.1000005999949
 21
-522.5000000000001
 31
0.0
  0
LINE
  5
211
330
186
100
AcDbEntity
  8
0
  6
Continuous
 62
     7
370
     9
100
AcDbLine
 10
-521.899999400005
 20
-477.4999999999999
 30
0.0
 11
-521.899999400005
 21
-474.9999999999999
 31
0.0
  0
LINE
  5
212
330
186
100
AcDbEntity
  8
0
  6
Continuous
 62
     7
370
     9
100
AcDbLine
 10
-521.899999400005
 20
-477.4999999999999
 30
0.0
 11
-521.899999400005
 21
-472.5
 31
0.0
  0
LINE
  5
213
330
186
100
AcDbEntity
  8
0
  6
Continuous
 62
     7
370
     9
100
AcDbLine
 10
-523.1000005999949
 20
-477.4999999999999
 30
0.0
 11
-523.1000005999949
 21
-474.9999999999999
 31
0.0
  0
LINE
  5
214
330
186
100
AcDbEntity
  8
0
  6
Continuous
 62
     7
370
     9
100
AcDbLine
 10
-523.1000005999949
 20
-477.4999999999999
 30
0.0
 11
-523.1000005999949
 21
-472.5
 31
0.0
  0
LINE
  5
215
330
186
100
AcDbEntity
  8
0
  6
Continuous
 62
     7
370
     9
100
AcDbLine
 10
-521.899999400005
 20
-474.9999999999999
 30
0.0
 11
-521.899999400005
 21
-472.5
 31
0.0
  0
LINE
  5
216
330
186
100
AcDbEntity
  8
0
  6
Continuous
 62
     7
370
     9
100
AcDbLine
 10
-523.1000005999949
 20
-474.9999999999999
 30
0.0
 11
-523.1000005999949
 21
-472.5
 31
0.0
  0
LINE
  5
217
330
186
100
AcDbEntity
  8
0
  6
Continuous
 62
     7
370
     9
100
AcDbLine
 10
-521.899999400005
 20
-427.5
 30
0.0
 11
-521.899999400005
 21
-425.0000000000001
 31
0.0
  0
LINE
  5
218
330
186
100
AcDbEntity
  8
0
  6
Continuous
 62
     7
370
     9
100
AcDbLine
 10
-521.899999400005
 20
-427.5
 30
0.0
 11
-521.899999400005
 21
-422.5000000000001
 31
0.0
  0
LINE
  5
219
330
186
100
AcDbEntity
  8
0
  6
Continuous
 62
     7
370
     9
100
AcDbLine
 10
-523.1000005999949
 20
-427.5
 30
0.0
 11
-523.1000005999949
 21
-425.0000000000001
 31
0.0
  0
LINE
  5
21A
330
186
100
AcDbEntity
  8
0
  6
Continuous
 62
     7
370
     9
100
AcDbLine
 10
-523.1000005999949
 20
-427.5
 30
0.0
 11
-523.1000005999949
 21
-422.5000000000001
 31
0.0
  0
LINE
  5
21B
330
186
100
AcDbEntity
  8
0
  6
Continuous
 62
     7
370
     9
100
AcDbLine
 10
-521.899999400005
 20
-425.0000000000001
 30
0.0
 11
-521.899999400005
 21
-422.5000000000001
 31
0.0
  0
LINE
  5
21C
330
186
100
AcDbEntity
  8
0
  6
Continuous
 62
     7
370
     9
100
AcDbLine
 10
-523.1000005999949
 20
-425.0000000000001
 30
0.0
 11
-523.1000005999949
 21
-422.5000000000001
 31
0.0
  0
LINE
  5
21D
330
186
100
AcDbEntity
  8
0
  6
Continuous
 62
     7
370
     9
100
AcDbLine
 10
-521.899999400005
 20
-577.4999999999999
 30
0.0
 11
-521.899999400005
 21
-575.0
 31
0.0
  0
LINE
  5
21E
330
186
100
AcDbEntity
  8
0
  6
Continuous
 62
     7
370
     9
100
AcDbLine
 10
-521.899999400005
 20
-577.4999999999999
 30
0.0
 11
-521.899999400005
 21
-572.5
 31
0.0
  0
LINE
  5
21F
330
186
100
AcDbEntity
  8
0
  6
Continuous
 62
     7
370
     9
100
AcDbLine
 10
-523.1000005999949
 20
-577.4999999999999
 30
0.0
 11
-523.1000005999949
 21
-575.0
 31
0.0
  0
LINE
  5
220
330
186
100
AcDbEntity
  8
0
  6
Continuous
 62
     7
370
     9
100
AcDbLine
 10
-523.1000005999949
 20
-577.4999999999999
 30
0.0
 11
-523.1000005999949
 21
-572.5
 31
0.0
  0
LINE
  5
221
330
186
100
AcDbEntity
  8
0
  6
Continuous
 62
     7
370
     9
100
AcDbLine
 10
-521.899999400005
 20
-575.0
 30
0.0
 11
-521.899999400005
 21
-572.5
 31
0.0
  0
LINE
  5
222
330
186
100
AcDbEntity
  8
0
  6
Continuous
 62
     7
370
     9
100
AcDbLine
 10
-523.1000005999949
 20
-575.0
 30
0.0
 11
-523.1000005999949
 21
-572.5
 31
0.0
  0
LINE
  5
223
330
186
100
AcDbEntity
  8
0
  6
Continuous
 62
     7
370
     9
100
AcDbLine
 10
-521.899999400005
 20
-402.5000000000001
 30
0.0
 11
-521.899999400005
 21
-400.0
 31
0.0
  0
LINE
  5
224
330
186
100
AcDbEntity
  8
0
  6
Continuous
 62
     7
370
     9
100
AcDbLine
 10
-521.899999400005
 20
-402.5000000000001
 30
0.0
 11
-521.899999400005
 21
-397.4999999999999
 31
0.0
  0
LINE
  5
225
330
186
100
AcDbEntity
  8
0
  6
Continuous
 62
     7
370
     9
100
AcDbLine
 10
-523.1000005999949
 20
-402.5000000000001
 30
0.0
 11
-523.1000005999949
 21
-400.0
 31
0.0
  0
LINE
  5
226
330
186
100
AcDbEntity
  8
0
  6
Continuous
 62
     7
370
     9
100
AcDbLine
 10
-523.1000005999949
 20
-402.5000000000001
 30
0.0
 11
-523.1000005999949
 21
-397.4999999999999
 31
0.0
  0
LINE
  5
227
330
186
100
AcDbEntity
  8
0
  6
Continuous
 62
     7
370
     9
100
AcDbLine
 10
-521.899999400005
 20
-400.0
 30
0.0
 11
-521.899999400005
 21
-397.4999999999999
 31
0.0
  0
LINE
  5
228
330
186
100
AcDbEntity
  8
0
  6
Continuous
 62
     7
370
     9
100
AcDbLine
 10
-523.1000005999949
 20
-400.0
 30
0.0
 11
-523.1000005999949
 21
-397.4999999999999
 31
0.0
  0
LINE
  5
229
330
186
100
AcDbEntity
  8
0
  6
Continuous
 62
     7
370
     9
100
AcDbLine
 10
-521.899999400005
 20
-377.5000000000001
 30
0.0
 11
-521.899999400005
 21
-375.0
 31
0.0
  0
LINE
  5
22A
330
186
100
AcDbEntity
  8
0
  6
Continuous
 62
     7
370
     9
100
AcDbLine
 10
-521.899999400005
 20
-377.5000000000001
 30
0.0
 11
-521.899999400005
 21
-372.4999999999999
 31
0.0
  0
LINE
  5
22B
330
186
100
AcDbEntity
  8
0
  6
Continuous
 62
     7
370
     9
100
AcDbLine
 10
-523.1000005999949
 20
-377.5000000000001
 30
0.0
 11
-523.1000005999949
 21
-375.0
 31
0.0
  0
LINE
  5
22C
330
186
100
AcDbEntity
  8
0
  6
Continuous
 62
     7
370
     9
100
AcDbLine
 10
-523.1000005999949
 20
-377.5000000000001
 30
0.0
 11
-523.1000005999949
 21
-372.4999999999999
 31
0.0
  0
LINE
  5
22D
330
186
100
AcDbEntity
  8
0
  6
Continuous
 62
     7
370
     9
100
AcDbLine
 10
-521.899999400005
 20
-375.0
 30
0.0
 11
-521.899999400005
 21
-372.4999999999999
 31
0.0
  0
LINE
  5
22E
330
186
100
AcDbEntity
  8
0
  6
Continuous
 62
     7
370
     9
100
AcDbLine
 10
-523.1000005999949
 20
-375.0
 30
0.0
 11
-523.1000005999949
 21
-372.4999999999999
 31
0.0
  0
LINE
  5
22F
330
186
100
AcDbEntity
  8
0
  6
Continuous
 62
     7
370
     9
100
AcDbLine
 10
-521.899999400005
 20
-652.5000000000001
 30
0.0
 11
-521.899999400005
 21
-650.0
 31
0.0
  0
LINE
  5
230
330
186
100
AcDbEntity
  8
0
  6
Continuous
 62
     7
370
     9
100
AcDbLine
 10
-521.899999400005
 20
-652.5000000000001
 30
0.0
 11
-521.899999400005
 21
-647.5
 31
0.0
  0
LINE
  5
231
330
186
100
AcDbEntity
  8
0
  6
Continuous
 62
     7
370
     9
100
AcDbLine
 10
-523.1000005999949
 20
-652.5000000000001
 30
0.0
 11
-523.1000005999949
 21
-650.0
 31
0.0
  0
LINE
  5
232
330
186
100
AcDbEntity
  8
0
  6
Continuous
 62
     7
370
     9
100
AcDbLine
 10
-523.1000005999949
 20
-652.5000000000001
 30
0.0
 11
-523.1000005999949
 21
-647.5
 31
0.0
  0
LINE
  5
233
330
186
100
AcDbEntity
  8
0
  6
Continuous
 62
     7
370
     9
100
AcDbLine
 10
-521.899999400005
 20
-650.0
 30
0.0
 11
-521.899999400005
 21
-647.5
 31
0.0
  0
LINE
  5
234
330
186
100
AcDbEntity
  8
0
  6
Continuous
 62
     7
370
     9
100
AcDbLine
 10
-523.1000005999949
 20
-650.0
 30
0.0
 11
-523.1000005999949
 21
-647.5
 31
0.0
  0
LINE
  5
235
330
186
100
AcDbEntity
  8
0
  6
Continuous
 62
     7
370
     9
100
AcDbLine
 10
-521.899999400005
 20
-627.5
 30
0.0
 11
-521.899999400005
 21
-625.0
 31
0.0
  0
LINE
  5
236
330
186
100
AcDbEntity
  8
0
  6
Continuous
 62
     7
370
     9
100
AcDbLine
 10
-521.899999400005
 20
-627.5
 30
0.0
 11
-521.899999400005
 21
-622.4999999999999
 31
0.0
  0
LINE
  5
237
330
186
100
AcDbEntity
  8
0
  6
Continuous
 62
     7
370
     9
100
AcDbLine
 10
-523.1000005999949
 20
-627.5
 30
0.0
 11
-523.1000005999949
 21
-625.0
 31
0.0
  0
LINE
  5
238
330
186
100
AcDbEntity
  8
0
  6
Continuous
 62
     7
370
     9
100
AcDbLine
 10
-523.1000005999949
 20
-627.5
 30
0.0
 11
-523.1000005999949
 21
-622.4999999999999
 31
0.0
  0
LINE
  5
239
330
186
100
AcDbEntity
  8
0
  6
Continuous
 62
     7
370
     9
100
AcDbLine
 10
-521.899999400005
 20
-625.0
 30
0.0
 11
-521.899999400005
 21
-622.4999999999999
 31
0.0
  0
LINE
  5
23A
330
186
100
AcDbEntity
  8
0
  6
Continuous
 62
     7
370
     9
100
AcDbLine
 10
-523.1000005999949
 20
-625.0
 30
0.0
 11
-523.1000005999949
 21
-622.4999999999999
 31
0.0
  0
LINE
  5
23B
330
186
100
AcDbEntity
  8
0
  6
Continuous
 62
     7
370
     9
100
AcDbLine
 10
-521.899999400005
 20
-402.5000000000001
 30
0.0
 11
-521.899999400005
 21
-400.0
 31
0.0
  0
LINE
  5
23C
330
186
100
AcDbEntity
  8
0
  6
Continuous
 62
     7
370
     9
100
AcDbLine
 10
-521.899999400005
 20
-402.5000000000001
 30
0.0
 11
-521.899999400005
 21
-397.4999999999999
 31
0.0
  0
LINE
  5
23D
330
186
100
AcDbEntity
  8
0
  6
Continuous
 62
     7
370
     9
100
AcDbLine
 10
-523.1000005999949
 20
-402.5000000000001
 30
0.0
 11
-523.1000005999949
 21
-400.0
 31
0.0
  0
LINE
  5
23E
330
186
100
AcDbEntity
  8
0
  6
Continuous
 62
     7
370
     9
100
AcDbLine
 10
-523.1000005999949
 20
-402.5000000000001
 30
0.0
 11
-523.1000005999949
 21
-397.4999999999999
 31
0.0
  0
LINE
  5
23F
330
186
100
AcDbEntity
  8
0
  6
Continuous
 62
     7
370
     9
100
AcDbLine
 10
-521.899999400005
 20
-400.0
 30
0.0
 11
-521.899999400005
 21
-397.4999999999999
 31
0.0
  0
LINE
  5
240
330
186
100
AcDbEntity
  8
0
  6
Continuous
 62
     7
370
     9
100
AcDbLine
 10
-523.1000005999949
 20
-400.0
 30
0.0
 11
-523.1000005999949
 21
-397.4999999999999
 31
0.0
  0
LINE
  5
241
330
186
100
AcDbEntity
  8
0
  6
Continuous
 62
     7
370
     9
100
AcDbLine
 10
-521.899999400005
 20
-627.5
 30
0.0
 11
-521.899999400005
 21
-625.0
 31
0.0
  0
LINE
  5
242
330
186
100
AcDbEntity
  8
0
  6
Continuous
 62
     7
370
     9
100
AcDbLine
 10
-521.899999400005
 20
-627.5
 30
0.0
 11
-521.899999400005
 21
-622.4999999999999
 31
0.0
  0
LINE
  5
243
330
186
100
AcDbEntity
  8
0
  6
Continuous
 62
     7
370
     9
100
AcDbLine
 10
-523.1000005999949
 20
-627.5
 30
0.0
 11
-523.1000005999949
 21
-625.0
 31
0.0
  0
LINE
  5
244
330
186
100
AcDbEntity
  8
0
  6
Continuous
 62
     7
370
     9
100
AcDbLine
 10
-523.1000005999949
 20
-627.5
 30
0.0
 11
-523.1000005999949
 21
-622.4999999999999
 31
0.0
  0
LINE
  5
245
330
186
100
AcDbEntity
  8
0
  6
Continuous
 62
     7
370
     9
100
AcDbLine
 10
-521.899999400005
 20
-625.0
 30
0.0
 11
-521.899999400005
 21
-622.4999999999999
 31
0.0
  0
LINE
  5
246
330
186
100
AcDbEntity
  8
0
  6
Continuous
 62
     7
370
     9
100
AcDbLine
 10
-523.1000005999949
 20
-625.0
 30
0.0
 11
-523.1000005999949
 21
-622.4999999999999
 31
0.0
  0
LINE
  5
247
330
186
100
AcDbEntity
  8
0
  6
Continuous
 62
     7
370
     9
100
AcDbLine
 10
-521.899999400005
 20
-652.5
 30
0.0
 11
-521.899999400005
 21
-650.0
 31
0.0
  0
LINE
  5
248
330
186
100
AcDbEntity
  8
0
  6
Continuous
 62
     7
370
     9
100
AcDbLine
 10
-521.899999400005
 20
-652.5
 30
0.0
 11
-521.899999400005
 21
-647.5000000000001
 31
0.0
  0
LINE
  5
249
330
186
100
AcDbEntity
  8
0
  6
Continuous
 62
     7
370
     9
100
AcDbLine
 10
-523.1000005999949
 20
-652.5
 30
0.0
 11
-523.1000005999949
 21
-650.0
 31
0.0
  0
LINE
  5
24A
330
186
100
AcDbEntity
  8
0
  6
Continuous
 62
     7
370
     9
100
AcDbLine
 10
-523.1000005999949
 20
-652.5
 30
0.0
 11
-523.1000005999949
 21
-647.5000000000001
 31
0.0
  0
LINE
  5
24B
330
186
100
AcDbEntity
  8
0
  6
Continuous
 62
     7
370
     9
100
AcDbLine
 10
-521.899999400005
 20
-650.0
 30
0.0
 11
-521.899999400005
 21
-647.5000000000001
 31
0.0
  0
LINE
  5
24C
330
186
100
AcDbEntity
  8
0
  6
Continuous
 62
     7
370
     9
100
AcDbLine
 10
-523.1000005999949
 20
-650.0
 30
0.0
 11
-523.1000005999949
 21
-647.5000000000001
 31
0.0
  0
LINE
  5
24D
330
186
100
AcDbEntity
  8
0
  6
Continuous
 62
     7
370
     9
100
AcDbLine
 10
-521.899999400005
 20
-377.4999999999999
 30
0.0
 11
-521.899999400005
 21
-375.0
 31
0.0
  0
LINE
  5
24E
330
186
100
AcDbEntity
  8
0
  6
Continuous
 62
     7
370
     9
100
AcDbLine
 10
-521.899999400005
 20
-377.4999999999999
 30
0.0
 11
-521.899999400005
 21
-372.5000000000001
 31
0.0
  0
LINE
  5
24F
330
186
100
AcDbEntity
  8
0
  6
Continuous
 62
     7
370
     9
100
AcDbLine
 10
-523.1000005999949
 20
-377.4999999999999
 30
0.0
 11
-523.1000005999949
 21
-375.0
 31
0.0
  0
LINE
  5
250
330
186
100
AcDbEntity
  8
0
  6
Continuous
 62
     7
370
     9
100
AcDbLine
 10
-523.1000005999949
 20
-377.4999999999999
 30
0.0
 11
-523.1000005999949
 21
-372.5000000000001
 31
0.0
  0
LINE
  5
251
330
186
100
AcDbEntity
  8
0
  6
Continuous
 62
     7
370
     9
100
AcDbLine
 10
-521.899999400005
 20
-375.0
 30
0.0
 11
-521.899999400005
 21
-372.5000000000001
 31
0.0
  0
LINE
  5
252
330
186
100
AcDbEntity
  8
0
  6
Continuous
 62
     7
370
     9
100
AcDbLine
 10
-523.1000005999949
 20
-375.0
 30
0.0
 11
-523.1000005999949
 21
-372.5000000000001
 31
0.0
  0
LINE
  5
253
330
186
100
AcDbEntity
  8
0
  6
Continuous
 62
     7
370
     9
100
AcDbLine
 10
-521.899999400005
 20
-627.5
 30
0.0
 11
-521.899999400005
 21
-625.0
 31
0.0
  0
LINE
  5
254
330
186
100
AcDbEntity
  8
0
  6
Continuous
 62
     7
370
     9
100
AcDbLine
 10
-521.899999400005
 20
-627.5
 30
0.0
 11
-521.899999400005
 21
-622.4999999999999
 31
0.0
  0
LINE
  5
255
330
186
100
AcDbEntity
  8
0
  6
Continuous
 62
     7
370
     9
100
AcDbLine
 10
-523.1000005999949
 20
-627.5
 30
0.0
 11
-523.1000005999949
 21
-625.0
 31
0.0
  0
LINE
  5
256
330
186
100
AcDbEntity
  8
0
  6
Continuous
 62
     7
370
     9
100
AcDbLine
 10
-523.1000005999949
 20
-627.5
 30
0.0
 11
-523.1000005999949
 21
-622.4999999999999
 31
0.0
  0
LINE
  5
257
330
186
100
AcDbEntity
  8
0
  6
Continuous
 62
     7
370
     9
100
AcDbLine
 10
-521.899999400005
 20
-625.0
 30
0.0
 11
-521.899999400005
 21
-622.4999999999999
 31
0.0
  0
LINE
  5
258
330
186
100
AcDbEntity
  8
0
  6
Continuous
 62
     7
370
     9
100
AcDbLine
 10
-523.1000005999949
 20
-625.0
 30
0.0
 11
-523.1000005999949
 21
-622.4999999999999
 31
0.0
  0
LINE
  5
259
330
186
100
AcDbEntity
  8
0
  6
Continuous
 62
     7
370
     9
100
AcDbLine
 10
-521.899999400005
 20
-377.5000000000001
 30
0.0
 11
-521.899999400005
 21
-375.0
 31
0.0
  0
LINE
  5
25A
330
186
100
AcDbEntity
  8
0
  6
Continuous
 62
     7
370
     9
100
AcDbLine
 10
-521.899999400005
 20
-377.5000000000001
 30
0.0
 11
-521.899999400005
 21
-372.4999999999999
 31
0.0
  0
LINE
  5
25B
330
186
100
AcDbEntity
  8
0
  6
Continuous
 62
     7
370
     9
100
AcDbLine
 10
-523.1000005999949
 20
-377.5000000000001
 30
0.0
 11
-523.1000005999949
 21
-375.0
 31
0.0
  0
LINE
  5
25C
330
186
100
AcDbEntity
  8
0
  6
Continuous
 62
     7
370
     9
100
AcDbLine
 10
-523.1000005999949
 20
-377.5000000000001
 30
0.0
 11
-523.1000005999949
 21
-372.4999999999999
 31
0.0
  0
LINE
  5
25D
330
186
100
AcDbEntity
  8
0
  6
Continuous
 62
     7
370
     9
100
AcDbLine
 10
-521.899999400005
 20
-375.0
 30
0.0
 11
-521.899999400005
 21
-372.4999999999999
 31
0.0
  0
LINE
  5
25E
330
186
100
AcDbEntity
  8
0
  6
Continuous
 62
     7
370
     9
100
AcDbLine
 10
-523.1000005999949
 20
-375.0
 30
0.0
 11
-523.1000005999949
 21
-372.4999999999999
 31
0.0
  0
LINE
  5
25F
330
186
100
AcDbEntity
  8
0
  6
Continuous
 62
     7
370
     9
100
AcDbLine
 10
-521.899999400005
 20
-402.5000000000001
 30
0.0
 11
-521.899999400005
 21
-400.0
 31
0.0
  0
LINE
  5
260
330
186
100
AcDbEntity
  8
0
  6
Continuous
 62
     7
370
     9
100
AcDbLine
 10
-521.899999400005
 20
-402.5000000000001
 30
0.0
 11
-521.899999400005
 21
-397.4999999999999
 31
0.0
  0
LINE
  5
261
330
186
100
AcDbEntity
  8
0
  6
Continuous
 62
     7
370
     9
100
AcDbLine
 10
-523.1000005999949
 20
-402.5000000000001
 30
0.0
 11
-523.1000005999949
 21
-400.0
 31
0.0
  0
LINE
  5
262
330
186
100
AcDbEntity
  8
0
  6
Continuous
 62
     7
370
     9
100
AcDbLine
 10
-523.1000005999949
 20
-402.5000000000001
 30
0.0
 11
-523.1000005999949
 21
-397.4999999999999
 31
0.0
  0
LINE
  5
263
330
186
100
AcDbEntity
  8
0
  6
Continuous
 62
     7
370
     9
100
AcDbLine
 10
-521.899999400005
 20
-400.0
 30
0.0
 11
-521.899999400005
 21
-397.4999999999999
 31
0.0
  0
LINE
  5
264
330
186
100
AcDbEntity
  8
0
  6
Continuous
 62
     7
370
     9
100
AcDbLine
 10
-523.1000005999949
 20
-400.0
 30
0.0
 11
-523.1000005999949
 21
-397.4999999999999
 31
0.0
  0
LINE
  5
265
330
186
100
AcDbEntity
  8
0
  6
Continuous
 62
     7
370
     9
100
AcDbLine
 10
-521.899999400005
 20
-652.5000000000001
 30
0.0
 11
-521.899999400005
 21
-650.0
 31
0.0
  0
LINE
  5
266
330
186
100
AcDbEntity
  8
0
  6
Continuous
 62
     7
370
     9
100
AcDbLine
 10
-521.899999400005
 20
-652.5000000000001
 30
0.0
 11
-521.899999400005
 21
-647.5
 31
0.0
  0
LINE
  5
267
330
186
100
AcDbEntity
  8
0
  6
Continuous
 62
     7
370
     9
100
AcDbLine
 10
-523.1000005999949
 20
-652.5000000000001
 30
0.0
 11
-523.1000005999949
 21
-650.0
 31
0.0
  0
LINE
  5
268
330
186
100
AcDbEntity
  8
0
  6
Continuous
 62
     7
370
     9
100
AcDbLine
 10
-523.1000005999949
 20
-652.5000000000001
 30
0.0
 11
-523.1000005999949
 21
-647.5
 31
0.0
  0
LINE
  5
269
330
186
100
AcDbEntity
  8
0
  6
Continuous
 62
     7
370
     9
100
AcDbLine
 10
-521.899999400005
 20
-650.0
 30
0.0
 11
-521.899999400005
 21
-647.5
 31
0.0
  0
LINE
  5
26A
330
186
100
AcDbEntity
  8
0
  6
Continuous
 62
     7
370
     9
100
AcDbLine
 10
-523.1000005999949
 20
-650.0
 30
0.0
 11
-523.1000005999949
 21
-647.5
 31
0.0
  0
LINE
  5
26B
330
186
100
AcDbEntity
  8
0
  6
Continuous
 62
     7
370
     9
100
AcDbLine
 10
-521.899999400005
 20
-652.5000000000001
 30
0.0
 11
-521.899999400005
 21
-650.0
 31
0.0
  0
LINE
  5
26C
330
186
100
AcDbEntity
  8
0
  6
Continuous
 62
     7
370
     9
100
AcDbLine
 10
-521.899999400005
 20
-652.5000000000001
 30
0.0
 11
-521.899999400005
 21
-647.5
 31
0.0
  0
LINE
  5
26D
330
186
100
AcDbEntity
  8
0
  6
Continuous
 62
     7
370
     9
100
AcDbLine
 10
-523.1000005999949
 20
-652.5000000000001
 30
0.0
 11
-523.1000005999949
 21
-650.0
 31
0.0
  0
LINE
  5
26E
330
186
100
AcDbEntity
  8
0
  6
Continuous
 62
     7
370
     9
100
AcDbLine
 10
-523.1000005999949
 20
-652.5000000000001
 30
0.0
 11
-523.1000005999949
 21
-647.5
 31
0.0
  0
LINE
  5
26F
330
186
100
AcDbEntity
  8
0
  6
Continuous
 62
     7
370
     9
100
AcDbLine
 10
-521.899999400005
 20
-650.0
 30
0.0
 11
-521.899999400005
 21
-647.5
 31
0.0
  0
LINE
  5
270
330
186
100
AcDbEntity
  8
0
  6
Continuous
 62
     7
370
     9
100
AcDbLine
 10
-523.1000005999949
 20
-650.0
 30
0.0
 11
-523.1000005999949
 21
-647.5
 31
0.0
  0
LINE
  5
271
330
186
100
AcDbEntity
  8
0
  6
Continuous
 62
     7
370
     9
100
AcDbLine
 10
-521.899999400005
 20
-402.4999999999999
 30
0.0
 11
-521.899999400005
 21
-400.0
 31
0.0
  0
LINE
  5
272
330
186
100
AcDbEntity
  8
0
  6
Continuous
 62
     7
370
     9
100
AcDbLine
 10
-521.899999400005
 20
-402.4999999999999
 30
0.0
 11
-521.899999400005
 21
-397.5000000000001
 31
0.0
  0
LINE
  5
273
330
186
100
AcDbEntity
  8
0
  6
Continuous
 62
     7
370
     9
100
AcDbLine
 10
-523.1000005999949
 20
-402.4999999999999
 30
0.0
 11
-523.1000005999949
 21
-400.0
 31
0.0
  0
LINE
  5
274
330
186
100
AcDbEntity
  8
0
  6
Continuous
 62
     7
370
     9
100
AcDbLine
 10
-523.1000005999949
 20
-402.4999999999999
 30
0.0
 11
-523.1000005999949
 21
-397.5000000000001
 31
0.0
  0
LINE
  5
275
330
186
100
AcDbEntity
  8
0
  6
Continuous
 62
     7
370
     9
100
AcDbLine
 10
-521.899999400005
 20
-400.0
 30
0.0
 11
-521.899999400005
 21
-397.5000000000001
 31
0.0
  0
LINE
  5
276
330
186
100
AcDbEntity
  8
0
  6
Continuous
 62
     7
370
     9
100
AcDbLine
 10
-523.1000005999949
 20
-400.0
 30
0.0
 11
-523.1000005999949
 21
-397.5000000000001
 31
0.0
  0
LINE
  5
277
330
186
100
AcDbEntity
  8
0
  6
Continuous
 62
     7
370
     9
100
AcDbLine
 10
-521.899999400005
 20
-377.5000000000001
 30
0.0
 11
-521.899999400005
 21
-375.0
 31
0.0
  0
LINE
  5
278
330
186
100
AcDbEntity
  8
0
  6
Continuous
 62
     7
370
     9
100
AcDbLine
 10
-521.899999400005
 20
-377.5000000000001
 30
0.0
 11
-521.899999400005
 21
-372.4999999999999
 31
0.0
  0
LINE
  5
279
330
186
100
AcDbEntity
  8
0
  6
Continuous
 62
     7
370
     9
100
AcDbLine
 10
-523.1000005999949
 20
-377.5000000000001
 30
0.0
 11
-523.1000005999949
 21
-375.0
 31
0.0
  0
LINE
  5
27A
330
186
100
AcDbEntity
  8
0
  6
Continuous
 62
     7
370
     9
100
AcDbLine
 10
-523.1000005999949
 20
-377.5000000000001
 30
0.0
 11
-523.1000005999949
 21
-372.4999999999999
 31
0.0
  0
LINE
  5
27B
330
186
100
AcDbEntity
  8
0
  6
Continuous
 62
     7
370
     9
100
AcDbLine
 10
-521.899999400005
 20
-375.0
 30
0.0
 11
-521.899999400005
 21
-372.4999999999999
 31
0.0
  0
LINE
  5
27C
330
186
100
AcDbEntity
  8
0
  6
Continuous
 62
     7
370
     9
100
AcDbLine
 10
-523.1000005999949
 20
-375.0
 30
0.0
 11
-523.1000005999949
 21
-372.4999999999999
 31
0.0
  0
LINE
  5
27D
330
186
100
AcDbEntity
  8
0
  6
Continuous
 62
     7
370
     9
100
AcDbLine
 10
-521.899999400005
 20
-627.4999999999999
 30
0.0
 11
-521.899999400005
 21
-625.0
 31
0.0
  0
LINE
  5
27E
330
186
100
AcDbEntity
  8
0
  6
Continuous
 62
     7
370
     9
100
AcDbLine
 10
-521.899999400005
 20
-627.4999999999999
 30
0.0
 11
-521.899999400005
 21
-622.5
 31
0.0
  0
LINE
  5
27F
330
186
100
AcDbEntity
  8
0
  6
Continuous
 62
     7
370
     9
100
AcDbLine
 10
-523.1000005999949
 20
-627.4999999999999
 30
0.0
 11
-523.1000005999949
 21
-625.0
 31
0.0
  0
LINE
  5
280
330
186
100
AcDbEntity
  8
0
  6
Continuous
 62
     7
370
     9
100
AcDbLine
 10
-523.1000005999949
 20
-627.4999999999999
 30
0.0
 11
-523.1000005999949
 21
-622.5
 31
0.0
  0
LINE
  5
281
330
186
100
AcDbEntity
  8
0
  6
Continuous
 62
     7
370
     9
100
AcDbLine
 10
-521.899999400005
 20
-625.0
 30
0.0
 11
-521.899999400005
 21
-622.5
 31
0.0
  0
LINE
  5
282
330
186
100
AcDbEntity
  8
0
  6
Continuous
 62
     7
370
     9
100
AcDbLine
 10
-523.1000005999949
 20
-625.0
 30
0.0
 11
-523.1000005999949
 21
-622.5
 31
0.0
  0
LINE
  5
283
330
186
100
AcDbEntity
  8
0
  6
Continuous
 62
     7
370
     9
100
AcDbLine
 10
-521.899999400005
 20
-402.4999999999999
 30
0.0
 11
-521.899999400005
 21
-400.0
 31
0.0
  0
LINE
  5
284
330
186
100
AcDbEntity
  8
0
  6
Continuous
 62
     7
370
     9
100
AcDbLine
 10
-521.899999400005
 20
-402.4999999999999
 30
0.0
 11
-521.899999400005
 21
-397.5000000000001
 31
0.0
  0
LINE
  5
285
330
186
100
AcDbEntity
  8
0
  6
Continuous
 62
     7
370
     9
100
AcDbLine
 10
-523.1000005999949
 20
-402.4999999999999
 30
0.0
 11
-523.1000005999949
 21
-400.0
 31
0.0
  0
LINE
  5
286
330
186
100
AcDbEntity
  8
0
  6
Continuous
 62
     7
370
     9
100
AcDbLine
 10
-523.1000005999949
 20
-402.4999999999999
 30
0.0
 11
-523.1000005999949
 21
-397.5000000000001
 31
0.0
  0
LINE
  5
287
330
186
100
AcDbEntity
  8
0
  6
Continuous
 62
     7
370
     9
100
AcDbLine
 10
-521.899999400005
 20
-400.0
 30
0.0
 11
-521.899999400005
 21
-397.5000000000001
 31
0.0
  0
LINE
  5
288
330
186
100
AcDbEntity
  8
0
  6
Continuous
 62
     7
370
     9
100
AcDbLine
 10
-523.1000005999949
 20
-400.0
 30
0.0
 11
-523.1000005999949
 21
-397.5000000000001
 31
0.0
  0
LINE
  5
289
330
186
100
AcDbEntity
  8
0
  6
Continuous
 62
     7
370
     9
100
AcDbLine
 10
-521.899999400005
 20
-377.4999999999999
 30
0.0
 11
-521.899999400005
 21
-375.0
 31
0.0
  0
LINE
  5
28A
330
186
100
AcDbEntity
  8
0
  6
Continuous
 62
     7
370
     9
100
AcDbLine
 10
-521.899999400005
 20
-377.4999999999999
 30
0.0
 11
-521.899999400005
 21
-372.5000000000001
 31
0.0
  0
LINE
  5
28B
330
186
100
AcDbEntity
  8
0
  6
Continuous
 62
     7
370
     9
100
AcDbLine
 10
-523.1000005999949
 20
-377.4999999999999
 30
0.0
 11
-523.1000005999949
 21
-375.0
 31
0.0
  0
LINE
  5
28C
330
186
100
AcDbEntity
  8
0
  6
Continuous
 62
     7
370
     9
100
AcDbLine
 10
-523.1000005999949
 20
-377.4999999999999
 30
0.0
 11
-523.1000005999949
 21
-372.5000000000001
 31
0.0
  0
LINE
  5
28D
330
186
100
AcDbEntity
  8
0
  6
Continuous
 62
     7
370
     9
100
AcDbLine
 10
-521.899999400005
 20
-375.0
 30
0.0
 11
-521.899999400005
 21
-372.5000000000001
 31
0.0
  0
LINE
  5
28E
330
186
100
AcDbEntity
  8
0
  6
Continuous
 62
     7
370
     9
100
AcDbLine
 10
-523.1000005999949
 20
-375.0
 30
0.0
 11
-523.1000005999949
 21
-372.5000000000001
 31
0.0
  0
LINE
  5
28F
330
186
100
AcDbEntity
  8
0
  6
Continuous
 62
     7
370
     9
100
AcDbLine
 10
-521.899999400005
 20
-627.4999999999999
 30
0.0
 11
-521.899999400005
 21
-625.0
 31
0.0
  0
LINE
  5
290
330
186
100
AcDbEntity
  8
0
  6
Continuous
 62
     7
370
     9
100
AcDbLine
 10
-521.899999400005
 20
-627.4999999999999
 30
0.0
 11
-521.899999400005
 21
-622.5
 31
0.0
  0
LINE
  5
291
330
186
100
AcDbEntity
  8
0
  6
Continuous
 62
     7
370
     9
100
AcDbLine
 10
-523.1000005999949
 20
-627.4999999999999
 30
0.0
 11
-523.1000005999949
 21
-625.0
 31
0.0
  0
LINE
  5
292
330
186
100
AcDbEntity
  8
0
  6
Continuous
 62
     7
370
     9
100
AcDbLine
 10
-523.1000005999949
 20
-627.4999999999999
 30
0.0
 11
-523.1000005999949
 21
-622.5
 31
0.0
  0
LINE
  5
293
330
186
100
AcDbEntity
  8
0
  6
Continuous
 62
     7
370
     9
100
AcDbLine
 10
-521.899999400005
 20
-625.0
 30
0.0
 11
-521.899999400005
 21
-622.5
 31
0.0
  0
LINE
  5
294
330
186
100
AcDbEntity
  8
0
  6
Continuous
 62
     7
370
     9
100
AcDbLine
 10
-523.1000005999949
 20
-625.0
 30
0.0
 11
-523.1000005999949
 21
-622.5
 31
0.0
  0
LINE
  5
295
330
186
100
AcDbEntity
  8
0
  6
Continuous
 62
     7
370
     9
100
AcDbLine
 10
-521.899999400005
 20
-652.5
 30
0.0
 11
-521.899999400005
 21
-650.0
 31
0.0
  0
LINE
  5
296
330
186
100
AcDbEntity
  8
0
  6
Continuous
 62
     7
370
     9
100
AcDbLine
 10
-521.899999400005
 20
-652.5
 30
0.0
 11
-521.899999400005
 21
-647.5000000000001
 31
0.0
  0
LINE
  5
297
330
186
100
AcDbEntity
  8
0
  6
Continuous
 62
     7
370
     9
100
AcDbLine
 10
-523.1000005999949
 20
-652.5
 30
0.0
 11
-523.1000005999949
 21
-650.0
 31
0.0
  0
LINE
  5
298
330
186
100
AcDbEntity
  8
0
  6
Continuous
 62
     7
370
     9
100
AcDbLine
 10
-523.1000005999949
 20
-652.5
 30
0.0
 11
-523.1000005999949
 21
-647.5000000000001
 31
0.0
  0
LINE
  5
299
330
186
100
AcDbEntity
  8
0
  6
Continuous
 62
     7
370
     9
100
AcDbLine
 10
-521.899999400005
 20
-650.0
 30
0.0
 11
-521.899999400005
 21
-647.5000000000001
 31
0.0
  0
LINE
  5
29A
330
186
100
AcDbEntity
  8
0
  6
Continuous
 62
     7
370
     9
100
AcDbLine
 10
-523.1000005999949
 20
-650.0
 30
0.0
 11
-523.1000005999949
 21
-647.5000000000001
 31
0.0
  0
LINE
  5
29B
330
186
100
AcDbEntity
  8
0
  6
Continuous
 62
     7
370
     9
100
AcDbLine
 10
-521.899999400005
 20
-627.4999999999999
 30
0.0
 11
-521.899999400005
 21
-625.0
 31
0.0
  0
LINE
  5
29C
330
186
100
AcDbEntity
  8
0
  6
Continuous
 62
     7
370
     9
100
AcDbLine
 10
-521.899999400005
 20
-627.4999999999999
 30
0.0
 11
-521.899999400005
 21
-622.4999999999999
 31
0.0
  0
LINE
  5
29D
330
186
100
AcDbEntity
  8
0
  6
Continuous
 62
     7
370
     9
100
AcDbLine
 10
-523.1000005999949
 20
-627.4999999999999
 30
0.0
 11
-523.1000005999949
 21
-625.0
 31
0.0
  0
LINE
  5
29E
330
186
100
AcDbEntity
  8
0
  6
Continuous
 62
     7
370
     9
100
AcDbLine
 10
-523.1000005999949
 20
-627.4999999999999
 30
0.0
 11
-523.1000005999949
 21
-622.4999999999999
 31
0.0
  0
LINE
  5
29F
330
186
100
AcDbEntity
  8
0
  6
Continuous
 62
     7
370
     9
100
AcDbLine
 10
-521.899999400005
 20
-625.0
 30
0.0
 11
-521.899999400005
 21
-622.4999999999999
 31
0.0
  0
LINE
  5
2A0
330
186
100
AcDbEntity
  8
0
  6
Continuous
 62
     7
370
     9
100
AcDbLine
 10
-523.1000005999949
 20
-625.0
 30
0.0
 11
-523.1000005999949
 21
-622.4999999999999
 31
0.0
  0
LINE
  5
2A1
330
186
100
AcDbEntity
  8
0
  6
Continuous
 62
     7
370
     9
100
AcDbLine
 10
-521.899999400005
 20
-377.5000000000001
 30
0.0
 11
-521.899999400005
 21
-375.0
 31
0.0
  0
LINE
  5
2A2
330
186
100
AcDbEntity
  8
0
  6
Continuous
 62
     7
370
     9
100
AcDbLine
 10
-521.899999400005
 20
-377.5000000000001
 30
0.0
 11
-521.899999400005
 21
-372.5000000000001
 31
0.0
  0
LINE
  5
2A3
330
186
100
AcDbEntity
  8
0
  6
Continuous
 62
     7
370
     9
100
AcDbLine
 10
-523.1000005999949
 20
-377.5000000000001
 30
0.0
 11
-523.1000005999949
 21
-375.0
 31
0.0
  0
LINE
  5
2A4
330
186
100
AcDbEntity
  8
0
  6
Continuous
 62
     7
370
     9
100
AcDbLine
 10
-523.1000005999949
 20
-377.5000000000001
 30
0.0
 11
-523.1000005999949
 21
-372.5000000000001
 31
0.0
  0
LINE
  5
2A5
330
186
100
AcDbEntity
  8
0
  6
Continuous
 62
     7
370
     9
100
AcDbLine
 10
-521.899999400005
 20
-375.0
 30
0.0
 11
-521.899999400005
 21
-372.5000000000001
 31
0.0
  0
LINE
  5
2A6
330
186
100
AcDbEntity
  8
0
  6
Continuous
 62
     7
370
     9
100
AcDbLine
 10
-523.1000005999949
 20
-375.0
 30
0.0
 11
-523.1000005999949
 21
-372.5000000000001
 31
0.0
  0
LINE
  5
2A7
330
186
100
AcDbEntity
  8
0
  6
Continuous
 62
     7
370
     9
100
AcDbLine
 10
-521.899999400005
 20
-652.5
 30
0.0
 11
-521.899999400005
 21
-650.0
 31
0.0
  0
LINE
  5
2A8
330
186
100
AcDbEntity
  8
0
  6
Continuous
 62
     7
370
     9
100
AcDbLine
 10
-521.899999400005
 20
-652.5
 30
0.0
 11
-521.899999400005
 21
-647.5
 31
0.0
  0
LINE
  5
2A9
330
186
100
AcDbEntity
  8
0
  6
Continuous
 62
     7
370
     9
100
AcDbLine
 10
-523.1000005999949
 20
-652.5
 30
0.0
 11
-523.1000005999949
 21
-650.0
 31
0.0
  0
LINE
  5
2AA
330
186
100
AcDbEntity
  8
0
  6
Continuous
 62
     7
370
     9
100
AcDbLine
 10
-523.1000005999949
 20
-652.5
 30
0.0
 11
-523.1000005999949
 21
-647.5
 31
0.0
  0
LINE
  5
2AB
330
186
100
AcDbEntity
  8
0
  6
Continuous
 62
     7
370
     9
100
AcDbLine
 10
-521.899999400005
 20
-650.0
 30
0.0
 11
-521.899999400005
 21
-647.5
 31
0.0
  0
LINE
  5
2AC
330
186
100
AcDbEntity
  8
0
  6
Continuous
 62
     7
370
     9
100
AcDbLine
 10
-523.1000005999949
 20
-650.0
 30
0.0
 11
-523.1000005999949
 21
-647.5
 31
0.0
  0
LINE
  5
2AD
330
186
100
AcDbEntity
  8
0
  6
Continuous
 62
     7
370
     9
100
AcDbLine
 10
-521.899999400005
 20
-402.5000000000001
 30
0.0
 11
-521.899999400005
 21
-400.0
 31
0.0
  0
LINE
  5
2AE
330
186
100
AcDbEntity
  8
0
  6
Continuous
 62
     7
370
     9
100
AcDbLine
 10
-521.899999400005
 20
-402.5000000000001
 30
0.0
 11
-521.899999400005
 21
-397.5000000000001
 31
0.0
  0
LINE
  5
2AF
330
186
100
AcDbEntity
  8
0
  6
Continuous
 62
     7
370
     9
100
AcDbLine
 10
-523.1000005999949
 20
-402.5000000000001
 30
0.0
 11
-523.1000005999949
 21
-400.0
 31
0.0
  0
LINE
  5
2B0
330
186
100
AcDbEntity
  8
0
  6
Continuous
 62
     7
370
     9
100
AcDbLine
 10
-523.1000005999949
 20
-402.5000000000001
 30
0.0
 11
-523.1000005999949
 21
-397.5000000000001
 31
0.0
  0
LINE
  5
2B1
330
186
100
AcDbEntity
  8
0
  6
Continuous
 62
     7
370
     9
100
AcDbLine
 10
-521.899999400005
 20
-400.0
 30
0.0
 11
-521.899999400005
 21
-397.5000000000001
 31
0.0
  0
LINE
  5
2B2
330
186
100
AcDbEntity
  8
0
  6
Continuous
 62
     7
370
     9
100
AcDbLine
 10
-523.1000005999949
 20
-400.0
 30
0.0
 11
-523.1000005999949
 21
-397.5000000000001
 31
0.0
  0
LINE
  5
2B3
330
186
100
AcDbEntity
  8
0
  6
Continuous
 62
     7
370
     9
100
AcDbLine
 10
-521.899999400005
 20
-627.4999999999999
 30
0.0
 11
-521.899999400005
 21
-625.0
 31
0.0
  0
LINE
  5
2B4
330
186
100
AcDbEntity
  8
0
  6
Continuous
 62
     7
370
     9
100
AcDbLine
 10
-521.899999400005
 20
-627.4999999999999
 30
0.0
 11
-521.899999400005
 21
-622.4999999999999
 31
0.0
  0
LINE
  5
2B5
330
186
100
AcDbEntity
  8
0
  6
Continuous
 62
     7
370
     9
100
AcDbLine
 10
-523.1000005999949
 20
-627.4999999999999
 30
0.0
 11
-523.1000005999949
 21
-625.0
 31
0.0
  0
LINE
  5
2B6
330
186
100
AcDbEntity
  8
0
  6
Continuous
 62
     7
370
     9
100
AcDbLine
 10
-523.1000005999949
 20
-627.4999999999999
 30
0.0
 11
-523.1000005999949
 21
-622.4999999999999
 31
0.0
  0
LINE
  5
2B7
330
186
100
AcDbEntity
  8
0
  6
Continuous
 62
     7
370
     9
100
AcDbLine
 10
-521.899999400005
 20
-625.0
 30
0.0
 11
-521.899999400005
 21
-622.4999999999999
 31
0.0
  0
LINE
  5
2B8
330
186
100
AcDbEntity
  8
0
  6
Continuous
 62
     7
370
     9
100
AcDbLine
 10
-523.1000005999949
 20
-625.0
 30
0.0
 11
-523.1000005999949
 21
-622.4999999999999
 31
0.0
  0
LINE
  5
2B9
330
186
100
AcDbEntity
  8
0
  6
Continuous
 62
     7
370
     9
100
AcDbLine
 10
-521.899999400005
 20
-402.5000000000001
 30
0.0
 11
-521.899999400005
 21
-400.0
 31
0.0
  0
LINE
  5
2BA
330
186
100
AcDbEntity
  8
0
  6
Continuous
 62
     7
370
     9
100
AcDbLine
 10
-521.899999400005
 20
-402.5000000000001
 30
0.0
 11
-521.899999400005
 21
-397.5000000000001
 31
0.0
  0
LINE
  5
2BB
330
186
100
AcDbEntity
  8
0
  6
Continuous
 62
     7
370
     9
100
AcDbLine
 10
-523.1000005999949
 20
-402.5000000000001
 30
0.0
 11
-523.1000005999949
 21
-400.0
 31
0.0
  0
LINE
  5
2BC
330
186
100
AcDbEntity
  8
0
  6
Continuous
 62
     7
370
     9
100
AcDbLine
 10
-523.1000005999949
 20
-402.5000000000001
 30
0.0
 11
-523.1000005999949
 21
-397.5000000000001
 31
0.0
  0
LINE
  5
2BD
330
186
100
AcDbEntity
  8
0
  6
Continuous
 62
     7
370
     9
100
AcDbLine
 10
-521.899999400005
 20
-400.0
 30
0.0
 11
-521.899999400005
 21
-397.5000000000001
 31
0.0
  0
LINE
  5
2BE
330
186
100
AcDbEntity
  8
0
  6
Continuous
 62
     7
370
     9
100
AcDbLine
 10
-523.1000005999949
 20
-400.0
 30
0.0
 11
-523.1000005999949
 21
-397.5000000000001
 31
0.0
  0
LINE
  5
2BF
330
186
100
AcDbEntity
  8
0
  6
Continuous
 62
     7
370
     9
100
AcDbLine
 10
-521.899999400005
 20
-652.5
 30
0.0
 11
-521.899999400005
 21
-650.0
 31
0.0
  0
LINE
  5
2C0
330
186
100
AcDbEntity
  8
0
  6
Continuous
 62
     7
370
     9
100
AcDbLine
 10
-521.899999400005
 20
-652.5
 30
0.0
 11
-521.899999400005
 21
-647.5
 31
0.0
  0
LINE
  5
2C1
330
186
100
AcDbEntity
  8
0
  6
Continuous
 62
     7
370
     9
100
AcDbLine
 10
-523.1000005999949
 20
-652.5
 30
0.0
 11
-523.1000005999949
 21
-650.0
 31
0.0
  0
LINE
  5
2C2
330
186
100
AcDbEntity
  8
0
  6
Continuous
 62
     7
370
     9
100
AcDbLine
 10
-523.1000005999949
 20
-652.5
 30
0.0
 11
-523.1000005999949
 21
-647.5
 31
0.0
  0
LINE
  5
2C3
330
186
100
AcDbEntity
  8
0
  6
Continuous
 62
     7
370
     9
100
AcDbLine
 10
-521.899999400005
 20
-650.0
 30
0.0
 11
-521.899999400005
 21
-647.5
 31
0.0
  0
LINE
  5
2C4
330
186
100
AcDbEntity
  8
0
  6
Continuous
 62
     7
370
     9
100
AcDbLine
 10
-523.1000005999949
 20
-650.0
 30
0.0
 11
-523.1000005999949
 21
-647.5
 31
0.0
  0
LINE
  5
2C5
330
186
100
AcDbEntity
  8
0
  6
Continuous
 62
     7
370
     9
100
AcDbLine
 10
-521.899999400005
 20
-377.5000000000001
 30
0.0
 11
-521.899999400005
 21
-375.0
 31
0.0
  0
LINE
  5
2C6
330
186
100
AcDbEntity
  8
0
  6
Continuous
 62
     7
370
     9
100
AcDbLine
 10
-521.899999400005
 20
-377.5000000000001
 30
0.0
 11
-521.899999400005
 21
-372.5000000000001
 31
0.0
  0
LINE
  5
2C7
330
186
100
AcDbEntity
  8
0
  6
Continuous
 62
     7
370
     9
100
AcDbLine
 10
-523.1000005999949
 20
-377.5000000000001
 30
0.0
 11
-523.1000005999949
 21
-375.0
 31
0.0
  0
LINE
  5
2C8
330
186
100
AcDbEntity
  8
0
  6
Continuous
 62
     7
370
     9
100
AcDbLine
 10
-523.1000005999949
 20
-377.5000000000001
 30
0.0
 11
-523.1000005999949
 21
-372.5000000000001
 31
0.0
  0
LINE
  5
2C9
330
186
100
AcDbEntity
  8
0
  6
Continuous
 62
     7
370
     9
100
AcDbLine
 10
-521.899999400005
 20
-375.0
 30
0.0
 11
-521.899999400005
 21
-372.5000000000001
 31
0.0
  0
LINE
  5
2CA
330
186
100
AcDbEntity
  8
0
  6
Continuous
 62
     7
370
     9
100
AcDbLine
 10
-523.1000005999949
 20
-375.0
 30
0.0
 11
-523.1000005999949
 21
-372.5000000000001
 31
0.0
  0
LINE
  5
2CB
330
186
100
AcDbEntity
  8
0
  6
Continuous
 62
     7
370
     9
100
AcDbLine
 10
-521.899999400005
 20
-402.5000000000001
 30
0.0
 11
-521.899999400005
 21
-400.0
 31
0.0
  0
LINE
  5
2CC
330
186
100
AcDbEntity
  8
0
  6
Continuous
 62
     7
370
     9
100
AcDbLine
 10
-521.899999400005
 20
-402.5000000000001
 30
0.0
 11
-521.899999400005
 21
-397.5000000000001
 31
0.0
  0
LINE
  5
2CD
330
186
100
AcDbEntity
  8
0
  6
Continuous
 62
     7
370
     9
100
AcDbLine
 10
-523.1000005999949
 20
-402.5000000000001
 30
0.0
 11
-523.1000005999949
 21
-400.0
 31
0.0
  0
LINE
  5
2CE
330
186
100
AcDbEntity
  8
0
  6
Continuous
 62
     7
370
     9
100
AcDbLine
 10
-523.1000005999949
 20
-402.5000000000001
 30
0.0
 11
-523.1000005999949
 21
-397.5000000000001
 31
0.0
  0
LINE
  5
2CF
330
186
100
AcDbEntity
  8
0
  6
Continuous
 62
     7
370
     9
100
AcDbLine
 10
-521.899999400005
 20
-400.0
 30
0.0
 11
-521.899999400005
 21
-397.5000000000001
 31
0.0
  0
LINE
  5
2D0
330
186
100
AcDbEntity
  8
0
  6
Continuous
 62
     7
370
     9
100
AcDbLine
 10
-523.1000005999949
 20
-400.0
 30
0.0
 11
-523.1000005999949
 21
-397.5000000000001
 31
0.0
  0
LINE
  5
2D1
330
186
100
AcDbEntity
  8
0
  6
Continuous
 62
     7
370
     9
100
AcDbLine
 10
-521.899999400005
 20
-627.4999999999999
 30
0.0
 11
-521.899999400005
 21
-625.0
 31
0.0
  0
LINE
  5
2D2
330
186
100
AcDbEntity
  8
0
  6
Continuous
 62
     7
370
     9
100
AcDbLine
 10
-521.899999400005
 20
-627.4999999999999
 30
0.0
 11
-521.899999400005
 21
-622.4999999999999
 31
0.0
  0
LINE
  5
2D3
330
186
100
AcDbEntity
  8
0
  6
Continuous
 62
     7
370
     9
100
AcDbLine
 10
-523.1000005999949
 20
-627.4999999999999
 30
0.0
 11
-523.1000005999949
 21
-625.0
 31
0.0
  0
LINE
  5
2D4
330
186
100
AcDbEntity
  8
0
  6
Continuous
 62
     7
370
     9
100
AcDbLine
 10
-523.1000005999949
 20
-627.4999999999999
 30
0.0
 11
-523.1000005999949
 21
-622.4999999999999
 31
0.0
  0
LINE
  5
2D5
330
186
100
AcDbEntity
  8
0
  6
Continuous
 62
     7
370
     9
100
AcDbLine
 10
-521.899999400005
 20
-625.0
 30
0.0
 11
-521.899999400005
 21
-622.4999999999999
 31
0.0
  0
LINE
  5
2D6
330
186
100
AcDbEntity
  8
0
  6
Continuous
 62
     7
370
     9
100
AcDbLine
 10
-523.1000005999949
 20
-625.0
 30
0.0
 11
-523.1000005999949
 21
-622.4999999999999
 31
0.0
  0
LINE
  5
2D7
330
186
100
AcDbEntity
  8
0
  6
Continuous
 62
     7
370
     9
100
AcDbLine
 10
-521.899999400005
 20
-377.5000000000001
 30
0.0
 11
-521.899999400005
 21
-375.0
 31
0.0
  0
LINE
  5
2D8
330
186
100
AcDbEntity
  8
0
  6
Continuous
 62
     7
370
     9
100
AcDbLine
 10
-521.899999400005
 20
-377.5000000000001
 30
0.0
 11
-521.899999400005
 21
-372.5000000000001
 31
0.0
  0
LINE
  5
2D9
330
186
100
AcDbEntity
  8
0
  6
Continuous
 62
     7
370
     9
100
AcDbLine
 10
-523.1000005999949
 20
-377.5000000000001
 30
0.0
 11
-523.1000005999949
 21
-375.0
 31
0.0
  0
LINE
  5
2DA
330
186
100
AcDbEntity
  8
0
  6
Continuous
 62
     7
370
     9
100
AcDbLine
 10
-523.1000005999949
 20
-377.5000000000001
 30
0.0
 11
-523.1000005999949
 21
-372.5000000000001
 31
0.0
  0
LINE
  5
2DB
330
186
100
AcDbEntity
  8
0
  6
Continuous
 62
     7
370
     9
100
AcDbLine
 10
-521.899999400005
 20
-375.0
 30
0.0
 11
-521.899999400005
 21
-372.5000000000001
 31
0.0
  0
LINE
  5
2DC
330
186
100
AcDbEntity
  8
0
  6
Continuous
 62
     7
370
     9
100
AcDbLine
 10
-523.1000005999949
 20
-375.0
 30
0.0
 11
-523.1000005999949
 21
-372.5000000000001
 31
0.0
  0
LINE
  5
2DD
330
186
100
AcDbEntity
  8
0
  6
Continuous
 62
     7
370
     9
100
AcDbLine
 10
-521.899999400005
 20
-652.5
 30
0.0
 11
-521.899999400005
 21
-650.0
 31
0.0
  0
LINE
  5
2DE
330
186
100
AcDbEntity
  8
0
  6
Continuous
 62
     7
370
     9
100
AcDbLine
 10
-521.899999400005
 20
-652.5
 30
0.0
 11
-521.899999400005
 21
-647.5
 31
0.0
  0
LINE
  5
2DF
330
186
100
AcDbEntity
  8
0
  6
Continuous
 62
     7
370
     9
100
AcDbLine
 10
-523.1000005999949
 20
-652.5
 30
0.0
 11
-523.1000005999949
 21
-650.0
 31
0.0
  0
LINE
  5
2E0
330
186
100
AcDbEntity
  8
0
  6
Continuous
 62
     7
370
     9
100
AcDbLine
 10
-523.1000005999949
 20
-652.5
 30
0.0
 11
-523.1000005999949
 21
-647.5
 31
0.0
  0
LINE
  5
2E1
330
186
100
AcDbEntity
  8
0
  6
Continuous
 62
     7
370
     9
100
AcDbLine
 10
-521.899999400005
 20
-650.0
 30
0.0
 11
-521.899999400005
 21
-647.5
 31
0.0
  0
LINE
  5
2E2
330
186
100
AcDbEntity
  8
0
  6
Continuous
 62
     7
370
     9
100
AcDbLine
 10
-523.1000005999949
 20
-650.0
 30
0.0
 11
-523.1000005999949
 21
-647.5
 31
0.0
  0
LINE
  5
2E3
330
186
100
AcDbEntity
  8
0
  6
Continuous
 62
     7
370
     9
100
AcDbLine
 10
-521.899999400005
 20
-627.4999999999999
 30
0.0
 11
-521.899999400005
 21
-625.0
 31
0.0
  0
LINE
  5
2E4
330
186
100
AcDbEntity
  8
0
  6
Continuous
 62
     7
370
     9
100
AcDbLine
 10
-521.899999400005
 20
-627.4999999999999
 30
0.0
 11
-521.899999400005
 21
-622.4999999999999
 31
0.0
  0
LINE
  5
2E5
330
186
100
AcDbEntity
  8
0
  6
Continuous
 62
     7
370
     9
100
AcDbLine
 10
-523.1000005999949
 20
-627.4999999999999
 30
0.0
 11
-523.1000005999949
 21
-625.0
 31
0.0
  0
LINE
  5
2E6
330
186
100
AcDbEntity
  8
0
  6
Continuous
 62
     7
370
     9
100
AcDbLine
 10
-523.1000005999949
 20
-627.4999999999999
 30
0.0
 11
-523.1000005999949
 21
-622.4999999999999
 31
0.0
  0
LINE
  5
2E7
330
186
100
AcDbEntity
  8
0
  6
Continuous
 62
     7
370
     9
100
AcDbLine
 10
-521.899999400005
 20
-625.0
 30
0.0
 11
-521.899999400005
 21
-622.4999999999999
 31
0.0
  0
LINE
  5
2E8
330
186
100
AcDbEntity
  8
0
  6
Continuous
 62
     7
370
     9
100
AcDbLine
 10
-523.1000005999949
 20
-625.0
 30
0.0
 11
-523.1000005999949
 21
-622.4999999999999
 31
0.0
  0
LINE
  5
2E9
330
186
100
AcDbEntity
  8
0
  6
Continuous
 62
     7
370
     9
100
AcDbLine
 10
-521.899999400005
 20
-402.5000000000001
 30
0.0
 11
-521.899999400005
 21
-400.0
 31
0.0
  0
LINE
  5
2EA
330
186
100
AcDbEntity
  8
0
  6
Continuous
 62
     7
370
     9
100
AcDbLine
 10
-521.899999400005
 20
-402.5000000000001
 30
0.0
 11
-521.899999400005
 21
-397.5000000000001
 31
0.0
  0
LINE
  5
2EB
330
186
100
AcDbEntity
  8
0
  6
Continuous
 62
     7
370
     9
100
AcDbLine
 10
-523.1000005999949
 20
-402.5000000000001
 30
0.0
 11
-523.1000005999949
 21
-400.0
 31
0.0
  0
LINE
  5
2EC
330
186
100
AcDbEntity
  8
0
  6
Continuous
 62
     7
370
     9
100
AcDbLine
 10
-523.1000005999949
 20
-402.5000000000001
 30
0.0
 11
-523.1000005999949
 21
-397.5000000000001
 31
0.0
  0
LINE
  5
2ED
330
186
100
AcDbEntity
  8
0
  6
Continuous
 62
     7
370
     9
100
AcDbLine
 10
-521.899999400005
 20
-400.0
 30
0.0
 11
-521.899999400005
 21
-397.5000000000001
 31
0.0
  0
LINE
  5
2EE
330
186
100
AcDbEntity
  8
0
  6
Continuous
 62
     7
370
     9
100
AcDbLine
 10
-523.1000005999949
 20
-400.0
 30
0.0
 11
-523.1000005999949
 21
-397.5000000000001
 31
0.0
  0
LINE
  5
2EF
330
186
100
AcDbEntity
  8
0
  6
Continuous
 62
     7
370
     9
100
AcDbLine
 10
-521.899999400005
 20
-377.5000000000001
 30
0.0
 11
-521.899999400005
 21
-375.0
 31
0.0
  0
LINE
  5
2F0
330
186
100
AcDbEntity
  8
0
  6
Continuous
 62
     7
370
     9
100
AcDbLine
 10
-521.899999400005
 20
-377.5000000000001
 30
0.0
 11
-521.899999400005
 21
-372.5000000000001
 31
0.0
  0
LINE
  5
2F1
330
186
100
AcDbEntity
  8
0
  6
Continuous
 62
     7
370
     9
100
AcDbLine
 10
-523.1000005999949
 20
-377.5000000000001
 30
0.0
 11
-523.1000005999949
 21
-375.0
 31
0.0
  0
LINE
  5
2F2
330
186
100
AcDbEntity
  8
0
  6
Continuous
 62
     7
370
     9
100
AcDbLine
 10
-523.1000005999949
 20
-377.5000000000001
 30
0.0
 11
-523.1000005999949
 21
-372.5000000000001
 31
0.0
  0
LINE
  5
2F3
330
186
100
AcDbEntity
  8
0
  6
Continuous
 62
     7
370
     9
100
AcDbLine
 10
-521.899999400005
 20
-375.0
 30
0.0
 11
-521.899999400005
 21
-372.5000000000001
 31
0.0
  0
LINE
  5
2F4
330
186
100
AcDbEntity
  8
0
  6
Continuous
 62
     7
370
     9
100
AcDbLine
 10
-523.1000005999949
 20
-375.0
 30
0.0
 11
-523.1000005999949
 21
-372.5000000000001
 31
0.0
  0
LINE
  5
2F5
330
186
100
AcDbEntity
  8
0
  6
Continuous
 62
     7
370
     9
100
AcDbLine
 10
-521.899999400005
 20
-652.5
 30
0.0
 11
-521.899999400005
 21
-650.0
 31
0.0
  0
LINE
  5
2F6
330
186
100
AcDbEntity
  8
0
  6
Continuous
 62
     7
370
     9
100
AcDbLine
 10
-521.899999400005
 20
-652.5
 30
0.0
 11
-521.899999400005
 21
-647.5
 31
0.0
  0
LINE
  5
2F7
330
186
100
AcDbEntity
  8
0
  6
Continuous
 62
     7
370
     9
100
AcDbLine
 10
-523.1000005999949
 20
-652.5
 30
0.0
 11
-523.1000005999949
 21
-650.0
 31
0.0
  0
LINE
  5
2F8
330
186
100
AcDbEntity
  8
0
  6
Continuous
 62
     7
370
     9
100
AcDbLine
 10
-523.1000005999949
 20
-652.5
 30
0.0
 11
-523.1000005999949
 21
-647.5
 31
0.0
  0
LINE
  5
2F9
330
186
100
AcDbEntity
  8
0
  6
Continuous
 62
     7
370
     9
100
AcDbLine
 10
-521.899999400005
 20
-650.0
 30
0.0
 11
-521.899999400005
 21
-647.5
 31
0.0
  0
LINE
  5
2FA
330
186
100
AcDbEntity
  8
0
  6
Continuous
 62
     7
370
     9
100
AcDbLine
 10
-523.1000005999949
 20
-650.0
 30
0.0
 11
-523.1000005999949
 21
-647.5
 31
0.0
  0
LINE
  5
2FB
330
186
100
AcDbEntity
  8
0
  6
Continuous
 62
     7
370
     9
100
AcDbLine
 10
-521.899999400005
 20
-402.5000000000001
 30
0.0
 11
-521.899999400005
 21
-400.0
 31
0.0
  0
LINE
  5
2FC
330
186
100
AcDbEntity
  8
0
  6
Continuous
 62
     7
370
     9
100
AcDbLine
 10
-521.899999400005
 20
-402.5000000000001
 30
0.0
 11
-521.899999400005
 21
-397.5000000000001
 31
0.0
  0
LINE
  5
2FD
330
186
100
AcDbEntity
  8
0
  6
Continuous
 62
     7
370
     9
100
AcDbLine
 10
-523.1000005999949
 20
-402.5000000000001
 30
0.0
 11
-523.1000005999949
 21
-400.0
 31
0.0
  0
LINE
  5
2FE
330
186
100
AcDbEntity
  8
0
  6
Continuous
 62
     7
370
     9
100
AcDbLine
 10
-523.1000005999949
 20
-402.5000000000001
 30
0.0
 11
-523.1000005999949
 21
-397.5000000000001
 31
0.0
  0
LINE
  5
2FF
330
186
100
AcDbEntity
  8
0
  6
Continuous
 62
     7
370
     9
100
AcDbLine
 10
-521.899999400005
 20
-400.0
 30
0.0
 11
-521.899999400005
 21
-397.5000000000001
 31
0.0
  0
LINE
  5
300
330
186
100
AcDbEntity
  8
0
  6
Continuous
 62
     7
370
     9
100
AcDbLine
 10
-523.1000005999949
 20
-400.0
 30
0.0
 11
-523.1000005999949
 21
-397.5000000000001
 31
0.0
  0
LINE
  5
301
330
186
100
AcDbEntity
  8
0
  6
Continuous
 62
     7
370
     9
100
AcDbLine
 10
-521.899999400005
 20
-627.4999999999999
 30
0.0
 11
-521.899999400005
 21
-625.0
 31
0.0
  0
LINE
  5
302
330
186
100
AcDbEntity
  8
0
  6
Continuous
 62
     7
370
     9
100
AcDbLine
 10
-521.899999400005
 20
-627.4999999999999
 30
0.0
 11
-521.899999400005
 21
-622.4999999999999
 31
0.0
  0
LINE
  5
303
330
186
100
AcDbEntity
  8
0
  6
Continuous
 62
     7
370
     9
100
AcDbLine
 10
-523.1000005999949
 20
-627.4999999999999
 30
0.0
 11
-523.1000005999949
 21
-625.0
 31
0.0
  0
LINE
  5
304
330
186
100
AcDbEntity
  8
0
  6
Continuous
 62
     7
370
     9
100
AcDbLine
 10
-523.1000005999949
 20
-627.4999999999999
 30
0.0
 11
-523.1000005999949
 21
-622.4999999999999
 31
0.0
  0
LINE
  5
305
330
186
100
AcDbEntity
  8
0
  6
Continuous
 62
     7
370
     9
100
AcDbLine
 10
-521.899999400005
 20
-625.0
 30
0.0
 11
-521.899999400005
 21
-622.4999999999999
 31
0.0
  0
LINE
  5
306
330
186
100
AcDbEntity
  8
0
  6
Continuous
 62
     7
370
     9
100
AcDbLine
 10
-523.1000005999949
 20
-625.0
 30
0.0
 11
-523.1000005999949
 21
-622.4999999999999
 31
0.0
  0
LINE
  5
307
330
186
100
AcDbEntity
  8
0
  6
Continuous
 62
     7
370
     9
100
AcDbLine
 10
-521.899999400005
 20
-652.5
 30
0.0
 11
-521.899999400005
 21
-650.0
 31
0.0
  0
LINE
  5
308
330
186
100
AcDbEntity
  8
0
  6
Continuous
 62
     7
370
     9
100
AcDbLine
 10
-521.899999400005
 20
-652.5
 30
0.0
 11
-521.899999400005
 21
-647.5
 31
0.0
  0
LINE
  5
309
330
186
100
AcDbEntity
  8
0
  6
Continuous
 62
     7
370
     9
100
AcDbLine
 10
-523.1000005999949
 20
-652.5
 30
0.0
 11
-523.1000005999949
 21
-650.0
 31
0.0
  0
LINE
  5
30A
330
186
100
AcDbEntity
  8
0
  6
Continuous
 62
     7
370
     9
100
AcDbLine
 10
-523.1000005999949
 20
-652.5
 30
0.0
 11
-523.1000005999949
 21
-647.5
 31
0.0
  0
LINE
  5
30B
330
186
100
AcDbEntity
  8
0
  6
Continuous
 62
     7
370
     9
100
AcDbLine
 10
-521.899999400005
 20
-650.0
 30
0.0
 11
-521.899999400005
 21
-647.5
 31
0.0
  0
LINE
  5
30C
330
186
100
AcDbEntity
  8
0
  6
Continuous
 62
     7
370
     9
100
AcDbLine
 10
-523.1000005999949
 20
-650.0
 30
0.0
 11
-523.1000005999949
 21
-647.5
 31
0.0
  0
LINE
  5
30D
330
186
100
AcDbEntity
  8
0
  6
Continuous
 62
     7
370
     9
100
AcDbLine
 10
-521.899999400005
 20
-377.5000000000001
 30
0.0
 11
-521.899999400005
 21
-375.0
 31
0.0
  0
LINE
  5
30E
330
186
100
AcDbEntity
  8
0
  6
Continuous
 62
     7
370
     9
100
AcDbLine
 10
-521.899999400005
 20
-377.5000000000001
 30
0.0
 11
-521.899999400005
 21
-372.5000000000001
 31
0.0
  0
LINE
  5
30F
330
186
100
AcDbEntity
  8
0
  6
Continuous
 62
     7
370
     9
100
AcDbLine
 10
-523.1000005999949
 20
-377.5000000000001
 30
0.0
 11
-523.1000005999949
 21
-375.0
 31
0.0
  0
LINE
  5
310
330
186
100
AcDbEntity
  8
0
  6
Continuous
 62
     7
370
     9
100
AcDbLine
 10
-523.1000005999949
 20
-377.5000000000001
 30
0.0
 11
-523.1000005999949
 21
-372.5000000000001
 31
0.0
  0
LINE
  5
311
330
186
100
AcDbEntity
  8
0
  6
Continuous
 62
     7
370
     9
100
AcDbLine
 10
-521.899999400005
 20
-375.0
 30
0.0
 11
-521.899999400005
 21
-372.5000000000001
 31
0.0
  0
LINE
  5
312
330
186
100
AcDbEntity
  8
0
  6
Continuous
 62
     7
370
     9
100
AcDbLine
 10
-523.1000005999949
 20
-375.0
 30
0.0
 11
-523.1000005999949
 21
-372.5000000000001
 31
0.0
  0
LINE
  5
313
330
186
100
AcDbEntity
  8
0
  6
Continuous
 62
     7
370
     9
100
AcDbLine
 10
-521.899999400005
 20
-402.5000000000001
 30
0.0
 11
-521.899999400005
 21
-400.0
 31
0.0
  0
LINE
  5
314
330
186
100
AcDbEntity
  8
0
  6
Continuous
 62
     7
370
     9
100
AcDbLine
 10
-521.899999400005
 20
-402.5000000000001
 30
0.0
 11
-521.899999400005
 21
-397.5000000000001
 31
0.0
  0
LINE
  5
315
330
186
100
AcDbEntity
  8
0
  6
Continuous
 62
     7
370
     9
100
AcDbLine
 10
-523.1000005999949
 20
-402.5000000000001
 30
0.0
 11
-523.1000005999949
 21
-400.0
 31
0.0
  0
LINE
  5
316
330
186
100
AcDbEntity
  8
0
  6
Continuous
 62
     7
370
     9
100
AcDbLine
 10
-523.1000005999949
 20
-402.5000000000001
 30
0.0
 11
-523.1000005999949
 21
-397.5000000000001
 31
0.0
  0
LINE
  5
317
330
186
100
AcDbEntity
  8
0
  6
Continuous
 62
     7
370
     9
100
AcDbLine
 10
-521.899999400005
 20
-400.0
 30
0.0
 11
-521.899999400005
 21
-397.5000000000001
 31
0.0
  0
LINE
  5
318
330
186
100
AcDbEntity
  8
0
  6
Continuous
 62
     7
370
     9
100
AcDbLine
 10
-523.1000005999949
 20
-400.0
 30
0.0
 11
-523.1000005999949
 21
-397.5000000000001
 31
0.0
  0
LINE
  5
319
330
186
100
AcDbEntity
  8
0
  6
Continuous
 62
     7
370
     9
100
AcDbLine
 10
-521.899999400005
 20
-627.4999999999999
 30
0.0
 11
-521.899999400005
 21
-625.0
 31
0.0
  0
LINE
  5
31A
330
186
100
AcDbEntity
  8
0
  6
Continuous
 62
     7
370
     9
100
AcDbLine
 10
-521.899999400005
 20
-627.4999999999999
 30
0.0
 11
-521.899999400005
 21
-622.4999999999999
 31
0.0
  0
LINE
  5
31B
330
186
100
AcDbEntity
  8
0
  6
Continuous
 62
     7
370
     9
100
AcDbLine
 10
-523.1000005999949
 20
-627.4999999999999
 30
0.0
 11
-523.1000005999949
 21
-625.0
 31
0.0
  0
LINE
  5
31C
330
186
100
AcDbEntity
  8
0
  6
Continuous
 62
     7
370
     9
100
AcDbLine
 10
-523.1000005999949
 20
-627.4999999999999
 30
0.0
 11
-523.1000005999949
 21
-622.4999999999999
 31
0.0
  0
LINE
  5
31D
330
186
100
AcDbEntity
  8
0
  6
Continuous
 62
     7
370
     9
100
AcDbLine
 10
-521.899999400005
 20
-625.0
 30
0.0
 11
-521.899999400005
 21
-622.4999999999999
 31
0.0
  0
LINE
  5
31E
330
186
100
AcDbEntity
  8
0
  6
Continuous
 62
     7
370
     9
100
AcDbLine
 10
-523.1000005999949
 20
-625.0
 30
0.0
 11
-523.1000005999949
 21
-622.4999999999999
 31
0.0
  0
LINE
  5
31F
330
186
100
AcDbEntity
  8
0
  6
Continuous
 62
     7
370
     9
100
AcDbLine
 10
-521.899999400005
 20
-377.5000000000001
 30
0.0
 11
-521.899999400005
 21
-375.0
 31
0.0
  0
LINE
  5
320
330
186
100
AcDbEntity
  8
0
  6
Continuous
 62
     7
370
     9
100
AcDbLine
 10
-521.899999400005
 20
-377.5000000000001
 30
0.0
 11
-521.899999400005
 21
-372.5000000000001
 31
0.0
  0
LINE
  5
321
330
186
100
AcDbEntity
  8
0
  6
Continuous
 62
     7
370
     9
100
AcDbLine
 10
-523.1000005999949
 20
-377.5000000000001
 30
0.0
 11
-523.1000005999949
 21
-375.0
 31
0.0
  0
LINE
  5
322
330
186
100
AcDbEntity
  8
0
  6
Continuous
 62
     7
370
     9
100
AcDbLine
 10
-523.1000005999949
 20
-377.5000000000001
 30
0.0
 11
-523.1000005999949
 21
-372.5000000000001
 31
0.0
  0
LINE
  5
323
330
186
100
AcDbEntity
  8
0
  6
Continuous
 62
     7
370
     9
100
AcDbLine
 10
-521.899999400005
 20
-375.0
 30
0.0
 11
-521.899999400005
 21
-372.5000000000001
 31
0.0
  0
LINE
  5
324
330
186
100
AcDbEntity
  8
0
  6
Continuous
 62
     7
370
     9
100
AcDbLine
 10
-523.1000005999949
 20
-375.0
 30
0.0
 11
-523.1000005999949
 21
-372.5000000000001
 31
0.0
  0
LINE
  5
325
330
186
100
AcDbEntity
  8
0
  6
Continuous
 62
     7
370
     9
100
AcDbLine
 10
-521.899999400005
 20
-652.5
 30
0.0
 11
-521.899999400005
 21
-650.0
 31
0.0
  0
LINE
  5
326
330
186
100
AcDbEntity
  8
0
  6
Continuous
 62
     7
370
     9
100
AcDbLine
 10
-521.899999400005
 20
-652.5
 30
0.0
 11
-521.899999400005
 21
-647.5
 31
0.0
  0
LINE
  5
327
330
186
100
AcDbEntity
  8
0
  6
Continuous
 62
     7
370
     9
100
AcDbLine
 10
-523.1000005999949
 20
-652.5
 30
0.0
 11
-523.1000005999949
 21
-650.0
 31
0.0
  0
LINE
  5
328
330
186
100
AcDbEntity
  8
0
  6
Continuous
 62
     7
370
     9
100
AcDbLine
 10
-523.1000005999949
 20
-652.5
 30
0.0
 11
-523.1000005999949
 21
-647.5
 31
0.0
  0
LINE
  5
329
330
186
100
AcDbEntity
  8
0
  6
Continuous
 62
     7
370
     9
100
AcDbLine
 10
-521.899999400005
 20
-650.0
 30
0.0
 11
-521.899999400005
 21
-647.5
 31
0.0
  0
LINE
  5
32A
330
186
100
AcDbEntity
  8
0
  6
Continuous
 62
     7
370
     9
100
AcDbLine
 10
-523.1000005999949
 20
-650.0
 30
0.0
 11
-523.1000005999949
 21
-647.5
 31
0.0
  0
LINE
  5
32B
330
186
100
AcDbEntity
  8
0
  6
Continuous
 62
     7
370
     9
100
AcDbLine
 10
-521.899999400005
 20
-627.5
 30
0.0
 11
-521.899999400005
 21
-625.0
 31
0.0
  0
LINE
  5
32C
330
186
100
AcDbEntity
  8
0
  6
Continuous
 62
     7
370
     9
100
AcDbLine
 10
-521.899999400005
 20
-627.5
 30
0.0
 11
-521.899999400005
 21
-622.4999999999999
 31
0.0
  0
LINE
  5
32D
330
186
100
AcDbEntity
  8
0
  6
Continuous
 62
     7
370
     9
100
AcDbLine
 10
-523.1000005999949
 20
-627.5
 30
0.0
 11
-523.1000005999949
 21
-625.0
 31
0.0
  0
LINE
  5
32E
330
186
100
AcDbEntity
  8
0
  6
Continuous
 62
     7
370
     9
100
AcDbLine
 10
-523.1000005999949
 20
-627.5
 30
0.0
 11
-523.1000005999949
 21
-622.4999999999999
 31
0.0
  0
LINE
  5
32F
330
186
100
AcDbEntity
  8
0
  6
Continuous
 62
     7
370
     9
100
AcDbLine
 10
-521.899999400005
 20
-625.0
 30
0.0
 11
-521.899999400005
 21
-622.4999999999999
 31
0.0
  0
LINE
  5
330
330
186
100
AcDbEntity
  8
0
  6
Continuous
 62
     7
370
     9
100
AcDbLine
 10
-523.1000005999949
 20
-625.0
 30
0.0
 11
-523.1000005999949
 21
-622.4999999999999
 31
0.0
  0
LINE
  5
331
330
186
100
AcDbEntity
  8
0
  6
Continuous
 62
     7
370
     9
100
AcDbLine
 10
-521.899999400005
 20
-402.5000000000001
 30
0.0
 11
-521.899999400005
 21
-400.0
 31
0.0
  0
LINE
  5
332
330
186
100
AcDbEntity
  8
0
  6
Continuous
 62
     7
370
     9
100
AcDbLine
 10
-521.899999400005
 20
-402.5000000000001
 30
0.0
 11
-521.899999400005
 21
-397.4999999999999
 31
0.0
  0
LINE
  5
333
330
186
100
AcDbEntity
  8
0
  6
Continuous
 62
     7
370
     9
100
AcDbLine
 10
-523.1000005999949
 20
-402.5000000000001
 30
0.0
 11
-523.1000005999949
 21
-400.0
 31
0.0
  0
LINE
  5
334
330
186
100
AcDbEntity
  8
0
  6
Continuous
 62
     7
370
     9
100
AcDbLine
 10
-523.1000005999949
 20
-402.5000000000001
 30
0.0
 11
-523.1000005999949
 21
-397.4999999999999
 31
0.0
  0
LINE
  5
335
330
186
100
AcDbEntity
  8
0
  6
Continuous
 62
     7
370
     9
100
AcDbLine
 10
-521.899999400005
 20
-400.0
 30
0.0
 11
-521.899999400005
 21
-397.4999999999999
 31
0.0
  0
LINE
  5
336
330
186
100
AcDbEntity
  8
0
  6
Continuous
 62
     7
370
     9
100
AcDbLine
 10
-523.1000005999949
 20
-400.0
 30
0.0
 11
-523.1000005999949
 21
-397.4999999999999
 31
0.0
  0
LINE
  5
337
330
186
100
AcDbEntity
  8
0
  6
Continuous
 62
     7
370
     9
100
AcDbLine
 10
-521.899999400005
 20
-652.5
 30
0.0
 11
-521.899999400005
 21
-650.0
 31
0.0
  0
LINE
  5
338
330
186
100
AcDbEntity
  8
0
  6
Continuous
 62
     7
370
     9
100
AcDbLine
 10
-521.899999400005
 20
-652.5
 30
0.0
 11
-521.899999400005
 21
-647.5
 31
0.0
  0
LINE
  5
339
330
186
100
AcDbEntity
  8
0
  6
Continuous
 62
     7
370
     9
100
AcDbLine
 10
-523.1000005999949
 20
-652.5
 30
0.0
 11
-523.1000005999949
 21
-650.0
 31
0.0
  0
LINE
  5
33A
330
186
100
AcDbEntity
  8
0
  6
Continuous
 62
     7
370
     9
100
AcDbLine
 10
-523.1000005999949
 20
-652.5
 30
0.0
 11
-523.1000005999949
 21
-647.5
 31
0.0
  0
LINE
  5
33B
330
186
100
AcDbEntity
  8
0
  6
Continuous
 62
     7
370
     9
100
AcDbLine
 10
-521.899999400005
 20
-650.0
 30
0.0
 11
-521.899999400005
 21
-647.5
 31
0.0
  0
LINE
  5
33C
330
186
100
AcDbEntity
  8
0
  6
Continuous
 62
     7
370
     9
100
AcDbLine
 10
-523.1000005999949
 20
-650.0
 30
0.0
 11
-523.1000005999949
 21
-647.5
 31
0.0
  0
LINE
  5
33D
330
186
100
AcDbEntity
  8
0
  6
Continuous
 62
     7
370
     9
100
AcDbLine
 10
-521.899999400005
 20
-377.5000000000001
 30
0.0
 11
-521.899999400005
 21
-375.0
 31
0.0
  0
LINE
  5
33E
330
186
100
AcDbEntity
  8
0
  6
Continuous
 62
     7
370
     9
100
AcDbLine
 10
-521.899999400005
 20
-377.5000000000001
 30
0.0
 11
-521.899999400005
 21
-372.5000000000001
 31
0.0
  0
LINE
  5
33F
330
186
100
AcDbEntity
  8
0
  6
Continuous
 62
     7
370
     9
100
AcDbLine
 10
-523.1000005999949
 20
-377.5000000000001
 30
0.0
 11
-523.1000005999949
 21
-375.0
 31
0.0
  0
LINE
  5
340
330
186
100
AcDbEntity
  8
0
  6
Continuous
 62
     7
370
     9
100
AcDbLine
 10
-523.1000005999949
 20
-377.5000000000001
 30
0.0
 11
-523.1000005999949
 21
-372.5000000000001
 31
0.0
  0
LINE
  5
341
330
186
100
AcDbEntity
  8
0
  6
Continuous
 62
     7
370
     9
100
AcDbLine
 10
-521.899999400005
 20
-375.0
 30
0.0
 11
-521.899999400005
 21
-372.5000000000001
 31
0.0
  0
LINE
  5
342
330
186
100
AcDbEntity
  8
0
  6
Continuous
 62
     7
370
     9
100
AcDbLine
 10
-523.1000005999949
 20
-375.0
 30
0.0
 11
-523.1000005999949
 21
-372.5000000000001
 31
0.0
  0
LINE
  5
343
330
186
100
AcDbEntity
  8
0
  6
Continuous
 62
     7
370
     9
100
AcDbLine
 10
-521.899999400005
 20
-402.5000000000001
 30
0.0
 11
-521.899999400005
 21
-400.0
 31
0.0
  0
LINE
  5
344
330
186
100
AcDbEntity
  8
0
  6
Continuous
 62
     7
370
     9
100
AcDbLine
 10
-521.899999400005
 20
-402.5000000000001
 30
0.0
 11
-521.899999400005
 21
-397.5000000000001
 31
0.0
  0
LINE
  5
345
330
186
100
AcDbEntity
  8
0
  6
Continuous
 62
     7
370
     9
100
AcDbLine
 10
-523.1000005999949
 20
-402.5000000000001
 30
0.0
 11
-523.1000005999949
 21
-400.0
 31
0.0
  0
LINE
  5
346
330
186
100
AcDbEntity
  8
0
  6
Continuous
 62
     7
370
     9
100
AcDbLine
 10
-523.1000005999949
 20
-402.5000000000001
 30
0.0
 11
-523.1000005999949
 21
-397.5000000000001
 31
0.0
  0
LINE
  5
347
330
186
100
AcDbEntity
  8
0
  6
Continuous
 62
     7
370
     9
100
AcDbLine
 10
-521.899999400005
 20
-400.0
 30
0.0
 11
-521.899999400005
 21
-397.5000000000001
 31
0.0
  0
LINE
  5
348
330
186
100
AcDbEntity
  8
0
  6
Continuous
 62
     7
370
     9
100
AcDbLine
 10
-523.1000005999949
 20
-400.0
 30
0.0
 11
-523.1000005999949
 21
-397.5000000000001
 31
0.0
  0
LINE
  5
349
330
186
100
AcDbEntity
  8
0
  6
Continuous
 62
     7
370
     9
100
AcDbLine
 10
-521.899999400005
 20
-627.4999999999999
 30
0.0
 11
-521.899999400005
 21
-625.0
 31
0.0
  0
LINE
  5
34A
330
186
100
AcDbEntity
  8
0
  6
Continuous
 62
     7
370
     9
100
AcDbLine
 10
-521.899999400005
 20
-627.4999999999999
 30
0.0
 11
-521.899999400005
 21
-622.4999999999999
 31
0.0
  0
LINE
  5
34B
330
186
100
AcDbEntity
  8
0
  6
Continuous
 62
     7
370
     9
100
AcDbLine
 10
-523.1000005999949
 20
-627.4999999999999
 30
0.0
 11
-523.1000005999949
 21
-625.0
 31
0.0
  0
LINE
  5
34C
330
186
100
AcDbEntity
  8
0
  6
Continuous
 62
     7
370
     9
100
AcDbLine
 10
-523.1000005999949
 20
-627.4999999999999
 30
0.0
 11
-523.1000005999949
 21
-622.4999999999999
 31
0.0
  0
LINE
  5
34D
330
186
100
AcDbEntity
  8
0
  6
Continuous
 62
     7
370
     9
100
AcDbLine
 10
-521.899999400005
 20
-625.0
 30
0.0
 11
-521.899999400005
 21
-622.4999999999999
 31
0.0
  0
LINE
  5
34E
330
186
100
AcDbEntity
  8
0
  6
Continuous
 62
     7
370
     9
100
AcDbLine
 10
-523.1000005999949
 20
-625.0
 30
0.0
 11
-523.1000005999949
 21
-622.4999999999999
 31
0.0
  0
LINE
  5
34F
330
186
100
AcDbEntity
  8
0
  6
Continuous
 62
     7
370
     9
100
AcDbLine
 10
-521.899999400005
 20
-377.5000000000001
 30
0.0
 11
-521.899999400005
 21
-375.0
 31
0.0
  0
LINE
  5
350
330
186
100
AcDbEntity
  8
0
  6
Continuous
 62
     7
370
     9
100
AcDbLine
 10
-521.899999400005
 20
-377.5000000000001
 30
0.0
 11
-521.899999400005
 21
-372.5000000000001
 31
0.0
  0
LINE
  5
351
330
186
100
AcDbEntity
  8
0
  6
Continuous
 62
     7
370
     9
100
AcDbLine
 10
-523.1000005999949
 20
-377.5000000000001
 30
0.0
 11
-523.1000005999949
 21
-375.0
 31
0.0
  0
LINE
  5
352
330
186
100
AcDbEntity
  8
0
  6
Continuous
 62
     7
370
     9
100
AcDbLine
 10
-523.1000005999949
 20
-377.5000000000001
 30
0.0
 11
-523.1000005999949
 21
-372.5000000000001
 31
0.0
  0
LINE
  5
353
330
186
100
AcDbEntity
  8
0
  6
Continuous
 62
     7
370
     9
100
AcDbLine
 10
-521.899999400005
 20
-375.0
 30
0.0
 11
-521.899999400005
 21
-372.5000000000001
 31
0.0
  0
LINE
  5
354
330
186
100
AcDbEntity
  8
0
  6
Continuous
 62
     7
370
     9
100
AcDbLine
 10
-523.1000005999949
 20
-375.0
 30
0.0
 11
-523.1000005999949
 21
-372.5000000000001
 31
0.0
  0
LINE
  5
355
330
186
100
AcDbEntity
  8
0
  6
Continuous
 62
     7
370
     9
100
AcDbLine
 10
-521.899999400005
 20
-652.5
 30
0.0
 11
-521.899999400005
 21
-650.0
 31
0.0
  0
LINE
  5
356
330
186
100
AcDbEntity
  8
0
  6
Continuous
 62
     7
370
     9
100
AcDbLine
 10
-521.899999400005
 20
-652.5
 30
0.0
 11
-521.899999400005
 21
-647.5
 31
0.0
  0
LINE
  5
357
330
186
100
AcDbEntity
  8
0
  6
Continuous
 62
     7
370
     9
100
AcDbLine
 10
-523.1000005999949
 20
-652.5
 30
0.0
 11
-523.1000005999949
 21
-650.0
 31
0.0
  0
LINE
  5
358
330
186
100
AcDbEntity
  8
0
  6
Continuous
 62
     7
370
     9
100
AcDbLine
 10
-523.1000005999949
 20
-652.5
 30
0.0
 11
-523.1000005999949
 21
-647.5
 31
0.0
  0
LINE
  5
359
330
186
100
AcDbEntity
  8
0
  6
Continuous
 62
     7
370
     9
100
AcDbLine
 10
-521.899999400005
 20
-650.0
 30
0.0
 11
-521.899999400005
 21
-647.5
 31
0.0
  0
LINE
  5
35A
330
186
100
AcDbEntity
  8
0
  6
Continuous
 62
     7
370
     9
100
AcDbLine
 10
-523.1000005999949
 20
-650.0
 30
0.0
 11
-523.1000005999949
 21
-647.5
 31
0.0
  0
LINE
  5
35B
330
186
100
AcDbEntity
  8
0
  6
Continuous
 62
     7
370
     9
100
AcDbLine
 10
-521.899999400005
 20
-402.5000000000001
 30
0.0
 11
-521.899999400005
 21
-400.0
 31
0.0
  0
LINE
  5
35C
330
186
100
AcDbEntity
  8
0
  6
Continuous
 62
     7
370
     9
100
AcDbLine
 10
-521.899999400005
 20
-402.5000000000001
 30
0.0
 11
-521.899999400005
 21
-397.5000000000001
 31
0.0
  0
LINE
  5
35D
330
186
100
AcDbEntity
  8
0
  6
Continuous
 62
     7
370
     9
100
AcDbLine
 10
-523.1000005999949
 20
-402.5000000000001
 30
0.0
 11
-523.1000005999949
 21
-400.0
 31
0.0
  0
LINE
  5
35E
330
186
100
AcDbEntity
  8
0
  6
Continuous
 62
     7
370
     9
100
AcDbLine
 10
-523.1000005999949
 20
-402.5000000000001
 30
0.0
 11
-523.1000005999949
 21
-397.5000000000001
 31
0.0
  0
LINE
  5
35F
330
186
100
AcDbEntity
  8
0
  6
Continuous
 62
     7
370
     9
100
AcDbLine
 10
-521.899999400005
 20
-400.0
 30
0.0
 11
-521.899999400005
 21
-397.5000000000001
 31
0.0
  0
LINE
  5
360
330
186
100
AcDbEntity
  8
0
  6
Continuous
 62
     7
370
     9
100
AcDbLine
 10
-523.1000005999949
 20
-400.0
 30
0.0
 11
-523.1000005999949
 21
-397.5000000000001
 31
0.0
  0
LINE
  5
361
330
186
100
AcDbEntity
  8
0
  6
Continuous
 62
     7
370
     9
100
AcDbLine
 10
-521.899999400005
 20
-627.4999999999999
 30
0.0
 11
-521.899999400005
 21
-625.0
 31
0.0
  0
LINE
  5
362
330
186
100
AcDbEntity
  8
0
  6
Continuous
 62
     7
370
     9
100
AcDbLine
 10
-521.899999400005
 20
-627.4999999999999
 30
0.0
 11
-521.899999400005
 21
-622.4999999999999
 31
0.0
  0
LINE
  5
363
330
186
100
AcDbEntity
  8
0
  6
Continuous
 62
     7
370
     9
100
AcDbLine
 10
-523.1000005999949
 20
-627.4999999999999
 30
0.0
 11
-523.1000005999949
 21
-625.0
 31
0.0
  0
LINE
  5
364
330
186
100
AcDbEntity
  8
0
  6
Continuous
 62
     7
370
     9
100
AcDbLine
 10
-523.1000005999949
 20
-627.4999999999999
 30
0.0
 11
-523.1000005999949
 21
-622.4999999999999
 31
0.0
  0
LINE
  5
365
330
186
100
AcDbEntity
  8
0
  6
Continuous
 62
     7
370
     9
100
AcDbLine
 10
-521.899999400005
 20
-625.0
 30
0.0
 11
-521.899999400005
 21
-622.4999999999999
 31
0.0
  0
LINE
  5
366
330
186
100
AcDbEntity
  8
0
  6
Continuous
 62
     7
370
     9
100
AcDbLine
 10
-523.1000005999949
 20
-625.0
 30
0.0
 11
-523.1000005999949
 21
-622.4999999999999
 31
0.0
  0
LINE
  5
367
330
186
100
AcDbEntity
  8
0
  6
Continuous
 62
     7
370
     9
100
AcDbLine
 10
-521.899999400005
 20
-377.5000000000001
 30
0.0
 11
-521.899999400005
 21
-375.0
 31
0.0
  0
LINE
  5
368
330
186
100
AcDbEntity
  8
0
  6
Continuous
 62
     7
370
     9
100
AcDbLine
 10
-521.899999400005
 20
-377.5000000000001
 30
0.0
 11
-521.899999400005
 21
-372.5000000000001
 31
0.0
  0
LINE
  5
369
330
186
100
AcDbEntity
  8
0
  6
Continuous
 62
     7
370
     9
100
AcDbLine
 10
-523.1000005999949
 20
-377.5000000000001
 30
0.0
 11
-523.1000005999949
 21
-375.0
 31
0.0
  0
LINE
  5
36A
330
186
100
AcDbEntity
  8
0
  6
Continuous
 62
     7
370
     9
100
AcDbLine
 10
-523.1000005999949
 20
-377.5000000000001
 30
0.0
 11
-523.1000005999949
 21
-372.5000000000001
 31
0.0
  0
LINE
  5
36B
330
186
100
AcDbEntity
  8
0
  6
Continuous
 62
     7
370
     9
100
AcDbLine
 10
-521.899999400005
 20
-375.0
 30
0.0
 11
-521.899999400005
 21
-372.5000000000001
 31
0.0
  0
LINE
  5
36C
330
186
100
AcDbEntity
  8
0
  6
Continuous
 62
     7
370
     9
100
AcDbLine
 10
-523.1000005999949
 20
-375.0
 30
0.0
 11
-523.1000005999949
 21
-372.5000000000001
 31
0.0
  0
LINE
  5
36D
330
186
100
AcDbEntity
  8
0
  6
Continuous
 62
     7
370
     9
100
AcDbLine
 10
-521.899999400005
 20
-652.5
 30
0.0
 11
-521.899999400005
 21
-650.0
 31
0.0
  0
LINE
  5
36E
330
186
100
AcDbEntity
  8
0
  6
Continuous
 62
     7
370
     9
100
AcDbLine
 10
-521.899999400005
 20
-652.5
 30
0.0
 11
-521.899999400005
 21
-647.5
 31
0.0
  0
LINE
  5
36F
330
186
100
AcDbEntity
  8
0
  6
Continuous
 62
     7
370
     9
100
AcDbLine
 10
-523.1000005999949
 20
-652.5
 30
0.0
 11
-523.1000005999949
 21
-650.0
 31
0.0
  0
LINE
  5
370
330
186
100
AcDbEntity
  8
0
  6
Continuous
 62
     7
370
     9
100
AcDbLine
 10
-523.1000005999949
 20
-652.5
 30
0.0
 11
-523.1000005999949
 21
-647.5
 31
0.0
  0
LINE
  5
371
330
186
100
AcDbEntity
  8
0
  6
Continuous
 62
     7
370
     9
100
AcDbLine
 10
-521.899999400005
 20
-650.0
 30
0.0
 11
-521.899999400005
 21
-647.5
 31
0.0
  0
LINE
  5
372
330
186
100
AcDbEntity
  8
0
  6
Continuous
 62
     7
370
     9
100
AcDbLine
 10
-523.1000005999949
 20
-650.0
 30
0.0
 11
-523.1000005999949
 21
-647.5
 31
0.0
  0
LINE
  5
373
330
186
100
AcDbEntity
  8
0
  6
Continuous
 62
     7
370
     9
100
AcDbLine
 10
-521.899999400005
 20
-627.4999999999999
 30
0.0
 11
-521.899999400005
 21
-625.0
 31
0.0
  0
LINE
  5
374
330
186
100
AcDbEntity
  8
0
  6
Continuous
 62
     7
370
     9
100
AcDbLine
 10
-521.899999400005
 20
-627.4999999999999
 30
0.0
 11
-521.899999400005
 21
-622.4999999999999
 31
0.0
  0
LINE
  5
375
330
186
100
AcDbEntity
  8
0
  6
Continuous
 62
     7
370
     9
100
AcDbLine
 10
-523.1000005999949
 20
-627.4999999999999
 30
0.0
 11
-523.1000005999949
 21
-625.0
 31
0.0
  0
LINE
  5
376
330
186
100
AcDbEntity
  8
0
  6
Continuous
 62
     7
370
     9
100
AcDbLine
 10
-523.1000005999949
 20
-627.4999999999999
 30
0.0
 11
-523.1000005999949
 21
-622.4999999999999
 31
0.0
  0
LINE
  5
377
330
186
100
AcDbEntity
  8
0
  6
Continuous
 62
     7
370
     9
100
AcDbLine
 10
-521.899999400005
 20
-625.0
 30
0.0
 11
-521.899999400005
 21
-622.4999999999999
 31
0.0
  0
LINE
  5
378
330
186
100
AcDbEntity
  8
0
  6
Continuous
 62
     7
370
     9
100
AcDbLine
 10
-523.1000005999949
 20
-625.0
 30
0.0
 11
-523.1000005999949
 21
-622.4999999999999
 31
0.0
  0
LINE
  5
379
330
186
100
AcDbEntity
  8
0
  6
Continuous
 62
     7
370
     9
100
AcDbLine
 10
-521.899999400005
 20
-377.5000000000001
 30
0.0
 11
-521.899999400005
 21
-375.0
 31
0.0
  0
LINE
  5
37A
330
186
100
AcDbEntity
  8
0
  6
Continuous
 62
     7
370
     9
100
AcDbLine
 10
-521.899999400005
 20
-377.5000000000001
 30
0.0
 11
-521.899999400005
 21
-372.5000000000001
 31
0.0
  0
LINE
  5
37B
330
186
100
AcDbEntity
  8
0
  6
Continuous
 62
     7
370
     9
100
AcDbLine
 10
-523.1000005999949
 20
-377.5000000000001
 30
0.0
 11
-523.1000005999949
 21
-375.0
 31
0.0
  0
LINE
  5
37C
330
186
100
AcDbEntity
  8
0
  6
Continuous
 62
     7
370
     9
100
AcDbLine
 10
-523.1000005999949
 20
-377.5000000000001
 30
0.0
 11
-523.1000005999949
 21
-372.5000000000001
 31
0.0
  0
LINE
  5
37D
330
186
100
AcDbEntity
  8
0
  6
Continuous
 62
     7
370
     9
100
AcDbLine
 10
-521.899999400005
 20
-375.0
 30
0.0
 11
-521.899999400005
 21
-372.5000000000001
 31
0.0
  0
LINE
  5
37E
330
186
100
AcDbEntity
  8
0
  6
Continuous
 62
     7
370
     9
100
AcDbLine
 10
-523.1000005999949
 20
-375.0
 30
0.0
 11
-523.1000005999949
 21
-372.5000000000001
 31
0.0
  0
LINE
  5
37F
330
186
100
AcDbEntity
  8
0
  6
Continuous
 62
     7
370
     9
100
AcDbLine
 10
-521.899999400005
 20
-652.5
 30
0.0
 11
-521.899999400005
 21
-650.0
 31
0.0
  0
LINE
  5
380
330
186
100
AcDbEntity
  8
0
  6
Continuous
 62
     7
370
     9
100
AcDbLine
 10
-521.899999400005
 20
-652.5
 30
0.0
 11
-521.899999400005
 21
-647.5
 31
0.0
  0
LINE
  5
381
330
186
100
AcDbEntity
  8
0
  6
Continuous
 62
     7
370
     9
100
AcDbLine
 10
-523.1000005999949
 20
-652.5
 30
0.0
 11
-523.1000005999949
 21
-650.0
 31
0.0
  0
LINE
  5
382
330
186
100
AcDbEntity
  8
0
  6
Continuous
 62
     7
370
     9
100
AcDbLine
 10
-523.1000005999949
 20
-652.5
 30
0.0
 11
-523.1000005999949
 21
-647.5
 31
0.0
  0
LINE
  5
383
330
186
100
AcDbEntity
  8
0
  6
Continuous
 62
     7
370
     9
100
AcDbLine
 10
-521.899999400005
 20
-650.0
 30
0.0
 11
-521.899999400005
 21
-647.5
 31
0.0
  0
LINE
  5
384
330
186
100
AcDbEntity
  8
0
  6
Continuous
 62
     7
370
     9
100
AcDbLine
 10
-523.1000005999949
 20
-650.0
 30
0.0
 11
-523.1000005999949
 21
-647.5
 31
0.0
  0
LINE
  5
385
330
186
100
AcDbEntity
  8
0
  6
Continuous
 62
     7
370
     9
100
AcDbLine
 10
-521.899999400005
 20
-402.5000000000001
 30
0.0
 11
-521.899999400005
 21
-400.0
 31
0.0
  0
LINE
  5
386
330
186
100
AcDbEntity
  8
0
  6
Continuous
 62
     7
370
     9
100
AcDbLine
 10
-521.899999400005
 20
-402.5000000000001
 30
0.0
 11
-521.899999400005
 21
-397.5000000000001
 31
0.0
  0
LINE
  5
387
330
186
100
AcDbEntity
  8
0
  6
Continuous
 62
     7
370
     9
100
AcDbLine
 10
-523.1000005999949
 20
-402.5000000000001
 30
0.0
 11
-523.1000005999949
 21
-400.0
 31
0.0
  0
LINE
  5
388
330
186
100
AcDbEntity
  8
0
  6
Continuous
 62
     7
370
     9
100
AcDbLine
 10
-523.1000005999949
 20
-402.5000000000001
 30
0.0
 11
-523.1000005999949
 21
-397.5000000000001
 31
0.0
  0
LINE
  5
389
330
186
100
AcDbEntity
  8
0
  6
Continuous
 62
     7
370
     9
100
AcDbLine
 10
-521.899999400005
 20
-400.0
 30
0.0
 11
-521.899999400005
 21
-397.5000000000001
 31
0.0
  0
LINE
  5
38A
330
186
100
AcDbEntity
  8
0
  6
Continuous
 62
     7
370
     9
100
AcDbLine
 10
-523.1000005999949
 20
-400.0
 30
0.0
 11
-523.1000005999949
 21
-397.5000000000001
 31
0.0
  0
LINE
  5
38B
330
186
100
AcDbEntity
  8
0
  6
Continuous
 62
     7
370
     9
100
AcDbLine
 10
-521.899999400005
 20
-402.5000000000001
 30
0.0
 11
-521.899999400005
 21
-400.0
 31
0.0
  0
LINE
  5
38C
330
186
100
AcDbEntity
  8
0
  6
Continuous
 62
     7
370
     9
100
AcDbLine
 10
-521.899999400005
 20
-402.5000000000001
 30
0.0
 11
-521.899999400005
 21
-397.5000000000001
 31
0.0
  0
LINE
  5
38D
330
186
100
AcDbEntity
  8
0
  6
Continuous
 62
     7
370
     9
100
AcDbLine
 10
-523.1000005999949
 20
-402.5000000000001
 30
0.0
 11
-523.1000005999949
 21
-400.0
 31
0.0
  0
LINE
  5
38E
330
186
100
AcDbEntity
  8
0
  6
Continuous
 62
     7
370
     9
100
AcDbLine
 10
-523.1000005999949
 20
-402.5000000000001
 30
0.0
 11
-523.1000005999949
 21
-397.5000000000001
 31
0.0
  0
LINE
  5
38F
330
186
100
AcDbEntity
  8
0
  6
Continuous
 62
     7
370
     9
100
AcDbLine
 10
-521.899999400005
 20
-400.0
 30
0.0
 11
-521.899999400005
 21
-397.5000000000001
 31
0.0
  0
LINE
  5
390
330
186
100
AcDbEntity
  8
0
  6
Continuous
 62
     7
370
     9
100
AcDbLine
 10
-523.1000005999949
 20
-400.0
 30
0.0
 11
-523.1000005999949
 21
-397.5000000000001
 31
0.0
  0
LINE
  5
391
330
186
100
AcDbEntity
  8
0
  6
Continuous
 62
     7
370
     9
100
AcDbLine
 10
-521.899999400005
 20
-377.5000000000001
 30
0.0
 11
-521.899999400005
 21
-375.0
 31
0.0
  0
LINE
  5
392
330
186
100
AcDbEntity
  8
0
  6
Continuous
 62
     7
370
     9
100
AcDbLine
 10
-521.899999400005
 20
-377.5000000000001
 30
0.0
 11
-521.899999400005
 21
-372.5000000000001
 31
0.0
  0
LINE
  5
393
330
186
100
AcDbEntity
  8
0
  6
Continuous
 62
     7
370
     9
100
AcDbLine
 10
-523.1000005999949
 20
-377.5000000000001
 30
0.0
 11
-523.1000005999949
 21
-375.0
 31
0.0
  0
LINE
  5
394
330
186
100
AcDbEntity
  8
0
  6
Continuous
 62
     7
370
     9
100
AcDbLine
 10
-523.1000005999949
 20
-377.5000000000001
 30
0.0
 11
-523.1000005999949
 21
-372.5000000000001
 31
0.0
  0
LINE
  5
395
330
186
100
AcDbEntity
  8
0
  6
Continuous
 62
     7
370
     9
100
AcDbLine
 10
-521.899999400005
 20
-375.0
 30
0.0
 11
-521.899999400005
 21
-372.5000000000001
 31
0.0
  0
LINE
  5
396
330
186
100
AcDbEntity
  8
0
  6
Continuous
 62
     7
370
     9
100
AcDbLine
 10
-523.1000005999949
 20
-375.0
 30
0.0
 11
-523.1000005999949
 21
-372.5000000000001
 31
0.0
  0
LINE
  5
397
330
186
100
AcDbEntity
  8
0
  6
Continuous
 62
     7
370
     9
100
AcDbLine
 10
-521.899999400005
 20
-652.5
 30
0.0
 11
-521.899999400005
 21
-650.0
 31
0.0
  0
LINE
  5
398
330
186
100
AcDbEntity
  8
0
  6
Continuous
 62
     7
370
     9
100
AcDbLine
 10
-521.899999400005
 20
-652.5
 30
0.0
 11
-521.899999400005
 21
-647.5
 31
0.0
  0
LINE
  5
399
330
186
100
AcDbEntity
  8
0
  6
Continuous
 62
     7
370
     9
100
AcDbLine
 10
-523.1000005999949
 20
-652.5
 30
0.0
 11
-523.1000005999949
 21
-650.0
 31
0.0
  0
LINE
  5
39A
330
186
100
AcDbEntity
  8
0
  6
Continuous
 62
     7
370
     9
100
AcDbLine
 10
-523.1000005999949
 20
-652.5
 30
0.0
 11
-523.1000005999949
 21
-647.5
 31
0.0
  0
LINE
  5
39B
330
186
100
AcDbEntity
  8
0
  6
Continuous
 62
     7
370
     9
100
AcDbLine
 10
-521.899999400005
 20
-650.0
 30
0.0
 11
-521.899999400005
 21
-647.5
 31
0.0
  0
LINE
  5
39C
330
186
100
AcDbEntity
  8
0
  6
Continuous
 62
     7
370
     9
100
AcDbLine
 10
-523.1000005999949
 20
-650.0
 30
0.0
 11
-523.1000005999949
 21
-647.5
 31
0.0
  0
LINE
  5
39D
330
186
100
AcDbEntity
  8
0
  6
Continuous
 62
     7
370
     9
100
AcDbLine
 10
-521.899999400005
 20
-627.4999999999999
 30
0.0
 11
-521.899999400005
 21
-625.0
 31
0.0
  0
LINE
  5
39E
330
186
100
AcDbEntity
  8
0
  6
Continuous
 62
     7
370
     9
100
AcDbLine
 10
-521.899999400005
 20
-627.4999999999999
 30
0.0
 11
-521.899999400005
 21
-622.4999999999999
 31
0.0
  0
LINE
  5
39F
330
186
100
AcDbEntity
  8
0
  6
Continuous
 62
     7
370
     9
100
AcDbLine
 10
-523.1000005999949
 20
-627.4999999999999
 30
0.0
 11
-523.1000005999949
 21
-625.0
 31
0.0
  0
LINE
  5
3A0
330
186
100
AcDbEntity
  8
0
  6
Continuous
 62
     7
370
     9
100
AcDbLine
 10
-523.1000005999949
 20
-627.4999999999999
 30
0.0
 11
-523.1000005999949
 21
-622.4999999999999
 31
0.0
  0
LINE
  5
3A1
330
186
100
AcDbEntity
  8
0
  6
Continuous
 62
     7
370
     9
100
AcDbLine
 10
-521.899999400005
 20
-625.0
 30
0.0
 11
-521.899999400005
 21
-622.4999999999999
 31
0.0
  0
LINE
  5
3A2
330
186
100
AcDbEntity
  8
0
  6
Continuous
 62
     7
370
     9
100
AcDbLine
 10
-523.1000005999949
 20
-625.0
 30
0.0
 11
-523.1000005999949
 21
-622.4999999999999
 31
0.0
  0
LINE
  5
3A3
330
186
100
AcDbEntity
  8
0
  6
Continuous
 62
     7
370
     9
100
AcDbLine
 10
-521.899999400005
 20
-402.5000000000001
 30
0.0
 11
-521.899999400005
 21
-400.0
 31
0.0
  0
LINE
  5
3A4
330
186
100
AcDbEntity
  8
0
  6
Continuous
 62
     7
370
     9
100
AcDbLine
 10
-521.899999400005
 20
-402.5000000000001
 30
0.0
 11
-521.899999400005
 21
-397.5000000000001
 31
0.0
  0
LINE
  5
3A5
330
186
100
AcDbEntity
  8
0
  6
Continuous
 62
     7
370
     9
100
AcDbLine
 10
-523.1000005999949
 20
-402.5000000000001
 30
0.0
 11
-523.1000005999949
 21
-400.0
 31
0.0
  0
LINE
  5
3A6
330
186
100
AcDbEntity
  8
0
  6
Continuous
 62
     7
370
     9
100
AcDbLine
 10
-523.1000005999949
 20
-402.5000000000001
 30
0.0
 11
-523.1000005999949
 21
-397.5000000000001
 31
0.0
  0
LINE
  5
3A7
330
186
100
AcDbEntity
  8
0
  6
Continuous
 62
     7
370
     9
100
AcDbLine
 10
-521.899999400005
 20
-400.0
 30
0.0
 11
-521.899999400005
 21
-397.5000000000001
 31
0.0
  0
LINE
  5
3A8
330
186
100
AcDbEntity
  8
0
  6
Continuous
 62
     7
370
     9
100
AcDbLine
 10
-523.1000005999949
 20
-400.0
 30
0.0
 11
-523.1000005999949
 21
-397.5000000000001
 31
0.0
  0
LINE
  5
3A9
330
186
100
AcDbEntity
  8
0
  6
Continuous
 62
     7
370
     9
100
AcDbLine
 10
-521.899999400005
 20
-627.4999999999999
 30
0.0
 11
-521.899999400005
 21
-625.0
 31
0.0
  0
LINE
  5
3AA
330
186
100
AcDbEntity
  8
0
  6
Continuous
 62
     7
370
     9
100
AcDbLine
 10
-521.899999400005
 20
-627.4999999999999
 30
0.0
 11
-521.899999400005
 21
-622.4999999999999
 31
0.0
  0
LINE
  5
3AB
330
186
100
AcDbEntity
  8
0
  6
Continuous
 62
     7
370
     9
100
AcDbLine
 10
-523.1000005999949
 20
-627.4999999999999
 30
0.0
 11
-523.1000005999949
 21
-625.0
 31
0.0
  0
LINE
  5
3AC
330
186
100
AcDbEntity
  8
0
  6
Continuous
 62
     7
370
     9
100
AcDbLine
 10
-523.1000005999949
 20
-627.4999999999999
 30
0.0
 11
-523.1000005999949
 21
-622.4999999999999
 31
0.0
  0
LINE
  5
3AD
330
186
100
AcDbEntity
  8
0
  6
Continuous
 62
     7
370
     9
100
AcDbLine
 10
-521.899999400005
 20
-625.0
 30
0.0
 11
-521.899999400005
 21
-622.4999999999999
 31
0.0
  0
LINE
  5
3AE
330
186
100
AcDbEntity
  8
0
  6
Continuous
 62
     7
370
     9
100
AcDbLine
 10
-523.1000005999949
 20
-625.0
 30
0.0
 11
-523.1000005999949
 21
-622.4999999999999
 31
0.0
  0
LINE
  5
3AF
330
186
100
AcDbEntity
  8
0
  6
Continuous
 62
     7
370
     9
100
AcDbLine
 10
-521.899999400005
 20
-377.5000000000001
 30
0.0
 11
-521.899999400005
 21
-375.0
 31
0.0
  0
LINE
  5
3B0
330
186
100
AcDbEntity
  8
0
  6
Continuous
 62
     7
370
     9
100
AcDbLine
 10
-521.899999400005
 20
-377.5000000000001
 30
0.0
 11
-521.899999400005
 21
-372.5000000000001
 31
0.0
  0
LINE
  5
3B1
330
186
100
AcDbEntity
  8
0
  6
Continuous
 62
     7
370
     9
100
AcDbLine
 10
-523.1000005999949
 20
-377.5000000000001
 30
0.0
 11
-523.1000005999949
 21
-375.0
 31
0.0
  0
LINE
  5
3B2
330
186
100
AcDbEntity
  8
0
  6
Continuous
 62
     7
370
     9
100
AcDbLine
 10
-523.1000005999949
 20
-377.5000000000001
 30
0.0
 11
-523.1000005999949
 21
-372.5000000000001
 31
0.0
  0
LINE
  5
3B3
330
186
100
AcDbEntity
  8
0
  6
Continuous
 62
     7
370
     9
100
AcDbLine
 10
-521.899999400005
 20
-375.0
 30
0.0
 11
-521.899999400005
 21
-372.5000000000001
 31
0.0
  0
LINE
  5
3B4
330
186
100
AcDbEntity
  8
0
  6
Continuous
 62
     7
370
     9
100
AcDbLine
 10
-523.1000005999949
 20
-375.0
 30
0.0
 11
-523.1000005999949
 21
-372.5000000000001
 31
0.0
  0
LINE
  5
3B5
330
186
100
AcDbEntity
  8
0
  6
Continuous
 62
     7
370
     9
100
AcDbLine
 10
-521.899999400005
 20
-652.5
 30
0.0
 11
-521.899999400005
 21
-650.0
 31
0.0
  0
LINE
  5
3B6
330
186
100
AcDbEntity
  8
0
  6
Continuous
 62
     7
370
     9
100
AcDbLine
 10
-521.899999400005
 20
-652.5
 30
0.0
 11
-521.899999400005
 21
-647.5
 31
0.0
  0
LINE
  5
3B7
330
186
100
AcDbEntity
  8
0
  6
Continuous
 62
     7
370
     9
100
AcDbLine
 10
-523.1000005999949
 20
-652.5
 30
0.0
 11
-523.1000005999949
 21
-650.0
 31
0.0
  0
LINE
  5
3B8
330
186
100
AcDbEntity
  8
0
  6
Continuous
 62
     7
370
     9
100
AcDbLine
 10
-523.1000005999949
 20
-652.5
 30
0.0
 11
-523.1000005999949
 21
-647.5
 31
0.0
  0
LINE
  5
3B9
330
186
100
AcDbEntity
  8
0
  6
Continuous
 62
     7
370
     9
100
AcDbLine
 10
-521.899999400005
 20
-650.0
 30
0.0
 11
-521.899999400005
 21
-647.5
 31
0.0
  0
LINE
  5
3BA
330
186
100
AcDbEntity
  8
0
  6
Continuous
 62
     7
370
     9
100
AcDbLine
 10
-523.1000005999949
 20
-650.0
 30
0.0
 11
-523.1000005999949
 21
-647.5
 31
0.0
  0
LINE
  5
3BB
330
186
100
AcDbEntity
  8
0
  6
Continuous
 62
     7
370
     9
100
AcDbLine
 10
-521.899999400005
 20
-402.5000000000001
 30
0.0
 11
-521.899999400005
 21
-400.0
 31
0.0
  0
LINE
  5
3BC
330
186
100
AcDbEntity
  8
0
  6
Continuous
 62
     7
370
     9
100
AcDbLine
 10
-521.899999400005
 20
-402.5000000000001
 30
0.0
 11
-521.899999400005
 21
-397.5000000000001
 31
0.0
  0
LINE
  5
3BD
330
186
100
AcDbEntity
  8
0
  6
Continuous
 62
     7
370
     9
100
AcDbLine
 10
-523.1000005999949
 20
-402.5000000000001
 30
0.0
 11
-523.1000005999949
 21
-400.0
 31
0.0
  0
LINE
  5
3BE
330
186
100
AcDbEntity
  8
0
  6
Continuous
 62
     7
370
     9
100
AcDbLine
 10
-523.1000005999949
 20
-402.5000000000001
 30
0.0
 11
-523.1000005999949
 21
-397.5000000000001
 31
0.0
  0
LINE
  5
3BF
330
186
100
AcDbEntity
  8
0
  6
Continuous
 62
     7
370
     9
100
AcDbLine
 10
-521.899999400005
 20
-400.0
 30
0.0
 11
-521.899999400005
 21
-397.5000000000001
 31
0.0
  0
LINE
  5
3C0
330
186
100
AcDbEntity
  8
0
  6
Continuous
 62
     7
370
     9
100
AcDbLine
 10
-523.1000005999949
 20
-400.0
 30
0.0
 11
-523.1000005999949
 21
-397.5000000000001
 31
0.0
  0
LINE
  5
3C1
330
186
100
AcDbEntity
  8
0
  6
Continuous
 62
     7
370
     9
100
AcDbLine
 10
-521.899999400005
 20
-627.4999999999999
 30
0.0
 11
-521.899999400005
 21
-625.0
 31
0.0
  0
LINE
  5
3C2
330
186
100
AcDbEntity
  8
0
  6
Continuous
 62
     7
370
     9
100
AcDbLine
 10
-521.899999400005
 20
-627.4999999999999
 30
0.0
 11
-521.899999400005
 21
-622.4999999999999
 31
0.0
  0
LINE
  5
3C3
330
186
100
AcDbEntity
  8
0
  6
Continuous
 62
     7
370
     9
100
AcDbLine
 10
-523.1000005999949
 20
-627.4999999999999
 30
0.0
 11
-523.1000005999949
 21
-625.0
 31
0.0
  0
LINE
  5
3C4
330
186
100
AcDbEntity
  8
0
  6
Continuous
 62
     7
370
     9
100
AcDbLine
 10
-523.1000005999949
 20
-627.4999999999999
 30
0.0
 11
-523.1000005999949
 21
-622.4999999999999
 31
0.0
  0
LINE
  5
3C5
330
186
100
AcDbEntity
  8
0
  6
Continuous
 62
     7
370
     9
100
AcDbLine
 10
-521.899999400005
 20
-625.0
 30
0.0
 11
-521.899999400005
 21
-622.4999999999999
 31
0.0
  0
LINE
  5
3C6
330
186
100
AcDbEntity
  8
0
  6
Continuous
 62
     7
370
     9
100
AcDbLine
 10
-523.1000005999949
 20
-625.0
 30
0.0
 11
-523.1000005999949
 21
-622.4999999999999
 31
0.0
  0
LINE
  5
3C7
330
186
100
AcDbEntity
  8
0
  6
Continuous
 62
     7
370
     9
100
AcDbLine
 10
-521.899999400005
 20
-652.5
 30
0.0
 11
-521.899999400005
 21
-650.0
 31
0.0
  0
LINE
  5
3C8
330
186
100
AcDbEntity
  8
0
  6
Continuous
 62
     7
370
     9
100
AcDbLine
 10
-521.899999400005
 20
-652.5
 30
0.0
 11
-521.899999400005
 21
-647.5
 31
0.0
  0
LINE
  5
3C9
330
186
100
AcDbEntity
  8
0
  6
Continuous
 62
     7
370
     9
100
AcDbLine
 10
-523.1000005999949
 20
-652.5
 30
0.0
 11
-523.1000005999949
 21
-650.0
 31
0.0
  0
LINE
  5
3CA
330
186
100
AcDbEntity
  8
0
  6
Continuous
 62
     7
370
     9
100
AcDbLine
 10
-523.1000005999949
 20
-652.5
 30
0.0
 11
-523.1000005999949
 21
-647.5
 31
0.0
  0
LINE
  5
3CB
330
186
100
AcDbEntity
  8
0
  6
Continuous
 62
     7
370
     9
100
AcDbLine
 10
-521.899999400005
 20
-650.0
 30
0.0
 11
-521.899999400005
 21
-647.5
 31
0.0
  0
LINE
  5
3CC
330
186
100
AcDbEntity
  8
0
  6
Continuous
 62
     7
370
     9
100
AcDbLine
 10
-523.1000005999949
 20
-650.0
 30
0.0
 11
-523.1000005999949
 21
-647.5
 31
0.0
  0
LINE
  5
3CD
330
186
100
AcDbEntity
  8
0
  6
Continuous
 62
     7
370
     9
100
AcDbLine
 10
-521.899999400005
 20
-377.5000000000001
 30
0.0
 11
-521.899999400005
 21
-375.0
 31
0.0
  0
LINE
  5
3CE
330
186
100
AcDbEntity
  8
0
  6
Continuous
 62
     7
370
     9
100
AcDbLine
 10
-521.899999400005
 20
-377.5000000000001
 30
0.0
 11
-521.899999400005
 21
-372.5000000000001
 31
0.0
  0
LINE
  5
3CF
330
186
100
AcDbEntity
  8
0
  6
Continuous
 62
     7
370
     9
100
AcDbLine
 10
-523.1000005999949
 20
-377.5000000000001
 30
0.0
 11
-523.1000005999949
 21
-375.0
 31
0.0
  0
LINE
  5
3D0
330
186
100
AcDbEntity
  8
0
  6
Continuous
 62
     7
370
     9
100
AcDbLine
 10
-523.1000005999949
 20
-377.5000000000001
 30
0.0
 11
-523.1000005999949
 21
-372.5000000000001
 31
0.0
  0
LINE
  5
3D1
330
186
100
AcDbEntity
  8
0
  6
Continuous
 62
     7
370
     9
100
AcDbLine
 10
-521.899999400005
 20
-375.0
 30
0.0
 11
-521.899999400005
 21
-372.5000000000001
 31
0.0
  0
LINE
  5
3D2
330
186
100
AcDbEntity
  8
0
  6
Continuous
 62
     7
370
     9
100
AcDbLine
 10
-523.1000005999949
 20
-375.0
 30
0.0
 11
-523.1000005999949
 21
-372.5000000000001
 31
0.0
  0
LINE
  5
3D3
330
186
100
AcDbEntity
  8
0
  6
Continuous
 62
     7
370
     9
100
AcDbLine
 10
-521.899999400005
 20
-402.5000000000001
 30
0.0
 11
-521.899999400005
 21
-400.0
 31
0.0
  0
LINE
  5
3D4
330
186
100
AcDbEntity
  8
0
  6
Continuous
 62
     7
370
     9
100
AcDbLine
 10
-521.899999400005
 20
-402.5000000000001
 30
0.0
 11
-521.899999400005
 21
-397.5000000000001
 31
0.0
  0
LINE
  5
3D5
330
186
100
AcDbEntity
  8
0
  6
Continuous
 62
     7
370
     9
100
AcDbLine
 10
-523.1000005999949
 20
-402.5000000000001
 30
0.0
 11
-523.1000005999949
 21
-400.0
 31
0.0
  0
LINE
  5
3D6
330
186
100
AcDbEntity
  8
0
  6
Continuous
 62
     7
370
     9
100
AcDbLine
 10
-523.1000005999949
 20
-402.5000000000001
 30
0.0
 11
-523.1000005999949
 21
-397.5000000000001
 31
0.0
  0
LINE
  5
3D7
330
186
100
AcDbEntity
  8
0
  6
Continuous
 62
     7
370
     9
100
AcDbLine
 10
-521.899999400005
 20
-400.0
 30
0.0
 11
-521.899999400005
 21
-397.5000000000001
 31
0.0
  0
LINE
  5
3D8
330
186
100
AcDbEntity
  8
0
  6
Continuous
 62
     7
370
     9
100
AcDbLine
 10
-523.1000005999949
 20
-400.0
 30
0.0
 11
-523.1000005999949
 21
-397.5000000000001
 31
0.0
  0
LINE
  5
3D9
330
186
100
AcDbEntity
  8
0
  6
Continuous
 62
     7
370
     9
100
AcDbLine
 10
-521.899999400005
 20
-627.4999999999999
 30
0.0
 11
-521.899999400005
 21
-625.0
 31
0.0
  0
LINE
  5
3DA
330
186
100
AcDbEntity
  8
0
  6
Continuous
 62
     7
370
     9
100
AcDbLine
 10
-521.899999400005
 20
-627.4999999999999
 30
0.0
 11
-521.899999400005
 21
-622.4999999999999
 31
0.0
  0
LINE
  5
3DB
330
186
100
AcDbEntity
  8
0
  6
Continuous
 62
     7
370
     9
100
AcDbLine
 10
-523.1000005999949
 20
-627.4999999999999
 30
0.0
 11
-523.1000005999949
 21
-625.0
 31
0.0
  0
LINE
  5
3DC
330
186
100
AcDbEntity
  8
0
  6
Continuous
 62
     7
370
     9
100
AcDbLine
 10
-523.1000005999949
 20
-627.4999999999999
 30
0.0
 11
-523.1000005999949
 21
-622.4999999999999
 31
0.0
  0
LINE
  5
3DD
330
186
100
AcDbEntity
  8
0
  6
Continuous
 62
     7
370
     9
100
AcDbLine
 10
-521.899999400005
 20
-625.0
 30
0.0
 11
-521.899999400005
 21
-622.4999999999999
 31
0.0
  0
LINE
  5
3DE
330
186
100
AcDbEntity
  8
0
  6
Continuous
 62
     7
370
     9
100
AcDbLine
 10
-523.1000005999949
 20
-625.0
 30
0.0
 11
-523.1000005999949
 21
-622.4999999999999
 31
0.0
  0
LINE
  5
3DF
330
186
100
AcDbEntity
  8
0
  6
Continuous
 62
     7
370
     9
100
AcDbLine
 10
-521.899999400005
 20
-652.5
 30
0.0
 11
-521.899999400005
 21
-650.0
 31
0.0
  0
LINE
  5
3E0
330
186
100
AcDbEntity
  8
0
  6
Continuous
 62
     7
370
     9
100
AcDbLine
 10
-521.899999400005
 20
-652.5
 30
0.0
 11
-521.899999400005
 21
-647.5
 31
0.0
  0
LINE
  5
3E1
330
186
100
AcDbEntity
  8
0
  6
Continuous
 62
     7
370
     9
100
AcDbLine
 10
-523.1000005999949
 20
-652.5
 30
0.0
 11
-523.1000005999949
 21
-650.0
 31
0.0
  0
LINE
  5
3E2
330
186
100
AcDbEntity
  8
0
  6
Continuous
 62
     7
370
     9
100
AcDbLine
 10
-523.1000005999949
 20
-652.5
 30
0.0
 11
-523.1000005999949
 21
-647.5
 31
0.0
  0
LINE
  5
3E3
330
186
100
AcDbEntity
  8
0
  6
Continuous
 62
     7
370
     9
100
AcDbLine
 10
-521.899999400005
 20
-650.0
 30
0.0
 11
-521.899999400005
 21
-647.5
 31
0.0
  0
LINE
  5
3E4
330
186
100
AcDbEntity
  8
0
  6
Continuous
 62
     7
370
     9
100
AcDbLine
 10
-523.1000005999949
 20
-650.0
 30
0.0
 11
-523.1000005999949
 21
-647.5
 31
0.0
  0
LINE
  5
3E5
330
186
100
AcDbEntity
  8
0
  6
Continuous
 62
     7
370
     9
100
AcDbLine
 10
-521.899999400005
 20
-377.5000000000001
 30
0.0
 11
-521.899999400005
 21
-375.0
 31
0.0
  0
LINE
  5
3E6
330
186
100
AcDbEntity
  8
0
  6
Continuous
 62
     7
370
     9
100
AcDbLine
 10
-521.899999400005
 20
-377.5000000000001
 30
0.0
 11
-521.899999400005
 21
-372.5000000000001
 31
0.0
  0
LINE
  5
3E7
330
186
100
AcDbEntity
  8
0
  6
Continuous
 62
     7
370
     9
100
AcDbLine
 10
-523.1000005999949
 20
-377.5000000000001
 30
0.0
 11
-523.1000005999949
 21
-375.0
 31
0.0
  0
LINE
  5
3E8
330
186
100
AcDbEntity
  8
0
  6
Continuous
 62
     7
370
     9
100
AcDbLine
 10
-523.1000005999949
 20
-377.5000000000001
 30
0.0
 11
-523.1000005999949
 21
-372.5000000000001
 31
0.0
  0
LINE
  5
3E9
330
186
100
AcDbEntity
  8
0
  6
Continuous
 62
     7
370
     9
100
AcDbLine
 10
-521.899999400005
 20
-375.0
 30
0.0
 11
-521.899999400005
 21
-372.5000000000001
 31
0.0
  0
LINE
  5
3EA
330
186
100
AcDbEntity
  8
0
  6
Continuous
 62
     7
370
     9
100
AcDbLine
 10
-523.1000005999949
 20
-375.0
 30
0.0
 11
-523.1000005999949
 21
-372.5000000000001
 31
0.0
  0
LINE
  5
3EB
330
186
100
AcDbEntity
  8
0
  6
Continuous
 62
     7
370
     9
100
AcDbLine
 10
-521.899999400005
 20
-627.4999999999999
 30
0.0
 11
-521.899999400005
 21
-625.0
 31
0.0
  0
LINE
  5
3EC
330
186
100
AcDbEntity
  8
0
  6
Continuous
 62
     7
370
     9
100
AcDbLine
 10
-521.899999400005
 20
-627.4999999999999
 30
0.0
 11
-521.899999400005
 21
-622.4999999999999
 31
0.0
  0
LINE
  5
3ED
330
186
100
AcDbEntity
  8
0
  6
Continuous
 62
     7
370
     9
100
AcDbLine
 10
-523.1000005999949
 20
-627.4999999999999
 30
0.0
 11
-523.1000005999949
 21
-625.0
 31
0.0
  0
LINE
  5
3EE
330
186
100
AcDbEntity
  8
0
  6
Continuous
 62
     7
370
     9
100
AcDbLine
 10
-523.1000005999949
 20
-627.4999999999999
 30
0.0
 11
-523.1000005999949
 21
-622.4999999999999
 31
0.0
  0
LINE
  5
3EF
330
186
100
AcDbEntity
  8
0
  6
Continuous
 62
     7
370
     9
100
AcDbLine
 10
-521.899999400005
 20
-625.0
 30
0.0
 11
-521.899999400005
 21
-622.4999999999999
 31
0.0
  0
LINE
  5
3F0
330
186
100
AcDbEntity
  8
0
  6
Continuous
 62
     7
370
     9
100
AcDbLine
 10
-523.1000005999949
 20
-625.0
 30
0.0
 11
-523.1000005999949
 21
-622.4999999999999
 31
0.0
  0
LINE
  5
3F1
330
186
100
AcDbEntity
  8
0
  6
Continuous
 62
     7
370
     9
100
AcDbLine
 10
-521.899999400005
 20
-402.5000000000001
 30
0.0
 11
-521.899999400005
 21
-400.0
 31
0.0
  0
LINE
  5
3F2
330
186
100
AcDbEntity
  8
0
  6
Continuous
 62
     7
370
     9
100
AcDbLine
 10
-521.899999400005
 20
-402.5000000000001
 30
0.0
 11
-521.899999400005
 21
-397.5000000000001
 31
0.0
  0
LINE
  5
3F3
330
186
100
AcDbEntity
  8
0
  6
Continuous
 62
     7
370
     9
100
AcDbLine
 10
-523.1000005999949
 20
-402.5000000000001
 30
0.0
 11
-523.1000005999949
 21
-400.0
 31
0.0
  0
LINE
  5
3F4
330
186
100
AcDbEntity
  8
0
  6
Continuous
 62
     7
370
     9
100
AcDbLine
 10
-523.1000005999949
 20
-402.5000000000001
 30
0.0
 11
-523.1000005999949
 21
-397.5000000000001
 31
0.0
  0
LINE
  5
3F5
330
186
100
AcDbEntity
  8
0
  6
Continuous
 62
     7
370
     9
100
AcDbLine
 10
-521.899999400005
 20
-400.0
 30
0.0
 11
-521.899999400005
 21
-397.5000000000001
 31
0.0
  0
LINE
  5
3F6
330
186
100
AcDbEntity
  8
0
  6
Continuous
 62
     7
370
     9
100
AcDbLine
 10
-523.1000005999949
 20
-400.0
 30
0.0
 11
-523.1000005999949
 21
-397.5000000000001
 31
0.0
  0
LINE
  5
3F7
330
186
100
AcDbEntity
  8
0
  6
Continuous
 62
     7
370
     9
100
AcDbLine
 10
-521.899999400005
 20
-377.5000000000001
 30
0.0
 11
-521.899999400005
 21
-375.0
 31
0.0
  0
LINE
  5
3F8
330
186
100
AcDbEntity
  8
0
  6
Continuous
 62
     7
370
     9
100
AcDbLine
 10
-521.899999400005
 20
-377.5000000000001
 30
0.0
 11
-521.899999400005
 21
-372.5000000000001
 31
0.0
  0
LINE
  5
3F9
330
186
100
AcDbEntity
  8
0
  6
Continuous
 62
     7
370
     9
100
AcDbLine
 10
-523.1000005999949
 20
-377.5000000000001
 30
0.0
 11
-523.1000005999949
 21
-375.0
 31
0.0
  0
LINE
  5
3FA
330
186
100
AcDbEntity
  8
0
  6
Continuous
 62
     7
370
     9
100
AcDbLine
 10
-523.1000005999949
 20
-377.5000000000001
 30
0.0
 11
-523.1000005999949
 21
-372.5000000000001
 31
0.0
  0
LINE
  5
3FB
330
186
100
AcDbEntity
  8
0
  6
Continuous
 62
     7
370
     9
100
AcDbLine
 10
-521.899999400005
 20
-375.0
 30
0.0
 11
-521.899999400005
 21
-372.5000000000001
 31
0.0
  0
LINE
  5
3FC
330
186
100
AcDbEntity
  8
0
  6
Continuous
 62
     7
370
     9
100
AcDbLine
 10
-523.1000005999949
 20
-375.0
 30
0.0
 11
-523.1000005999949
 21
-372.5000000000001
 31
0.0
  0
LINE
  5
3FD
330
186
100
AcDbEntity
  8
0
  6
Continuous
 62
     7
370
     9
100
AcDbLine
 10
-521.899999400005
 20
-652.5
 30
0.0
 11
-521.899999400005
 21
-650.0
 31
0.0
  0
LINE
  5
3FE
330
186
100
AcDbEntity
  8
0
  6
Continuous
 62
     7
370
     9
100
AcDbLine
 10
-521.899999400005
 20
-652.5
 30
0.0
 11
-521.899999400005
 21
-647.5
 31
0.0
  0
LINE
  5
3FF
330
186
100
AcDbEntity
  8
0
  6
Continuous
 62
     7
370
     9
100
AcDbLine
 10
-523.1000005999949
 20
-652.5
 30
0.0
 11
-523.1000005999949
 21
-650.0
 31
0.0
  0
LINE
  5
400
330
186
100
AcDbEntity
  8
0
  6
Continuous
 62
     7
370
     9
100
AcDbLine
 10
-523.1000005999949
 20
-652.5
 30
0.0
 11
-523.1000005999949
 21
-647.5
 31
0.0
  0
LINE
  5
401
330
186
100
AcDbEntity
  8
0
  6
Continuous
 62
     7
370
     9
100
AcDbLine
 10
-521.899999400005
 20
-650.0
 30
0.0
 11
-521.899999400005
 21
-647.5
 31
0.0
  0
LINE
  5
402
330
186
100
AcDbEntity
  8
0
  6
Continuous
 62
     7
370
     9
100
AcDbLine
 10
-523.1000005999949
 20
-650.0
 30
0.0
 11
-523.1000005999949
 21
-647.5
 31
0.0
  0
LINE
  5
403
330
186
100
AcDbEntity
  8
0
  6
Continuous
 62
     7
370
     9
100
AcDbLine
 10
-521.899999400005
 20
-602.5
 30
0.0
 11
-521.899999400005
 21
-600.0
 31
0.0
  0
LINE
  5
404
330
186
100
AcDbEntity
  8
0
  6
Continuous
 62
     7
370
     9
100
AcDbLine
 10
-521.899999400005
 20
-602.5
 30
0.0
 11
-521.899999400005
 21
-597.5
 31
0.0
  0
LINE
  5
405
330
186
100
AcDbEntity
  8
0
  6
Continuous
 62
     7
370
     9
100
AcDbLine
 10
-523.1000005999949
 20
-602.5
 30
0.0
 11
-523.1000005999949
 21
-600.0
 31
0.0
  0
LINE
  5
406
330
186
100
AcDbEntity
  8
0
  6
Continuous
 62
     7
370
     9
100
AcDbLine
 10
-523.1000005999949
 20
-602.5
 30
0.0
 11
-523.1000005999949
 21
-597.5
 31
0.0
  0
LINE
  5
407
330
186
100
AcDbEntity
  8
0
  6
Continuous
 62
     7
370
     9
100
AcDbLine
 10
-521.899999400005
 20
-600.0
 30
0.0
 11
-521.899999400005
 21
-597.5
 31
0.0
  0
LINE
  5
408
330
186
100
AcDbEntity
  8
0
  6
Continuous
 62
     7
370
     9
100
AcDbLine
 10
-523.1000005999949
 20
-600.0
 30
0.0
 11
-523.1000005999949
 21
-597.5
 31
0.0
  0
LINE
  5
409
330
186
100
AcDbEntity
  8
0
  6
Continuous
 62
     7
370
     9
100
AcDbLine
 10
-521.899999400005
 20
-627.4999999999999
 30
0.0
 11
-521.899999400005
 21
-625.0
 31
0.0
  0
LINE
  5
40A
330
186
100
AcDbEntity
  8
0
  6
Continuous
 62
     7
370
     9
100
AcDbLine
 10
-521.899999400005
 20
-627.4999999999999
 30
0.0
 11
-521.899999400005
 21
-622.4999999999999
 31
0.0
  0
LINE
  5
40B
330
186
100
AcDbEntity
  8
0
  6
Continuous
 62
     7
370
     9
100
AcDbLine
 10
-523.1000005999949
 20
-627.4999999999999
 30
0.0
 11
-523.1000005999949
 21
-625.0
 31
0.0
  0
LINE
  5
40C
330
186
100
AcDbEntity
  8
0
  6
Continuous
 62
     7
370
     9
100
AcDbLine
 10
-523.1000005999949
 20
-627.4999999999999
 30
0.0
 11
-523.1000005999949
 21
-622.4999999999999
 31
0.0
  0
LINE
  5
40D
330
186
100
AcDbEntity
  8
0
  6
Continuous
 62
     7
370
     9
100
AcDbLine
 10
-521.899999400005
 20
-625.0
 30
0.0
 11
-521.899999400005
 21
-622.4999999999999
 31
0.0
  0
LINE
  5
40E
330
186
100
AcDbEntity
  8
0
  6
Continuous
 62
     7
370
     9
100
AcDbLine
 10
-523.1000005999949
 20
-625.0
 30
0.0
 11
-523.1000005999949
 21
-622.4999999999999
 31
0.0
  0
LINE
  5
40F
330
186
100
AcDbEntity
  8
0
  6
Continuous
 62
     7
370
     9
100
AcDbLine
 10
-521.899999400005
 20
-377.5000000000001
 30
0.0
 11
-521.899999400005
 21
-375.0
 31
0.0
  0
LINE
  5
410
330
186
100
AcDbEntity
  8
0
  6
Continuous
 62
     7
370
     9
100
AcDbLine
 10
-521.899999400005
 20
-377.5000000000001
 30
0.0
 11
-521.899999400005
 21
-372.5000000000001
 31
0.0
  0
LINE
  5
411
330
186
100
AcDbEntity
  8
0
  6
Continuous
 62
     7
370
     9
100
AcDbLine
 10
-523.1000005999949
 20
-377.5000000000001
 30
0.0
 11
-523.1000005999949
 21
-375.0
 31
0.0
  0
LINE
  5
412
330
186
100
AcDbEntity
  8
0
  6
Continuous
 62
     7
370
     9
100
AcDbLine
 10
-523.1000005999949
 20
-377.5000000000001
 30
0.0
 11
-523.1000005999949
 21
-372.5000000000001
 31
0.0
  0
LINE
  5
413
330
186
100
AcDbEntity
  8
0
  6
Continuous
 62
     7
370
     9
100
AcDbLine
 10
-521.899999400005
 20
-375.0
 30
0.0
 11
-521.899999400005
 21
-372.5000000000001
 31
0.0
  0
LINE
  5
414
330
186
100
AcDbEntity
  8
0
  6
Continuous
 62
     7
370
     9
100
AcDbLine
 10
-523.1000005999949
 20
-375.0
 30
0.0
 11
-523.1000005999949
 21
-372.5000000000001
 31
0.0
  0
LINE
  5
415
330
186
100
AcDbEntity
  8
0
  6
Continuous
 62
     7
370
     9
100
AcDbLine
 10
-521.899999400005
 20
-652.5
 30
0.0
 11
-521.899999400005
 21
-650.0
 31
0.0
  0
LINE
  5
416
330
186
100
AcDbEntity
  8
0
  6
Continuous
 62
     7
370
     9
100
AcDbLine
 10
-521.899999400005
 20
-652.5
 30
0.0
 11
-521.899999400005
 21
-647.5
 31
0.0
  0
LINE
  5
417
330
186
100
AcDbEntity
  8
0
  6
Continuous
 62
     7
370
     9
100
AcDbLine
 10
-523.1000005999949
 20
-652.5
 30
0.0
 11
-523.1000005999949
 21
-650.0
 31
0.0
  0
LINE
  5
418
330
186
100
AcDbEntity
  8
0
  6
Continuous
 62
     7
370
     9
100
AcDbLine
 10
-523.1000005999949
 20
-652.5
 30
0.0
 11
-523.1000005999949
 21
-647.5
 31
0.0
  0
LINE
  5
419
330
186
100
AcDbEntity
  8
0
  6
Continuous
 62
     7
370
     9
100
AcDbLine
 10
-521.899999400005
 20
-650.0
 30
0.0
 11
-521.899999400005
 21
-647.5
 31
0.0
  0
LINE
  5
41A
330
186
100
AcDbEntity
  8
0
  6
Continuous
 62
     7
370
     9
100
AcDbLine
 10
-523.1000005999949
 20
-650.0
 30
0.0
 11
-523.1000005999949
 21
-647.5
 31
0.0
  0
LINE
  5
41B
330
186
100
AcDbEntity
  8
0
  6
Continuous
 62
     7
370
     9
100
AcDbLine
 10
-521.899999400005
 20
-427.5
 30
0.0
 11
-521.899999400005
 21
-425.0000000000001
 31
0.0
  0
LINE
  5
41C
330
186
100
AcDbEntity
  8
0
  6
Continuous
 62
     7
370
     9
100
AcDbLine
 10
-521.899999400005
 20
-427.5
 30
0.0
 11
-521.899999400005
 21
-422.5
 31
0.0
  0
LINE
  5
41D
330
186
100
AcDbEntity
  8
0
  6
Continuous
 62
     7
370
     9
100
AcDbLine
 10
-523.1000005999949
 20
-427.5
 30
0.0
 11
-523.1000005999949
 21
-425.0000000000001
 31
0.0
  0
LINE
  5
41E
330
186
100
AcDbEntity
  8
0
  6
Continuous
 62
     7
370
     9
100
AcDbLine
 10
-523.1000005999949
 20
-427.5
 30
0.0
 11
-523.1000005999949
 21
-422.5
 31
0.0
  0
LINE
  5
41F
330
186
100
AcDbEntity
  8
0
  6
Continuous
 62
     7
370
     9
100
AcDbLine
 10
-521.899999400005
 20
-425.0000000000001
 30
0.0
 11
-521.899999400005
 21
-422.5
 31
0.0
  0
LINE
  5
420
330
186
100
AcDbEntity
  8
0
  6
Continuous
 62
     7
370
     9
100
AcDbLine
 10
-523.1000005999949
 20
-425.0000000000001
 30
0.0
 11
-523.1000005999949
 21
-422.5
 31
0.0
  0
LINE
  5
421
330
186
100
AcDbEntity
  8
0
  6
Continuous
 62
     7
370
     9
100
AcDbLine
 10
-521.899999400005
 20
-477.4999999999999
 30
0.0
 11
-521.899999400005
 21
-474.9999999999999
 31
0.0
  0
LINE
  5
422
330
186
100
AcDbEntity
  8
0
  6
Continuous
 62
     7
370
     9
100
AcDbLine
 10
-521.899999400005
 20
-477.4999999999999
 30
0.0
 11
-521.899999400005
 21
-472.4999999999999
 31
0.0
  0
LINE
  5
423
330
186
100
AcDbEntity
  8
0
  6
Continuous
 62
     7
370
     9
100
AcDbLine
 10
-523.1000005999949
 20
-477.4999999999999
 30
0.0
 11
-523.1000005999949
 21
-474.9999999999999
 31
0.0
  0
LINE
  5
424
330
186
100
AcDbEntity
  8
0
  6
Continuous
 62
     7
370
     9
100
AcDbLine
 10
-523.1000005999949
 20
-477.4999999999999
 30
0.0
 11
-523.1000005999949
 21
-472.4999999999999
 31
0.0
  0
LINE
  5
425
330
186
100
AcDbEntity
  8
0
  6
Continuous
 62
     7
370
     9
100
AcDbLine
 10
-521.899999400005
 20
-474.9999999999999
 30
0.0
 11
-521.899999400005
 21
-472.4999999999999
 31
0.0
  0
LINE
  5
426
330
186
100
AcDbEntity
  8
0
  6
Continuous
 62
     7
370
     9
100
AcDbLine
 10
-523.1000005999949
 20
-474.9999999999999
 30
0.0
 11
-523.1000005999949
 21
-472.4999999999999
 31
0.0
  0
LINE
  5
427
330
186
100
AcDbEntity
  8
0
  6
Continuous
 62
     7
370
     9
100
AcDbLine
 10
-521.899999400005
 20
-502.4999999999999
 30
0.0
 11
-521.899999400005
 21
-500.0
 31
0.0
  0
LINE
  5
428
330
186
100
AcDbEntity
  8
0
  6
Continuous
 62
     7
370
     9
100
AcDbLine
 10
-521.899999400005
 20
-502.4999999999999
 30
0.0
 11
-521.899999400005
 21
-497.5
 31
0.0
  0
LINE
  5
429
330
186
100
AcDbEntity
  8
0
  6
Continuous
 62
     7
370
     9
100
AcDbLine
 10
-523.1000005999949
 20
-502.4999999999999
 30
0.0
 11
-523.1000005999949
 21
-500.0
 31
0.0
  0
LINE
  5
42A
330
186
100
AcDbEntity
  8
0
  6
Continuous
 62
     7
370
     9
100
AcDbLine
 10
-523.1000005999949
 20
-502.4999999999999
 30
0.0
 11
-523.1000005999949
 21
-497.5
 31
0.0
  0
LINE
  5
42B
330
186
100
AcDbEntity
  8
0
  6
Continuous
 62
     7
370
     9
100
AcDbLine
 10
-521.899999400005
 20
-500.0
 30
0.0
 11
-521.899999400005
 21
-497.5
 31
0.0
  0
LINE
  5
42C
330
186
100
AcDbEntity
  8
0
  6
Continuous
 62
     7
370
     9
100
AcDbLine
 10
-523.1000005999949
 20
-500.0
 30
0.0
 11
-523.1000005999949
 21
-497.5
 31
0.0
  0
LINE
  5
42D
330
186
100
AcDbEntity
  8
0
  6
Continuous
 62
     7
370
     9
100
AcDbLine
 10
-521.899999400005
 20
-577.5
 30
0.0
 11
-521.899999400005
 21
-575.0
 31
0.0
  0
LINE
  5
42E
330
186
100
AcDbEntity
  8
0
  6
Continuous
 62
     7
370
     9
100
AcDbLine
 10
-521.899999400005
 20
-577.5
 30
0.0
 11
-521.899999400005
 21
-572.5
 31
0.0
  0
LINE
  5
42F
330
186
100
AcDbEntity
  8
0
  6
Continuous
 62
     7
370
     9
100
AcDbLine
 10
-523.1000005999949
 20
-577.5
 30
0.0
 11
-523.1000005999949
 21
-575.0
 31
0.0
  0
LINE
  5
430
330
186
100
AcDbEntity
  8
0
  6
Continuous
 62
     7
370
     9
100
AcDbLine
 10
-523.1000005999949
 20
-577.5
 30
0.0
 11
-523.1000005999949
 21
-572.5
 31
0.0
  0
LINE
  5
431
330
186
100
AcDbEntity
  8
0
  6
Continuous
 62
     7
370
     9
100
AcDbLine
 10
-521.899999400005
 20
-575.0
 30
0.0
 11
-521.899999400005
 21
-572.5
 31
0.0
  0
LINE
  5
432
330
186
100
AcDbEntity
  8
0
  6
Continuous
 62
     7
370
     9
100
AcDbLine
 10
-523.1000005999949
 20
-575.0
 30
0.0
 11
-523.1000005999949
 21
-572.5
 31
0.0
  0
LINE
  5
433
330
186
100
AcDbEntity
  8
0
  6
Continuous
 62
     7
370
     9
100
AcDbLine
 10
-521.899999400005
 20
-552.5
 30
0.0
 11
-521.899999400005
 21
-550.0
 31
0.0
  0
LINE
  5
434
330
186
100
AcDbEntity
  8
0
  6
Continuous
 62
     7
370
     9
100
AcDbLine
 10
-521.899999400005
 20
-552.5
 30
0.0
 11
-521.899999400005
 21
-547.5
 31
0.0
  0
LINE
  5
435
330
186
100
AcDbEntity
  8
0
  6
Continuous
 62
     7
370
     9
100
AcDbLine
 10
-523.1000005999949
 20
-552.5
 30
0.0
 11
-523.1000005999949
 21
-550.0
 31
0.0
  0
LINE
  5
436
330
186
100
AcDbEntity
  8
0
  6
Continuous
 62
     7
370
     9
100
AcDbLine
 10
-523.1000005999949
 20
-552.5
 30
0.0
 11
-523.1000005999949
 21
-547.5
 31
0.0
  0
LINE
  5
437
330
186
100
AcDbEntity
  8
0
  6
Continuous
 62
     7
370
     9
100
AcDbLine
 10
-521.899999400005
 20
-550.0
 30
0.0
 11
-521.899999400005
 21
-547.5
 31
0.0
  0
LINE
  5
438
330
186
100
AcDbEntity
  8
0
  6
Continuous
 62
     7
370
     9
100
AcDbLine
 10
-523.1000005999949
 20
-550.0
 30
0.0
 11
-523.1000005999949
 21
-547.5
 31
0.0
  0
LINE
  5
439
330
186
100
AcDbEntity
  8
0
  6
Continuous
 62
     7
370
     9
100
AcDbLine
 10
-521.899999400005
 20
-527.5
 30
0.0
 11
-521.899999400005
 21
-525.0
 31
0.0
  0
LINE
  5
43A
330
186
100
AcDbEntity
  8
0
  6
Continuous
 62
     7
370
     9
100
AcDbLine
 10
-521.899999400005
 20
-527.5
 30
0.0
 11
-521.899999400005
 21
-522.5
 31
0.0
  0
LINE
  5
43B
330
186
100
AcDbEntity
  8
0
  6
Continuous
 62
     7
370
     9
100
AcDbLine
 10
-523.1000005999949
 20
-527.5
 30
0.0
 11
-523.1000005999949
 21
-525.0
 31
0.0
  0
LINE
  5
43C
330
186
100
AcDbEntity
  8
0
  6
Continuous
 62
     7
370
     9
100
AcDbLine
 10
-523.1000005999949
 20
-527.5
 30
0.0
 11
-523.1000005999949
 21
-522.5
 31
0.0
  0
LINE
  5
43D
330
186
100
AcDbEntity
  8
0
  6
Continuous
 62
     7
370
     9
100
AcDbLine
 10
-521.899999400005
 20
-525.0
 30
0.0
 11
-521.899999400005
 21
-522.5
 31
0.0
  0
LINE
  5
43E
330
186
100
AcDbEntity
  8
0
  6
Continuous
 62
     7
370
     9
100
AcDbLine
 10
-523.1000005999949
 20
-525.0
 30
0.0
 11
-523.1000005999949
 21
-522.5
 31
0.0
  0
LINE
  5
43F
330
186
100
AcDbEntity
  8
0
  6
Continuous
 62
     7
370
     9
100
AcDbLine
 10
-521.899999400005
 20
-402.5000000000001
 30
0.0
 11
-521.899999400005
 21
-400.0
 31
0.0
  0
LINE
  5
440
330
186
100
AcDbEntity
  8
0
  6
Continuous
 62
     7
370
     9
100
AcDbLine
 10
-521.899999400005
 20
-402.5000000000001
 30
0.0
 11
-521.899999400005
 21
-397.5000000000001
 31
0.0
  0
LINE
  5
441
330
186
100
AcDbEntity
  8
0
  6
Continuous
 62
     7
370
     9
100
AcDbLine
 10
-523.1000005999949
 20
-402.5000000000001
 30
0.0
 11
-523.1000005999949
 21
-400.0
 31
0.0
  0
LINE
  5
442
330
186
100
AcDbEntity
  8
0
  6
Continuous
 62
     7
370
     9
100
AcDbLine
 10
-523.1000005999949
 20
-402.5000000000001
 30
0.0
 11
-523.1000005999949
 21
-397.5000000000001
 31
0.0
  0
LINE
  5
443
330
186
100
AcDbEntity
  8
0
  6
Continuous
 62
     7
370
     9
100
AcDbLine
 10
-521.899999400005
 20
-400.0
 30
0.0
 11
-521.899999400005
 21
-397.5000000000001
 31
0.0
  0
LINE
  5
444
330
186
100
AcDbEntity
  8
0
  6
Continuous
 62
     7
370
     9
100
AcDbLine
 10
-523.1000005999949
 20
-400.0
 30
0.0
 11
-523.1000005999949
 21
-397.5000000000001
 31
0.0
  0
LINE
  5
445
330
186
100
AcDbEntity
  8
0
  6
Continuous
 62
     7
370
     9
100
AcDbLine
 10
-521.899999400005
 20
-452.5
 30
0.0
 11
-521.899999400005
 21
-449.9999999999999
 31
0.0
  0
LINE
  5
446
330
186
100
AcDbEntity
  8
0
  6
Continuous
 62
     7
370
     9
100
AcDbLine
 10
-521.899999400005
 20
-452.5
 30
0.0
 11
-521.899999400005
 21
-447.5
 31
0.0
  0
LINE
  5
447
330
186
100
AcDbEntity
  8
0
  6
Continuous
 62
     7
370
     9
100
AcDbLine
 10
-523.1000005999949
 20
-452.5
 30
0.0
 11
-523.1000005999949
 21
-449.9999999999999
 31
0.0
  0
LINE
  5
448
330
186
100
AcDbEntity
  8
0
  6
Continuous
 62
     7
370
     9
100
AcDbLine
 10
-523.1000005999949
 20
-452.5
 30
0.0
 11
-523.1000005999949
 21
-447.5
 31
0.0
  0
LINE
  5
449
330
186
100
AcDbEntity
  8
0
  6
Continuous
 62
     7
370
     9
100
AcDbLine
 10
-521.899999400005
 20
-449.9999999999999
 30
0.0
 11
-521.899999400005
 21
-447.5
 31
0.0
  0
LINE
  5
44A
330
186
100
AcDbEntity
  8
0
  6
Continuous
 62
     7
370
     9
100
AcDbLine
 10
-523.1000005999949
 20
-449.9999999999999
 30
0.0
 11
-523.1000005999949
 21
-447.5
 31
0.0
  0
LINE
  5
44B
330
186
100
AcDbEntity
  8
0
  6
Continuous
 62
     7
370
     9
100
AcDbLine
 10
-521.899999400005
 20
-402.5000000000001
 30
0.0
 11
-521.899999400005
 21
-400.0
 31
0.0
  0
LINE
  5
44C
330
186
100
AcDbEntity
  8
0
  6
Continuous
 62
     7
370
     9
100
AcDbLine
 10
-521.899999400005
 20
-402.5000000000001
 30
0.0
 11
-521.899999400005
 21
-397.5000000000001
 31
0.0
  0
LINE
  5
44D
330
186
100
AcDbEntity
  8
0
  6
Continuous
 62
     7
370
     9
100
AcDbLine
 10
-523.1000005999949
 20
-402.5000000000001
 30
0.0
 11
-523.1000005999949
 21
-400.0
 31
0.0
  0
LINE
  5
44E
330
186
100
AcDbEntity
  8
0
  6
Continuous
 62
     7
370
     9
100
AcDbLine
 10
-523.1000005999949
 20
-402.5000000000001
 30
0.0
 11
-523.1000005999949
 21
-397.5000000000001
 31
0.0
  0
LINE
  5
44F
330
186
100
AcDbEntity
  8
0
  6
Continuous
 62
     7
370
     9
100
AcDbLine
 10
-521.899999400005
 20
-400.0
 30
0.0
 11
-521.899999400005
 21
-397.5000000000001
 31
0.0
  0
LINE
  5
450
330
186
100
AcDbEntity
  8
0
  6
Continuous
 62
     7
370
     9
100
AcDbLine
 10
-523.1000005999949
 20
-400.0
 30
0.0
 11
-523.1000005999949
 21
-397.5000000000001
 31
0.0
  0
LINE
  5
451
330
186
100
AcDbEntity
  8
0
  6
Continuous
 62
     7
370
     9
100
AcDbLine
 10
-521.899999400005
 20
-577.5
 30
0.0
 11
-521.899999400005
 21
-575.0
 31
0.0
  0
LINE
  5
452
330
186
100
AcDbEntity
  8
0
  6
Continuous
 62
     7
370
     9
100
AcDbLine
 10
-521.899999400005
 20
-577.5
 30
0.0
 11
-521.899999400005
 21
-572.5
 31
0.0
  0
LINE
  5
453
330
186
100
AcDbEntity
  8
0
  6
Continuous
 62
     7
370
     9
100
AcDbLine
 10
-523.1000005999949
 20
-577.5
 30
0.0
 11
-523.1000005999949
 21
-575.0
 31
0.0
  0
LINE
  5
454
330
186
100
AcDbEntity
  8
0
  6
Continuous
 62
     7
370
     9
100
AcDbLine
 10
-523.1000005999949
 20
-577.5
 30
0.0
 11
-523.1000005999949
 21
-572.5
 31
0.0
  0
LINE
  5
455
330
186
100
AcDbEntity
  8
0
  6
Continuous
 62
     7
370
     9
100
AcDbLine
 10
-521.899999400005
 20
-575.0
 30
0.0
 11
-521.899999400005
 21
-572.5
 31
0.0
  0
LINE
  5
456
330
186
100
AcDbEntity
  8
0
  6
Continuous
 62
     7
370
     9
100
AcDbLine
 10
-523.1000005999949
 20
-575.0
 30
0.0
 11
-523.1000005999949
 21
-572.5
 31
0.0
  0
LINE
  5
457
330
186
100
AcDbEntity
  8
0
  6
Continuous
 62
     7
370
     9
100
AcDbLine
 10
-521.899999400005
 20
-602.5
 30
0.0
 11
-521.899999400005
 21
-600.0
 31
0.0
  0
LINE
  5
458
330
186
100
AcDbEntity
  8
0
  6
Continuous
 62
     7
370
     9
100
AcDbLine
 10
-521.899999400005
 20
-602.5
 30
0.0
 11
-521.899999400005
 21
-597.5
 31
0.0
  0
LINE
  5
459
330
186
100
AcDbEntity
  8
0
  6
Continuous
 62
     7
370
     9
100
AcDbLine
 10
-523.1000005999949
 20
-602.5
 30
0.0
 11
-523.1000005999949
 21
-600.0
 31
0.0
  0
LINE
  5
45A
330
186
100
AcDbEntity
  8
0
  6
Continuous
 62
     7
370
     9
100
AcDbLine
 10
-523.1000005999949
 20
-602.5
 30
0.0
 11
-523.1000005999949
 21
-597.5
 31
0.0
  0
LINE
  5
45B
330
186
100
AcDbEntity
  8
0
  6
Continuous
 62
     7
370
     9
100
AcDbLine
 10
-521.899999400005
 20
-600.0
 30
0.0
 11
-521.899999400005
 21
-597.5
 31
0.0
  0
LINE
  5
45C
330
186
100
AcDbEntity
  8
0
  6
Continuous
 62
     7
370
     9
100
AcDbLine
 10
-523.1000005999949
 20
-600.0
 30
0.0
 11
-523.1000005999949
 21
-597.5
 31
0.0
  0
LINE
  5
45D
330
186
100
AcDbEntity
  8
0
  6
Continuous
 62
     7
370
     9
100
AcDbLine
 10
-521.899999400005
 20
-477.5
 30
0.0
 11
-521.899999400005
 21
-474.9999999999999
 31
0.0
  0
LINE
  5
45E
330
186
100
AcDbEntity
  8
0
  6
Continuous
 62
     7
370
     9
100
AcDbLine
 10
-521.899999400005
 20
-477.5
 30
0.0
 11
-521.899999400005
 21
-472.5
 31
0.0
  0
LINE
  5
45F
330
186
100
AcDbEntity
  8
0
  6
Continuous
 62
     7
370
     9
100
AcDbLine
 10
-523.1000005999949
 20
-477.5
 30
0.0
 11
-523.1000005999949
 21
-474.9999999999999
 31
0.0
  0
LINE
  5
460
330
186
100
AcDbEntity
  8
0
  6
Continuous
 62
     7
370
     9
100
AcDbLine
 10
-523.1000005999949
 20
-477.5
 30
0.0
 11
-523.1000005999949
 21
-472.5
 31
0.0
  0
LINE
  5
461
330
186
100
AcDbEntity
  8
0
  6
Continuous
 62
     7
370
     9
100
AcDbLine
 10
-521.899999400005
 20
-474.9999999999999
 30
0.0
 11
-521.899999400005
 21
-472.5
 31
0.0
  0
LINE
  5
462
330
186
100
AcDbEntity
  8
0
  6
Continuous
 62
     7
370
     9
100
AcDbLine
 10
-523.1000005999949
 20
-474.9999999999999
 30
0.0
 11
-523.1000005999949
 21
-472.5
 31
0.0
  0
LINE
  5
463
330
186
100
AcDbEntity
  8
0
  6
Continuous
 62
     7
370
     9
100
AcDbLine
 10
-521.899999400005
 20
-427.5
 30
0.0
 11
-521.899999400005
 21
-425.0000000000001
 31
0.0
  0
LINE
  5
464
330
186
100
AcDbEntity
  8
0
  6
Continuous
 62
     7
370
     9
100
AcDbLine
 10
-521.899999400005
 20
-427.5
 30
0.0
 11
-521.899999400005
 21
-422.5
 31
0.0
  0
LINE
  5
465
330
186
100
AcDbEntity
  8
0
  6
Continuous
 62
     7
370
     9
100
AcDbLine
 10
-523.1000005999949
 20
-427.5
 30
0.0
 11
-523.1000005999949
 21
-425.0000000000001
 31
0.0
  0
LINE
  5
466
330
186
100
AcDbEntity
  8
0
  6
Continuous
 62
     7
370
     9
100
AcDbLine
 10
-523.1000005999949
 20
-427.5
 30
0.0
 11
-523.1000005999949
 21
-422.5
 31
0.0
  0
LINE
  5
467
330
186
100
AcDbEntity
  8
0
  6
Continuous
 62
     7
370
     9
100
AcDbLine
 10
-521.899999400005
 20
-425.0000000000001
 30
0.0
 11
-521.899999400005
 21
-422.5
 31
0.0
  0
LINE
  5
468
330
186
100
AcDbEntity
  8
0
  6
Continuous
 62
     7
370
     9
100
AcDbLine
 10
-523.1000005999949
 20
-425.0000000000001
 30
0.0
 11
-523.1000005999949
 21
-422.5
 31
0.0
  0
LINE
  5
469
330
186
100
AcDbEntity
  8
0
  6
Continuous
 62
     7
370
     9
100
AcDbLine
 10
-521.899999400005
 20
-627.5
 30
0.0
 11
-521.899999400005
 21
-625.0
 31
0.0
  0
LINE
  5
46A
330
186
100
AcDbEntity
  8
0
  6
Continuous
 62
     7
370
     9
100
AcDbLine
 10
-521.899999400005
 20
-627.5
 30
0.0
 11
-521.899999400005
 21
-622.5
 31
0.0
  0
LINE
  5
46B
330
186
100
AcDbEntity
  8
0
  6
Continuous
 62
     7
370
     9
100
AcDbLine
 10
-523.1000005999949
 20
-627.5
 30
0.0
 11
-523.1000005999949
 21
-625.0
 31
0.0
  0
LINE
  5
46C
330
186
100
AcDbEntity
  8
0
  6
Continuous
 62
     7
370
     9
100
AcDbLine
 10
-523.1000005999949
 20
-627.5
 30
0.0
 11
-523.1000005999949
 21
-622.5
 31
0.0
  0
LINE
  5
46D
330
186
100
AcDbEntity
  8
0
  6
Continuous
 62
     7
370
     9
100
AcDbLine
 10
-521.899999400005
 20
-625.0
 30
0.0
 11
-521.899999400005
 21
-622.5
 31
0.0
  0
LINE
  5
46E
330
186
100
AcDbEntity
  8
0
  6
Continuous
 62
     7
370
     9
100
AcDbLine
 10
-523.1000005999949
 20
-625.0
 30
0.0
 11
-523.1000005999949
 21
-622.5
 31
0.0
  0
LINE
  5
46F
330
186
100
AcDbEntity
  8
0
  6
Continuous
 62
     7
370
     9
100
AcDbLine
 10
-521.899999400005
 20
-452.5
 30
0.0
 11
-521.899999400005
 21
-450.0
 31
0.0
  0
LINE
  5
470
330
186
100
AcDbEntity
  8
0
  6
Continuous
 62
     7
370
     9
100
AcDbLine
 10
-521.899999400005
 20
-452.5
 30
0.0
 11
-521.899999400005
 21
-447.5
 31
0.0
  0
LINE
  5
471
330
186
100
AcDbEntity
  8
0
  6
Continuous
 62
     7
370
     9
100
AcDbLine
 10
-523.1000005999949
 20
-452.5
 30
0.0
 11
-523.1000005999949
 21
-450.0
 31
0.0
  0
LINE
  5
472
330
186
100
AcDbEntity
  8
0
  6
Continuous
 62
     7
370
     9
100
AcDbLine
 10
-523.1000005999949
 20
-452.5
 30
0.0
 11
-523.1000005999949
 21
-447.5
 31
0.0
  0
LINE
  5
473
330
186
100
AcDbEntity
  8
0
  6
Continuous
 62
     7
370
     9
100
AcDbLine
 10
-521.899999400005
 20
-450.0
 30
0.0
 11
-521.899999400005
 21
-447.5
 31
0.0
  0
LINE
  5
474
330
186
100
AcDbEntity
  8
0
  6
Continuous
 62
     7
370
     9
100
AcDbLine
 10
-523.1000005999949
 20
-450.0
 30
0.0
 11
-523.1000005999949
 21
-447.5
 31
0.0
  0
LINE
  5
475
330
186
100
AcDbEntity
  8
0
  6
Continuous
 62
     7
370
     9
100
AcDbLine
 10
-521.899999400005
 20
-652.5
 30
0.0
 11
-521.899999400005
 21
-650.0
 31
0.0
  0
LINE
  5
476
330
186
100
AcDbEntity
  8
0
  6
Continuous
 62
     7
370
     9
100
AcDbLine
 10
-521.899999400005
 20
-652.5
 30
0.0
 11
-521.899999400005
 21
-647.5
 31
0.0
  0
LINE
  5
477
330
186
100
AcDbEntity
  8
0
  6
Continuous
 62
     7
370
     9
100
AcDbLine
 10
-523.1000005999949
 20
-652.5
 30
0.0
 11
-523.1000005999949
 21
-650.0
 31
0.0
  0
LINE
  5
478
330
186
100
AcDbEntity
  8
0
  6
Continuous
 62
     7
370
     9
100
AcDbLine
 10
-523.1000005999949
 20
-652.5
 30
0.0
 11
-523.1000005999949
 21
-647.5
 31
0.0
  0
LINE
  5
479
330
186
100
AcDbEntity
  8
0
  6
Continuous
 62
     7
370
     9
100
AcDbLine
 10
-521.899999400005
 20
-650.0
 30
0.0
 11
-521.899999400005
 21
-647.5
 31
0.0
  0
LINE
  5
47A
330
186
100
AcDbEntity
  8
0
  6
Continuous
 62
     7
370
     9
100
AcDbLine
 10
-523.1000005999949
 20
-650.0
 30
0.0
 11
-523.1000005999949
 21
-647.5
 31
0.0
  0
LINE
  5
47B
330
186
100
AcDbEntity
  8
0
  6
Continuous
 62
     7
370
     9
100
AcDbLine
 10
-521.899999400005
 20
-502.4999999999999
 30
0.0
 11
-521.899999400005
 21
-500.0
 31
0.0
  0
LINE
  5
47C
330
186
100
AcDbEntity
  8
0
  6
Continuous
 62
     7
370
     9
100
AcDbLine
 10
-521.899999400005
 20
-502.4999999999999
 30
0.0
 11
-521.899999400005
 21
-497.5
 31
0.0
  0
LINE
  5
47D
330
186
100
AcDbEntity
  8
0
  6
Continuous
 62
     7
370
     9
100
AcDbLine
 10
-523.1000005999949
 20
-502.4999999999999
 30
0.0
 11
-523.1000005999949
 21
-500.0
 31
0.0
  0
LINE
  5
47E
330
186
100
AcDbEntity
  8
0
  6
Continuous
 62
     7
370
     9
100
AcDbLine
 10
-523.1000005999949
 20
-502.4999999999999
 30
0.0
 11
-523.1000005999949
 21
-497.5
 31
0.0
  0
LINE
  5
47F
330
186
100
AcDbEntity
  8
0
  6
Continuous
 62
     7
370
     9
100
AcDbLine
 10
-521.899999400005
 20
-500.0
 30
0.0
 11
-521.899999400005
 21
-497.5
 31
0.0
  0
LINE
  5
480
330
186
100
AcDbEntity
  8
0
  6
Continuous
 62
     7
370
     9
100
AcDbLine
 10
-523.1000005999949
 20
-500.0
 30
0.0
 11
-523.1000005999949
 21
-497.5
 31
0.0
  0
LINE
  5
481
330
186
100
AcDbEntity
  8
0
  6
Continuous
 62
     7
370
     9
100
AcDbLine
 10
-521.899999400005
 20
-527.5000000000001
 30
0.0
 11
-521.899999400005
 21
-525.0
 31
0.0
  0
LINE
  5
482
330
186
100
AcDbEntity
  8
0
  6
Continuous
 62
     7
370
     9
100
AcDbLine
 10
-521.899999400005
 20
-527.5000000000001
 30
0.0
 11
-521.899999400005
 21
-522.5
 31
0.0
  0
LINE
  5
483
330
186
100
AcDbEntity
  8
0
  6
Continuous
 62
     7
370
     9
100
AcDbLine
 10
-523.1000005999949
 20
-527.5000000000001
 30
0.0
 11
-523.1000005999949
 21
-525.0
 31
0.0
  0
LINE
  5
484
330
186
100
AcDbEntity
  8
0
  6
Continuous
 62
     7
370
     9
100
AcDbLine
 10
-523.1000005999949
 20
-527.5000000000001
 30
0.0
 11
-523.1000005999949
 21
-522.5
 31
0.0
  0
LINE
  5
485
330
186
100
AcDbEntity
  8
0
  6
Continuous
 62
     7
370
     9
100
AcDbLine
 10
-521.899999400005
 20
-525.0
 30
0.0
 11
-521.899999400005
 21
-522.5
 31
0.0
  0
LINE
  5
486
330
186
100
AcDbEntity
  8
0
  6
Continuous
 62
     7
370
     9
100
AcDbLine
 10
-523.1000005999949
 20
-525.0
 30
0.0
 11
-523.1000005999949
 21
-522.5
 31
0.0
  0
LINE
  5
487
330
186
100
AcDbEntity
  8
0
  6
Continuous
 62
     7
370
     9
100
AcDbLine
 10
-521.899999400005
 20
-552.5
 30
0.0
 11
-521.899999400005
 21
-550.0
 31
0.0
  0
LINE
  5
488
330
186
100
AcDbEntity
  8
0
  6
Continuous
 62
     7
370
     9
100
AcDbLine
 10
-521.899999400005
 20
-552.5
 30
0.0
 11
-521.899999400005
 21
-547.5
 31
0.0
  0
LINE
  5
489
330
186
100
AcDbEntity
  8
0
  6
Continuous
 62
     7
370
     9
100
AcDbLine
 10
-523.1000005999949
 20
-552.5
 30
0.0
 11
-523.1000005999949
 21
-550.0
 31
0.0
  0
LINE
  5
48A
330
186
100
AcDbEntity
  8
0
  6
Continuous
 62
     7
370
     9
100
AcDbLine
 10
-523.1000005999949
 20
-552.5
 30
0.0
 11
-523.1000005999949
 21
-547.5
 31
0.0
  0
LINE
  5
48B
330
186
100
AcDbEntity
  8
0
  6
Continuous
 62
     7
370
     9
100
AcDbLine
 10
-521.899999400005
 20
-550.0
 30
0.0
 11
-521.899999400005
 21
-547.5
 31
0.0
  0
LINE
  5
48C
330
186
100
AcDbEntity
  8
0
  6
Continuous
 62
     7
370
     9
100
AcDbLine
 10
-523.1000005999949
 20
-550.0
 30
0.0
 11
-523.1000005999949
 21
-547.5
 31
0.0
  0
LINE
  5
48D
330
186
100
AcDbEntity
  8
0
  6
Continuous
 62
     7
370
     9
100
AcDbLine
 10
-521.899999400005
 20
-377.5000000000001
 30
0.0
 11
-521.899999400005
 21
-375.0
 31
0.0
  0
LINE
  5
48E
330
186
100
AcDbEntity
  8
0
  6
Continuous
 62
     7
370
     9
100
AcDbLine
 10
-521.899999400005
 20
-377.5000000000001
 30
0.0
 11
-521.899999400005
 21
-372.5000000000001
 31
0.0
  0
LINE
  5
48F
330
186
100
AcDbEntity
  8
0
  6
Continuous
 62
     7
370
     9
100
AcDbLine
 10
-523.1000005999949
 20
-377.5000000000001
 30
0.0
 11
-523.1000005999949
 21
-375.0
 31
0.0
  0
LINE
  5
490
330
186
100
AcDbEntity
  8
0
  6
Continuous
 62
     7
370
     9
100
AcDbLine
 10
-523.1000005999949
 20
-377.5000000000001
 30
0.0
 11
-523.1000005999949
 21
-372.5000000000001
 31
0.0
  0
LINE
  5
491
330
186
100
AcDbEntity
  8
0
  6
Continuous
 62
     7
370
     9
100
AcDbLine
 10
-521.899999400005
 20
-375.0
 30
0.0
 11
-521.899999400005
 21
-372.5000000000001
 31
0.0
  0
LINE
  5
492
330
186
100
AcDbEntity
  8
0
  6
Continuous
 62
     7
370
     9
100
AcDbLine
 10
-523.1000005999949
 20
-375.0
 30
0.0
 11
-523.1000005999949
 21
-372.5000000000001
 31
0.0
  0
LINE
  5
493
330
186
100
AcDbEntity
  8
0
  6
Continuous
 62
     7
370
     9
100
AcDbLine
 10
-523.1000005999949
 20
-655.0
 30
0.0
 11
-521.900000599995
 21
-655.0
 31
0.0
  0
LINE
  5
494
330
186
100
AcDbEntity
  8
0
  6
Continuous
 62
     7
370
     9
100
AcDbLine
 10
-521.900000599995
 20
-651.9999999999999
 30
0.0
 11
-521.900000599995
 21
-655.0
 31
0.0
  0
LINE
  5
495
330
186
100
AcDbEntity
  8
0
  6
Continuous
 62
     7
370
     9
100
AcDbLine
 10
-523.1000005999949
 20
-651.9999999999999
 30
0.0
 11
-523.1000005999949
 21
-655.0
 31
0.0
  0
LINE
  5
496
330
186
100
AcDbEntity
  8
0
  6
Continuous
 62
     7
370
     9
100
AcDbLine
 10
-523.1000005999949
 20
-369.9999999999999
 30
0.0
 11
-521.900000599995
 21
-369.9999999999999
 31
0.0
  0
LINE
  5
497
330
186
100
AcDbEntity
  8
0
  6
Continuous
 62
     7
370
     9
100
AcDbLine
 10
-521.900000599995
 20
-369.9999999999999
 30
0.0
 11
-521.900000599995
 21
-372.9999999999999
 31
0.0
  0
LINE
  5
498
330
186
100
AcDbEntity
  8
0
  6
Continuous
 62
     7
370
     9
100
AcDbLine
 10
-523.1000005999949
 20
-369.9999999999999
 30
0.0
 11
-523.1000005999949
 21
-372.9999999999999
 31
0.0
  0
LINE
  5
499
330
186
100
AcDbEntity
  8
0
  6
Continuous
 62
     7
370
     9
100
AcDbLine
 10
-523.1000005999949
 20
-372.9999999999999
 30
0.0
 11
-521.900000599995
 21
-372.9999999999999
 31
0.0
  0
LINE
  5
49A
330
186
100
AcDbEntity
  8
0
  6
Continuous
 62
     7
370
     9
100
AcDbLine
 10
-523.1000005999949
 20
-651.9999999999999
 30
0.0
 11
-521.900000599995
 21
-651.9999999999999
 31
0.0
  0
LINE
  5
49B
330
186
100
AcDbEntity
  8
0
  6
Continuous
 62
     7
370
     9
100
AcDbLine
 10
-521.900000599995
 20
-372.9999999999999
 30
0.0
 11
-521.900000599995
 21
-651.9999999999999
 31
0.0
  0
LINE
  5
49C
330
186
100
AcDbEntity
  8
0
  6
Continuous
 62
     7
370
     9
100
AcDbLine
 10
-523.1000005999949
 20
-372.9999999999999
 30
0.0
 11
-523.1000005999949
 21
-651.9999999999999
 31
0.0
  0
LINE
  5
49D
330
186
100
AcDbEntity
  8
0
  6
Continuous
 62
     7
370
     9
100
AcDbLine
 10
-521.899999400005
 20
-497.5000000000001
 30
0.0
 11
-523.1000005999949
 21
-497.5000000000001
 31
0.0
  0
LINE
  5
49E
330
186
100
AcDbEntity
  8
0
  6
Continuous
 62
     7
370
     9
100
AcDbLine
 10
-523.1000005999949
 20
-502.4999999999999
 30
0.0
 11
-521.899999400005
 21
-502.4999999999999
 31
0.0
  0
LINE
  5
49F
330
186
100
AcDbEntity
  8
0
  6
Continuous
 62
     7
370
     9
100
AcDbLine
 10
-521.899999400005
 20
-472.5
 30
0.0
 11
-523.1000005999949
 21
-472.5
 31
0.0
  0
LINE
  5
4A0
330
186
100
AcDbEntity
  8
0
  6
Continuous
 62
     7
370
     9
100
AcDbLine
 10
-523.1000005999949
 20
-477.4999999999999
 30
0.0
 11
-521.899999400005
 21
-477.4999999999999
 31
0.0
  0
LINE
  5
4A1
330
186
100
AcDbEntity
  8
0
  6
Continuous
 62
     7
370
     9
100
AcDbLine
 10
-521.899999400005
 20
-447.5000000000001
 30
0.0
 11
-523.1000005999949
 21
-447.5000000000001
 31
0.0
  0
LINE
  5
4A2
330
186
100
AcDbEntity
  8
0
  6
Continuous
 62
     7
370
     9
100
AcDbLine
 10
-523.1000005999949
 20
-452.4999999999999
 30
0.0
 11
-521.899999400005
 21
-452.4999999999999
 31
0.0
  0
LINE
  5
4A3
330
186
100
AcDbEntity
  8
0
  6
Continuous
 62
     7
370
     9
100
AcDbLine
 10
-521.899999400005
 20
-622.5
 30
0.0
 11
-523.1000005999949
 21
-622.5
 31
0.0
  0
LINE
  5
4A4
330
186
100
AcDbEntity
  8
0
  6
Continuous
 62
     7
370
     9
100
AcDbLine
 10
-523.1000005999949
 20
-627.4999999999999
 30
0.0
 11
-521.899999400005
 21
-627.4999999999999
 31
0.0
  0
LINE
  5
4A5
330
186
100
AcDbEntity
  8
0
  6
Continuous
 62
     7
370
     9
100
AcDbLine
 10
-521.899999400005
 20
-597.5
 30
0.0
 11
-523.1000005999949
 21
-597.5
 31
0.0
  0
LINE
  5
4A6
330
186
100
AcDbEntity
  8
0
  6
Continuous
 62
     7
370
     9
100
AcDbLine
 10
-523.1000005999949
 20
-602.4999999999999
 30
0.0
 11
-521.899999400005
 21
-602.4999999999999
 31
0.0
  0
LINE
  5
4A7
330
186
100
AcDbEntity
  8
0
  6
Continuous
 62
     7
370
     9
100
AcDbLine
 10
-521.899999400005
 20
-372.5000000000001
 30
0.0
 11
-523.1000005999949
 21
-372.5000000000001
 31
0.0
  0
LINE
  5
4A8
330
186
100
AcDbEntity
  8
0
  6
Continuous
 62
     7
370
     9
100
AcDbLine
 10
-523.1000005999949
 20
-377.4999999999999
 30
0.0
 11
-521.899999400005
 21
-377.4999999999999
 31
0.0
  0
LINE
  5
4A9
330
186
100
AcDbEntity
  8
0
  6
Continuous
 62
     7
370
     9
100
AcDbLine
 10
-521.899999400005
 20
-572.5
 30
0.0
 11
-523.1000005999949
 21
-572.5
 31
0.0
  0
LINE
  5
4AA
330
186
100
AcDbEntity
  8
0
  6
Continuous
 62
     7
370
     9
100
AcDbLine
 10
-523.1000005999949
 20
-577.4999999999999
 30
0.0
 11
-521.899999400005
 21
-577.4999999999999
 31
0.0
  0
LINE
  5
4AB
330
186
100
AcDbEntity
  8
0
  6
Continuous
 62
     7
370
     9
100
AcDbLine
 10
-521.899999400005
 20
-547.5000000000001
 30
0.0
 11
-523.1000005999949
 21
-547.5000000000001
 31
0.0
  0
LINE
  5
4AC
330
186
100
AcDbEntity
  8
0
  6
Continuous
 62
     7
370
     9
100
AcDbLine
 10
-523.1000005999949
 20
-552.5
 30
0.0
 11
-521.899999400005
 21
-552.5
 31
0.0
  0
LINE
  5
4AD
330
186
100
AcDbEntity
  8
0
  6
Continuous
 62
     7
370
     9
100
AcDbLine
 10
-521.899999400005
 20
-522.5000000000001
 30
0.0
 11
-523.1000005999949
 21
-522.5000000000001
 31
0.0
  0
LINE
  5
4AE
330
186
100
AcDbEntity
  8
0
  6
Continuous
 62
     7
370
     9
100
AcDbLine
 10
-523.1000005999949
 20
-527.5
 30
0.0
 11
-521.899999400005
 21
-527.5
 31
0.0
  0
LINE
  5
4AF
330
186
100
AcDbEntity
  8
0
  6
Continuous
 62
     7
370
     9
100
AcDbLine
 10
-521.899999400005
 20
-397.5000000000001
 30
0.0
 11
-523.1000005999949
 21
-397.5000000000001
 31
0.0
  0
LINE
  5
4B0
330
186
100
AcDbEntity
  8
0
  6
Continuous
 62
     7
370
     9
100
AcDbLine
 10
-523.1000005999949
 20
-402.4999999999999
 30
0.0
 11
-521.899999400005
 21
-402.4999999999999
 31
0.0
  0
LINE
  5
4B1
330
186
100
AcDbEntity
  8
0
  6
Continuous
 62
     7
370
     9
100
AcDbLine
 10
-521.899999400005
 20
-422.5000000000001
 30
0.0
 11
-523.1000005999949
 21
-422.5000000000001
 31
0.0
  0
LINE
  5
4B2
330
186
100
AcDbEntity
  8
0
  6
Continuous
 62
     7
370
     9
100
AcDbLine
 10
-523.1000005999949
 20
-427.5
 30
0.0
 11
-521.899999400005
 21
-427.5
 31
0.0
  0
LINE
  5
4B3
330
186
100
AcDbEntity
  8
0
  6
Continuous
 62
     7
370
     9
100
AcDbLine
 10
-521.899999400005
 20
-647.5000000000001
 30
0.0
 11
-523.1000005999949
 21
-647.5000000000001
 31
0.0
  0
LINE
  5
4B4
330
186
100
AcDbEntity
  8
0
  6
Continuous
 62
     7
370
     9
100
AcDbLine
 10
-523.1000005999949
 20
-652.5
 30
0.0
 11
-521.899999400005
 21
-652.5
 31
0.0
  0
LINE
  5
4B5
330
186
100
AcDbEntity
  8
0
  6
Continuous
 62
     7
370
     9
100
AcDbLine
 10
-521.899999400005
 20
-647.5000000000001
 30
0.0
 11
-523.1000005999949
 21
-647.5000000000001
 31
0.0
  0
LINE
  5
4B6
330
186
100
AcDbEntity
  8
0
  6
Continuous
 62
     7
370
     9
100
AcDbLine
 10
-523.1000005999949
 20
-652.5
 30
0.0
 11
-521.899999400005
 21
-652.5
 31
0.0
  0
LINE
  5
4B7
330
186
100
AcDbEntity
  8
0
  6
Continuous
 62
     7
370
     9
100
AcDbLine
 10
-521.899999400005
 20
-372.5000000000001
 30
0.0
 11
-523.1000005999949
 21
-372.5000000000001
 31
0.0
  0
LINE
  5
4B8
330
186
100
AcDbEntity
  8
0
  6
Continuous
 62
     7
370
     9
100
AcDbLine
 10
-523.1000005999949
 20
-377.4999999999999
 30
0.0
 11
-521.899999400005
 21
-377.4999999999999
 31
0.0
  0
LINE
  5
4B9
330
186
100
AcDbEntity
  8
0
  6
Continuous
 62
     7
370
     9
100
AcDbLine
 10
-521.899999400005
 20
-622.5
 30
0.0
 11
-523.1000005999949
 21
-622.5
 31
0.0
  0
LINE
  5
4BA
330
186
100
AcDbEntity
  8
0
  6
Continuous
 62
     7
370
     9
100
AcDbLine
 10
-523.1000005999949
 20
-627.4999999999999
 30
0.0
 11
-521.899999400005
 21
-627.4999999999999
 31
0.0
  0
LINE
  5
4BB
330
186
100
AcDbEntity
  8
0
  6
Continuous
 62
     7
370
     9
100
AcDbLine
 10
-521.899999400005
 20
-497.5000000000001
 30
0.0
 11
-523.1000005999949
 21
-497.5000000000001
 31
0.0
  0
LINE
  5
4BC
330
186
100
AcDbEntity
  8
0
  6
Continuous
 62
     7
370
     9
100
AcDbLine
 10
-523.1000005999949
 20
-502.4999999999999
 30
0.0
 11
-521.899999400005
 21
-502.4999999999999
 31
0.0
  0
LINE
  5
4BD
330
186
100
AcDbEntity
  8
0
  6
Continuous
 62
     7
370
     9
100
AcDbLine
 10
-521.899999400005
 20
-397.5000000000001
 30
0.0
 11
-523.1000005999949
 21
-397.5000000000001
 31
0.0
  0
LINE
  5
4BE
330
186
100
AcDbEntity
  8
0
  6
Continuous
 62
     7
370
     9
100
AcDbLine
 10
-523.1000005999949
 20
-402.4999999999999
 30
0.0
 11
-521.899999400005
 21
-402.4999999999999
 31
0.0
  0
LINE
  5
4BF
330
186
100
AcDbEntity
  8
0
  6
Continuous
 62
     7
370
     9
100
AcDbLine
 10
-521.899999400005
 20
-597.5
 30
0.0
 11
-523.1000005999949
 21
-597.5
 31
0.0
  0
LINE
  5
4C0
330
186
100
AcDbEntity
  8
0
  6
Continuous
 62
     7
370
     9
100
AcDbLine
 10
-523.1000005999949
 20
-602.4999999999999
 30
0.0
 11
-521.899999400005
 21
-602.4999999999999
 31
0.0
  0
LINE
  5
4C1
330
186
100
AcDbEntity
  8
0
  6
Continuous
 62
     7
370
     9
100
AcDbLine
 10
-521.899999400005
 20
-547.5000000000001
 30
0.0
 11
-523.1000005999949
 21
-547.5000000000001
 31
0.0
  0
LINE
  5
4C2
330
186
100
AcDbEntity
  8
0
  6
Continuous
 62
     7
370
     9
100
AcDbLine
 10
-523.1000005999949
 20
-552.5
 30
0.0
 11
-521.899999400005
 21
-552.5
 31
0.0
  0
LINE
  5
4C3
330
186
100
AcDbEntity
  8
0
  6
Continuous
 62
     7
370
     9
100
AcDbLine
 10
-521.899999400005
 20
-447.5
 30
0.0
 11
-523.1000005999949
 21
-447.5
 31
0.0
  0
LINE
  5
4C4
330
186
100
AcDbEntity
  8
0
  6
Continuous
 62
     7
370
     9
100
AcDbLine
 10
-523.1000005999949
 20
-452.4999999999999
 30
0.0
 11
-521.899999400005
 21
-452.4999999999999
 31
0.0
  0
LINE
  5
4C5
330
186
100
AcDbEntity
  8
0
  6
Continuous
 62
     7
370
     9
100
AcDbLine
 10
-521.899999400005
 20
-522.5000000000001
 30
0.0
 11
-523.1000005999949
 21
-522.5000000000001
 31
0.0
  0
LINE
  5
4C6
330
186
100
AcDbEntity
  8
0
  6
Continuous
 62
     7
370
     9
100
AcDbLine
 10
-523.1000005999949
 20
-527.5
 30
0.0
 11
-521.899999400005
 21
-527.5
 31
0.0
  0
LINE
  5
4C7
330
186
100
AcDbEntity
  8
0
  6
Continuous
 62
     7
370
     9
100
AcDbLine
 10
-521.899999400005
 20
-472.5
 30
0.0
 11
-523.1000005999949
 21
-472.5
 31
0.0
  0
LINE
  5
4C8
330
186
100
AcDbEntity
  8
0
  6
Continuous
 62
     7
370
     9
100
AcDbLine
 10
-523.1000005999949
 20
-477.4999999999999
 30
0.0
 11
-521.899999400005
 21
-477.4999999999999
 31
0.0
  0
LINE
  5
4C9
330
186
100
AcDbEntity
  8
0
  6
Continuous
 62
     7
370
     9
100
AcDbLine
 10
-521.899999400005
 20
-422.5000000000001
 30
0.0
 11
-523.1000005999949
 21
-422.5000000000001
 31
0.0
  0
LINE
  5
4CA
330
186
100
AcDbEntity
  8
0
  6
Continuous
 62
     7
370
     9
100
AcDbLine
 10
-523.1000005999949
 20
-427.5
 30
0.0
 11
-521.899999400005
 21
-427.5
 31
0.0
  0
LINE
  5
4CB
330
186
100
AcDbEntity
  8
0
  6
Continuous
 62
     7
370
     9
100
AcDbLine
 10
-521.899999400005
 20
-572.5
 30
0.0
 11
-523.1000005999949
 21
-572.5
 31
0.0
  0
LINE
  5
4CC
330
186
100
AcDbEntity
  8
0
  6
Continuous
 62
     7
370
     9
100
AcDbLine
 10
-523.1000005999949
 20
-577.4999999999999
 30
0.0
 11
-521.899999400005
 21
-577.4999999999999
 31
0.0
  0
LINE
  5
4CD
330
186
100
AcDbEntity
  8
0
  6
Continuous
 62
     7
370
     9
100
AcDbLine
 10
-521.899999400005
 20
-397.4999999999999
 30
0.0
 11
-523.1000005999949
 21
-397.4999999999999
 31
0.0
  0
LINE
  5
4CE
330
186
100
AcDbEntity
  8
0
  6
Continuous
 62
     7
370
     9
100
AcDbLine
 10
-523.1000005999949
 20
-402.5000000000001
 30
0.0
 11
-521.899999400005
 21
-402.5000000000001
 31
0.0
  0
LINE
  5
4CF
330
186
100
AcDbEntity
  8
0
  6
Continuous
 62
     7
370
     9
100
AcDbLine
 10
-521.899999400005
 20
-372.4999999999999
 30
0.0
 11
-523.1000005999949
 21
-372.4999999999999
 31
0.0
  0
LINE
  5
4D0
330
186
100
AcDbEntity
  8
0
  6
Continuous
 62
     7
370
     9
100
AcDbLine
 10
-523.1000005999949
 20
-377.5000000000001
 30
0.0
 11
-521.899999400005
 21
-377.5000000000001
 31
0.0
  0
LINE
  5
4D1
330
186
100
AcDbEntity
  8
0
  6
Continuous
 62
     7
370
     9
100
AcDbLine
 10
-521.899999400005
 20
-647.5
 30
0.0
 11
-523.1000005999949
 21
-647.5
 31
0.0
  0
LINE
  5
4D2
330
186
100
AcDbEntity
  8
0
  6
Continuous
 62
     7
370
     9
100
AcDbLine
 10
-523.1000005999949
 20
-652.5000000000001
 30
0.0
 11
-521.899999400005
 21
-652.5000000000001
 31
0.0
  0
LINE
  5
4D3
330
186
100
AcDbEntity
  8
0
  6
Continuous
 62
     7
370
     9
100
AcDbLine
 10
-521.899999400005
 20
-622.4999999999999
 30
0.0
 11
-523.1000005999949
 21
-622.4999999999999
 31
0.0
  0
LINE
  5
4D4
330
186
100
AcDbEntity
  8
0
  6
Continuous
 62
     7
370
     9
100
AcDbLine
 10
-523.1000005999949
 20
-627.5
 30
0.0
 11
-521.899999400005
 21
-627.5
 31
0.0
  0
LINE
  5
4D5
330
186
100
AcDbEntity
  8
0
  6
Continuous
 62
     7
370
     9
100
AcDbLine
 10
-521.899999400005
 20
-397.4999999999999
 30
0.0
 11
-523.1000005999949
 21
-397.4999999999999
 31
0.0
  0
LINE
  5
4D6
330
186
100
AcDbEntity
  8
0
  6
Continuous
 62
     7
370
     9
100
AcDbLine
 10
-523.1000005999949
 20
-402.5000000000001
 30
0.0
 11
-521.899999400005
 21
-402.5000000000001
 31
0.0
  0
LINE
  5
4D7
330
186
100
AcDbEntity
  8
0
  6
Continuous
 62
     7
370
     9
100
AcDbLine
 10
-521.899999400005
 20
-622.4999999999999
 30
0.0
 11
-523.1000005999949
 21
-622.4999999999999
 31
0.0
  0
LINE
  5
4D8
330
186
100
AcDbEntity
  8
0
  6
Continuous
 62
     7
370
     9
100
AcDbLine
 10
-523.1000005999949
 20
-627.5
 30
0.0
 11
-521.899999400005
 21
-627.5
 31
0.0
  0
LINE
  5
4D9
330
186
100
AcDbEntity
  8
0
  6
Continuous
 62
     7
370
     9
100
AcDbLine
 10
-521.899999400005
 20
-647.5000000000001
 30
0.0
 11
-523.1000005999949
 21
-647.5000000000001
 31
0.0
  0
LINE
  5
4DA
330
186
100
AcDbEntity
  8
0
  6
Continuous
 62
     7
370
     9
100
AcDbLine
 10
-523.1000005999949
 20
-652.5
 30
0.0
 11
-521.899999400005
 21
-652.5
 31
0.0
  0
LINE
  5
4DB
330
186
100
AcDbEntity
  8
0
  6
Continuous
 62
     7
370
     9
100
AcDbLine
 10
-521.899999400005
 20
-372.5000000000001
 30
0.0
 11
-523.1000005999949
 21
-372.5000000000001
 31
0.0
  0
LINE
  5
4DC
330
186
100
AcDbEntity
  8
0
  6
Continuous
 62
     7
370
     9
100
AcDbLine
 10
-523.1000005999949
 20
-377.4999999999999
 30
0.0
 11
-521.899999400005
 21
-377.4999999999999
 31
0.0
  0
LINE
  5
4DD
330
186
100
AcDbEntity
  8
0
  6
Continuous
 62
     7
370
     9
100
AcDbLine
 10
-521.899999400005
 20
-622.4999999999999
 30
0.0
 11
-523.1000005999949
 21
-622.4999999999999
 31
0.0
  0
LINE
  5
4DE
330
186
100
AcDbEntity
  8
0
  6
Continuous
 62
     7
370
     9
100
AcDbLine
 10
-523.1000005999949
 20
-627.5
 30
0.0
 11
-521.899999400005
 21
-627.5
 31
0.0
  0
LINE
  5
4DF
330
186
100
AcDbEntity
  8
0
  6
Continuous
 62
     7
370
     9
100
AcDbLine
 10
-521.899999400005
 20
-372.4999999999999
 30
0.0
 11
-523.1000005999949
 21
-372.4999999999999
 31
0.0
  0
LINE
  5
4E0
330
186
100
AcDbEntity
  8
0
  6
Continuous
 62
     7
370
     9
100
AcDbLine
 10
-523.1000005999949
 20
-377.5000000000001
 30
0.0
 11
-521.899999400005
 21
-377.5000000000001
 31
0.0
  0
LINE
  5
4E1
330
186
100
AcDbEntity
  8
0
  6
Continuous
 62
     7
370
     9
100
AcDbLine
 10
-521.899999400005
 20
-397.4999999999999
 30
0.0
 11
-523.1000005999949
 21
-397.4999999999999
 31
0.0
  0
LINE
  5
4E2
330
186
100
AcDbEntity
  8
0
  6
Continuous
 62
     7
370
     9
100
AcDbLine
 10
-523.1000005999949
 20
-402.5000000000001
 30
0.0
 11
-521.899999400005
 21
-402.5000000000001
 31
0.0
  0
LINE
  5
4E3
330
186
100
AcDbEntity
  8
0
  6
Continuous
 62
     7
370
     9
100
AcDbLine
 10
-521.899999400005
 20
-647.5
 30
0.0
 11
-523.1000005999949
 21
-647.5
 31
0.0
  0
LINE
  5
4E4
330
186
100
AcDbEntity
  8
0
  6
Continuous
 62
     7
370
     9
100
AcDbLine
 10
-523.1000005999949
 20
-652.5000000000001
 30
0.0
 11
-521.899999400005
 21
-652.5000000000001
 31
0.0
  0
LINE
  5
4E5
330
186
100
AcDbEntity
  8
0
  6
Continuous
 62
     7
370
     9
100
AcDbLine
 10
-521.899999400005
 20
-647.5
 30
0.0
 11
-523.1000005999949
 21
-647.5
 31
0.0
  0
LINE
  5
4E6
330
186
100
AcDbEntity
  8
0
  6
Continuous
 62
     7
370
     9
100
AcDbLine
 10
-523.1000005999949
 20
-652.5000000000001
 30
0.0
 11
-521.899999400005
 21
-652.5000000000001
 31
0.0
  0
LINE
  5
4E7
330
186
100
AcDbEntity
  8
0
  6
Continuous
 62
     7
370
     9
100
AcDbLine
 10
-521.899999400005
 20
-397.5000000000001
 30
0.0
 11
-523.1000005999949
 21
-397.5000000000001
 31
0.0
  0
LINE
  5
4E8
330
186
100
AcDbEntity
  8
0
  6
Continuous
 62
     7
370
     9
100
AcDbLine
 10
-523.1000005999949
 20
-402.4999999999999
 30
0.0
 11
-521.899999400005
 21
-402.4999999999999
 31
0.0
  0
LINE
  5
4E9
330
186
100
AcDbEntity
  8
0
  6
Continuous
 62
     7
370
     9
100
AcDbLine
 10
-521.899999400005
 20
-372.4999999999999
 30
0.0
 11
-523.1000005999949
 21
-372.4999999999999
 31
0.0
  0
LINE
  5
4EA
330
186
100
AcDbEntity
  8
0
  6
Continuous
 62
     7
370
     9
100
AcDbLine
 10
-523.1000005999949
 20
-377.5000000000001
 30
0.0
 11
-521.899999400005
 21
-377.5000000000001
 31
0.0
  0
LINE
  5
4EB
330
186
100
AcDbEntity
  8
0
  6
Continuous
 62
     7
370
     9
100
AcDbLine
 10
-521.899999400005
 20
-622.5
 30
0.0
 11
-523.1000005999949
 21
-622.5
 31
0.0
  0
LINE
  5
4EC
330
186
100
AcDbEntity
  8
0
  6
Continuous
 62
     7
370
     9
100
AcDbLine
 10
-523.1000005999949
 20
-627.4999999999999
 30
0.0
 11
-521.899999400005
 21
-627.4999999999999
 31
0.0
  0
LINE
  5
4ED
330
186
100
AcDbEntity
  8
0
  6
Continuous
 62
     7
370
     9
100
AcDbLine
 10
-521.899999400005
 20
-397.5000000000001
 30
0.0
 11
-523.1000005999949
 21
-397.5000000000001
 31
0.0
  0
LINE
  5
4EE
330
186
100
AcDbEntity
  8
0
  6
Continuous
 62
     7
370
     9
100
AcDbLine
 10
-523.1000005999949
 20
-402.4999999999999
 30
0.0
 11
-521.899999400005
 21
-402.4999999999999
 31
0.0
  0
LINE
  5
4EF
330
186
100
AcDbEntity
  8
0
  6
Continuous
 62
     7
370
     9
100
AcDbLine
 10
-521.899999400005
 20
-372.5000000000001
 30
0.0
 11
-523.1000005999949
 21
-372.5000000000001
 31
0.0
  0
LINE
  5
4F0
330
186
100
AcDbEntity
  8
0
  6
Continuous
 62
     7
370
     9
100
AcDbLine
 10
-523.1000005999949
 20
-377.4999999999999
 30
0.0
 11
-521.899999400005
 21
-377.4999999999999
 31
0.0
  0
LINE
  5
4F1
330
186
100
AcDbEntity
  8
0
  6
Continuous
 62
     7
370
     9
100
AcDbLine
 10
-521.899999400005
 20
-622.5
 30
0.0
 11
-523.1000005999949
 21
-622.5
 31
0.0
  0
LINE
  5
4F2
330
186
100
AcDbEntity
  8
0
  6
Continuous
 62
     7
370
     9
100
AcDbLine
 10
-523.1000005999949
 20
-627.4999999999999
 30
0.0
 11
-521.899999400005
 21
-627.4999999999999
 31
0.0
  0
LINE
  5
4F3
330
186
100
AcDbEntity
  8
0
  6
Continuous
 62
     7
370
     9
100
AcDbLine
 10
-521.899999400005
 20
-647.5000000000001
 30
0.0
 11
-523.1000005999949
 21
-647.5000000000001
 31
0.0
  0
LINE
  5
4F4
330
186
100
AcDbEntity
  8
0
  6
Continuous
 62
     7
370
     9
100
AcDbLine
 10
-523.1000005999949
 20
-652.5
 30
0.0
 11
-521.899999400005
 21
-652.5
 31
0.0
  0
LINE
  5
4F5
330
186
100
AcDbEntity
  8
0
  6
Continuous
 62
     7
370
     9
100
AcDbLine
 10
-521.899999400005
 20
-622.4999999999999
 30
0.0
 11
-523.1000005999949
 21
-622.4999999999999
 31
0.0
  0
LINE
  5
4F6
330
186
100
AcDbEntity
  8
0
  6
Continuous
 62
     7
370
     9
100
AcDbLine
 10
-523.1000005999949
 20
-627.4999999999999
 30
0.0
 11
-521.899999400005
 21
-627.4999999999999
 31
0.0
  0
LINE
  5
4F7
330
186
100
AcDbEntity
  8
0
  6
Continuous
 62
     7
370
     9
100
AcDbLine
 10
-521.899999400005
 20
-372.5000000000001
 30
0.0
 11
-523.1000005999949
 21
-372.5000000000001
 31
0.0
  0
LINE
  5
4F8
330
186
100
AcDbEntity
  8
0
  6
Continuous
 62
     7
370
     9
100
AcDbLine
 10
-523.1000005999949
 20
-377.5000000000001
 30
0.0
 11
-521.899999400005
 21
-377.5000000000001
 31
0.0
  0
LINE
  5
4F9
330
186
100
AcDbEntity
  8
0
  6
Continuous
 62
     7
370
     9
100
AcDbLine
 10
-521.899999400005
 20
-647.5
 30
0.0
 11
-523.1000005999949
 21
-647.5
 31
0.0
  0
LINE
  5
4FA
330
186
100
AcDbEntity
  8
0
  6
Continuous
 62
     7
370
     9
100
AcDbLine
 10
-523.1000005999949
 20
-652.5
 30
0.0
 11
-521.899999400005
 21
-652.5
 31
0.0
  0
LINE
  5
4FB
330
186
100
AcDbEntity
  8
0
  6
Continuous
 62
     7
370
     9
100
AcDbLine
 10
-521.899999400005
 20
-397.5000000000001
 30
0.0
 11
-523.1000005999949
 21
-397.5000000000001
 31
0.0
  0
LINE
  5
4FC
330
186
100
AcDbEntity
  8
0
  6
Continuous
 62
     7
370
     9
100
AcDbLine
 10
-523.1000005999949
 20
-402.5000000000001
 30
0.0
 11
-521.899999400005
 21
-402.5000000000001
 31
0.0
  0
LINE
  5
4FD
330
186
100
AcDbEntity
  8
0
  6
Continuous
 62
     7
370
     9
100
AcDbLine
 10
-521.899999400005
 20
-622.4999999999999
 30
0.0
 11
-523.1000005999949
 21
-622.4999999999999
 31
0.0
  0
LINE
  5
4FE
330
186
100
AcDbEntity
  8
0
  6
Continuous
 62
     7
370
     9
100
AcDbLine
 10
-523.1000005999949
 20
-627.4999999999999
 30
0.0
 11
-521.899999400005
 21
-627.4999999999999
 31
0.0
  0
LINE
  5
4FF
330
186
100
AcDbEntity
  8
0
  6
Continuous
 62
     7
370
     9
100
AcDbLine
 10
-521.899999400005
 20
-397.5000000000001
 30
0.0
 11
-523.1000005999949
 21
-397.5000000000001
 31
0.0
  0
LINE
  5
500
330
186
100
AcDbEntity
  8
0
  6
Continuous
 62
     7
370
     9
100
AcDbLine
 10
-523.1000005999949
 20
-402.5000000000001
 30
0.0
 11
-521.899999400005
 21
-402.5000000000001
 31
0.0
  0
LINE
  5
501
330
186
100
AcDbEntity
  8
0
  6
Continuous
 62
     7
370
     9
100
AcDbLine
 10
-521.899999400005
 20
-647.5
 30
0.0
 11
-523.1000005999949
 21
-647.5
 31
0.0
  0
LINE
  5
502
330
186
100
AcDbEntity
  8
0
  6
Continuous
 62
     7
370
     9
100
AcDbLine
 10
-523.1000005999949
 20
-652.5
 30
0.0
 11
-521.899999400005
 21
-652.5
 31
0.0
  0
LINE
  5
503
330
186
100
AcDbEntity
  8
0
  6
Continuous
 62
     7
370
     9
100
AcDbLine
 10
-521.899999400005
 20
-372.5000000000001
 30
0.0
 11
-523.1000005999949
 21
-372.5000000000001
 31
0.0
  0
LINE
  5
504
330
186
100
AcDbEntity
  8
0
  6
Continuous
 62
     7
370
     9
100
AcDbLine
 10
-523.1000005999949
 20
-377.5000000000001
 30
0.0
 11
-521.899999400005
 21
-377.5000000000001
 31
0.0
  0
LINE
  5
505
330
186
100
AcDbEntity
  8
0
  6
Continuous
 62
     7
370
     9
100
AcDbLine
 10
-521.899999400005
 20
-397.5000000000001
 30
0.0
 11
-523.1000005999949
 21
-397.5000000000001
 31
0.0
  0
LINE
  5
506
330
186
100
AcDbEntity
  8
0
  6
Continuous
 62
     7
370
     9
100
AcDbLine
 10
-523.1000005999949
 20
-402.5000000000001
 30
0.0
 11
-521.899999400005
 21
-402.5000000000001
 31
0.0
  0
LINE
  5
507
330
186
100
AcDbEntity
  8
0
  6
Continuous
 62
     7
370
     9
100
AcDbLine
 10
-521.899999400005
 20
-622.4999999999999
 30
0.0
 11
-523.1000005999949
 21
-622.4999999999999
 31
0.0
  0
LINE
  5
508
330
186
100
AcDbEntity
  8
0
  6
Continuous
 62
     7
370
     9
100
AcDbLine
 10
-523.1000005999949
 20
-627.4999999999999
 30
0.0
 11
-521.899999400005
 21
-627.4999999999999
 31
0.0
  0
LINE
  5
509
330
186
100
AcDbEntity
  8
0
  6
Continuous
 62
     7
370
     9
100
AcDbLine
 10
-521.899999400005
 20
-372.5000000000001
 30
0.0
 11
-523.1000005999949
 21
-372.5000000000001
 31
0.0
  0
LINE
  5
50A
330
186
100
AcDbEntity
  8
0
  6
Continuous
 62
     7
370
     9
100
AcDbLine
 10
-523.1000005999949
 20
-377.5000000000001
 30
0.0
 11
-521.899999400005
 21
-377.5000000000001
 31
0.0
  0
LINE
  5
50B
330
186
100
AcDbEntity
  8
0
  6
Continuous
 62
     7
370
     9
100
AcDbLine
 10
-521.899999400005
 20
-647.5
 30
0.0
 11
-523.1000005999949
 21
-647.5
 31
0.0
  0
LINE
  5
50C
330
186
100
AcDbEntity
  8
0
  6
Continuous
 62
     7
370
     9
100
AcDbLine
 10
-523.1000005999949
 20
-652.5
 30
0.0
 11
-521.899999400005
 21
-652.5
 31
0.0
  0
LINE
  5
50D
330
186
100
AcDbEntity
  8
0
  6
Continuous
 62
     7
370
     9
100
AcDbLine
 10
-521.899999400005
 20
-622.4999999999999
 30
0.0
 11
-523.1000005999949
 21
-622.4999999999999
 31
0.0
  0
LINE
  5
50E
330
186
100
AcDbEntity
  8
0
  6
Continuous
 62
     7
370
     9
100
AcDbLine
 10
-523.1000005999949
 20
-627.4999999999999
 30
0.0
 11
-521.899999400005
 21
-627.4999999999999
 31
0.0
  0
LINE
  5
50F
330
186
100
AcDbEntity
  8
0
  6
Continuous
 62
     7
370
     9
100
AcDbLine
 10
-521.899999400005
 20
-397.5000000000001
 30
0.0
 11
-523.1000005999949
 21
-397.5000000000001
 31
0.0
  0
LINE
  5
510
330
186
100
AcDbEntity
  8
0
  6
Continuous
 62
     7
370
     9
100
AcDbLine
 10
-523.1000005999949
 20
-402.5000000000001
 30
0.0
 11
-521.899999400005
 21
-402.5000000000001
 31
0.0
  0
LINE
  5
511
330
186
100
AcDbEntity
  8
0
  6
Continuous
 62
     7
370
     9
100
AcDbLine
 10
-521.899999400005
 20
-372.5000000000001
 30
0.0
 11
-523.1000005999949
 21
-372.5000000000001
 31
0.0
  0
LINE
  5
512
330
186
100
AcDbEntity
  8
0
  6
Continuous
 62
     7
370
     9
100
AcDbLine
 10
-523.1000005999949
 20
-377.5000000000001
 30
0.0
 11
-521.899999400005
 21
-377.5000000000001
 31
0.0
  0
LINE
  5
513
330
186
100
AcDbEntity
  8
0
  6
Continuous
 62
     7
370
     9
100
AcDbLine
 10
-521.899999400005
 20
-647.5
 30
0.0
 11
-523.1000005999949
 21
-647.5
 31
0.0
  0
LINE
  5
514
330
186
100
AcDbEntity
  8
0
  6
Continuous
 62
     7
370
     9
100
AcDbLine
 10
-523.1000005999949
 20
-652.5
 30
0.0
 11
-521.899999400005
 21
-652.5
 31
0.0
  0
LINE
  5
515
330
186
100
AcDbEntity
  8
0
  6
Continuous
 62
     7
370
     9
100
AcDbLine
 10
-521.899999400005
 20
-397.5000000000001
 30
0.0
 11
-523.1000005999949
 21
-397.5000000000001
 31
0.0
  0
LINE
  5
516
330
186
100
AcDbEntity
  8
0
  6
Continuous
 62
     7
370
     9
100
AcDbLine
 10
-523.1000005999949
 20
-402.5000000000001
 30
0.0
 11
-521.899999400005
 21
-402.5000000000001
 31
0.0
  0
LINE
  5
517
330
186
100
AcDbEntity
  8
0
  6
Continuous
 62
     7
370
     9
100
AcDbLine
 10
-521.899999400005
 20
-622.4999999999999
 30
0.0
 11
-523.1000005999949
 21
-622.4999999999999
 31
0.0
  0
LINE
  5
518
330
186
100
AcDbEntity
  8
0
  6
Continuous
 62
     7
370
     9
100
AcDbLine
 10
-523.1000005999949
 20
-627.4999999999999
 30
0.0
 11
-521.899999400005
 21
-627.4999999999999
 31
0.0
  0
LINE
  5
519
330
186
100
AcDbEntity
  8
0
  6
Continuous
 62
     7
370
     9
100
AcDbLine
 10
-521.899999400005
 20
-647.5
 30
0.0
 11
-523.1000005999949
 21
-647.5
 31
0.0
  0
LINE
  5
51A
330
186
100
AcDbEntity
  8
0
  6
Continuous
 62
     7
370
     9
100
AcDbLine
 10
-523.1000005999949
 20
-652.5
 30
0.0
 11
-521.899999400005
 21
-652.5
 31
0.0
  0
LINE
  5
51B
330
186
100
AcDbEntity
  8
0
  6
Continuous
 62
     7
370
     9
100
AcDbLine
 10
-521.899999400005
 20
-372.5000000000001
 30
0.0
 11
-523.1000005999949
 21
-372.5000000000001
 31
0.0
  0
LINE
  5
51C
330
186
100
AcDbEntity
  8
0
  6
Continuous
 62
     7
370
     9
100
AcDbLine
 10
-523.1000005999949
 20
-377.5000000000001
 30
0.0
 11
-521.899999400005
 21
-377.5000000000001
 31
0.0
  0
LINE
  5
51D
330
186
100
AcDbEntity
  8
0
  6
Continuous
 62
     7
370
     9
100
AcDbLine
 10
-521.899999400005
 20
-397.5000000000001
 30
0.0
 11
-523.1000005999949
 21
-397.5000000000001
 31
0.0
  0
LINE
  5
51E
330
186
100
AcDbEntity
  8
0
  6
Continuous
 62
     7
370
     9
100
AcDbLine
 10
-523.1000005999949
 20
-402.5000000000001
 30
0.0
 11
-521.899999400005
 21
-402.5000000000001
 31
0.0
  0
LINE
  5
51F
330
186
100
AcDbEntity
  8
0
  6
Continuous
 62
     7
370
     9
100
AcDbLine
 10
-521.899999400005
 20
-622.4999999999999
 30
0.0
 11
-523.1000005999949
 21
-622.4999999999999
 31
0.0
  0
LINE
  5
520
330
186
100
AcDbEntity
  8
0
  6
Continuous
 62
     7
370
     9
100
AcDbLine
 10
-523.1000005999949
 20
-627.4999999999999
 30
0.0
 11
-521.899999400005
 21
-627.4999999999999
 31
0.0
  0
LINE
  5
521
330
186
100
AcDbEntity
  8
0
  6
Continuous
 62
     7
370
     9
100
AcDbLine
 10
-521.899999400005
 20
-372.5000000000001
 30
0.0
 11
-523.1000005999949
 21
-372.5000000000001
 31
0.0
  0
LINE
  5
522
330
186
100
AcDbEntity
  8
0
  6
Continuous
 62
     7
370
     9
100
AcDbLine
 10
-523.1000005999949
 20
-377.5000000000001
 30
0.0
 11
-521.899999400005
 21
-377.5000000000001
 31
0.0
  0
LINE
  5
523
330
186
100
AcDbEntity
  8
0
  6
Continuous
 62
     7
370
     9
100
AcDbLine
 10
-521.899999400005
 20
-647.5
 30
0.0
 11
-523.1000005999949
 21
-647.5
 31
0.0
  0
LINE
  5
524
330
186
100
AcDbEntity
  8
0
  6
Continuous
 62
     7
370
     9
100
AcDbLine
 10
-523.1000005999949
 20
-652.5
 30
0.0
 11
-521.899999400005
 21
-652.5
 31
0.0
  0
LINE
  5
525
330
186
100
AcDbEntity
  8
0
  6
Continuous
 62
     7
370
     9
100
AcDbLine
 10
-521.899999400005
 20
-622.4999999999999
 30
0.0
 11
-523.1000005999949
 21
-622.4999999999999
 31
0.0
  0
LINE
  5
526
330
186
100
AcDbEntity
  8
0
  6
Continuous
 62
     7
370
     9
100
AcDbLine
 10
-523.1000005999949
 20
-627.5
 30
0.0
 11
-521.899999400005
 21
-627.5
 31
0.0
  0
LINE
  5
527
330
186
100
AcDbEntity
  8
0
  6
Continuous
 62
     7
370
     9
100
AcDbLine
 10
-521.899999400005
 20
-397.4999999999999
 30
0.0
 11
-523.1000005999949
 21
-397.4999999999999
 31
0.0
  0
LINE
  5
528
330
186
100
AcDbEntity
  8
0
  6
Continuous
 62
     7
370
     9
100
AcDbLine
 10
-523.1000005999949
 20
-402.5000000000001
 30
0.0
 11
-521.899999400005
 21
-402.5000000000001
 31
0.0
  0
LINE
  5
529
330
186
100
AcDbEntity
  8
0
  6
Continuous
 62
     7
370
     9
100
AcDbLine
 10
-521.899999400005
 20
-647.5
 30
0.0
 11
-523.1000005999949
 21
-647.5
 31
0.0
  0
LINE
  5
52A
330
186
100
AcDbEntity
  8
0
  6
Continuous
 62
     7
370
     9
100
AcDbLine
 10
-523.1000005999949
 20
-652.5
 30
0.0
 11
-521.899999400005
 21
-652.5
 31
0.0
  0
LINE
  5
52B
330
186
100
AcDbEntity
  8
0
  6
Continuous
 62
     7
370
     9
100
AcDbLine
 10
-521.899999400005
 20
-372.5000000000001
 30
0.0
 11
-523.1000005999949
 21
-372.5000000000001
 31
0.0
  0
LINE
  5
52C
330
186
100
AcDbEntity
  8
0
  6
Continuous
 62
     7
370
     9
100
AcDbLine
 10
-523.1000005999949
 20
-377.5000000000001
 30
0.0
 11
-521.899999400005
 21
-377.5000000000001
 31
0.0
  0
LINE
  5
52D
330
186
100
AcDbEntity
  8
0
  6
Continuous
 62
     7
370
     9
100
AcDbLine
 10
-521.899999400005
 20
-397.5000000000001
 30
0.0
 11
-523.1000005999949
 21
-397.5000000000001
 31
0.0
  0
LINE
  5
52E
330
186
100
AcDbEntity
  8
0
  6
Continuous
 62
     7
370
     9
100
AcDbLine
 10
-523.1000005999949
 20
-402.5000000000001
 30
0.0
 11
-521.899999400005
 21
-402.5000000000001
 31
0.0
  0
LINE
  5
52F
330
186
100
AcDbEntity
  8
0
  6
Continuous
 62
     7
370
     9
100
AcDbLine
 10
-521.899999400005
 20
-622.4999999999999
 30
0.0
 11
-523.1000005999949
 21
-622.4999999999999
 31
0.0
  0
LINE
  5
530
330
186
100
AcDbEntity
  8
0
  6
Continuous
 62
     7
370
     9
100
AcDbLine
 10
-523.1000005999949
 20
-627.4999999999999
 30
0.0
 11
-521.899999400005
 21
-627.4999999999999
 31
0.0
  0
LINE
  5
531
330
186
100
AcDbEntity
  8
0
  6
Continuous
 62
     7
370
     9
100
AcDbLine
 10
-521.899999400005
 20
-372.5000000000001
 30
0.0
 11
-523.1000005999949
 21
-372.5000000000001
 31
0.0
  0
LINE
  5
532
330
186
100
AcDbEntity
  8
0
  6
Continuous
 62
     7
370
     9
100
AcDbLine
 10
-523.1000005999949
 20
-377.5000000000001
 30
0.0
 11
-521.899999400005
 21
-377.5000000000001
 31
0.0
  0
LINE
  5
533
330
186
100
AcDbEntity
  8
0
  6
Continuous
 62
     7
370
     9
100
AcDbLine
 10
-521.899999400005
 20
-647.5
 30
0.0
 11
-523.1000005999949
 21
-647.5
 31
0.0
  0
LINE
  5
534
330
186
100
AcDbEntity
  8
0
  6
Continuous
 62
     7
370
     9
100
AcDbLine
 10
-523.1000005999949
 20
-652.5
 30
0.0
 11
-521.899999400005
 21
-652.5
 31
0.0
  0
LINE
  5
535
330
186
100
AcDbEntity
  8
0
  6
Continuous
 62
     7
370
     9
100
AcDbLine
 10
-521.899999400005
 20
-397.5000000000001
 30
0.0
 11
-523.1000005999949
 21
-397.5000000000001
 31
0.0
  0
LINE
  5
536
330
186
100
AcDbEntity
  8
0
  6
Continuous
 62
     7
370
     9
100
AcDbLine
 10
-523.1000005999949
 20
-402.5000000000001
 30
0.0
 11
-521.899999400005
 21
-402.5000000000001
 31
0.0
  0
LINE
  5
537
330
186
100
AcDbEntity
  8
0
  6
Continuous
 62
     7
370
     9
100
AcDbLine
 10
-521.899999400005
 20
-622.4999999999999
 30
0.0
 11
-523.1000005999949
 21
-622.4999999999999
 31
0.0
  0
LINE
  5
538
330
186
100
AcDbEntity
  8
0
  6
Continuous
 62
     7
370
     9
100
AcDbLine
 10
-523.1000005999949
 20
-627.4999999999999
 30
0.0
 11
-521.899999400005
 21
-627.4999999999999
 31
0.0
  0
LINE
  5
539
330
186
100
AcDbEntity
  8
0
  6
Continuous
 62
     7
370
     9
100
AcDbLine
 10
-521.899999400005
 20
-372.5000000000001
 30
0.0
 11
-523.1000005999949
 21
-372.5000000000001
 31
0.0
  0
LINE
  5
53A
330
186
100
AcDbEntity
  8
0
  6
Continuous
 62
     7
370
     9
100
AcDbLine
 10
-523.1000005999949
 20
-377.5000000000001
 30
0.0
 11
-521.899999400005
 21
-377.5000000000001
 31
0.0
  0
LINE
  5
53B
330
186
100
AcDbEntity
  8
0
  6
Continuous
 62
     7
370
     9
100
AcDbLine
 10
-521.899999400005
 20
-647.5
 30
0.0
 11
-523.1000005999949
 21
-647.5
 31
0.0
  0
LINE
  5
53C
330
186
100
AcDbEntity
  8
0
  6
Continuous
 62
     7
370
     9
100
AcDbLine
 10
-523.1000005999949
 20
-652.5
 30
0.0
 11
-521.899999400005
 21
-652.5
 31
0.0
  0
LINE
  5
53D
330
186
100
AcDbEntity
  8
0
  6
Continuous
 62
     7
370
     9
100
AcDbLine
 10
-521.899999400005
 20
-622.4999999999999
 30
0.0
 11
-523.1000005999949
 21
-622.4999999999999
 31
0.0
  0
LINE
  5
53E
330
186
100
AcDbEntity
  8
0
  6
Continuous
 62
     7
370
     9
100
AcDbLine
 10
-523.1000005999949
 20
-627.4999999999999
 30
0.0
 11
-521.899999400005
 21
-627.4999999999999
 31
0.0
  0
LINE
  5
53F
330
186
100
AcDbEntity
  8
0
  6
Continuous
 62
     7
370
     9
100
AcDbLine
 10
-521.899999400005
 20
-372.5000000000001
 30
0.0
 11
-523.1000005999949
 21
-372.5000000000001
 31
0.0
  0
LINE
  5
540
330
186
100
AcDbEntity
  8
0
  6
Continuous
 62
     7
370
     9
100
AcDbLine
 10
-523.1000005999949
 20
-377.5000000000001
 30
0.0
 11
-521.899999400005
 21
-377.5000000000001
 31
0.0
  0
LINE
  5
541
330
186
100
AcDbEntity
  8
0
  6
Continuous
 62
     7
370
     9
100
AcDbLine
 10
-521.899999400005
 20
-647.5
 30
0.0
 11
-523.1000005999949
 21
-647.5
 31
0.0
  0
LINE
  5
542
330
186
100
AcDbEntity
  8
0
  6
Continuous
 62
     7
370
     9
100
AcDbLine
 10
-523.1000005999949
 20
-652.5
 30
0.0
 11
-521.899999400005
 21
-652.5
 31
0.0
  0
LINE
  5
543
330
186
100
AcDbEntity
  8
0
  6
Continuous
 62
     7
370
     9
100
AcDbLine
 10
-521.899999400005
 20
-397.5000000000001
 30
0.0
 11
-523.1000005999949
 21
-397.5000000000001
 31
0.0
  0
LINE
  5
544
330
186
100
AcDbEntity
  8
0
  6
Continuous
 62
     7
370
     9
100
AcDbLine
 10
-523.1000005999949
 20
-402.5000000000001
 30
0.0
 11
-521.899999400005
 21
-402.5000000000001
 31
0.0
  0
LINE
  5
545
330
186
100
AcDbEntity
  8
0
  6
Continuous
 62
     7
370
     9
100
AcDbLine
 10
-521.899999400005
 20
-397.5000000000001
 30
0.0
 11
-523.1000005999949
 21
-397.5000000000001
 31
0.0
  0
LINE
  5
546
330
186
100
AcDbEntity
  8
0
  6
Continuous
 62
     7
370
     9
100
AcDbLine
 10
-523.1000005999949
 20
-402.5000000000001
 30
0.0
 11
-521.899999400005
 21
-402.5000000000001
 31
0.0
  0
LINE
  5
547
330
186
100
AcDbEntity
  8
0
  6
Continuous
 62
     7
370
     9
100
AcDbLine
 10
-521.899999400005
 20
-372.5000000000001
 30
0.0
 11
-523.1000005999949
 21
-372.5000000000001
 31
0.0
  0
LINE
  5
548
330
186
100
AcDbEntity
  8
0
  6
Continuous
 62
     7
370
     9
100
AcDbLine
 10
-523.1000005999949
 20
-377.5000000000001
 30
0.0
 11
-521.899999400005
 21
-377.5000000000001
 31
0.0
  0
LINE
  5
549
330
186
100
AcDbEntity
  8
0
  6
Continuous
 62
     7
370
     9
100
AcDbLine
 10
-521.899999400005
 20
-647.5
 30
0.0
 11
-523.1000005999949
 21
-647.5
 31
0.0
  0
LINE
  5
54A
330
186
100
AcDbEntity
  8
0
  6
Continuous
 62
     7
370
     9
100
AcDbLine
 10
-523.1000005999949
 20
-652.5
 30
0.0
 11
-521.899999400005
 21
-652.5
 31
0.0
  0
LINE
  5
54B
330
186
100
AcDbEntity
  8
0
  6
Continuous
 62
     7
370
     9
100
AcDbLine
 10
-521.899999400005
 20
-622.4999999999999
 30
0.0
 11
-523.1000005999949
 21
-622.4999999999999
 31
0.0
  0
LINE
  5
54C
330
186
100
AcDbEntity
  8
0
  6
Continuous
 62
     7
370
     9
100
AcDbLine
 10
-523.1000005999949
 20
-627.4999999999999
 30
0.0
 11
-521.899999400005
 21
-627.4999999999999
 31
0.0
  0
LINE
  5
54D
330
186
100
AcDbEntity
  8
0
  6
Continuous
 62
     7
370
     9
100
AcDbLine
 10
-521.899999400005
 20
-397.5000000000001
 30
0.0
 11
-523.1000005999949
 21
-397.5000000000001
 31
0.0
  0
LINE
  5
54E
330
186
100
AcDbEntity
  8
0
  6
Continuous
 62
     7
370
     9
100
AcDbLine
 10
-523.1000005999949
 20
-402.5000000000001
 30
0.0
 11
-521.899999400005
 21
-402.5000000000001
 31
0.0
  0
LINE
  5
54F
330
186
100
AcDbEntity
  8
0
  6
Continuous
 62
     7
370
     9
100
AcDbLine
 10
-521.899999400005
 20
-622.4999999999999
 30
0.0
 11
-523.1000005999949
 21
-622.4999999999999
 31
0.0
  0
LINE
  5
550
330
186
100
AcDbEntity
  8
0
  6
Continuous
 62
     7
370
     9
100
AcDbLine
 10
-523.1000005999949
 20
-627.4999999999999
 30
0.0
 11
-521.899999400005
 21
-627.4999999999999
 31
0.0
  0
LINE
  5
551
330
186
100
AcDbEntity
  8
0
  6
Continuous
 62
     7
370
     9
100
AcDbLine
 10
-521.899999400005
 20
-372.5000000000001
 30
0.0
 11
-523.1000005999949
 21
-372.5000000000001
 31
0.0
  0
LINE
  5
552
330
186
100
AcDbEntity
  8
0
  6
Continuous
 62
     7
370
     9
100
AcDbLine
 10
-523.1000005999949
 20
-377.5000000000001
 30
0.0
 11
-521.899999400005
 21
-377.5000000000001
 31
0.0
  0
LINE
  5
553
330
186
100
AcDbEntity
  8
0
  6
Continuous
 62
     7
370
     9
100
AcDbLine
 10
-521.899999400005
 20
-647.5
 30
0.0
 11
-523.1000005999949
 21
-647.5
 31
0.0
  0
LINE
  5
554
330
186
100
AcDbEntity
  8
0
  6
Continuous
 62
     7
370
     9
100
AcDbLine
 10
-523.1000005999949
 20
-652.5
 30
0.0
 11
-521.899999400005
 21
-652.5
 31
0.0
  0
LINE
  5
555
330
186
100
AcDbEntity
  8
0
  6
Continuous
 62
     7
370
     9
100
AcDbLine
 10
-521.899999400005
 20
-397.5000000000001
 30
0.0
 11
-523.1000005999949
 21
-397.5000000000001
 31
0.0
  0
LINE
  5
556
330
186
100
AcDbEntity
  8
0
  6
Continuous
 62
     7
370
     9
100
AcDbLine
 10
-523.1000005999949
 20
-402.5000000000001
 30
0.0
 11
-521.899999400005
 21
-402.5000000000001
 31
0.0
  0
LINE
  5
557
330
186
100
AcDbEntity
  8
0
  6
Continuous
 62
     7
370
     9
100
AcDbLine
 10
-521.899999400005
 20
-622.4999999999999
 30
0.0
 11
-523.1000005999949
 21
-622.4999999999999
 31
0.0
  0
LINE
  5
558
330
186
100
AcDbEntity
  8
0
  6
Continuous
 62
     7
370
     9
100
AcDbLine
 10
-523.1000005999949
 20
-627.4999999999999
 30
0.0
 11
-521.899999400005
 21
-627.4999999999999
 31
0.0
  0
LINE
  5
559
330
186
100
AcDbEntity
  8
0
  6
Continuous
 62
     7
370
     9
100
AcDbLine
 10
-521.899999400005
 20
-647.5
 30
0.0
 11
-523.1000005999949
 21
-647.5
 31
0.0
  0
LINE
  5
55A
330
186
100
AcDbEntity
  8
0
  6
Continuous
 62
     7
370
     9
100
AcDbLine
 10
-523.1000005999949
 20
-652.5
 30
0.0
 11
-521.899999400005
 21
-652.5
 31
0.0
  0
LINE
  5
55B
330
186
100
AcDbEntity
  8
0
  6
Continuous
 62
     7
370
     9
100
AcDbLine
 10
-521.899999400005
 20
-372.5000000000001
 30
0.0
 11
-523.1000005999949
 21
-372.5000000000001
 31
0.0
  0
LINE
  5
55C
330
186
100
AcDbEntity
  8
0
  6
Continuous
 62
     7
370
     9
100
AcDbLine
 10
-523.1000005999949
 20
-377.5000000000001
 30
0.0
 11
-521.899999400005
 21
-377.5000000000001
 31
0.0
  0
LINE
  5
55D
330
186
100
AcDbEntity
  8
0
  6
Continuous
 62
     7
370
     9
100
AcDbLine
 10
-521.899999400005
 20
-397.5000000000001
 30
0.0
 11
-523.1000005999949
 21
-397.5000000000001
 31
0.0
  0
LINE
  5
55E
330
186
100
AcDbEntity
  8
0
  6
Continuous
 62
     7
370
     9
100
AcDbLine
 10
-523.1000005999949
 20
-402.5000000000001
 30
0.0
 11
-521.899999400005
 21
-402.5000000000001
 31
0.0
  0
LINE
  5
55F
330
186
100
AcDbEntity
  8
0
  6
Continuous
 62
     7
370
     9
100
AcDbLine
 10
-521.899999400005
 20
-622.4999999999999
 30
0.0
 11
-523.1000005999949
 21
-622.4999999999999
 31
0.0
  0
LINE
  5
560
330
186
100
AcDbEntity
  8
0
  6
Continuous
 62
     7
370
     9
100
AcDbLine
 10
-523.1000005999949
 20
-627.4999999999999
 30
0.0
 11
-521.899999400005
 21
-627.4999999999999
 31
0.0
  0
LINE
  5
561
330
186
100
AcDbEntity
  8
0
  6
Continuous
 62
     7
370
     9
100
AcDbLine
 10
-521.899999400005
 20
-647.5
 30
0.0
 11
-523.1000005999949
 21
-647.5
 31
0.0
  0
LINE
  5
562
330
186
100
AcDbEntity
  8
0
  6
Continuous
 62
     7
370
     9
100
AcDbLine
 10
-523.1000005999949
 20
-652.5
 30
0.0
 11
-521.899999400005
 21
-652.5
 31
0.0
  0
LINE
  5
563
330
186
100
AcDbEntity
  8
0
  6
Continuous
 62
     7
370
     9
100
AcDbLine
 10
-521.899999400005
 20
-372.5000000000001
 30
0.0
 11
-523.1000005999949
 21
-372.5000000000001
 31
0.0
  0
LINE
  5
564
330
186
100
AcDbEntity
  8
0
  6
Continuous
 62
     7
370
     9
100
AcDbLine
 10
-523.1000005999949
 20
-377.5000000000001
 30
0.0
 11
-521.899999400005
 21
-377.5000000000001
 31
0.0
  0
LINE
  5
565
330
186
100
AcDbEntity
  8
0
  6
Continuous
 62
     7
370
     9
100
AcDbLine
 10
-521.899999400005
 20
-622.4999999999999
 30
0.0
 11
-523.1000005999949
 21
-622.4999999999999
 31
0.0
  0
LINE
  5
566
330
186
100
AcDbEntity
  8
0
  6
Continuous
 62
     7
370
     9
100
AcDbLine
 10
-523.1000005999949
 20
-627.4999999999999
 30
0.0
 11
-521.899999400005
 21
-627.4999999999999
 31
0.0
  0
LINE
  5
567
330
186
100
AcDbEntity
  8
0
  6
Continuous
 62
     7
370
     9
100
AcDbLine
 10
-521.899999400005
 20
-397.5000000000001
 30
0.0
 11
-523.1000005999949
 21
-397.5000000000001
 31
0.0
  0
LINE
  5
568
330
186
100
AcDbEntity
  8
0
  6
Continuous
 62
     7
370
     9
100
AcDbLine
 10
-523.1000005999949
 20
-402.5000000000001
 30
0.0
 11
-521.899999400005
 21
-402.5000000000001
 31
0.0
  0
LINE
  5
569
330
186
100
AcDbEntity
  8
0
  6
Continuous
 62
     7
370
     9
100
AcDbLine
 10
-521.899999400005
 20
-372.5000000000001
 30
0.0
 11
-523.1000005999949
 21
-372.5000000000001
 31
0.0
  0
LINE
  5
56A
330
186
100
AcDbEntity
  8
0
  6
Continuous
 62
     7
370
     9
100
AcDbLine
 10
-523.1000005999949
 20
-377.5000000000001
 30
0.0
 11
-521.899999400005
 21
-377.5000000000001
 31
0.0
  0
LINE
  5
56B
330
186
100
AcDbEntity
  8
0
  6
Continuous
 62
     7
370
     9
100
AcDbLine
 10
-521.899999400005
 20
-647.5
 30
0.0
 11
-523.1000005999949
 21
-647.5
 31
0.0
  0
LINE
  5
56C
330
186
100
AcDbEntity
  8
0
  6
Continuous
 62
     7
370
     9
100
AcDbLine
 10
-523.1000005999949
 20
-652.5
 30
0.0
 11
-521.899999400005
 21
-652.5
 31
0.0
  0
LINE
  5
56D
330
186
100
AcDbEntity
  8
0
  6
Continuous
 62
     7
370
     9
100
AcDbLine
 10
-521.899999400005
 20
-597.5
 30
0.0
 11
-523.1000005999949
 21
-597.5
 31
0.0
  0
LINE
  5
56E
330
186
100
AcDbEntity
  8
0
  6
Continuous
 62
     7
370
     9
100
AcDbLine
 10
-523.1000005999949
 20
-602.5
 30
0.0
 11
-521.899999400005
 21
-602.5
 31
0.0
  0
LINE
  5
56F
330
186
100
AcDbEntity
  8
0
  6
Continuous
 62
     7
370
     9
100
AcDbLine
 10
-521.899999400005
 20
-622.4999999999999
 30
0.0
 11
-523.1000005999949
 21
-622.4999999999999
 31
0.0
  0
LINE
  5
570
330
186
100
AcDbEntity
  8
0
  6
Continuous
 62
     7
370
     9
100
AcDbLine
 10
-523.1000005999949
 20
-627.4999999999999
 30
0.0
 11
-521.899999400005
 21
-627.4999999999999
 31
0.0
  0
LINE
  5
571
330
186
100
AcDbEntity
  8
0
  6
Continuous
 62
     7
370
     9
100
AcDbLine
 10
-521.899999400005
 20
-372.5000000000001
 30
0.0
 11
-523.1000005999949
 21
-372.5000000000001
 31
0.0
  0
LINE
  5
572
330
186
100
AcDbEntity
  8
0
  6
Continuous
 62
     7
370
     9
100
AcDbLine
 10
-523.1000005999949
 20
-377.5000000000001
 30
0.0
 11
-521.899999400005
 21
-377.5000000000001
 31
0.0
  0
LINE
  5
573
330
186
100
AcDbEntity
  8
0
  6
Continuous
 62
     7
370
     9
100
AcDbLine
 10
-521.899999400005
 20
-647.5
 30
0.0
 11
-523.1000005999949
 21
-647.5
 31
0.0
  0
LINE
  5
574
330
186
100
AcDbEntity
  8
0
  6
Continuous
 62
     7
370
     9
100
AcDbLine
 10
-523.1000005999949
 20
-652.5
 30
0.0
 11
-521.899999400005
 21
-652.5
 31
0.0
  0
LINE
  5
575
330
186
100
AcDbEntity
  8
0
  6
Continuous
 62
     7
370
     9
100
AcDbLine
 10
-521.899999400005
 20
-422.5
 30
0.0
 11
-523.1000005999949
 21
-422.5
 31
0.0
  0
LINE
  5
576
330
186
100
AcDbEntity
  8
0
  6
Continuous
 62
     7
370
     9
100
AcDbLine
 10
-523.1000005999949
 20
-427.5
 30
0.0
 11
-521.899999400005
 21
-427.5
 31
0.0
  0
LINE
  5
577
330
186
100
AcDbEntity
  8
0
  6
Continuous
 62
     7
370
     9
100
AcDbLine
 10
-521.899999400005
 20
-472.4999999999999
 30
0.0
 11
-523.1000005999949
 21
-472.4999999999999
 31
0.0
  0
LINE
  5
578
330
186
100
AcDbEntity
  8
0
  6
Continuous
 62
     7
370
     9
100
AcDbLine
 10
-523.1000005999949
 20
-477.4999999999999
 30
0.0
 11
-521.899999400005
 21
-477.4999999999999
 31
0.0
  0
LINE
  5
579
330
186
100
AcDbEntity
  8
0
  6
Continuous
 62
     7
370
     9
100
AcDbLine
 10
-521.899999400005
 20
-497.5
 30
0.0
 11
-523.1000005999949
 21
-497.5
 31
0.0
  0
LINE
  5
57A
330
186
100
AcDbEntity
  8
0
  6
Continuous
 62
     7
370
     9
100
AcDbLine
 10
-523.1000005999949
 20
-502.4999999999999
 30
0.0
 11
-521.899999400005
 21
-502.4999999999999
 31
0.0
  0
LINE
  5
57B
330
186
100
AcDbEntity
  8
0
  6
Continuous
 62
     7
370
     9
100
AcDbLine
 10
-521.899999400005
 20
-572.5
 30
0.0
 11
-523.1000005999949
 21
-572.5
 31
0.0
  0
LINE
  5
57C
330
186
100
AcDbEntity
  8
0
  6
Continuous
 62
     7
370
     9
100
AcDbLine
 10
-523.1000005999949
 20
-577.5
 30
0.0
 11
-521.899999400005
 21
-577.5
 31
0.0
  0
LINE
  5
57D
330
186
100
AcDbEntity
  8
0
  6
Continuous
 62
     7
370
     9
100
AcDbLine
 10
-521.899999400005
 20
-547.5
 30
0.0
 11
-523.1000005999949
 21
-547.5
 31
0.0
  0
LINE
  5
57E
330
186
100
AcDbEntity
  8
0
  6
Continuous
 62
     7
370
     9
100
AcDbLine
 10
-523.1000005999949
 20
-552.5
 30
0.0
 11
-521.899999400005
 21
-552.5
 31
0.0
  0
LINE
  5
57F
330
186
100
AcDbEntity
  8
0
  6
Continuous
 62
     7
370
     9
100
AcDbLine
 10
-521.899999400005
 20
-522.5
 30
0.0
 11
-523.1000005999949
 21
-522.5
 31
0.0
  0
LINE
  5
580
330
186
100
AcDbEntity
  8
0
  6
Continuous
 62
     7
370
     9
100
AcDbLine
 10
-523.1000005999949
 20
-527.5
 30
0.0
 11
-521.899999400005
 21
-527.5
 31
0.0
  0
LINE
  5
581
330
186
100
AcDbEntity
  8
0
  6
Continuous
 62
     7
370
     9
100
AcDbLine
 10
-521.899999400005
 20
-397.5000000000001
 30
0.0
 11
-523.1000005999949
 21
-397.5000000000001
 31
0.0
  0
LINE
  5
582
330
186
100
AcDbEntity
  8
0
  6
Continuous
 62
     7
370
     9
100
AcDbLine
 10
-523.1000005999949
 20
-402.5000000000001
 30
0.0
 11
-521.899999400005
 21
-402.5000000000001
 31
0.0
  0
LINE
  5
583
330
186
100
AcDbEntity
  8
0
  6
Continuous
 62
     7
370
     9
100
AcDbLine
 10
-521.899999400005
 20
-447.5
 30
0.0
 11
-523.1000005999949
 21
-447.5
 31
0.0
  0
LINE
  5
584
330
186
100
AcDbEntity
  8
0
  6
Continuous
 62
     7
370
     9
100
AcDbLine
 10
-523.1000005999949
 20
-452.5
 30
0.0
 11
-521.899999400005
 21
-452.5
 31
0.0
  0
LINE
  5
585
330
186
100
AcDbEntity
  8
0
  6
Continuous
 62
     7
370
     9
100
AcDbLine
 10
-521.899999400005
 20
-397.5000000000001
 30
0.0
 11
-523.1000005999949
 21
-397.5000000000001
 31
0.0
  0
LINE
  5
586
330
186
100
AcDbEntity
  8
0
  6
Continuous
 62
     7
370
     9
100
AcDbLine
 10
-523.1000005999949
 20
-402.5000000000001
 30
0.0
 11
-521.899999400005
 21
-402.5000000000001
 31
0.0
  0
LINE
  5
587
330
186
100
AcDbEntity
  8
0
  6
Continuous
 62
     7
370
     9
100
AcDbLine
 10
-521.899999400005
 20
-572.5
 30
0.0
 11
-523.1000005999949
 21
-572.5
 31
0.0
  0
LINE
  5
588
330
186
100
AcDbEntity
  8
0
  6
Continuous
 62
     7
370
     9
100
AcDbLine
 10
-523.1000005999949
 20
-577.5
 30
0.0
 11
-521.899999400005
 21
-577.5
 31
0.0
  0
LINE
  5
589
330
186
100
AcDbEntity
  8
0
  6
Continuous
 62
     7
370
     9
100
AcDbLine
 10
-521.899999400005
 20
-597.5
 30
0.0
 11
-523.1000005999949
 21
-597.5
 31
0.0
  0
LINE
  5
58A
330
186
100
AcDbEntity
  8
0
  6
Continuous
 62
     7
370
     9
100
AcDbLine
 10
-523.1000005999949
 20
-602.5
 30
0.0
 11
-521.899999400005
 21
-602.5
 31
0.0
  0
LINE
  5
58B
330
186
100
AcDbEntity
  8
0
  6
Continuous
 62
     7
370
     9
100
AcDbLine
 10
-521.899999400005
 20
-472.5
 30
0.0
 11
-523.1000005999949
 21
-472.5
 31
0.0
  0
LINE
  5
58C
330
186
100
AcDbEntity
  8
0
  6
Continuous
 62
     7
370
     9
100
AcDbLine
 10
-523.1000005999949
 20
-477.5
 30
0.0
 11
-521.899999400005
 21
-477.5
 31
0.0
  0
LINE
  5
58D
330
186
100
AcDbEntity
  8
0
  6
Continuous
 62
     7
370
     9
100
AcDbLine
 10
-521.899999400005
 20
-422.5
 30
0.0
 11
-523.1000005999949
 21
-422.5
 31
0.0
  0
LINE
  5
58E
330
186
100
AcDbEntity
  8
0
  6
Continuous
 62
     7
370
     9
100
AcDbLine
 10
-523.1000005999949
 20
-427.5
 30
0.0
 11
-521.899999400005
 21
-427.5
 31
0.0
  0
LINE
  5
58F
330
186
100
AcDbEntity
  8
0
  6
Continuous
 62
     7
370
     9
100
AcDbLine
 10
-521.899999400005
 20
-622.5
 30
0.0
 11
-523.1000005999949
 21
-622.5
 31
0.0
  0
LINE
  5
590
330
186
100
AcDbEntity
  8
0
  6
Continuous
 62
     7
370
     9
100
AcDbLine
 10
-523.1000005999949
 20
-627.5
 30
0.0
 11
-521.899999400005
 21
-627.5
 31
0.0
  0
LINE
  5
591
330
186
100
AcDbEntity
  8
0
  6
Continuous
 62
     7
370
     9
100
AcDbLine
 10
-521.899999400005
 20
-447.5
 30
0.0
 11
-523.1000005999949
 21
-447.5
 31
0.0
  0
LINE
  5
592
330
186
100
AcDbEntity
  8
0
  6
Continuous
 62
     7
370
     9
100
AcDbLine
 10
-523.1000005999949
 20
-452.5
 30
0.0
 11
-521.899999400005
 21
-452.5
 31
0.0
  0
LINE
  5
593
330
186
100
AcDbEntity
  8
0
  6
Continuous
 62
     7
370
     9
100
AcDbLine
 10
-521.899999400005
 20
-647.5
 30
0.0
 11
-523.1000005999949
 21
-647.5
 31
0.0
  0
LINE
  5
594
330
186
100
AcDbEntity
  8
0
  6
Continuous
 62
     7
370
     9
100
AcDbLine
 10
-523.1000005999949
 20
-652.5
 30
0.0
 11
-521.899999400005
 21
-652.5
 31
0.0
  0
LINE
  5
595
330
186
100
AcDbEntity
  8
0
  6
Continuous
 62
     7
370
     9
100
AcDbLine
 10
-521.899999400005
 20
-497.5
 30
0.0
 11
-523.1000005999949
 21
-497.5
 31
0.0
  0
LINE
  5
596
330
186
100
AcDbEntity
  8
0
  6
Continuous
 62
     7
370
     9
100
AcDbLine
 10
-523.1000005999949
 20
-502.4999999999999
 30
0.0
 11
-521.899999400005
 21
-502.4999999999999
 31
0.0
  0
LINE
  5
597
330
186
100
AcDbEntity
  8
0
  6
Continuous
 62
     7
370
     9
100
AcDbLine
 10
-521.899999400005
 20
-522.5
 30
0.0
 11
-523.1000005999949
 21
-522.5
 31
0.0
  0
LINE
  5
598
330
186
100
AcDbEntity
  8
0
  6
Continuous
 62
     7
370
     9
100
AcDbLine
 10
-523.1000005999949
 20
-527.5000000000001
 30
0.0
 11
-521.899999400005
 21
-527.5000000000001
 31
0.0
  0
LINE
  5
599
330
186
100
AcDbEntity
  8
0
  6
Continuous
 62
     7
370
     9
100
AcDbLine
 10
-521.899999400005
 20
-547.5
 30
0.0
 11
-523.1000005999949
 21
-547.5
 31
0.0
  0
LINE
  5
59A
330
186
100
AcDbEntity
  8
0
  6
Continuous
 62
     7
370
     9
100
AcDbLine
 10
-523.1000005999949
 20
-552.5
 30
0.0
 11
-521.899999400005
 21
-552.5
 31
0.0
  0
LINE
  5
59B
330
186
100
AcDbEntity
  8
0
  6
Continuous
 62
     7
370
     9
100
AcDbLine
 10
-521.899999400005
 20
-372.5000000000001
 30
0.0
 11
-523.1000005999949
 21
-372.5000000000001
 31
0.0
  0
LINE
  5
59C
330
186
100
AcDbEntity
  8
0
  6
Continuous
 62
     7
370
     9
100
AcDbLine
 10
-523.1000005999949
 20
-377.5000000000001
 30
0.0
 11
-521.899999400005
 21
-377.5000000000001
 31
0.0
  0
ENDBLK
  5
59F
330
186
100
AcDbEntity
  8
0
100
AcDbBlockEnd
  0
ENDSEC
  0
SECTION
  2
ENTITIES
  0
LINE
  5
6F
330
1F
100
AcDbEntity
  8
0
  6
CENTER
 62
     1
370
     9
100
AcDbLine
 10
-902.4999999999999
 20
-653.9999999999999
 30
0.0
 11
-902.4999999999999
 21
-370.9999999999999
 31
0.0
  0
LINE
  5
71
330
1F
100
AcDbEntity
  8
0
  6
CENTER
 62
     1
370
     9
100
AcDbLine
 10
-611.0
 20
-512.5
 30
0.0
 11
-1194.0
 21
-512.5
 31
0.0
  0
LINE
  5
72
330
1F
100
AcDbEntity
  8
0
  6
CENTER
 62
     1
370
     9
100
AcDbLine
 10
-525.1000005999949
 20
-512.5
 30
0.0
 11
-519.900000599995
 21
-512.5
 31
0.0
  0
MTEXT
  5
73
330
1F
100
AcDbEntity
  8
0
 62
     7
100
AcDbMText
 10
-615.9545454545454
 20
-698.068181818182
 30
0.0
 40
10.0
 41
0.0
 46
0.0
 71
     1
 72
     1
  1
{\fＭＳ ゴシック;TK-JKSAP50}
 73
     1
 44
1.0
  0
INSERT
  5
185
330
1F
100
AcDbEntity
  8
0
  6
Continuous
 62
     7
370
     9
100
AcDbBlockReference
  2
D_FRAME_VIEW@3598
 10
0.0
 20
0.0
 30
0.0
  0
INSERT
  5
59D
330
1F
100
AcDbEntity
  8
0
  6
Continuous
 62
     7
370
     9
100
AcDbBlockReference
  2
D_FRAME_VIEW@4916
 10
0.0
 20
0.0
 30
0.0
  0
ENDSEC
  0
SECTION
  2
OBJECTS
  0
DICTIONARY
  5
C
330
0
100
AcDbDictionary
281
     1
  3
ACAD_DETAILVIEWSTYLE
350
5A7
  3
ACAD_GROUP
350
D
  3
ACAD_LAYOUT
350
1A
  3
ACAD_MATERIAL
350
43
  3
ACAD_MLEADERSTYLE
350
6B
  3
ACAD_MLINESTYLE
350
17
  3
ACAD_PLOTSETTINGS
350
19
  3
ACAD_PLOTSTYLENAME
350
E
  3
ACAD_SCALELIST
350
47
  3
ACAD_SECTIONVIEWSTYLE
350
5A8
  3
ACAD_TABLESTYLE
350
69
  3
ACAD_VISUALSTYLE
350
2A
  3
ACDB_RECOMPOSE_DATA
350
5A4
  3
AcDbVariableDictionary
350
5A0
  0
SUN
  5
6D
330
29
100
AcDbSun
 90
        1
290
     0
 63
     7
421
 16777215
 40
1.0
291
     1
 91
  2455826
 92
 54000000
292
     0
 70
     2
 71
   256
280
     1
  0
DICTIONARY
  5
5A7
102
{ACAD_REACTORS
330
C
102
}
330
C
100
AcDbDictionary
281
     1
  0
DICTIONARY
  5
D
102
{ACAD_REACTORS
330
C
102
}
330
C
100
AcDbDictionary
281
     1
  0
DICTIONARY
  5
1A
102
{ACAD_REACTORS
330
C
102
}
330
C
100
AcDbDictionary
281
     1
  3
Layout1
350
1E
  3
Layout2
350
26
  3
Model
350
22
  0
DICTIONARY
  5
43
102
{ACAD_REACTORS
330
C
102
}
330
C
100
AcDbDictionary
281
     1
  3
ByBlock
350
45
  3
ByLayer
350
44
  3
Global
350
46
  0
DICTIONARY
  5
6B
102
{ACAD_REACTORS
330
C
102
}
330
C
100
AcDbDictionary
281
     1
  3
Standard
350
6C
  0
DICTIONARY
  5
17
102
{ACAD_REACTORS
330
C
102
}
330
C
100
AcDbDictionary
281
     1
  3
Standard
350
18
  0
DICTIONARY
  5
19
102
{ACAD_REACTORS
330
C
102
}
330
C
100
AcDbDictionary
281
     1
  0
ACDBDICTIONARYWDFLT
  5
E
102
{ACAD_REACTORS
330
C
102
}
330
C
100
AcDbDictionary
281
     1
  3
Normal
350
F
100
AcDbDictionaryWithDefault
340
F
  0
DICTIONARY
  5
47
102
{ACAD_REACTORS
330
C
102
}
330
C
100
AcDbDictionary
281
     1
  3
A0
350
48
  3
A1
350
49
  3
A2
350
4A
  3
A3
350
4B
  3
A4
350
4C
  3
A5
350
4D
  3
A6
350
4E
  3
A7
350
4F
  3
A8
350
50
  3
A9
350
51
  3
B0
350
52
  3
B1
350
53
  3
B2
350
54
  3
B3
350
55
  3
B4
350
56
  3
B5
350
57
  3
B6
350
58
  3
B7
350
59
  3
B8
350
5A
  3
B9
350
5B
  3
C0
350
5C
  3
C1
350
5D
  3
C2
350
5E
  3
C3
350
5F
  3
C4
350
60
  3
C5
350
61
  3
C6
350
62
  3
C7
350
63
  3
C8
350
64
  3
C9
350
65
  3
D0
350
66
  3
D1
350
67
  3
D2
350
68
  0
DICTIONARY
  5
5A8
102
{ACAD_REACTORS
330
C
102
}
330
C
100
AcDbDictionary
281
     1
  0
DICTIONARY
  5
69
102
{ACAD_REACTORS
330
C
102
}
330
C
100
AcDbDictionary
281
     1
  3
Standard
350
6A
  0
DICTIONARY
  5
2A
102
{ACAD_REACTORS
330
C
102
}
330
C
100
AcDbDictionary
281
     1
  3
2dWireframe
350
2F
  3
Basic
350
32
  3
Brighten
350
36
  3
ColorChange
350
3A
  3
Conceptual
350
34
  3
Dim
350
35
  3
EdgeColorOff
350
3D
  3
Facepattern
350
39
  3
Flat
350
2B
  3
FlatWithEdges
350
2C
  3
Gouraud
350
2D
  3
GouraudWithEdges
350
2E
  3
Hidden
350
31
  3
JitterOff
350
3B
  3
Linepattern
350
38
  3
OverhangOff
350
3C
  3
Realistic
350
33
  3
Shaded
350
42
  3
Shaded with edges
350
41
  3
Shades of Gray
350
3E
  3
Sketchy
350
3F
  3
Thicken
350
37
  3
Wireframe
350
30
  3
X-Ray
350
40
  0
XRECORD
  5
5A4
102
{ACAD_REACTORS
330
C
102
}
330
C
100
AcDbXrecord
280
     1
 90
        1
330
6A
  0
DICTIONARY
  5
5A0
102
{ACAD_REACTORS
330
C
102
}
330
C
100
AcDbDictionary
281
     1
  3
CANNOSCALE
350
5A1
  3
CMLEADERSTYLE
350
5A6
  3
CTABLESTYLE
350
5A5
  0
LAYOUT
  5
1E
102
{ACAD_REACTORS
330
1A
102
}
330
1A
100
AcDbPlotSettings
  1

  2
none_device
  4

  6

 40
0.0
 41
0.0
 42
0.0
 43
0.0
 44
0.0
 45
0.0
 46
0.0
 47
0.0
 48
0.0
 49
0.0
140
0.0
141
0.0
142
1.0
143
1.0
 70
   688
 72
     0
 73
     0
 74
     5
  7

 75
    16
 76
     0
 77
     2
 78
   300
147
1.0
148
0.0
149
0.0
100
AcDbLayout
  1
Layout1
 70
     1
 71
     1
 10
0.0
 20
0.0
 11
12.0
 21
9.0
 12
0.0
 22
0.0
 32
0.0
 14
1.000000000000000E+20
 24
1.000000000000000E+20
 34
1.000000000000000E+20
 15
-1.000000000000000E+20
 25
-1.000000000000000E+20
 35
-1.000000000000000E+20
146
0.0
 13
0.0
 23
0.0
 33
0.0
 16
1.0
 26
0.0
 36
0.0
 17
0.0
 27
1.0
 37
0.0
 76
     0
330
1B
  0
LAYOUT
  5
26
102
{ACAD_REACTORS
330
1A
102
}
330
1A
100
AcDbPlotSettings
  1

  2
none_device
  4

  6

 40
0.0
 41
0.0
 42
0.0
 43
0.0
 44
0.0
 45
0.0
 46
0.0
 47
0.0
 48
0.0
 49
0.0
140
0.0
141
0.0
142
1.0
143
1.0
 70
   688
 72
     0
 73
     0
 74
     5
  7

 75
    16
 76
     0
 77
     2
 78
   300
147
1.0
148
0.0
149
0.0
100
AcDbLayout
  1
Layout2
 70
     1
 71
     2
 10
0.0
 20
0.0
 11
0.0
 21
0.0
 12
0.0
 22
0.0
 32
0.0
 14
0.0
 24
0.0
 34
0.0
 15
0.0
 25
0.0
 35
0.0
146
0.0
 13
0.0
 23
0.0
 33
0.0
 16
1.0
 26
0.0
 36
0.0
 17
0.0
 27
1.0
 37
0.0
 76
     0
330
23
  0
LAYOUT
  5
22
102
{ACAD_REACTORS
330
1A
102
}
330
1A
100
AcDbPlotSettings
  1

  2
none_device
  4
Letter_(8.50_x_11.00_Inches)
  6

 40
6.35
 41
6.35
 42
6.35000508
 43
6.35000508
 44
215.9
 45
279.4
 46
0.0
 47
0.0
 48
0.0
 49
0.0
140
0.0
141
0.0
142
1.0
143
1.0
 70
  1712
 72
     0
 73
     0
 74
     0
  7

 75
     0
 76
     0
 77
     2
 78
   300
147
1.0
148
0.0
149
0.0
100
AcDbLayout
  1
Model
 70
     1
 71
     0
 10
0.0
 20
0.0
 11
12.0
 21
9.0
 12
0.0
 22
0.0
 32
0.0
 14
-1195.0
 24
-706.9318181818182
 34
0.0
 15
-519.900000599995
 25
-369.9999999999999
 35
0.0
146
0.0
 13
0.0
 23
0.0
 33
0.0
 16
1.0
 26
0.0
 36
0.0
 17
0.0
 27
1.0
 37
0.0
 76
     0
330
1F
331
29
  0
MATERIAL
  5
45
102
{ACAD_REACTORS
330
43
102
}
330
43
100
AcDbMaterial
  1
ByBlock
 72
     1
 94
      127
  0
MATERIAL
  5
44
102
{ACAD_REACTORS
330
43
102
}
330
43
100
AcDbMaterial
  1
ByLayer
 72
     1
 94
      127
  0
MATERIAL
  5
46
102
{ACAD_REACTORS
330
43
102
}
330
43
100
AcDbMaterial
  1
Global
 72
     1
 94
      127
  0
MLEADERSTYLE
  5
6C
102
{ACAD_REACTORS
330
6B
102
}
330
6B
100
AcDbMLeaderStyle
179
     2
170
     2
171
     1
172
     0
 90
        2
 40
0.0
 41
0.0
173
     1
 91
-1056964608
340
14
 92
       -2
290
     1
 42
0.09
291
     1
 43
0.36
  3
Standard
341
0
 44
0.18
300

342
11
174
     1
178
     6
175
     1
176
     0
 93
-1056964608
 45
0.18
292
     0
297
     0
 46
0.18
343
0
 94
-1056964608
 47
1.0
 49
1.0
140
1.0
293
     1
141
0.0
294
     1
177
     0
142
1.0
295
     0
296
     0
143
0.125
271
     0
272
     9
273
     9
298
     0
  0
MLINESTYLE
  5
18
102
{ACAD_REACTORS
330
17
102
}
330
17
100
AcDbMlineStyle
  2
Standard
 70
     0
  3

 62
   256
 51
90.0
 52
90.0
 71
     2
 49
0.5
 62
   256
  6
BYLAYER
 49
-0.5
 62
   256
  6
BYLAYER
  0
ACDBPLACEHOLDER
  5
F
102
{ACAD_REACTORS
330
E
102
}
330
E
  0
SCALE
  5
48
102
{ACAD_REACTORS
330
47
102
}
330
47
100
AcDbScale
 70
     0
300
1:1
140
1.0
141
1.0
290
     1
  0
SCALE
  5
49
102
{ACAD_REACTORS
330
47
102
}
330
47
100
AcDbScale
 70
     0
300
1:2
140
1.0
141
2.0
290
     0
  0
SCALE
  5
4A
102
{ACAD_REACTORS
330
47
102
}
330
47
100
AcDbScale
 70
     0
300
1:4
140
1.0
141
4.0
290
     0
  0
SCALE
  5
4B
102
{ACAD_REACTORS
330
47
102
}
330
47
100
AcDbScale
 70
     0
300
1:5
140
1.0
141
5.0
290
     0
  0
SCALE
  5
4C
102
{ACAD_REACTORS
330
47
102
}
330
47
100
AcDbScale
 70
     0
300
1:8
140
1.0
141
8.0
290
     0
  0
SCALE
  5
4D
102
{ACAD_REACTORS
330
47
102
}
330
47
100
AcDbScale
 70
     0
300
1:10
140
1.0
141
10.0
290
     0
  0
SCALE
  5
4E
102
{ACAD_REACTORS
330
47
102
}
330
47
100
AcDbScale
 70
     0
300
1:16
140
1.0
141
16.0
290
     0
  0
SCALE
  5
4F
102
{ACAD_REACTORS
330
47
102
}
330
47
100
AcDbScale
 70
     0
300
1:20
140
1.0
141
20.0
290
     0
  0
SCALE
  5
50
102
{ACAD_REACTORS
330
47
102
}
330
47
100
AcDbScale
 70
     0
300
1:30
140
1.0
141
30.0
290
     0
  0
SCALE
  5
51
102
{ACAD_REACTORS
330
47
102
}
330
47
100
AcDbScale
 70
     0
300
1:40
140
1.0
141
40.0
290
     0
  0
SCALE
  5
52
102
{ACAD_REACTORS
330
47
102
}
330
47
100
AcDbScale
 70
     0
300
1:50
140
1.0
141
50.0
290
     0
  0
SCALE
  5
53
102
{ACAD_REACTORS
330
47
102
}
330
47
100
AcDbScale
 70
     0
300
1:100
140
1.0
141
100.0
290
     0
  0
SCALE
  5
54
102
{ACAD_REACTORS
330
47
102
}
330
47
100
AcDbScale
 70
     0
300
2:1
140
2.0
141
1.0
290
     0
  0
SCALE
  5
55
102
{ACAD_REACTORS
330
47
102
}
330
47
100
AcDbScale
 70
     0
300
4:1
140
4.0
141
1.0
290
     0
  0
SCALE
  5
56
102
{ACAD_REACTORS
330
47
102
}
330
47
100
AcDbScale
 70
     0
300
8:1
140
8.0
141
1.0
290
     0
  0
SCALE
  5
57
102
{ACAD_REACTORS
330
47
102
}
330
47
100
AcDbScale
 70
     0
300
10:1
140
10.0
141
1.0
290
     0
  0
SCALE
  5
58
102
{ACAD_REACTORS
330
47
102
}
330
47
100
AcDbScale
 70
     0
300
100:1
140
100.0
141
1.0
290
     0
  0
SCALE
  5
59
102
{ACAD_REACTORS
330
47
102
}
330
47
100
AcDbScale
 70
     0
300
1/128" = 1'-0"
140
0.0078125
141
12.0
290
     0
  0
SCALE
  5
5A
102
{ACAD_REACTORS
330
47
102
}
330
47
100
AcDbScale
 70
     0
300
1/64" = 1'-0"
140
0.015625
141
12.0
290
     0
  0
SCALE
  5
5B
102
{ACAD_REACTORS
330
47
102
}
330
47
100
AcDbScale
 70
     0
300
1/32" = 1'-0"
140
0.03125
141
12.0
290
     0
  0
SCALE
  5
5C
102
{ACAD_REACTORS
330
47
102
}
330
47
100
AcDbScale
 70
     0
300
1/16" = 1'-0"
140
0.0625
141
12.0
290
     0
  0
SCALE
  5
5D
102
{ACAD_REACTORS
330
47
102
}
330
47
100
AcDbScale
 70
     0
300
3/32" = 1'-0"
140
0.09375
141
12.0
290
     0
  0
SCALE
  5
5E
102
{ACAD_REACTORS
330
47
102
}
330
47
100
AcDbScale
 70
     0
300
1/8" = 1'-0"
140
0.125
141
12.0
290
     0
  0
SCALE
  5
5F
102
{ACAD_REACTORS
330
47
102
}
330
47
100
AcDbScale
 70
     0
300
3/16" = 1'-0"
140
0.1875
141
12.0
290
     0
  0
SCALE
  5
60
102
{ACAD_REACTORS
330
47
102
}
330
47
100
AcDbScale
 70
     0
300
1/4" = 1'-0"
140
0.25
141
12.0
290
     0
  0
SCALE
  5
61
102
{ACAD_REACTORS
330
47
102
}
330
47
100
AcDbScale
 70
     0
300
3/8" = 1'-0"
140
0.375
141
12.0
290
     0
  0
SCALE
  5
62
102
{ACAD_REACTORS
330
47
102
}
330
47
100
AcDbScale
 70
     0
300
1/2" = 1'-0"
140
0.5
141
12.0
290
     0
  0
SCALE
  5
63
102
{ACAD_REACTORS
330
47
102
}
330
47
100
AcDbScale
 70
     0
300
3/4" = 1'-0"
140
0.75
141
12.0
290
     0
  0
SCALE
  5
64
102
{ACAD_REACTORS
330
47
102
}
330
47
100
AcDbScale
 70
     0
300
1" = 1'-0"
140
1.0
141
12.0
290
     0
  0
SCALE
  5
65
102
{ACAD_REACTORS
330
47
102
}
330
47
100
AcDbScale
 70
     0
300
1-1/2" = 1'-0"
140
1.5
141
12.0
290
     0
  0
SCALE
  5
66
102
{ACAD_REACTORS
330
47
102
}
330
47
100
AcDbScale
 70
     0
300
3" = 1'-0"
140
3.0
141
12.0
290
     0
  0
SCALE
  5
67
102
{ACAD_REACTORS
330
47
102
}
330
47
100
AcDbScale
 70
     0
300
6" = 1'-0"
140
6.0
141
12.0
290
     0
  0
SCALE
  5
68
102
{ACAD_REACTORS
330
47
102
}
330
47
100
AcDbScale
 70
     0
300
1'-0" = 1'-0"
140
12.0
141
12.0
290
     0
  0
TABLESTYLE
  5
6A
102
{ACAD_REACTORS
330
69
102
}
102
{ACAD_XDICTIONARY
360
5A2
102
}
330
69
100
AcDbTableStyle
  3
Standard
 70
     0
 71
     0
 40
0.06
 41
0.06
280
     0
281
     0
  7
Standard
140
0.18
170
     2
 62
     0
 63
   257
283
     0
 90
        4
 91
        0
  1

274
    -2
284
     1
 64
     0
275
    -2
285
     1
 65
     0
276
    -2
286
     1
 66
     0
277
    -2
287
     1
 67
     0
278
    -2
288
     1
 68
     0
279
    -2
289
     1
 69
     0
  7
Standard
140
0.25
170
     5
 62
     0
 63
   257
283
     0
 90
        4
 91
        0
  1

274
    -2
284
     1
 64
     0
275
    -2
285
     1
 65
     0
276
    -2
286
     1
 66
     0
277
    -2
287
     1
 67
     0
278
    -2
288
     1
 68
     0
279
    -2
289
     1
 69
     0
  7
Standard
140
0.18
170
     5
 62
     0
 63
   257
283
     0
 90
        4
 91
        0
  1

274
    -2
284
     1
 64
     0
275
    -2
285
     1
 65
     0
276
    -2
286
     1
 66
     0
277
    -2
287
     1
 67
     0
278
    -2
288
     1
 68
     0
279
    -2
289
     1
 69
     0
  0
VISUALSTYLE
  5
2F
102
{ACAD_REACTORS
330
2A
102
}
330
2A
100
AcDbVisualStyle
  2
2dWireframe
 70
     4
177
     3
291
     0
 70
    58
 90
        0
176
     1
 90
        2
176
     1
 90
        0
176
     1
 90
        0
176
     1
 40
0.6
176
     1
 40
30.0
176
     1
 62
     7
420
 16777215
176
     1
 90
        1
176
     1
 90
        4
176
     1
 62
     7
176
     1
 62
   257
176
     1
 90
        1
176
     1
 90
        1
176
     1
 40
1.0
176
     1
 90
        0
176
     1
 62
   257
176
     1
 40
1.0
176
     1
 90
        1
176
     1
 90
        6
176
     1
 90
        2
176
     1
 62
     7
176
     1
 90
        5
176
     1
 90
        0
176
     1
 90
        0
176
     1
290
     0
176
     1
 90
        1
176
     1
 40
0.0
176
     1
 90
        0
176
     1
290
     1
176
     1
290
     1
176
     1
290
     0
176
     1
290
     0
176
     1
290
     0
176
     1
290
     0
176
     1
290
     0
176
     1
290
     0
176
     1
290
     0
176
     1
 90
       50
176
     1
 40
0.0
176
     1
 40
1.0
176
     1
 90
        0
176
     1
 62
    18
420
        0
176
     1
 90
       50
176
     1
 90
        3
176
     1
 62
     5
420
      255
176
     1
290
     0
176
     1
 90
       50
176
     1
 90
       50
176
     1
 90
       50
176
     1
290
     0
176
     1
 90
       50
176
     1
 62
   256
176
     0
 40
1.0
176
     0
 90
        2
176
     1
  1
strokes_ogs.tif
176
     1
290
     0
176
     1
 40
1.0
176
     1
 40
1.0
176
     1
  0
VISUALSTYLE
  5
32
102
{ACAD_REACTORS
330
2A
102
}
330
2A
100
AcDbVisualStyle
  2
Basic
 70
     7
177
     3
291
     1
 70
    58
 90
        1
176
     1
 90
        0
176
     1
 90
        1
176
     1
 90
        0
176
     1
 40
0.6
176
     1
 40
30.0
176
     1
 62
     7
420
 16777215
176
     1
 90
        0
176
     1
 90
        4
176
     1
 62
     7
176
     1
 62
   257
176
     1
 90
        1
176
     1
 90
        1
176
     1
 40
1.0
176
     1
 90
        8
176
     1
 62
     7
176
     1
 40
1.0
176
     1
 90
        1
176
     1
 90
        6
176
     1
 90
        2
176
     1
 62
     7
176
     1
 90
        5
176
     1
 90
        0
176
     1
 90
        0
176
     1
290
     0
176
     1
 90
        1
176
     1
 40
0.0
176
     1
 90
        0
176
     1
290
     0
176
     1
290
     1
176
     1
290
     1
176
     1
290
     0
176
     1
290
     0
176
     1
290
     0
176
     1
290
     0
176
     1
290
     0
176
     1
290
     0
176
     1
 90
       50
176
     1
 40
0.0
176
     1
 40
1.0
176
     1
 90
        0
176
     1
 62
    18
420
        0
176
     1
 90
       50
176
     1
 90
        3
176
     1
 62
     5
420
      255
176
     1
290
     0
176
     1
 90
       50
176
     1
 90
       50
176
     1
 90
       50
176
     1
290
     0
176
     1
 90
       50
176
     1
 62
   256
176
     0
 40
1.0
176
     0
 90
        2
176
     1
  1
strokes_ogs.tif
176
     1
290
     0
176
     1
 40
1.0
176
     1
 40
1.0
176
     1
  0
VISUALSTYLE
  5
36
102
{ACAD_REACTORS
330
2A
102
}
330
2A
100
AcDbVisualStyle
  2
Brighten
 70
    12
177
     3
291
     1
 70
    58
 90
        2
176
     1
 90
        2
176
     1
 90
        0
176
     1
 90
        0
176
     1
 40
0.6
176
     1
 40
30.0
176
     1
 62
     7
420
 16777215
176
     1
 90
        1
176
     1
 90
        4
176
     1
 62
     7
176
     1
 62
   257
176
     1
 90
        1
176
     1
 90
        1
176
     1
 40
1.0
176
     1
 90
        8
176
     1
 62
     7
176
     1
 40
1.0
176
     1
 90
        1
176
     1
 90
        6
176
     1
 90
        2
176
     1
 62
     7
176
     1
 90
        5
176
     1
 90
        0
176
     1
 90
        0
176
     1
290
     0
176
     1
 90
        1
176
     1
 40
50.0
176
     1
 90
        0
176
     1
290
     0
176
     1
290
     1
176
     1
290
     1
176
     1
290
     0
176
     1
290
     0
176
     1
290
     0
176
     1
290
     0
176
     1
290
     0
176
     1
290
     0
176
     1
 90
       50
176
     1
 40
0.0
176
     1
 40
1.0
176
     1
 90
        0
176
     1
 62
    18
420
        0
176
     1
 90
       50
176
     1
 90
        3
176
     1
 62
     5
420
      255
176
     1
290
     0
176
     1
 90
       50
176
     1
 90
       50
176
     1
 90
       50
176
     1
290
     0
176
     1
 90
       50
176
     1
 62
   256
176
     0
 40
1.0
176
     0
 90
        2
176
     1
  1
strokes_ogs.tif
176
     1
290
     0
176
     1
 40
1.0
176
     1
 40
1.0
176
     1
  0
VISUALSTYLE
  5
3A
102
{ACAD_REACTORS
330
2A
102
}
330
2A
100
AcDbVisualStyle
  2
ColorChange
 70
    16
177
     3
291
     1
 70
    58
 90
        2
176
     1
 90
        2
176
     1
 90
        3
176
     1
 90
        0
176
     1
 40
0.6
176
     1
 40
30.0
176
     1
 62
     8
420
  8421504
176
     1
 90
        1
176
     1
 90
        4
176
     1
 62
     7
176
     1
 62
   257
176
     1
 90
        1
176
     1
 90
        1
176
     1
 40
1.0
176
     1
 90
        8
176
     1
 62
     8
420
  8421504
176
     1
 40
1.0
176
     1
 90
        1
176
     1
 90
        6
176
     1
 90
        2
176
     1
 62
     7
176
     1
 90
        5
176
     1
 90
        0
176
     1
 90
        0
176
     1
290
     0
176
     1
 90
        1
176
     1
 40
0.0
176
     1
 90
        0
176
     1
290
     0
176
     1
290
     1
176
     1
290
     1
176
     1
290
     0
176
     1
290
     0
176
     1
290
     0
176
     1
290
     0
176
     1
290
     0
176
     1
290
     0
176
     1
 90
       50
176
     1
 40
0.0
176
     1
 40
1.0
176
     1
 90
        0
176
     1
 62
    18
420
        0
176
     1
 90
       50
176
     1
 90
        3
176
     1
 62
     5
420
      255
176
     1
290
     0
176
     1
 90
       50
176
     1
 90
       50
176
     1
 90
       50
176
     1
290
     0
176
     1
 90
       50
176
     1
 62
   256
176
     0
 40
1.0
176
     0
 90
        2
176
     1
  1
strokes_ogs.tif
176
     1
290
     0
176
     1
 40
1.0
176
     1
 40
1.0
176
     1
  0
VISUALSTYLE
  5
34
102
{ACAD_REACTORS
330
2A
102
}
330
2A
100
AcDbVisualStyle
  2
Conceptual
 70
     9
177
     3
291
     0
 70
    58
 90
        3
176
     1
 90
        2
176
     1
 90
        0
176
     1
 90
        0
176
     1
 40
0.6
176
     1
 40
30.0
176
     1
 62
     7
420
 16777215
176
     1
 90
        2
176
     1
 90
        2
176
     1
 62
     7
176
     1
 62
   257
176
     1
 90
        1
176
     1
 90
        1
176
     1
 40
179.0
176
     1
 90
        8
176
     1
 62
     7
176
     1
 40
1.0
176
     1
 90
        1
176
     1
 90
        6
176
     1
 90
        2
176
     1
 62
     7
176
     1
 90
        3
176
     1
 90
        0
176
     1
 90
        0
176
     1
290
     0
176
     1
 90
        1
176
     1
 40
0.0
176
     1
 90
        0
176
     1
290
     0
176
     1
290
     1
176
     1
290
     1
176
     1
290
     0
176
     1
290
     0
176
     1
290
     0
176
     1
290
     0
176
     1
290
     0
176
     1
290
     0
176
     1
 90
       50
176
     1
 40
0.0
176
     1
 40
1.0
176
     1
 90
        0
176
     1
 62
    18
420
        0
176
     1
 90
       50
176
     1
 90
        3
176
     1
 62
     5
420
      255
176
     1
290
     0
176
     1
 90
       50
176
     1
 90
       50
176
     1
 90
       50
176
     1
290
     0
176
     1
 90
       50
176
     1
 62
   256
176
     0
 40
1.0
176
     0
 90
        2
176
     1
  1
strokes_ogs.tif
176
     1
290
     0
176
     1
 40
1.0
176
     1
 40
1.0
176
     1
  0
VISUALSTYLE
  5
35
102
{ACAD_REACTORS
330
2A
102
}
330
2A
100
AcDbVisualStyle
  2
Dim
 70
    11
177
     3
291
     1
 70
    58
 90
        2
176
     1
 90
        2
176
     1
 90
        0
176
     1
 90
        0
176
     1
 40
0.6
176
     1
 40
30.0
176
     1
 62
     7
420
 16777215
176
     1
 90
        1
176
     1
 90
        4
176
     1
 62
     7
176
     1
 62
   257
176
     1
 90
        1
176
     1
 90
        1
176
     1
 40
1.0
176
     1
 90
        8
176
     1
 62
     7
176
     1
 40
1.0
176
     1
 90
        1
176
     1
 90
        6
176
     1
 90
        2
176
     1
 62
     7
176
     1
 90
        5
176
     1
 90
        0
176
     1
 90
        0
176
     1
290
     0
176
     1
 90
        1
176
     1
 40
-50.0
176
     1
 90
        0
176
     1
290
     0
176
     1
290
     1
176
     1
290
     1
176
     1
290
     0
176
     1
290
     0
176
     1
290
     0
176
     1
290
     0
176
     1
290
     0
176
     1
290
     0
176
     1
 90
       50
176
     1
 40
0.0
176
     1
 40
1.0
176
     1
 90
        0
176
     1
 62
    18
420
        0
176
     1
 90
       50
176
     1
 90
        3
176
     1
 62
     5
420
      255
176
     1
290
     0
176
     1
 90
       50
176
     1
 90
       50
176
     1
 90
       50
176
     1
290
     0
176
     1
 90
       50
176
     1
 62
   256
176
     0
 40
1.0
176
     0
 90
        2
176
     1
  1
strokes_ogs.tif
176
     1
290
     0
176
     1
 40
1.0
176
     1
 40
1.0
176
     1
  0
VISUALSTYLE
  5
3D
102
{ACAD_REACTORS
330
2A
102
}
330
2A
100
AcDbVisualStyle
  2
EdgeColorOff
 70
    22
177
     3
291
     1
 70
    58
 90
        2
176
     0
 90
        2
176
     0
 90
        0
176
     0
 90
        0
176
     0
 40
0.6
176
     0
 40
30.0
176
     0
 62
     7
420
 16777215
176
     0
 90
        1
176
     0
 90
        4
176
     0
 62
     7
176
     0
 62
   257
176
     0
 90
        1
176
     0
 90
        1
176
     0
 40
1.0
176
     0
 90
        8
176
     2
 62
     7
176
     0
 40
1.0
176
     0
 90
        1
176
     0
 90
        6
176
     0
 90
        2
176
     0
 62
     7
176
     0
 90
        5
176
     0
 90
        0
176
     0
 90
        0
176
     0
290
     0
176
     0
 90
        1
176
     0
 40
0.0
176
     0
 90
        0
176
     0
290
     0
176
     0
290
     1
176
     0
290
     1
176
     0
290
     0
176
     0
290
     0
176
     0
290
     0
176
     0
290
     0
176
     0
290
     0
176
     0
290
     0
176
     0
 90
       50
176
     0
 40
0.0
176
     0
 40
1.0
176
     0
 90
        0
176
     0
 62
    18
420
        0
176
     0
 90
       50
176
     0
 90
        3
176
     0
 62
     5
420
      255
176
     0
290
     0
176
     0
 90
       50
176
     0
 90
       50
176
     0
 90
       50
176
     0
290
     0
176
     0
 90
       50
176
     0
 62
   256
176
     0
 40
1.0
176
     0
 90
        2
176
     0
  1
strokes_ogs.tif
176
     0
290
     0
176
     0
 40
1.0
176
     0
 40
1.0
176
     0
  0
VISUALSTYLE
  5
39
102
{ACAD_REACTORS
330
2A
102
}
330
2A
100
AcDbVisualStyle
  2
Facepattern
 70
    15
177
     3
291
     1
 70
    58
 90
        2
176
     1
 90
        2
176
     1
 90
        0
176
     1
 90
        0
176
     1
 40
0.6
176
     1
 40
30.0
176
     1
 62
     7
420
 16777215
176
     1
 90
        1
176
     1
 90
        4
176
     1
 62
     7
176
     1
 62
   257
176
     1
 90
        1
176
     1
 90
        1
176
     1
 40
1.0
176
     1
 90
        8
176
     1
 62
     7
176
     1
 40
1.0
176
     1
 90
        1
176
     1
 90
        6
176
     1
 90
        2
176
     1
 62
     7
176
     1
 90
        5
176
     1
 90
        0
176
     1
 90
        0
176
     1
290
     0
176
     1
 90
        1
176
     1
 40
0.0
176
     1
 90
        0
176
     1
290
     0
176
     1
290
     1
176
     1
290
     1
176
     1
290
     0
176
     1
290
     0
176
     1
290
     0
176
     1
290
     0
176
     1
290
     0
176
     1
290
     0
176
     1
 90
       50
176
     1
 40
0.0
176
     1
 40
1.0
176
     1
 90
        0
176
     1
 62
    18
420
        0
176
     1
 90
       50
176
     1
 90
        3
176
     1
 62
     5
420
      255
176
     1
290
     0
176
     1
 90
       50
176
     1
 90
       50
176
     1
 90
       50
176
     1
290
     0
176
     1
 90
       50
176
     1
 62
   256
176
     0
 40
1.0
176
     0
 90
        2
176
     1
  1
strokes_ogs.tif
176
     1
290
     0
176
     1
 40
1.0
176
     1
 40
1.0
176
     1
  0
VISUALSTYLE
  5
2B
102
{ACAD_REACTORS
330
2A
102
}
330
2A
100
AcDbVisualStyle
  2
Flat
 70
     0
177
     3
291
     1
 70
    58
 90
        2
176
     1
 90
        1
176
     1
 90
        1
176
     1
 90
        2
176
     1
 40
0.6
176
     1
 40
30.0
176
     1
 62
     7
420
 16777215
176
     1
 90
        0
176
     1
 90
        0
176
     1
 62
     7
176
     1
 62
   257
176
     1
 90
        1
176
     1
 90
        1
176
     1
 40
1.0
176
     1
 90
        8
176
     1
 62
     7
176
     1
 40
1.0
176
     1
 90
        1
176
     1
 90
        6
176
     1
 90
        2
176
     1
 62
     7
176
     1
 90
        5
176
     1
 90
        0
176
     1
 90
        0
176
     1
290
     0
176
     1
 90
       13
176
     1
 40
0.0
176
     1
 90
        0
176
     1
290
     0
176
     1
290
     1
176
     1
290
     1
176
     1
290
     0
176
     1
290
     0
176
     1
290
     0
176
     1
290
     0
176
     1
290
     0
176
     1
290
     0
176
     1
 90
       50
176
     1
 40
0.0
176
     1
 40
1.0
176
     1
 90
        0
176
     1
 62
    18
420
        0
176
     1
 90
       50
176
     1
 90
        3
176
     1
 62
     5
420
      255
176
     1
290
     0
176
     1
 90
       50
176
     1
 90
       50
176
     1
 90
       50
176
     1
290
     0
176
     1
 90
       50
176
     1
 62
   256
176
     0
 40
1.0
176
     0
 90
        2
176
     1
  1
strokes_ogs.tif
176
     1
290
     0
176
     1
 40
1.0
176
     1
 40
1.0
176
     1
  0
VISUALSTYLE
  5
2C
102
{ACAD_REACTORS
330
2A
102
}
330
2A
100
AcDbVisualStyle
  2
FlatWithEdges
 70
     1
177
     3
291
     1
 70
    58
 90
        2
176
     1
 90
        1
176
     1
 90
        1
176
     1
 90
        2
176
     1
 40
0.6
176
     1
 40
30.0
176
     1
 62
     7
420
 16777215
176
     1
 90
        1
176
     1
 90
        0
176
     1
 62
     7
176
     1
 62
   257
176
     1
 90
        1
176
     1
 90
        1
176
     1
 40
1.0
176
     1
 90
        0
176
     1
 62
   257
176
     1
 40
1.0
176
     1
 90
        1
176
     1
 90
        6
176
     1
 90
        2
176
     1
 62
     7
176
     1
 90
        5
176
     1
 90
        0
176
     1
 90
        0
176
     1
290
     0
176
     1
 90
       13
176
     1
 40
0.0
176
     1
 90
        0
176
     1
290
     0
176
     1
290
     1
176
     1
290
     1
176
     1
290
     0
176
     1
290
     0
176
     1
290
     0
176
     1
290
     0
176
     1
290
     0
176
     1
290
     0
176
     1
 90
       50
176
     1
 40
0.0
176
     1
 40
1.0
176
     1
 90
        0
176
     1
 62
    18
420
        0
176
     1
 90
       50
176
     1
 90
        3
176
     1
 62
     5
420
      255
176
     1
290
     0
176
     1
 90
       50
176
     1
 90
       50
176
     1
 90
       50
176
     1
290
     0
176
     1
 90
       50
176
     1
 62
   256
176
     0
 40
1.0
176
     0
 90
        2
176
     1
  1
strokes_ogs.tif
176
     1
290
     0
176
     1
 40
1.0
176
     1
 40
1.0
176
     1
  0
VISUALSTYLE
  5
2D
102
{ACAD_REACTORS
330
2A
102
}
330
2A
100
AcDbVisualStyle
  2
Gouraud
 70
     2
177
     3
291
     1
 70
    58
 90
        2
176
     1
 90
        2
176
     1
 90
        1
176
     1
 90
        2
176
     1
 40
0.6
176
     1
 40
30.0
176
     1
 62
     7
420
 16777215
176
     1
 90
        0
176
     1
 90
        0
176
     1
 62
     7
176
     1
 62
   257
176
     1
 90
        1
176
     1
 90
        1
176
     1
 40
1.0
176
     1
 90
        0
176
     1
 62
     7
176
     1
 40
1.0
176
     1
 90
        1
176
     1
 90
        6
176
     1
 90
        2
176
     1
 62
     7
176
     1
 90
        5
176
     1
 90
        0
176
     1
 90
        0
176
     1
290
     0
176
     1
 90
       13
176
     1
 40
0.0
176
     1
 90
        0
176
     1
290
     0
176
     1
290
     1
176
     1
290
     1
176
     1
290
     0
176
     1
290
     0
176
     1
290
     0
176
     1
290
     0
176
     1
290
     0
176
     1
290
     0
176
     1
 90
       50
176
     1
 40
0.0
176
     1
 40
1.0
176
     1
 90
        0
176
     1
 62
    18
420
        0
176
     1
 90
       50
176
     1
 90
        3
176
     1
 62
     5
420
      255
176
     1
290
     0
176
     1
 90
       50
176
     1
 90
       50
176
     1
 90
       50
176
     1
290
     0
176
     1
 90
       50
176
     1
 62
   256
176
     0
 40
1.0
176
     0
 90
        2
176
     1
  1
strokes_ogs.tif
176
     1
290
     0
176
     1
 40
1.0
176
     1
 40
1.0
176
     1
  0
VISUALSTYLE
  5
2E
102
{ACAD_REACTORS
330
2A
102
}
330
2A
100
AcDbVisualStyle
  2
GouraudWithEdges
 70
     3
177
     3
291
     1
 70
    58
 90
        2
176
     1
 90
        2
176
     1
 90
        1
176
     1
 90
        2
176
     1
 40
0.6
176
     1
 40
30.0
176
     1
 62
     7
420
 16777215
176
     1
 90
        1
176
     1
 90
        0
176
     1
 62
     7
176
     1
 62
   257
176
     1
 90
        1
176
     1
 90
        1
176
     1
 40
1.0
176
     1
 90
        0
176
     1
 62
   257
176
     1
 40
1.0
176
     1
 90
        1
176
     1
 90
        6
176
     1
 90
        2
176
     1
 62
     7
176
     1
 90
        5
176
     1
 90
        0
176
     1
 90
        0
176
     1
290
     0
176
     1
 90
       13
176
     1
 40
0.0
176
     1
 90
        0
176
     1
290
     0
176
     1
290
     1
176
     1
290
     1
176
     1
290
     0
176
     1
290
     0
176
     1
290
     0
176
     1
290
     0
176
     1
290
     0
176
     1
290
     0
176
     1
 90
       50
176
     1
 40
0.0
176
     1
 40
1.0
176
     1
 90
        0
176
     1
 62
    18
420
        0
176
     1
 90
       50
176
     1
 90
        3
176
     1
 62
     5
420
      255
176
     1
290
     0
176
     1
 90
       50
176
     1
 90
       50
176
     1
 90
       50
176
     1
290
     0
176
     1
 90
       50
176
     1
 62
   256
176
     0
 40
1.0
176
     0
 90
        2
176
     1
  1
strokes_ogs.tif
176
     1
290
     0
176
     1
 40
1.0
176
     1
 40
1.0
176
     1
  0
VISUALSTYLE
  5
31
102
{ACAD_REACTORS
330
2A
102
}
330
2A
100
AcDbVisualStyle
  2
Hidden
 70
     6
177
     3
291
     0
 70
    58
 90
        1
176
     1
 90
        2
176
     1
 90
        2
176
     1
 90
        0
176
     1
 40
0.6
176
     1
 40
30.0
176
     1
 62
     7
420
 16777215
176
     1
 90
        2
176
     1
 90
        2
176
     1
 62
     7
176
     1
 62
   257
176
     1
 90
        2
176
     1
 90
        1
176
     1
 40
40.0
176
     1
 90
        0
176
     1
 62
   257
176
     1
 40
1.0
176
     1
 90
        1
176
     1
 90
        6
176
     1
 90
        2
176
     1
 62
     7
176
     1
 90
        3
176
     1
 90
        0
176
     1
 90
        0
176
     1
290
     0
176
     1
 90
        1
176
     1
 40
0.0
176
     1
 90
        0
176
     1
290
     0
176
     1
290
     1
176
     1
290
     1
176
     1
290
     0
176
     1
290
     0
176
     1
290
     0
176
     1
290
     0
176
     1
290
     0
176
     1
290
     0
176
     1
 90
       50
176
     1
 40
0.0
176
     1
 40
1.0
176
     1
 90
        0
176
     1
 62
    18
420
        0
176
     1
 90
       50
176
     1
 90
        3
176
     1
 62
     5
420
      255
176
     1
290
     0
176
     1
 90
       50
176
     1
 90
       50
176
     1
 90
       50
176
     1
290
     0
176
     1
 90
       50
176
     1
 62
   256
176
     0
 40
1.0
176
     0
 90
        2
176
     1
  1
strokes_ogs.tif
176
     1
290
     0
176
     1
 40
1.0
176
     1
 40
1.0
176
     1
  0
VISUALSTYLE
  5
3B
102
{ACAD_REACTORS
330
2A
102
}
330
2A
100
AcDbVisualStyle
  2
JitterOff
 70
    20
177
     3
291
     1
 70
    58
 90
        2
176
     0
 90
        2
176
     0
 90
        0
176
     0
 90
        0
176
     0
 40
0.6
176
     0
 40
30.0
176
     0
 62
     7
420
 16777215
176
     0
 90
        1
176
     0
 90
        4
176
     0
 62
     7
176
     0
 62
   257
176
     0
 90
        1
176
     0
 90
        1
176
     0
 40
1.0
176
     0
 90
       10
176
     2
 62
     7
176
     0
 40
1.0
176
     0
 90
        1
176
     0
 90
        6
176
     0
 90
        2
176
     0
 62
     7
176
     0
 90
        5
176
     0
 90
        0
176
     0
 90
        0
176
     0
290
     0
176
     0
 90
        1
176
     0
 40
0.0
176
     0
 90
        0
176
     0
290
     0
176
     0
290
     1
176
     0
290
     1
176
     0
290
     0
176
     0
290
     0
176
     0
290
     0
176
     0
290
     0
176
     0
290
     0
176
     0
290
     0
176
     0
 90
       50
176
     0
 40
0.0
176
     0
 40
1.0
176
     0
 90
        0
176
     0
 62
    18
420
        0
176
     0
 90
       50
176
     0
 90
        3
176
     0
 62
     5
420
      255
176
     0
290
     0
176
     0
 90
       50
176
     0
 90
       50
176
     0
 90
       50
176
     0
290
     0
176
     0
 90
       50
176
     0
 62
   256
176
     0
 40
1.0
176
     0
 90
        2
176
     0
  1
strokes_ogs.tif
176
     0
290
     0
176
     0
 40
1.0
176
     0
 40
1.0
176
     0
  0
VISUALSTYLE
  5
38
102
{ACAD_REACTORS
330
2A
102
}
330
2A
100
AcDbVisualStyle
  2
Linepattern
 70
    14
177
     3
291
     1
 70
    58
 90
        2
176
     1
 90
        2
176
     1
 90
        0
176
     1
 90
        0
176
     1
 40
0.6
176
     1
 40
30.0
176
     1
 62
     7
420
 16777215
176
     1
 90
        1
176
     1
 90
        4
176
     1
 62
     7
176
     1
 62
   257
176
     1
 90
        7
176
     1
 90
        7
176
     1
 40
1.0
176
     1
 90
        8
176
     1
 62
     7
176
     1
 40
1.0
176
     1
 90
        1
176
     1
 90
        6
176
     1
 90
        2
176
     1
 62
     7
176
     1
 90
        5
176
     1
 90
        0
176
     1
 90
        0
176
     1
290
     0
176
     1
 90
        1
176
     1
 40
0.0
176
     1
 90
        0
176
     1
290
     0
176
     1
290
     1
176
     1
290
     1
176
     1
290
     0
176
     1
290
     0
176
     1
290
     0
176
     1
290
     0
176
     1
290
     0
176
     1
290
     0
176
     1
 90
       50
176
     1
 40
0.0
176
     1
 40
1.0
176
     1
 90
        0
176
     1
 62
    18
420
        0
176
     1
 90
       50
176
     1
 90
        3
176
     1
 62
     5
420
      255
176
     1
290
     0
176
     1
 90
       50
176
     1
 90
       50
176
     1
 90
       50
176
     1
290
     0
176
     1
 90
       50
176
     1
 62
   256
176
     0
 40
1.0
176
     0
 90
        2
176
     1
  1
strokes_ogs.tif
176
     1
290
     0
176
     1
 40
1.0
176
     1
 40
1.0
176
     1
  0
VISUALSTYLE
  5
3C
102
{ACAD_REACTORS
330
2A
102
}
330
2A
100
AcDbVisualStyle
  2
OverhangOff
 70
    21
177
     3
291
     1
 70
    58
 90
        2
176
     0
 90
        2
176
     0
 90
        0
176
     0
 90
        0
176
     0
 40
0.6
176
     0
 40
30.0
176
     0
 62
     7
420
 16777215
176
     0
 90
        1
176
     0
 90
        4
176
     0
 62
     7
176
     0
 62
   257
176
     0
 90
        1
176
     0
 90
        1
176
     0
 40
1.0
176
     0
 90
        9
176
     2
 62
     7
176
     0
 40
1.0
176
     0
 90
        1
176
     0
 90
        6
176
     0
 90
        2
176
     0
 62
     7
176
     0
 90
        5
176
     0
 90
        0
176
     0
 90
        0
176
     0
290
     0
176
     0
 90
        1
176
     0
 40
0.0
176
     0
 90
        0
176
     0
290
     0
176
     0
290
     1
176
     0
290
     1
176
     0
290
     0
176
     0
290
     0
176
     0
290
     0
176
     0
290
     0
176
     0
290
     0
176
     0
290
     0
176
     0
 90
       50
176
     0
 40
0.0
176
     0
 40
1.0
176
     0
 90
        0
176
     0
 62
    18
420
        0
176
     0
 90
       50
176
     0
 90
        3
176
     0
 62
     5
420
      255
176
     0
290
     0
176
     0
 90
       50
176
     0
 90
       50
176
     0
 90
       50
176
     0
290
     0
176
     0
 90
       50
176
     0
 62
   256
176
     0
 40
1.0
176
     0
 90
        2
176
     0
  1
strokes_ogs.tif
176
     0
290
     0
176
     0
 40
1.0
176
     0
 40
1.0
176
     0
  0
VISUALSTYLE
  5
33
102
{ACAD_REACTORS
330
2A
102
}
330
2A
100
AcDbVisualStyle
  2
Realistic
 70
     8
177
     3
291
     0
 70
    58
 90
        2
176
     1
 90
        3
176
     1
 90
        0
176
     1
 90
        2
176
     1
 40
0.6
176
     1
 40
30.0
176
     1
 62
     7
420
 16777215
176
     1
 90
        0
176
     1
 90
        0
176
     1
 62
     7
176
     1
 62
   257
176
     1
 90
        1
176
     1
 90
        1
176
     1
 40
1.0
176
     1
 90
        8
176
     1
 62
   257
176
     1
 40
1.0
176
     1
 90
        1
176
     1
 90
        6
176
     1
 90
        2
176
     1
 62
     7
176
     1
 90
        3
176
     1
 90
        0
176
     1
 90
        0
176
     1
290
     0
176
     1
 90
       13
176
     1
 40
0.0
176
     1
 90
        0
176
     1
290
     0
176
     1
290
     1
176
     1
290
     1
176
     1
290
     0
176
     1
290
     0
176
     1
290
     0
176
     1
290
     0
176
     1
290
     0
176
     1
290
     0
176
     1
 90
       50
176
     1
 40
0.0
176
     1
 40
1.0
176
     1
 90
        0
176
     1
 62
    18
420
        0
176
     1
 90
       50
176
     1
 90
        3
176
     1
 62
     5
420
      255
176
     1
290
     0
176
     1
 90
       50
176
     1
 90
       50
176
     1
 90
       50
176
     1
290
     0
176
     1
 90
       50
176
     1
 62
   256
176
     0
 40
1.0
176
     0
 90
        2
176
     1
  1
strokes_ogs.tif
176
     1
290
     0
176
     1
 40
1.0
176
     1
 40
1.0
176
     1
  0
VISUALSTYLE
  5
42
102
{ACAD_REACTORS
330
2A
102
}
330
2A
100
AcDbVisualStyle
  2
Shaded
 70
    27
177
     3
291
     0
 70
    58
 90
        2
176
     1
 90
        2
176
     1
 90
        1
176
     1
 90
        2
176
     1
 40
0.6
176
     1
 40
30.0
176
     1
 62
     7
420
 16777215
176
     1
 90
        0
176
     1
 90
        4
176
     1
 62
     7
176
     1
 62
   257
176
     1
 90
        1
176
     1
 90
        1
176
     1
 40
1.0
176
     1
 90
        8
176
     1
 62
   257
176
     1
 40
1.0
176
     1
 90
        1
176
     1
 90
        6
176
     1
 90
        2
176
     1
 62
     8
420
  7895160
176
     1
 90
        3
176
     1
 90
        0
176
     1
 90
        0
176
     1
290
     0
176
     1
 90
        5
176
     1
 40
0.0
176
     1
 90
        0
176
     1
290
     0
176
     1
290
     1
176
     1
290
     1
176
     1
290
     0
176
     1
290
     0
176
     1
290
     0
176
     1
290
     0
176
     1
290
     0
176
     1
290
     0
176
     1
 90
       50
176
     1
 40
0.0
176
     1
 40
1.0
176
     1
 90
        0
176
     1
 62
    18
420
        0
176
     1
 90
       50
176
     1
 90
        3
176
     1
 62
     5
420
      255
176
     1
290
     0
176
     1
 90
       50
176
     1
 90
       50
176
     1
 90
       50
176
     1
290
     0
176
     1
 90
       50
176
     1
 62
   256
176
     0
 40
1.0
176
     0
 90
        2
176
     1
  1
strokes_ogs.tif
176
     1
290
     0
176
     1
 40
1.0
176
     1
 40
1.0
176
     1
  0
VISUALSTYLE
  5
41
102
{ACAD_REACTORS
330
2A
102
}
330
2A
100
AcDbVisualStyle
  2
Shaded with edges
 70
    26
177
     3
291
     0
 70
    58
 90
        2
176
     1
 90
        2
176
     1
 90
        1
176
     1
 90
        2
176
     1
 40
0.6
176
     1
 40
30.0
176
     1
 62
     7
420
 16777215
176
     1
 90
        1
176
     1
 90
       10
176
     1
 62
     7
176
     1
 62
   257
176
     1
 90
        2
176
     1
 90
        1
176
     1
 40
1.0
176
     1
 90
        8
176
     1
 62
   257
176
     1
 40
1.0
176
     1
 90
        1
176
     1
 90
        6
176
     1
 90
        2
176
     1
 62
     7
176
     1
 90
        3
176
     1
 90
        0
176
     1
 90
        0
176
     1
290
     0
176
     1
 90
        5
176
     1
 40
0.0
176
     1
 90
        0
176
     1
290
     0
176
     1
290
     1
176
     1
290
     1
176
     1
290
     0
176
     1
290
     0
176
     1
290
     0
176
     1
290
     0
176
     1
290
     0
176
     1
290
     0
176
     1
 90
       50
176
     1
 40
0.0
176
     1
 40
1.0
176
     1
 90
        0
176
     1
 62
    18
420
        0
176
     1
 90
       50
176
     1
 90
        3
176
     1
 62
     5
420
      255
176
     1
290
     0
176
     1
 90
       50
176
     1
 90
       50
176
     1
 90
       50
176
     1
290
     0
176
     1
 90
       50
176
     1
 62
   256
176
     0
 40
1.0
176
     0
 90
        2
176
     1
  1
strokes_ogs.tif
176
     1
290
     0
176
     1
 40
1.0
176
     1
 40
1.0
176
     1
  0
VISUALSTYLE
  5
3E
102
{ACAD_REACTORS
330
2A
102
}
330
2A
100
AcDbVisualStyle
  2
Shades of Gray
 70
    23
177
     3
291
     0
 70
    58
 90
        2
176
     1
 90
        2
176
     1
 90
        3
176
     1
 90
        0
176
     1
 40
0.6
176
     1
 40
30.0
176
     1
 62
     7
420
 16777215
176
     1
 90
        2
176
     1
 90
        2
176
     1
 62
     7
176
     1
 62
     7
176
     1
 90
        1
176
     1
 90
        1
176
     1
 40
40.0
176
     1
 90
        8
176
     1
 62
     7
176
     1
 40
1.0
176
     1
 90
        1
176
     1
 90
        6
176
     1
 90
        2
176
     1
 62
     7
176
     1
 90
        3
176
     1
 90
        0
176
     1
 90
        0
176
     1
290
     0
176
     1
 90
        1
176
     1
 40
0.0
176
     1
 90
        0
176
     1
290
     0
176
     1
290
     1
176
     1
290
     1
176
     1
290
     0
176
     1
290
     0
176
     1
290
     0
176
     1
290
     0
176
     1
290
     0
176
     1
290
     0
176
     1
 90
       50
176
     1
 40
0.0
176
     1
 40
1.0
176
     1
 90
        0
176
     1
 62
    18
420
        0
176
     1
 90
       50
176
     1
 90
        3
176
     1
 62
     5
420
      255
176
     1
290
     0
176
     1
 90
       50
176
     1
 90
       50
176
     1
 90
       50
176
     1
290
     0
176
     1
 90
       50
176
     1
 62
   256
176
     0
 40
1.0
176
     0
 90
        2
176
     1
  1
strokes_ogs.tif
176
     1
290
     0
176
     1
 40
1.0
176
     1
 40
1.0
176
     1
  0
VISUALSTYLE
  5
3F
102
{ACAD_REACTORS
330
2A
102
}
330
2A
100
AcDbVisualStyle
  2
Sketchy
 70
    24
177
     3
291
     0
 70
    58
 90
        1
176
     1
 90
        2
176
     1
 90
        2
176
     1
 90
        0
176
     1
 40
0.6
176
     1
 40
30.0
176
     1
 62
     7
420
 16777215
176
     1
 90
        2
176
     1
 90
        2
176
     1
 62
     7
176
     1
 62
     7
176
     1
 90
        1
176
     1
 90
        1
176
     1
 40
40.0
176
     1
 90
       11
176
     1
 62
     7
176
     1
 40
1.0
176
     1
 90
        1
176
     1
 90
        6
176
     1
 90
        2
176
     1
 62
     7
176
     1
 90
        6
176
     1
 90
        0
176
     1
 90
        0
176
     1
290
     0
176
     1
 90
        1
176
     1
 40
0.0
176
     1
 90
        0
176
     1
290
     0
176
     1
290
     1
176
     1
290
     1
176
     1
290
     0
176
     1
290
     0
176
     1
290
     0
176
     1
290
     0
176
     1
290
     0
176
     1
290
     0
176
     1
 90
       50
176
     1
 40
0.0
176
     1
 40
1.0
176
     1
 90
        0
176
     1
 62
    18
420
        0
176
     1
 90
       50
176
     1
 90
        3
176
     1
 62
     5
420
      255
176
     1
290
     0
176
     1
 90
       50
176
     1
 90
       50
176
     1
 90
       50
176
     1
290
     0
176
     1
 90
       50
176
     1
 62
   256
176
     0
 40
1.0
176
     0
 90
        2
176
     1
  1
strokes_ogs.tif
176
     1
290
     0
176
     1
 40
1.0
176
     1
 40
1.0
176
     1
  0
VISUALSTYLE
  5
37
102
{ACAD_REACTORS
330
2A
102
}
330
2A
100
AcDbVisualStyle
  2
Thicken
 70
    13
177
     3
291
     1
 70
    58
 90
        2
176
     1
 90
        2
176
     1
 90
        0
176
     1
 90
        0
176
     1
 40
0.6
176
     1
 40
30.0
176
     1
 62
     7
420
 16777215
176
     1
 90
        1
176
     1
 90
        4
176
     1
 62
     7
176
     1
 62
   257
176
     1
 90
        1
176
     1
 90
        1
176
     1
 40
1.0
176
     1
 90
       12
176
     1
 62
     7
176
     1
 40
1.0
176
     1
 90
        1
176
     1
 90
        6
176
     1
 90
        2
176
     1
 62
     7
176
     1
 90
        5
176
     1
 90
        0
176
     1
 90
        0
176
     1
290
     0
176
     1
 90
        1
176
     1
 40
0.0
176
     1
 90
        0
176
     1
290
     0
176
     1
290
     1
176
     1
290
     1
176
     1
290
     0
176
     1
290
     0
176
     1
290
     0
176
     1
290
     0
176
     1
290
     0
176
     1
290
     0
176
     1
 90
       50
176
     1
 40
0.0
176
     1
 40
1.0
176
     1
 90
        0
176
     1
 62
    18
420
        0
176
     1
 90
       50
176
     1
 90
        3
176
     1
 62
     5
420
      255
176
     1
290
     0
176
     1
 90
       50
176
     1
 90
       50
176
     1
 90
       50
176
     1
290
     0
176
     1
 90
       50
176
     1
 62
   256
176
     0
 40
1.0
176
     0
 90
        2
176
     1
  1
strokes_ogs.tif
176
     1
290
     0
176
     1
 40
1.0
176
     1
 40
1.0
176
     1
  0
VISUALSTYLE
  5
30
102
{ACAD_REACTORS
330
2A
102
}
330
2A
100
AcDbVisualStyle
  2
Wireframe
 70
     5
177
     3
291
     0
 70
    58
 90
        0
176
     1
 90
        2
176
     1
 90
        0
176
     1
 90
        0
176
     1
 40
0.6
176
     1
 40
30.0
176
     1
 62
     7
420
 16777215
176
     1
 90
        1
176
     1
 90
        4
176
     1
 62
     7
176
     1
 62
   257
176
     1
 90
        1
176
     1
 90
        1
176
     1
 40
1.0
176
     1
 90
        0
176
     1
 62
   257
176
     1
 40
1.0
176
     1
 90
        1
176
     1
 90
        6
176
     1
 90
        2
176
     1
 62
     7
176
     1
 90
        3
176
     1
 90
        0
176
     1
 90
        0
176
     1
290
     0
176
     1
 90
        1
176
     1
 40
0.0
176
     1
 90
        0
176
     1
290
     0
176
     1
290
     1
176
     1
290
     1
176
     1
290
     0
176
     1
290
     0
176
     1
290
     0
176
     1
290
     0
176
     1
290
     0
176
     1
290
     0
176
     1
 90
       50
176
     1
 40
0.0
176
     1
 40
1.0
176
     1
 90
        0
176
     1
 62
    18
420
        0
176
     1
 90
       50
176
     1
 90
        3
176
     1
 62
     5
420
      255
176
     1
290
     0
176
     1
 90
       50
176
     1
 90
       50
176
     1
 90
       50
176
     1
290
     0
176
     1
 90
       50
176
     1
 62
   256
176
     0
 40
1.0
176
     0
 90
        2
176
     1
  1
strokes_ogs.tif
176
     1
290
     0
176
     1
 40
1.0
176
     1
 40
1.0
176
     1
  0
VISUALSTYLE
  5
40
102
{ACAD_REACTORS
330
2A
102
}
330
2A
100
AcDbVisualStyle
  2
X-Ray
 70
    25
177
     3
291
     0
 70
    58
 90
        2
176
     1
 90
        2
176
     1
 90
        1
176
     1
 90
        1
176
     1
 40
0.5
176
     1
 40
30.0
176
     1
 62
     7
420
 16777215
176
     1
 90
        1
176
     1
 90
        0
176
     1
 62
     7
176
     1
 62
   257
176
     1
 90
        1
176
     1
 90
        1
176
     1
 40
1.0
176
     1
 90
        8
176
     1
 62
     7
176
     1
 40
1.0
176
     1
 90
        1
176
     1
 90
        6
176
     1
 90
        2
176
     1
 62
     7
176
     1
 90
        3
176
     1
 90
        0
176
     1
 90
        0
176
     1
290
     0
176
     1
 90
       13
176
     1
 40
0.0
176
     1
 90
        0
176
     1
290
     0
176
     1
290
     1
176
     1
290
     1
176
     1
290
     0
176
     1
290
     0
176
     1
290
     0
176
     1
290
     0
176
     1
290
     0
176
     1
290
     0
176
     1
 90
       50
176
     1
 40
0.0
176
     1
 40
1.0
176
     1
 90
        0
176
     1
 62
    18
420
        0
176
     1
 90
       50
176
     1
 90
        3
176
     1
 62
     5
420
      255
176
     1
290
     0
176
     1
 90
       50
176
     1
 90
       50
176
     1
 90
       50
176
     1
290
     0
176
     1
 90
       50
176
     1
 62
   256
176
     0
 40
1.0
176
     0
 90
        2
176
     1
  1
strokes_ogs.tif
176
     1
290
     0
176
     1
 40
1.0
176
     1
 40
1.0
176
     1
  0
DICTIONARYVAR
  5
5A1
102
{ACAD_REACTORS
330
5A0
102
}
330
5A0
100
DictionaryVariables
280
     0
  1
1:1
  0
DICTIONARYVAR
  5
5A6
102
{ACAD_REACTORS
330
5A0
102
}
330
5A0
100
DictionaryVariables
280
     0
  1
Standard
  0
DICTIONARYVAR
  5
5A5
102
{ACAD_REACTORS
330
5A0
102
}
330
5A0
100
DictionaryVariables
280
     0
  1
Standard
  0
DICTIONARY
  5
5A2
330
6A
100
AcDbDictionary
280
     1
281
     1
  3
ACAD_ROUNDTRIP_2008_TABLESTYLE_CELLSTYLEMAP
360
5A3
  0
CELLSTYLEMAP
  5
5A3
102
{ACAD_REACTORS
330
5A2
102
}
330
5A2
100
AcDbCellStyleMap
 90
        3
300
CELLSTYLE
  1
TABLEFORMAT_BEGIN
 90
        5
170
     1
 91
        0
 92
    32768
 62
   257
 93
        1
300
CONTENTFORMAT
  1
CONTENTFORMAT_BEGIN
 90
        0
 91
        0
 92
        4
 93
        0
300

 40
0.0
140
1.0
 94
        5
 62
     0
340
11
144
0.25
309
CONTENTFORMAT_END
171
     1
301
MARGIN
  1
CELLMARGIN_BEGIN
 40
0.06
 40
0.06
 40
0.06
 40
0.06
 40
0.06
 40
0.06
309
CELLMARGIN_END
 94
        6
 95
        1
302
GRIDFORMAT
  1
GRIDFORMAT_BEGIN
 90
        0
 91
        1
 62
     0
 92
       -2
340
14
 93
        0
 40
0.045
309
GRIDFORMAT_END
 95
        2
302
GRIDFORMAT
  1
GRIDFORMAT_BEGIN
 90
        0
 91
        1
 62
     0
 92
       -2
340
14
 93
        0
 40
0.045
309
GRIDFORMAT_END
 95
        4
302
GRIDFORMAT
  1
GRIDFORMAT_BEGIN
 90
        0
 91
        1
 62
     0
 92
       -2
340
14
 93
        0
 40
0.045
309
GRIDFORMAT_END
 95
        8
302
GRIDFORMAT
  1
GRIDFORMAT_BEGIN
 90
        0
 91
        1
 62
     0
 92
       -2
340
14
 93
        0
 40
0.045
309
GRIDFORMAT_END
 95
       16
302
GRIDFORMAT
  1
GRIDFORMAT_BEGIN
 90
        0
 91
        1
 62
     0
 92
       -2
340
14
 93
        0
 40
0.045
309
GRIDFORMAT_END
 95
       32
302
GRIDFORMAT
  1
GRIDFORMAT_BEGIN
 90
        0
 91
        1
 62
     0
 92
       -2
340
14
 93
        0
 40
0.045
309
GRIDFORMAT_END
309
TABLEFORMAT_END
  1
CELLSTYLE_BEGIN
 90
        1
 91
        1
300
_TITLE
309
CELLSTYLE_END
300
CELLSTYLE
  1
TABLEFORMAT_BEGIN
 90
        5
170
     1
 91
        0
 92
        0
 62
   257
 93
        1
300
CONTENTFORMAT
  1
CONTENTFORMAT_BEGIN
 90
        0
 91
        0
 92
        4
 93
        0
300

 40
0.0
140
1.0
 94
        5
 62
     0
340
11
144
0.18
309
CONTENTFORMAT_END
171
     1
301
MARGIN
  1
CELLMARGIN_BEGIN
 40
0.06
 40
0.06
 40
0.06
 40
0.06
 40
0.06
 40
0.06
309
CELLMARGIN_END
 94
        6
 95
        1
302
GRIDFORMAT
  1
GRIDFORMAT_BEGIN
 90
        0
 91
        1
 62
     0
 92
       -2
340
14
 93
        0
 40
0.045
309
GRIDFORMAT_END
 95
        2
302
GRIDFORMAT
  1
GRIDFORMAT_BEGIN
 90
        0
 91
        1
 62
     0
 92
       -2
340
14
 93
        0
 40
0.045
309
GRIDFORMAT_END
 95
        4
302
GRIDFORMAT
  1
GRIDFORMAT_BEGIN
 90
        0
 91
        1
 62
     0
 92
       -2
340
14
 93
        0
 40
0.045
309
GRIDFORMAT_END
 95
        8
302
GRIDFORMAT
  1
GRIDFORMAT_BEGIN
 90
        0
 91
        1
 62
     0
 92
       -2
340
14
 93
        0
 40
0.045
309
GRIDFORMAT_END
 95
       16
302
GRIDFORMAT
  1
GRIDFORMAT_BEGIN
 90
        0
 91
        1
 62
     0
 92
       -2
340
14
 93
        0
 40
0.045
309
GRIDFORMAT_END
 95
       32
302
GRIDFORMAT
  1
GRIDFORMAT_BEGIN
 90
        0
 91
        1
 62
     0
 92
       -2
340
14
 93
        0
 40
0.045
309
GRIDFORMAT_END
309
TABLEFORMAT_END
  1
CELLSTYLE_BEGIN
 90
        2
 91
        1
300
_HEADER
309
CELLSTYLE_END
300
CELLSTYLE
  1
TABLEFORMAT_BEGIN
 90
        5
170
     1
 91
        0
 92
        0
 62
   257
 93
        1
300
CONTENTFORMAT
  1
CONTENTFORMAT_BEGIN
 90
        0
 91
        0
 92
        4
 93
        0
300

 40
0.0
140
1.0
 94
        2
 62
     0
340
11
144
0.18
309
CONTENTFORMAT_END
171
     1
301
MARGIN
  1
CELLMARGIN_BEGIN
 40
0.06
 40
0.06
 40
0.06
 40
0.06
 40
0.06
 40
0.06
309
CELLMARGIN_END
 94
        6
 95
        1
302
GRIDFORMAT
  1
GRIDFORMAT_BEGIN
 90
        0
 91
        1
 62
     0
 92
       -2
340
14
 93
        0
 40
0.045
309
GRIDFORMAT_END
 95
        2
302
GRIDFORMAT
  1
GRIDFORMAT_BEGIN
 90
        0
 91
        1
 62
     0
 92
       -2
340
14
 93
        0
 40
0.045
309
GRIDFORMAT_END
 95
        4
302
GRIDFORMAT
  1
GRIDFORMAT_BEGIN
 90
        0
 91
        1
 62
     0
 92
       -2
340
14
 93
        0
 40
0.045
309
GRIDFORMAT_END
 95
        8
302
GRIDFORMAT
  1
GRIDFORMAT_BEGIN
 90
        0
 91
        1
 62
     0
 92
       -2
340
14
 93
        0
 40
0.045
309
GRIDFORMAT_END
 95
       16
302
GRIDFORMAT
  1
GRIDFORMAT_BEGIN
 90
        0
 91
        1
 62
     0
 92
       -2
340
14
 93
        0
 40
0.045
309
GRIDFORMAT_END
 95
       32
302
GRIDFORMAT
  1
GRIDFORMAT_BEGIN
 90
        0
 91
        1
 62
     0
 92
       -2
340
14
 93
        0
 40
0.045
309
GRIDFORMAT_END
309
TABLEFORMAT_END
  1
CELLSTYLE_BEGIN
 90
        3
 91
        2
300
_DATA
309
CELLSTYLE_END
  0
ENDSEC
  0
EOF
