  0
SECTION
  2
HEADER
  9
$ACADVER
  1
AC1006
  9
$DWGCODEPAGE
  3
ansi_932
  9
$INSBASE
 10
0.0
 20
0.0
 30
0.0
  9
$EXTMIN
 10
-640.7292191808184
 20
82.52036880707678
  9
$EXTMAX
 10
-517.0361405444946
 20
288.5075665738846
  9
$LIMMIN
 10
0.0
 20
0.0
  9
$LIMMAX
 10
12.0
 20
9.0
  9
$ORTHOMODE
 70
     0
  9
$REGENMODE
 70
     1
  9
$FILLMODE
 70
     1
  9
$QTEXTMODE
 70
     0
  9
$MIRRTEXT
 70
     1
  9
$DRAGMODE
 70
     2
  9
$LTSCALE
 40
1.0
  9
$OSMODE
 70
    37
  9
$ATTMODE
 70
     1
  9
$TEXTSIZE
 40
0.2
  9
$TRACEWID
 40
0.05
  9
$TEXTSTYLE
  7
STANDARD
  9
$CLAYER
  8
0
  9
$CELTYPE
  6
BYLAYER
  9
$CECOLOR
 62
   256
  9
$DIMSCALE
 40
1.0
  9
$DIMASZ
 40
3.0
  9
$DIMEXO
 40
0.0625
  9
$DIMDLI
 40
0.38
  9
$DIMRND
 40
0.0
  9
$DIMDLE
 40
0.0
  9
$DIMEXE
 40
1.5
  9
$DIMTP
 40
0.0
  9
$DIMTM
 40
0.0
  9
$DIMTXT
 40
3.0
  9
$DIMCEN
 40
0.09
  9
$DIMTSZ
 40
0.0
  9
$DIMTOL
 70
     0
  9
$DIMLIM
 70
     0
  9
$DIMTIH
 70
     1
  9
$DIMTOH
 70
     1
  9
$DIMSE1
 70
     0
  9
$DIMSE2
 70
     0
  9
$DIMTAD
 70
     1
  9
$DIMZIN
 70
     0
  9
$DIMBLK
  1

  9
$DIMASO
 70
     1
  9
$DIMSHO
 70
     1
  9
$DIMPOST
  1

  9
$DIMAPOST
  1

  9
$DIMALT
 70
     0
  9
$DIMALTD
 70
     2
  9
$DIMALTF
 40
25.4
  9
$DIMLFAC
 40
1.0
  9
$DIMTOFL
 70
     0
  9
$DIMTVP
 40
0.0
  9
$DIMTIX
 70
     0
  9
$DIMSOXD
 70
     0
  9
$DIMSAH
 70
     0
  9
$DIMBLK1
  1

  9
$DIMBLK2
  1

  9
$LUNITS
 70
     2
  9
$LUPREC
 70
     4
  9
$SKETCHINC
 40
0.1
  9
$FILLETRAD
 40
0.5
  9
$AUNITS
 70
     0
  9
$AUPREC
 70
     0
  9
$MENU
  1
.
  9
$ELEVATION
 40
0.0
  9
$THICKNESS
 40
0.0
  9
$LIMCHECK
 70
     0
  9
$CHAMFERA
 40
0.0
  9
$CHAMFERB
 40
0.0
  9
$SKPOLY
 70
     0
  9
$TDCREATE
 40
2460600.477111563
  9
$TDUPDATE
 40
2460600.477111782
  9
$TDINDWG
 40
0.0000000116
  9
$TDUSRTIMER
 40
0.0000000116
  9
$USRTIMER
 70
     1
  9
$ANGBASE
 50
0.0
  9
$ANGDIR
 70
     0
  9
$PDMODE
 70
     0
  9
$PDSIZE
 40
0.0
  9
$PLINEWID
 40
0.0
  9
$COORDS
 70
     1
  9
$SPLFRAME
 70
     0
  9
$SPLINETYPE
 70
     6
  9
$SPLINESEGS
 70
     8
  9
$ATTDIA
 70
     0
  9
$ATTREQ
 70
     1
  9
$HANDLING
 70
     1
  9
$HANDSEED
  5
231
  9
$SURFTAB1
 70
     6
  9
$SURFTAB2
 70
     6
  9
$SURFTYPE
 70
     6
  9
$SURFU
 70
     6
  9
$SURFV
 70
     6
  9
$UCSNAME
  2

  9
$UCSORG
 10
0.0
 20
0.0
 30
0.0
  9
$UCSXDIR
 10
1.0
 20
0.0
 30
0.0
  9
$UCSYDIR
 10
0.0
 20
1.0
 30
0.0
  9
$USERI1
 70
     0
  9
$USERI2
 70
     0
  9
$USERI3
 70
     0
  9
$USERI4
 70
     0
  9
$USERI5
 70
     0
  9
$USERR1
 40
0.0
  9
$USERR2
 40
0.0
  9
$USERR3
 40
0.0
  9
$USERR4
 40
0.0
  9
$USERR5
 40
0.0
  9
$WORLDVIEW
 70
     1
  0
ENDSEC
  0
SECTION
  2
TABLES
  0
TABLE
  2
VPORT
 70
     1
  0
VPORT
  2
*ACTIVE
 70
     0
 10
0.0
 20
0.0
 11
1.0
 21
1.0
 12
-578.8826798626565
 22
185.5139676904807
 13
0.0
 23
0.0
 14
0.5
 24
0.5
 15
0.5
 25
0.5
 16
0.0
 26
0.0
 36
1.0
 17
0.0
 27
0.0
 37
0.0
 40
205.9871977668078
 41
1.6
 42
50.0
 43
0.0
 44
0.0
 50
0.0
 51
0.0
 71
     0
 72
   100
 73
     1
 74
     3
 75
     0
 76
     0
 77
     0
 78
     0
  0
ENDTAB
  0
TABLE
  2
LTYPE
 70
     2
  0
LTYPE
  2
CONTINUOUS
 70
     0
  3
Solid line
 72
    65
 73
     0
 40
0.0
  0
LTYPE
  2
CENTER
 70
     0
  3

 72
    65
 73
     0
 40
0.0
  0
ENDTAB
  0
TABLE
  2
LAYER
 70
     2
  0
LAYER
  2
0
 70
     0
 62
     7
  6
CONTINUOUS
  0
LAYER
  2
1
 70
     0
 62
     7
  6
CONTINUOUS
  0
ENDTAB
  0
TABLE
  2
STYLE
 70
     2
  0
STYLE
  2
STANDARD
 70
     0
 40
0.0
 41
1.0
 50
0.0
 71
     0
 42
0.2
  3
txt
  4

  0
STYLE
  2
ＭＳ_ゴシック
 70
     0
 40
0.0
 41
1.0
 50
0.0
 71
     0
 42
0.2
  3
ＭＳ ゴシック.shx
  4

  0
ENDTAB
  0
TABLE
  2
VIEW
 70
     0
  0
ENDTAB
  0
TABLE
  2
UCS
 70
     0
  0
ENDTAB
  0
ENDSEC
  0
SECTION
  2
BLOCKS
  0
ENDSEC
  0
SECTION
  2
ENTITIES
  0
LINE
  5
70
  8
0
  6
CONTINUOUS
 62
     7
 10
-623.966719180818
 20
150.5075865738843
 30
0.0
 11
-633.491719180818
 21
150.5075865738843
 31
0.0
  0
TEXT
  5
71
  8
1
  6
CONTINUOUS
 62
     7
 10
-600.0997913255002
 20
81.83629978119207
 30
0.0
 40
6.0
  1
TKK-YBNP
  0
LINE
  5
72
  8
1
  6
CONTINUOUS
 62
     7
 10
-619.2292191808183
 20
255.5075865738843
 30
0.0
 11
-638.2292191808182
 21
255.5075865738843
 31
0.0
  0
LINE
  5
73
  8
1
  6
CONTINUOUS
 62
     7
 10
-619.2292191808183
 20
261.5075865738843
 30
0.0
 11
-638.2292191808182
 21
261.5075865738843
 31
0.0
  0
LINE
  5
74
  8
1
  6
CONTINUOUS
 62
     4
 10
-534.2736405444947
 20
261.5075865738843
 30
0.0
 11
-534.2736405444947
 21
270.5075865738843
 31
0.0
  0
LINE
  5
75
  8
1
  6
CONTINUOUS
 62
     4
 10
-624.9642191808182
 20
236.5075865738847
 30
0.0
 11
-624.9642191808182
 21
168.1075865738843
 31
0.0
  0
LINE
  5
76
  8
1
  6
CENTER
 62
     1
 10
-553.0361405444946
 20
135.7075865738844
 30
0.0
 11
-553.0361405444946
 21
146.3075865738843
 31
0.0
  0
LINE
  5
78
  8
1
  6
CENTER
 62
     1
 10
-558.3361405444947
 20
141.0075865738843
 30
0.0
 11
-547.7361405444947
 21
141.0075865738843
 31
0.0
  0
LINE
  5
79
  8
1
  6
CONTINUOUS
 62
     7
 10
-556.0361405444947
 20
261.5075865738843
 30
0.0
 11
-556.0361405444947
 21
255.5075865738843
 31
0.0
  0
LINE
  5
7A
  8
1
  6
CONTINUOUS
 62
     7
 10
-520.0361405444947
 20
261.5075865738843
 30
0.0
 11
-520.0361405444947
 21
255.5075865738843
 31
0.0
  0
LINE
  5
7B
  8
1
  6
CONTINUOUS
 62
     7
 10
-638.2292191808182
 20
261.5075865738843
 30
0.0
 11
-638.2292191808182
 21
255.5075865738843
 31
0.0
  0
LINE
  5
7C
  8
1
  6
CONTINUOUS
 62
     4
 10
-541.7986405444949
 20
270.5075865738843
 30
0.0
 11
-541.7986405444949
 21
261.5075865738843
 31
0.0
  0
LINE
  5
7D
  8
1
  6
CONTINUOUS
 62
     7
 10
-546.0361405444947
 20
160.1075865738843
 30
0.0
 11
-523.0361405444947
 21
160.1075865738843
 31
0.0
  0
LINE
  5
7E
  8
1
  6
CONTINUOUS
 62
     7
 10
-622.3292191808183
 20
161.6075865738843
 30
0.0
 11
-624.7292191808184
 21
161.6075865738843
 31
0.0
  0
LINE
  5
7F
  8
1
  6
CONTINUOUS
 62
     7
 10
-551.2361405444947
 20
163.2075865738846
 30
0.0
 11
-554.8361405444948
 21
163.2075865738843
 31
0.0
  0
LINE
  5
80
  8
1
  6
CONTINUOUS
 62
     7
 10
-640.7292191808183
 20
250.9318506425963
 30
0.0
 11
-640.7292191808183
 21
247.0536610492144
 31
0.0
  0
LINE
  5
81
  8
1
  6
CONTINUOUS
 62
     7
 10
-619.1292191808182
 20
126.5075865738843
 30
0.0
 11
-619.1292191808182
 21
161.6075865738843
 31
0.0
  0
CIRCLE
  5
82
  8
1
  6
CONTINUOUS
 62
   253
 10
-553.0361405444946
 20
141.0075865738843
 30
0.0
 40
1.650000000000013
  0
LINE
  5
83
  8
1
  6
CONTINUOUS
 62
     7
 10
-560.9361405444947
 20
138.5075865738843
 30
0.0
 11
-560.9361405444947
 21
150.5075865738843
 31
0.0
  0
LINE
  5
84
  8
1
  6
CONTINUOUS
 62
     7
 10
-620.2292191808183
 20
167.6168388450696
 30
0.0
 11
-620.2292191808183
 21
163.1274549892414
 31
0.0
  0
LINE
  5
85
  8
1
  6
CONTINUOUS
 62
     7
 10
-622.3292191808183
 20
163.2075865738843
 30
0.0
 11
-624.7292191808183
 21
163.2075865738843
 31
0.0
  0
LINE
  5
86
  8
1
  6
CONTINUOUS
 62
     7
 10
-637.2292191808182
 20
167.6168388450714
 30
0.0
 11
-637.2292191808182
 21
160.1075865738843
 31
0.0
  0
LINE
  5
87
  8
1
  6
CONTINUOUS
 62
     7
 10
-634.8292191808182
 20
138.5075865738843
 30
0.0
 11
-623.3292191808183
 21
138.5075865738843
 31
0.0
  0
LINE
  5
88
  8
1
  6
CONTINUOUS
 62
     7
 10
-633.2292191808182
 20
150.5075865738843
 30
0.0
 11
-633.2292191808182
 21
158.5075865738843
 31
0.0
  0
LINE
  5
89
  8
1
  6
CONTINUOUS
 62
     7
 10
-629.3292191808184
 20
124.9075865738843
 30
0.0
 11
-629.3292191808184
 21
115.5075865738843
 31
0.0
  0
LINE
  5
8A
  8
1
  6
CONTINUOUS
 62
     7
 10
-634.8292191808182
 20
158.5075865738843
 30
0.0
 11
-634.8292191808182
 21
126.5075865738843
 31
0.0
  0
LINE
  5
8B
  8
1
  6
CONTINUOUS
 62
     7
 10
-630.1292191808183
 20
124.9075865738843
 30
0.0
 11
-630.1292191808183
 21
118.5075865738843
 31
0.0
  0
LINE
  5
8C
  8
1
  6
CONTINUOUS
 62
     7
 10
-631.7292191808184
 20
118.5075865738843
 30
0.0
 11
-631.7292191808184
 21
124.9075865738843
 31
0.0
  0
LINE
  5
8D
  8
1
  6
CONTINUOUS
 62
     7
 10
-611.4292191808183
 20
139.0075865738843
 30
0.0
 11
-611.4292191808183
 21
143.0075865738843
 31
0.0
  0
LINE
  5
8E
  8
1
  6
CONTINUOUS
 62
     7
 10
-623.3292191808184
 20
150.5075865738843
 30
0.0
 11
-634.8292191808182
 21
150.5075865738843
 31
0.0
  0
LINE
  5
8F
  8
1
  6
CONTINUOUS
 62
     7
 10
-622.3292191808183
 20
160.1075865738843
 30
0.0
 11
-622.3292191808183
 21
167.5075865738843
 31
0.0
  0
LINE
  5
90
  8
1
  6
CONTINUOUS
 62
     7
 10
-616.7292191808182
 20
250.9318506425963
 30
0.0
 11
-616.7292191808182
 21
247.0536610492144
 31
0.0
  0
LINE
  5
91
  8
1
  6
CONTINUOUS
 62
     7
 10
-538.0361405444947
 20
116.5075865738843
 30
0.0
 11
-538.0361405444947
 21
156.6075865738843
 31
0.0
  0
LINE
  5
92
  8
1
  6
CONTINUOUS
 62
     7
 10
-530.3861405444947
 20
168.1075865738843
 30
0.0
 11
-545.6861405444948
 21
168.1075865738843
 31
0.0
  0
LINE
  5
93
  8
1
  6
CONTINUOUS
 62
     7
 10
-633.2292191808182
 20
126.5075865738843
 30
0.0
 11
-633.2292191808182
 21
138.5075865738843
 31
0.0
  0
ARC
  5
94
  8
1
  6
CONTINUOUS
 62
     7
 10
-624.4792191808184
 20
249.2750964525344
 30
0.0
 40
12.27668450933788
 50
249.7458706710207
 51
290.2541293289792
  0
LINE
  5
95
  8
1
  6
CONTINUOUS
 62
     7
 10
-636.3792191808177
 20
236.5075865738847
 30
0.0
 11
-621.079219180819
 21
236.5075865738847
 31
0.0
  0
LINE
  5
96
  8
1
  6
CONTINUOUS
 62
     7
 10
-628.7292191808183
 20
237.7575236812506
 30
0.0
 11
-628.7292191808183
 21
244.5075865738843
 31
0.0
  0
ARC
  5
97
  8
1
  6
CONTINUOUS
 62
     7
 10
-632.9792191808181
 20
249.2750964525347
 30
0.0
 40
12.27668450933814
 50
249.7458706710206
 51
290.2541293289788
  0
LINE
  5
98
  8
1
  6
CONTINUOUS
 62
     7
 10
-628.7292191808183
 20
166.8576494665183
 30
0.0
 11
-628.7292191808183
 21
160.1075865738843
 31
0.0
  0
ARC
  5
99
  8
1
  6
CONTINUOUS
 62
     7
 10
-624.518934574289
 20
155.4668280072583
 30
0.0
 40
12.14402363241753
 50
79.6120051892496
 51
110.2853612921509
  0
LINE
  5
9A
  8
1
  6
CONTINUOUS
 62
     7
 10
-620.7291760762787
 20
167.0167325418123
 30
0.0
 11
-620.2292191808184
 21
166.8576494665183
 31
0.0
  0
ARC
  5
9B
  8
1
  6
CONTINUOUS
 62
     7
 10
-632.9792191808183
 20
155.3400766952338
 30
0.0
 40
12.27668450933852
 50
69.7458706710213
 51
110.2541293289787
  0
LINE
  5
9C
  8
1
  6
CONTINUOUS
 62
     7
 10
-621.0792191808183
 20
168.1075865738843
 30
0.0
 11
-636.3792191808184
 21
168.1075865738843
 31
0.0
  0
LINE
  5
9D
  8
1
  6
CONTINUOUS
 62
     7
 10
-636.1292191808183
 20
145.0075865738843
 30
0.0
 11
-636.1292191808183
 21
137.0075865738843
 31
0.0
  0
LINE
  5
9E
  8
1
  6
CONTINUOUS
 62
     7
 10
-636.4292191808183
 20
145.0075865738843
 30
0.0
 11
-636.4292191808183
 21
137.0075865738843
 31
0.0
  0
LINE
  5
9F
  8
1
  6
CONTINUOUS
 62
   253
 10
-629.3292191808184
 20
116.5075865738843
 30
0.0
 11
-627.7292191808184
 21
116.5075865738843
 31
0.0
  0
LINE
  5
A0
  8
1
  6
CONTINUOUS
 62
     7
 10
-627.7292191808184
 20
115.5075865738843
 30
0.0
 11
-629.3292191808184
 21
115.5075865738843
 31
0.0
  0
ARC
  5
A1
  8
1
  6
CONTINUOUS
 62
     7
 10
-620.7292191808183
 20
126.5075865738843
 30
0.0
 40
1.59999999999999
 50
270.0
 51
0.0
  0
LINE
  5
A2
  8
1
  6
CONTINUOUS
 62
     7
 10
-627.7292191808184
 20
124.9075865738843
 30
0.0
 11
-620.7292191808183
 21
124.9075865738843
 31
0.0
  0
ARC
  5
A3
  8
1
  6
CONTINUOUS
 62
     7
 10
-627.7292191808184
 20
124.9075865738843
 30
0.0
 40
1.59999999999999
 50
90.0
 51
180.0
  0
LINE
  5
A4
  8
1
  6
CONTINUOUS
 62
     7
 10
-620.7292191808183
 20
126.5075865738843
 30
0.0
 11
-627.7292191808183
 21
126.5075865738843
 31
0.0
  0
LINE
  5
A5
  8
1
  6
CONTINUOUS
 62
   253
 10
-619.1292191808182
 20
159.6075865738843
 30
0.0
 11
-620.7292191808183
 21
159.6075865738843
 31
0.0
  0
LINE
  5
A6
  8
1
  6
CONTINUOUS
 62
     7
 10
-620.7292191808183
 20
160.6075865738843
 30
0.0
 11
-619.1292191808182
 21
160.6075865738843
 31
0.0
  0
LINE
  5
A7
  8
1
  6
CONTINUOUS
 62
     7
 10
-622.7292191808183
 20
163.2075865738843
 30
0.0
 11
-622.7292191808183
 21
161.6075865738843
 31
0.0
  0
LINE
  5
A8
  8
1
  6
CONTINUOUS
 62
   253
 10
-623.7292191808184
 20
163.2075865738843
 30
0.0
 11
-623.7292191808184
 21
161.6075865738843
 31
0.0
  0
LINE
  5
A9
  8
1
  6
CONTINUOUS
 62
     7
 10
-624.7292191808183
 20
161.6075865738843
 30
0.0
 11
-624.7292191808183
 21
163.2075865738843
 31
0.0
  0
LINE
  5
AA
  8
1
  6
CONTINUOUS
 62
   253
 10
-620.7292191808183
 20
161.6075865738843
 30
0.0
 11
-619.1292191808183
 21
161.6075865738843
 31
0.0
  0
ARC
  5
AB
  8
1
  6
CONTINUOUS
 62
     7
 10
-620.7292191808183
 20
161.6075865738843
 30
0.0
 40
1.600000000000046
 50
0.0
 51
90.0
  0
LINE
  5
AC
  8
1
  6
CONTINUOUS
 62
   253
 10
-633.2292191808182
 20
150.5075865738843
 30
0.0
 11
-633.2292191808182
 21
138.5075865738843
 31
0.0
  0
LINE
  5
AD
  8
1
  6
CONTINUOUS
 62
     7
 10
-622.3292191808183
 20
139.5075865738843
 30
0.0
 11
-622.3292191808183
 21
149.5075865738843
 31
0.0
  0
ARC
  5
AE
  8
1
  6
CONTINUOUS
 62
     7
 10
-623.3292191808184
 20
149.5075865738843
 30
0.0
 40
1.000000000000001
 50
0.0
 51
90.0
  0
ARC
  5
AF
  8
1
  6
CONTINUOUS
 62
     7
 10
-623.3292191808184
 20
139.5075865738843
 30
0.0
 40
1.000000000000001
 50
270.0
 51
0.0
  0
LINE
  5
B0
  8
1
  6
CONTINUOUS
 62
   253
 10
-634.8292191808182
 20
151.3075865738843
 30
0.0
 11
-633.2292191808182
 21
151.3075865738843
 31
0.0
  0
LINE
  5
B1
  8
1
  6
CONTINUOUS
 62
   253
 10
-633.2292191808182
 20
137.7075865738843
 30
0.0
 11
-634.8292191808182
 21
137.7075865738843
 31
0.0
  0
LINE
  5
B2
  8
1
  6
CONTINUOUS
 62
   253
 10
-631.7292191808184
 20
119.5075865738843
 30
0.0
 11
-630.1292191808183
 21
119.5075865738843
 31
0.0
  0
LINE
  5
B3
  8
1
  6
CONTINUOUS
 62
     7
 10
-630.1292191808183
 20
118.5075865738843
 30
0.0
 11
-631.7292191808184
 21
118.5075865738843
 31
0.0
  0
LINE
  5
B4
  8
1
  6
CONTINUOUS
 62
     7
 10
-631.7292191808184
 20
126.5075865738843
 30
0.0
 11
-633.2292191808183
 21
126.5075865738843
 31
0.0
  0
ARC
  5
B5
  8
1
  6
CONTINUOUS
 62
     7
 10
-631.7292191808184
 20
124.9075865738843
 30
0.0
 40
1.600000000000046
 50
0.0
 51
90.0
  0
LINE
  5
B6
  8
1
  6
CONTINUOUS
 62
     7
 10
-633.2292191808182
 20
124.9075865738843
 30
0.0
 11
-631.7292191808183
 21
124.9075865738843
 31
0.0
  0
ARC
  5
B7
  8
1
  6
CONTINUOUS
 62
     7
 10
-633.2292191808182
 20
126.5075865738843
 30
0.0
 40
1.600000000000046
 50
180.0
 51
270.0
  0
LINE
  5
B8
  8
1
  6
CONTINUOUS
 62
   253
 10
-620.7292191808183
 20
166.5075865738843
 30
0.0
 11
-622.3292191808183
 21
166.5075865738843
 31
0.0
  0
ARC
  5
B9
  8
1
  6
CONTINUOUS
 62
     7
 10
-633.2292191808182
 20
158.5075865738843
 30
0.0
 40
1.59999999999999
 50
90.00000000000011
 51
180.0
  0
LINE
  5
BA
  8
1
  6
CONTINUOUS
 62
     7
 10
-633.2292191808182
 20
158.5075865738843
 30
0.0
 11
-622.3292191808183
 21
158.5075865738843
 31
0.0
  0
ARC
  5
BB
  8
1
  6
CONTINUOUS
 62
     7
 10
-622.3292191808183
 20
160.1075865738843
 30
0.0
 40
1.59999999999999
 50
269.9999999999999
 51
359.9999999999998
  0
LINE
  5
BC
  8
1
  6
CONTINUOUS
 62
     7
 10
-622.3292191808183
 20
167.5075865738843
 30
0.0
 11
-620.7292191808183
 21
167.5075865738843
 31
0.0
  0
LINE
  5
BD
  8
1
  6
CONTINUOUS
 62
     7
 10
-635.2292191808182
 20
160.1075865738843
 30
0.0
 11
-635.2292191808182
 21
158.5075865738843
 31
0.0
  0
LINE
  5
BE
  8
1
  6
CONTINUOUS
 62
     7
 10
-636.2292191808183
 20
158.5075865738843
 30
0.0
 11
-636.2292191808183
 21
160.1075865738843
 31
0.0
  0
LINE
  5
BF
  8
1
  6
CONTINUOUS
 62
     7
 10
-633.2292191808182
 20
156.9075865738843
 30
0.0
 11
-623.3592191808183
 21
156.9075865738843
 31
0.0
  0
LINE
  5
C0
  8
1
  6
CONTINUOUS
 62
     7
 10
-639.7292191808184
 20
250.5075865738844
 30
0.0
 11
-639.9230246592266
 21
250.4941798130737
 31
0.0
  0
LINE
  5
C1
  8
1
  6
CONTINUOUS
 62
     7
 10
-639.9230246592266
 20
250.4941798130737
 30
0.0
 11
-640.1094810249916
 21
250.4544679156274
 31
0.0
  0
LINE
  5
C2
  8
1
  6
CONTINUOUS
 62
     7
 10
-640.1094810249916
 20
250.4544679156274
 30
0.0
 11
-640.2815178441596
 21
250.3899567585207
 31
0.0
  0
LINE
  5
C3
  8
1
  6
CONTINUOUS
 62
     7
 10
-640.2815178441596
 20
250.3899567585207
 30
0.0
 11
-640.4326114726455
 21
250.3030926077942
 31
0.0
  0
LINE
  5
C4
  8
1
  6
CONTINUOUS
 62
     7
 10
-640.4326114726455
 20
250.3030926077942
 30
0.0
 11
-640.5570324331171
 21
250.1971693560334
 31
0.0
  0
LINE
  5
C5
  8
1
  6
CONTINUOUS
 62
     7
 10
-640.5570324331171
 20
250.1971693560334
 30
0.0
 11
-640.6500626770386
 21
250.0762036178101
 31
0.0
  0
LINE
  5
C6
  8
1
  6
CONTINUOUS
 62
     7
 10
-616.8083756845981
 20
250.0762036178101
 30
0.0
 11
-616.9014059285196
 21
250.1971693560334
 31
0.0
  0
LINE
  5
C7
  8
1
  6
CONTINUOUS
 62
     7
 10
-616.9014059285196
 20
250.1971693560334
 30
0.0
 11
-617.0258268889912
 21
250.3030926077942
 31
0.0
  0
LINE
  5
C8
  8
1
  6
CONTINUOUS
 62
     7
 10
-617.0258268889912
 20
250.3030926077942
 30
0.0
 11
-617.1769205174771
 21
250.3899567585207
 31
0.0
  0
LINE
  5
C9
  8
1
  6
CONTINUOUS
 62
     7
 10
-617.1769205174771
 20
250.3899567585207
 30
0.0
 11
-617.3489573366451
 21
250.4544679156274
 31
0.0
  0
LINE
  5
CA
  8
1
  6
CONTINUOUS
 62
     7
 10
-617.3489573366451
 20
250.4544679156274
 30
0.0
 11
-617.5354137024101
 21
250.4941798130737
 31
0.0
  0
LINE
  5
CB
  8
1
  6
CONTINUOUS
 62
     7
 10
-617.5354137024101
 20
250.4941798130737
 30
0.0
 11
-617.7292191808183
 21
250.5075865738844
 31
0.0
  0
LINE
  5
CC
  8
1
  6
CONTINUOUS
 62
   253
 10
-618.7292191808182
 20
246.1477885992397
 30
0.0
 11
-618.727740752159
 21
246.202349918942
 31
0.0
  0
LINE
  5
CD
  8
1
  6
CONTINUOUS
 62
   253
 10
-618.727740752159
 20
246.202349918942
 30
0.0
 11
-618.7234058180504
 21
246.2569112386444
 31
0.0
  0
LINE
  5
CE
  8
1
  6
CONTINUOUS
 62
   253
 10
-618.7234058180504
 20
246.2569112386444
 30
0.0
 11
-618.716364906295
 21
246.3114725583468
 31
0.0
  0
LINE
  5
CF
  8
1
  6
CONTINUOUS
 62
   253
 10
-618.716364906295
 20
246.3114725583468
 30
0.0
 11
-618.7067685446963
 21
246.3660338780491
 31
0.0
  0
LINE
  5
D0
  8
1
  6
CONTINUOUS
 62
   253
 10
-618.7067685446963
 20
246.3660338780491
 30
0.0
 11
-618.6947672610568
 21
246.4205951977515
 31
0.0
  0
LINE
  5
D1
  8
1
  6
CONTINUOUS
 62
   253
 10
-618.6947672610568
 20
246.4205951977515
 30
0.0
 11
-618.6805115831795
 21
246.4751565174538
 31
0.0
  0
LINE
  5
D2
  8
1
  6
CONTINUOUS
 62
   253
 10
-618.6805115831795
 20
246.4751565174538
 30
0.0
 11
-618.6641520388679
 21
246.5297178371562
 31
0.0
  0
LINE
  5
D3
  8
1
  6
CONTINUOUS
 62
   253
 10
-618.6641520388679
 20
246.5297178371562
 30
0.0
 11
-618.6458391559245
 21
246.5842791568586
 31
0.0
  0
LINE
  5
D4
  8
1
  6
CONTINUOUS
 62
   253
 10
-618.6458391559245
 20
246.5842791568586
 30
0.0
 11
-618.6257234621525
 21
246.638840476561
 31
0.0
  0
LINE
  5
D5
  8
1
  6
CONTINUOUS
 62
   253
 10
-618.6257234621525
 20
246.638840476561
 30
0.0
 11
-618.6039554853548
 21
246.6934017962633
 31
0.0
  0
LINE
  5
D6
  8
1
  6
CONTINUOUS
 62
   253
 10
-618.6039554853548
 20
246.6934017962633
 30
0.0
 11
-618.5806857533343
 21
246.7479631159657
 31
0.0
  0
LINE
  5
D7
  8
1
  6
CONTINUOUS
 62
   253
 10
-618.5806857533343
 20
246.7479631159657
 30
0.0
 11
-618.5560647938943
 21
246.802524435668
 31
0.0
  0
LINE
  5
D8
  8
1
  6
CONTINUOUS
 62
   253
 10
-618.5560647938943
 20
246.802524435668
 30
0.0
 11
-618.5302431348375
 21
246.8570857553704
 31
0.0
  0
LINE
  5
D9
  8
1
  6
CONTINUOUS
 62
   253
 10
-618.5302431348375
 20
246.8570857553704
 30
0.0
 11
-618.503371303967
 21
246.9116470750728
 31
0.0
  0
LINE
  5
DA
  8
1
  6
CONTINUOUS
 62
   253
 10
-618.503371303967
 20
246.9116470750728
 30
0.0
 11
-618.4755998290857
 21
246.9662083947752
 31
0.0
  0
LINE
  5
DB
  8
1
  6
CONTINUOUS
 62
   253
 10
-618.4755998290857
 20
246.9662083947752
 30
0.0
 11
-618.4470792379968
 21
247.0207697144775
 31
0.0
  0
LINE
  5
DC
  8
1
  6
CONTINUOUS
 62
   253
 10
-618.4470792379968
 20
247.0207697144775
 30
0.0
 11
-618.417960058503
 21
247.0753310341799
 31
0.0
  0
LINE
  5
DD
  8
1
  6
CONTINUOUS
 62
   253
 10
-618.417960058503
 20
247.0753310341799
 30
0.0
 11
-618.3883928184075
 21
247.1298923538823
 31
0.0
  0
LINE
  5
DE
  8
1
  6
CONTINUOUS
 62
   253
 10
-618.3883928184075
 20
247.1298923538823
 30
0.0
 11
-618.3585280455131
 21
247.1844536735846
 31
0.0
  0
LINE
  5
DF
  8
1
  6
CONTINUOUS
 62
   253
 10
-618.3585280455131
 20
247.1844536735846
 30
0.0
 11
-618.32851578718
 21
247.239014993287
 31
0.0
  0
LINE
  5
E0
  8
1
  6
CONTINUOUS
 62
   253
 10
-618.32851578718
 20
247.239014993287
 30
0.0
 11
-618.2975827067587
 21
247.2935763129894
 31
0.0
  0
LINE
  5
E1
  8
1
  6
CONTINUOUS
 62
   253
 10
-618.2975827067587
 20
247.2935763129894
 30
0.0
 11
-618.2650110615645
 21
247.3481376326917
 31
0.0
  0
LINE
  5
E2
  8
1
  6
CONTINUOUS
 62
   253
 10
-618.2650110615645
 20
247.3481376326917
 30
0.0
 11
-618.2309137474496
 21
247.4026989523941
 31
0.0
  0
LINE
  5
E3
  8
1
  6
CONTINUOUS
 62
   253
 10
-618.2309137474496
 20
247.4026989523941
 30
0.0
 11
-618.1954036602659
 21
247.4572602720964
 31
0.0
  0
LINE
  5
E4
  8
1
  6
CONTINUOUS
 62
   253
 10
-618.1954036602659
 20
247.4572602720964
 30
0.0
 11
-618.1585936958661
 21
247.5118215917988
 31
0.0
  0
LINE
  5
E5
  8
1
  6
CONTINUOUS
 62
   253
 10
-618.1585936958661
 20
247.5118215917988
 30
0.0
 11
-618.1205967501021
 21
247.5663829115012
 31
0.0
  0
LINE
  5
E6
  8
1
  6
CONTINUOUS
 62
   253
 10
-618.1205967501021
 20
247.5663829115012
 30
0.0
 11
-618.0815257188265
 21
247.6209442312036
 31
0.0
  0
LINE
  5
E7
  8
1
  6
CONTINUOUS
 62
   253
 10
-618.0815257188265
 20
247.6209442312036
 30
0.0
 11
-618.0414934978912
 21
247.6755055509059
 31
0.0
  0
LINE
  5
E8
  8
1
  6
CONTINUOUS
 62
   253
 10
-618.0414934978912
 20
247.6755055509059
 30
0.0
 11
-618.0006129831486
 21
247.7300668706083
 31
0.0
  0
LINE
  5
E9
  8
1
  6
CONTINUOUS
 62
   253
 10
-618.0006129831486
 20
247.7300668706083
 30
0.0
 11
-617.9589970704509
 21
247.7846281903107
 31
0.0
  0
LINE
  5
EA
  8
1
  6
CONTINUOUS
 62
   253
 10
-617.9589970704509
 20
247.7846281903107
 30
0.0
 11
-617.9167586556501
 21
247.839189510013
 31
0.0
  0
LINE
  5
EB
  8
1
  6
CONTINUOUS
 62
   253
 10
-617.9167586556501
 20
247.839189510013
 30
0.0
 11
-617.874010634599
 21
247.8937508297154
 31
0.0
  0
LINE
  5
EC
  8
1
  6
CONTINUOUS
 62
   253
 10
-617.874010634599
 20
247.8937508297154
 30
0.0
 11
-617.8308659031494
 21
247.9483121494178
 31
0.0
  0
LINE
  5
ED
  8
1
  6
CONTINUOUS
 62
   253
 10
-617.8308659031494
 20
247.9483121494178
 30
0.0
 11
-617.7874373571537
 21
248.0028734691201
 31
0.0
  0
LINE
  5
EE
  8
1
  6
CONTINUOUS
 62
   253
 10
-617.7874373571537
 20
248.0028734691201
 30
0.0
 11
-617.7438378924642
 21
248.0574347888225
 31
0.0
  0
LINE
  5
EF
  8
1
  6
CONTINUOUS
 62
   253
 10
-617.7438378924642
 20
248.0574347888225
 30
0.0
 11
-617.7001804049328
 21
248.1119961085249
 31
0.0
  0
LINE
  5
F0
  8
1
  6
CONTINUOUS
 62
   253
 10
-617.7001804049328
 20
248.1119961085249
 30
0.0
 11
-617.6565777904123
 21
248.1665574282272
 31
0.0
  0
LINE
  5
F1
  8
1
  6
CONTINUOUS
 62
   253
 10
-617.6565777904123
 20
248.1665574282272
 30
0.0
 11
-617.6131429447545
 21
248.2211187479296
 31
0.0
  0
LINE
  5
F2
  8
1
  6
CONTINUOUS
 62
   253
 10
-617.6131429447545
 20
248.2211187479296
 30
0.0
 11
-617.5699887638117
 21
248.275680067632
 31
0.0
  0
LINE
  5
F3
  8
1
  6
CONTINUOUS
 62
   253
 10
-617.5699887638117
 20
248.275680067632
 30
0.0
 11
-617.5272281434363
 21
248.3302413873343
 31
0.0
  0
LINE
  5
F4
  8
1
  6
CONTINUOUS
 62
   253
 10
-617.5272281434363
 20
248.3302413873343
 30
0.0
 11
-617.4849739794805
 21
248.3848027070367
 31
0.0
  0
LINE
  5
F5
  8
1
  6
CONTINUOUS
 62
   253
 10
-617.4849739794805
 20
248.3848027070367
 30
0.0
 11
-617.4433391677965
 21
248.4393640267391
 31
0.0
  0
LINE
  5
F6
  8
1
  6
CONTINUOUS
 62
   253
 10
-617.4433391677965
 20
248.4393640267391
 30
0.0
 11
-617.4024366042363
 21
248.4939253464414
 31
0.0
  0
LINE
  5
F7
  8
1
  6
CONTINUOUS
 62
   253
 10
-617.4024366042363
 20
248.4939253464414
 30
0.0
 11
-617.3623791846526
 21
248.5484866661438
 31
0.0
  0
LINE
  5
F8
  8
1
  6
CONTINUOUS
 62
   253
 10
-617.3623791846526
 20
248.5484866661438
 30
0.0
 11
-617.3232798048974
 21
248.6030479858462
 31
0.0
  0
LINE
  5
F9
  8
1
  6
CONTINUOUS
 62
   253
 10
-617.3232798048974
 20
248.6030479858462
 30
0.0
 11
-617.2852513608229
 21
248.6576093055485
 31
0.0
  0
LINE
  5
FA
  8
1
  6
CONTINUOUS
 62
   253
 10
-617.2852513608229
 20
248.6576093055485
 30
0.0
 11
-617.2484067482815
 21
248.7121706252509
 31
0.0
  0
LINE
  5
FB
  8
1
  6
CONTINUOUS
 62
   253
 10
-617.2484067482815
 20
248.7121706252509
 30
0.0
 11
-617.2128588631251
 21
248.7667319449533
 31
0.0
  0
LINE
  5
FC
  8
1
  6
CONTINUOUS
 62
   253
 10
-617.2128588631251
 20
248.7667319449533
 30
0.0
 11
-617.1787206012065
 21
248.8212932646556
 31
0.0
  0
LINE
  5
FD
  8
1
  6
CONTINUOUS
 62
   253
 10
-617.1787206012065
 20
248.8212932646556
 30
0.0
 11
-617.1461048583774
 21
248.875854584358
 31
0.0
  0
LINE
  5
FE
  8
1
  6
CONTINUOUS
 62
   253
 10
-617.1461048583774
 20
248.875854584358
 30
0.0
 11
-617.1151245304904
 21
248.9304159040603
 31
0.0
  0
LINE
  5
FF
  8
1
  6
CONTINUOUS
 62
   253
 10
-617.1151245304904
 20
248.9304159040603
 30
0.0
 11
-617.0858925133977
 21
248.9849772237627
 31
0.0
  0
LINE
  5
100
  8
1
  6
CONTINUOUS
 62
   253
 10
-617.0858925133977
 20
248.9849772237627
 30
0.0
 11
-617.0585217029512
 21
249.0395385434651
 31
0.0
  0
LINE
  5
101
  8
1
  6
CONTINUOUS
 62
   253
 10
-617.0585217029512
 20
249.0395385434651
 30
0.0
 11
-617.0331249950035
 21
249.0940998631675
 31
0.0
  0
LINE
  5
102
  8
1
  6
CONTINUOUS
 62
   253
 10
-617.0331249950035
 20
249.0940998631675
 30
0.0
 11
-617.0098152854067
 21
249.1486611828698
 31
0.0
  0
LINE
  5
103
  8
1
  6
CONTINUOUS
 62
   253
 10
-617.0098152854067
 20
249.1486611828698
 30
0.0
 11
-616.9887054700131
 21
249.2032225025721
 31
0.0
  0
LINE
  5
104
  8
1
  6
CONTINUOUS
 62
   253
 10
-616.9887054700131
 20
249.2032225025721
 30
0.0
 11
-616.969908444675
 21
249.2577838222745
 31
0.0
  0
LINE
  5
105
  8
1
  6
CONTINUOUS
 62
   253
 10
-616.969908444675
 20
249.2577838222745
 30
0.0
 11
-616.9535371052444
 21
249.3123451419769
 31
0.0
  0
LINE
  5
106
  8
1
  6
CONTINUOUS
 62
   253
 10
-616.9535371052444
 20
249.3123451419769
 30
0.0
 11
-616.9397043475738
 21
249.3669064616793
 31
0.0
  0
LINE
  5
107
  8
1
  6
CONTINUOUS
 62
   253
 10
-616.9397043475738
 20
249.3669064616793
 30
0.0
 11
-616.9285162673013
 21
249.4214677813816
 31
0.0
  0
LINE
  5
108
  8
1
  6
CONTINUOUS
 62
   253
 10
-616.9285162673013
 20
249.4214677813816
 30
0.0
 11
-616.9185045520762
 21
249.476029101084
 31
0.0
  0
LINE
  5
109
  8
1
  6
CONTINUOUS
 62
   253
 10
-616.9185045520762
 20
249.476029101084
 30
0.0
 11
-616.9084928368509
 21
249.5305904207864
 31
0.0
  0
LINE
  5
10A
  8
1
  6
CONTINUOUS
 62
   253
 10
-616.9084928368509
 20
249.5305904207864
 30
0.0
 11
-616.8984811216257
 21
249.5851517404887
 31
0.0
  0
LINE
  5
10B
  8
1
  6
CONTINUOUS
 62
   253
 10
-616.8984811216257
 20
249.5851517404887
 30
0.0
 11
-616.8884694064003
 21
249.639713060191
 31
0.0
  0
LINE
  5
10C
  8
1
  6
CONTINUOUS
 62
   253
 10
-616.8884694064003
 20
249.639713060191
 30
0.0
 11
-616.8784576911752
 21
249.6942743798935
 31
0.0
  0
LINE
  5
10D
  8
1
  6
CONTINUOUS
 62
   253
 10
-616.8784576911752
 20
249.6942743798935
 30
0.0
 11
-616.8684459759498
 21
249.7488356995958
 31
0.0
  0
LINE
  5
10E
  8
1
  6
CONTINUOUS
 62
   253
 10
-616.8684459759498
 20
249.7488356995958
 30
0.0
 11
-616.8584342607246
 21
249.8033970192982
 31
0.0
  0
LINE
  5
10F
  8
1
  6
CONTINUOUS
 62
   253
 10
-616.8584342607246
 20
249.8033970192982
 30
0.0
 11
-616.8484225454994
 21
249.8579583390006
 31
0.0
  0
LINE
  5
110
  8
1
  6
CONTINUOUS
 62
   253
 10
-616.8484225454994
 20
249.8579583390006
 30
0.0
 11
-616.838410830274
 21
249.9125196587029
 31
0.0
  0
LINE
  5
111
  8
1
  6
CONTINUOUS
 62
   253
 10
-616.838410830274
 20
249.9125196587029
 30
0.0
 11
-616.8283991150488
 21
249.9670809784053
 31
0.0
  0
LINE
  5
112
  8
1
  6
CONTINUOUS
 62
   253
 10
-616.8283991150488
 20
249.9670809784053
 30
0.0
 11
-616.8183873998235
 21
250.0216422981077
 31
0.0
  0
LINE
  5
113
  8
1
  6
CONTINUOUS
 62
   253
 10
-616.8183873998235
 20
250.0216422981077
 30
0.0
 11
-616.8083756845981
 21
250.0762036178101
 31
0.0
  0
LINE
  5
114
  8
1
  6
CONTINUOUS
 62
   253
 10
-618.7292191808182
 20
246.1477885992397
 30
0.0
 11
-638.7292191808183
 21
246.1477885992397
 31
0.0
  0
LINE
  5
115
  8
1
  6
CONTINUOUS
 62
   253
 10
-638.7292191808183
 20
246.1477885992397
 30
0.0
 11
-638.7306976094775
 21
246.202349918942
 31
0.0
  0
LINE
  5
116
  8
1
  6
CONTINUOUS
 62
   253
 10
-638.7306976094775
 20
246.202349918942
 30
0.0
 11
-638.7350325435862
 21
246.2569112386444
 31
0.0
  0
LINE
  5
117
  8
1
  6
CONTINUOUS
 62
   253
 10
-638.7350325435862
 20
246.2569112386444
 30
0.0
 11
-638.7420734553413
 21
246.3114725583468
 31
0.0
  0
LINE
  5
118
  8
1
  6
CONTINUOUS
 62
   253
 10
-638.7420734553413
 20
246.3114725583468
 30
0.0
 11
-638.7516698169403
 21
246.3660338780491
 31
0.0
  0
LINE
  5
119
  8
1
  6
CONTINUOUS
 62
   253
 10
-638.7516698169403
 20
246.3660338780491
 30
0.0
 11
-638.7636711005798
 21
246.4205951977515
 31
0.0
  0
LINE
  5
11A
  8
1
  6
CONTINUOUS
 62
   253
 10
-638.7636711005798
 20
246.4205951977515
 30
0.0
 11
-638.777926778457
 21
246.4751565174538
 31
0.0
  0
LINE
  5
11B
  8
1
  6
CONTINUOUS
 62
   253
 10
-638.777926778457
 20
246.4751565174538
 30
0.0
 11
-638.7942863227686
 21
246.5297178371562
 31
0.0
  0
LINE
  5
11C
  8
1
  6
CONTINUOUS
 62
   253
 10
-638.7942863227686
 20
246.5297178371562
 30
0.0
 11
-638.812599205712
 21
246.5842791568586
 31
0.0
  0
LINE
  5
11D
  8
1
  6
CONTINUOUS
 62
   253
 10
-638.812599205712
 20
246.5842791568586
 30
0.0
 11
-638.8327148994841
 21
246.638840476561
 31
0.0
  0
LINE
  5
11E
  8
1
  6
CONTINUOUS
 62
   253
 10
-638.8327148994841
 20
246.638840476561
 30
0.0
 11
-638.8544828762817
 21
246.6934017962633
 31
0.0
  0
LINE
  5
11F
  8
1
  6
CONTINUOUS
 62
   253
 10
-638.8544828762817
 20
246.6934017962633
 30
0.0
 11
-638.877752608302
 21
246.7479631159657
 31
0.0
  0
LINE
  5
120
  8
1
  6
CONTINUOUS
 62
   253
 10
-638.877752608302
 20
246.7479631159657
 30
0.0
 11
-638.9023735677422
 21
246.802524435668
 31
0.0
  0
LINE
  5
121
  8
1
  6
CONTINUOUS
 62
   253
 10
-638.9023735677422
 20
246.802524435668
 30
0.0
 11
-638.9281952267991
 21
246.8570857553704
 31
0.0
  0
LINE
  5
122
  8
1
  6
CONTINUOUS
 62
   253
 10
-638.9281952267991
 20
246.8570857553704
 30
0.0
 11
-638.9550670576696
 21
246.9116470750728
 31
0.0
  0
LINE
  5
123
  8
1
  6
CONTINUOUS
 62
   253
 10
-638.9550670576696
 20
246.9116470750728
 30
0.0
 11
-638.9828385325508
 21
246.9662083947752
 31
0.0
  0
LINE
  5
124
  8
1
  6
CONTINUOUS
 62
   253
 10
-638.9828385325508
 20
246.9662083947752
 30
0.0
 11
-639.0113591236397
 21
247.0207697144775
 31
0.0
  0
LINE
  5
125
  8
1
  6
CONTINUOUS
 62
   253
 10
-639.0113591236397
 20
247.0207697144775
 30
0.0
 11
-639.0404783031336
 21
247.0753310341799
 31
0.0
  0
LINE
  5
126
  8
1
  6
CONTINUOUS
 62
   253
 10
-639.0404783031336
 20
247.0753310341799
 30
0.0
 11
-639.070045543229
 21
247.1298923538823
 31
0.0
  0
LINE
  5
127
  8
1
  6
CONTINUOUS
 62
   253
 10
-639.070045543229
 20
247.1298923538823
 30
0.0
 11
-639.0999103161232
 21
247.1844536735846
 31
0.0
  0
LINE
  5
128
  8
1
  6
CONTINUOUS
 62
   253
 10
-639.0999103161232
 20
247.1844536735846
 30
0.0
 11
-639.1299225744565
 21
247.239014993287
 31
0.0
  0
LINE
  5
129
  8
1
  6
CONTINUOUS
 62
   253
 10
-639.1299225744565
 20
247.239014993287
 30
0.0
 11
-639.1608556548777
 21
247.2935763129894
 31
0.0
  0
LINE
  5
12A
  8
1
  6
CONTINUOUS
 62
   253
 10
-639.1608556548777
 20
247.2935763129894
 30
0.0
 11
-639.1934273000718
 21
247.3481376326917
 31
0.0
  0
LINE
  5
12B
  8
1
  6
CONTINUOUS
 62
   253
 10
-639.1934273000718
 20
247.3481376326917
 30
0.0
 11
-639.2275246141871
 21
247.4026989523941
 31
0.0
  0
LINE
  5
12C
  8
1
  6
CONTINUOUS
 62
   253
 10
-639.2275246141871
 20
247.4026989523941
 30
0.0
 11
-639.2630347013705
 21
247.4572602720964
 31
0.0
  0
LINE
  5
12D
  8
1
  6
CONTINUOUS
 62
   253
 10
-639.2630347013705
 20
247.4572602720964
 30
0.0
 11
-639.2998446657705
 21
247.5118215917988
 31
0.0
  0
LINE
  5
12E
  8
1
  6
CONTINUOUS
 62
   253
 10
-639.2998446657705
 20
247.5118215917988
 30
0.0
 11
-639.3378416115344
 21
247.5663829115012
 31
0.0
  0
LINE
  5
12F
  8
1
  6
CONTINUOUS
 62
   253
 10
-639.3378416115344
 20
247.5663829115012
 30
0.0
 11
-639.3769126428101
 21
247.6209442312036
 31
0.0
  0
LINE
  5
130
  8
1
  6
CONTINUOUS
 62
   253
 10
-639.3769126428101
 20
247.6209442312036
 30
0.0
 11
-639.4169448637455
 21
247.6755055509059
 31
0.0
  0
LINE
  5
131
  8
1
  6
CONTINUOUS
 62
   253
 10
-639.4169448637455
 20
247.6755055509059
 30
0.0
 11
-639.4578253784881
 21
247.7300668706083
 31
0.0
  0
LINE
  5
132
  8
1
  6
CONTINUOUS
 62
   253
 10
-639.4578253784881
 20
247.7300668706083
 30
0.0
 11
-639.4994412911859
 21
247.7846281903107
 31
0.0
  0
LINE
  5
133
  8
1
  6
CONTINUOUS
 62
   253
 10
-639.4994412911859
 20
247.7846281903107
 30
0.0
 11
-639.5416797059863
 21
247.839189510013
 31
0.0
  0
LINE
  5
134
  8
1
  6
CONTINUOUS
 62
   253
 10
-639.5416797059863
 20
247.839189510013
 30
0.0
 11
-639.5844277270377
 21
247.8937508297154
 31
0.0
  0
LINE
  5
135
  8
1
  6
CONTINUOUS
 62
   253
 10
-639.5844277270377
 20
247.8937508297154
 30
0.0
 11
-639.6275724584873
 21
247.9483121494178
 31
0.0
  0
LINE
  5
136
  8
1
  6
CONTINUOUS
 62
   253
 10
-639.6275724584873
 20
247.9483121494178
 30
0.0
 11
-639.671001004483
 21
248.0028734691201
 31
0.0
  0
LINE
  5
137
  8
1
  6
CONTINUOUS
 62
   253
 10
-639.671001004483
 20
248.0028734691201
 30
0.0
 11
-639.7146004691725
 21
248.0574347888225
 31
0.0
  0
LINE
  5
138
  8
1
  6
CONTINUOUS
 62
   253
 10
-639.7146004691725
 20
248.0574347888225
 30
0.0
 11
-639.7582579567037
 21
248.1119961085249
 31
0.0
  0
LINE
  5
139
  8
1
  6
CONTINUOUS
 62
   253
 10
-639.7582579567037
 20
248.1119961085249
 30
0.0
 11
-639.8018605712243
 21
248.1665574282272
 31
0.0
  0
LINE
  5
13A
  8
1
  6
CONTINUOUS
 62
   253
 10
-639.8018605712243
 20
248.1665574282272
 30
0.0
 11
-639.8452954168822
 21
248.2211187479296
 31
0.0
  0
LINE
  5
13B
  8
1
  6
CONTINUOUS
 62
   253
 10
-639.8452954168822
 20
248.2211187479296
 30
0.0
 11
-639.888449597825
 21
248.275680067632
 31
0.0
  0
LINE
  5
13C
  8
1
  6
CONTINUOUS
 62
   253
 10
-639.888449597825
 20
248.275680067632
 30
0.0
 11
-639.9312102182004
 21
248.3302413873343
 31
0.0
  0
LINE
  5
13D
  8
1
  6
CONTINUOUS
 62
   253
 10
-639.9312102182004
 20
248.3302413873343
 30
0.0
 11
-639.9734643821562
 21
248.3848027070367
 31
0.0
  0
LINE
  5
13E
  8
1
  6
CONTINUOUS
 62
   253
 10
-639.9734643821562
 20
248.3848027070367
 30
0.0
 11
-640.0150991938403
 21
248.4393640267391
 31
0.0
  0
LINE
  5
13F
  8
1
  6
CONTINUOUS
 62
   253
 10
-640.0150991938403
 20
248.4393640267391
 30
0.0
 11
-640.0560017574002
 21
248.4939253464414
 31
0.0
  0
LINE
  5
140
  8
1
  6
CONTINUOUS
 62
   253
 10
-640.0560017574002
 20
248.4939253464414
 30
0.0
 11
-640.0960591769841
 21
248.5484866661438
 31
0.0
  0
LINE
  5
141
  8
1
  6
CONTINUOUS
 62
   253
 10
-640.0960591769841
 20
248.5484866661438
 30
0.0
 11
-640.1351585567393
 21
248.6030479858462
 31
0.0
  0
LINE
  5
142
  8
1
  6
CONTINUOUS
 62
   253
 10
-640.1351585567393
 20
248.6030479858462
 30
0.0
 11
-640.1731870008138
 21
248.6576093055485
 31
0.0
  0
LINE
  5
143
  8
1
  6
CONTINUOUS
 62
   253
 10
-640.1731870008138
 20
248.6576093055485
 30
0.0
 11
-640.2100316133552
 21
248.7121706252509
 31
0.0
  0
LINE
  5
144
  8
1
  6
CONTINUOUS
 62
   253
 10
-640.2100316133552
 20
248.7121706252509
 30
0.0
 11
-640.2455794985115
 21
248.7667319449533
 31
0.0
  0
LINE
  5
145
  8
1
  6
CONTINUOUS
 62
   253
 10
-640.2455794985115
 20
248.7667319449533
 30
0.0
 11
-640.2797177604302
 21
248.8212932646556
 31
0.0
  0
LINE
  5
146
  8
1
  6
CONTINUOUS
 62
   253
 10
-640.2797177604302
 20
248.8212932646556
 30
0.0
 11
-640.3123335032592
 21
248.875854584358
 31
0.0
  0
LINE
  5
147
  8
1
  6
CONTINUOUS
 62
   253
 10
-640.3123335032592
 20
248.875854584358
 30
0.0
 11
-640.3433138311461
 21
248.9304159040603
 31
0.0
  0
LINE
  5
148
  8
1
  6
CONTINUOUS
 62
   253
 10
-640.3433138311461
 20
248.9304159040603
 30
0.0
 11
-640.372545848239
 21
248.9849772237627
 31
0.0
  0
LINE
  5
149
  8
1
  6
CONTINUOUS
 62
   253
 10
-640.372545848239
 20
248.9849772237627
 30
0.0
 11
-640.3999166586854
 21
249.0395385434651
 31
0.0
  0
LINE
  5
14A
  8
1
  6
CONTINUOUS
 62
   253
 10
-640.3999166586854
 20
249.0395385434651
 30
0.0
 11
-640.4253133666331
 21
249.0940998631675
 31
0.0
  0
LINE
  5
14B
  8
1
  6
CONTINUOUS
 62
   253
 10
-640.4253133666331
 20
249.0940998631675
 30
0.0
 11
-640.44862307623
 21
249.1486611828698
 31
0.0
  0
LINE
  5
14C
  8
1
  6
CONTINUOUS
 62
   253
 10
-640.44862307623
 20
249.1486611828698
 30
0.0
 11
-640.4697328916234
 21
249.2032225025721
 31
0.0
  0
LINE
  5
14D
  8
1
  6
CONTINUOUS
 62
   253
 10
-640.4697328916234
 20
249.2032225025721
 30
0.0
 11
-640.4885299169616
 21
249.2577838222745
 31
0.0
  0
LINE
  5
14E
  8
1
  6
CONTINUOUS
 62
   253
 10
-640.4885299169616
 20
249.2577838222745
 30
0.0
 11
-640.5049012563921
 21
249.3123451419769
 31
0.0
  0
LINE
  5
14F
  8
1
  6
CONTINUOUS
 62
   253
 10
-640.5049012563921
 20
249.3123451419769
 30
0.0
 11
-640.5187340140627
 21
249.3669064616793
 31
0.0
  0
LINE
  5
150
  8
1
  6
CONTINUOUS
 62
   253
 10
-640.5187340140627
 20
249.3669064616793
 30
0.0
 11
-640.5299220943351
 21
249.4214677813816
 31
0.0
  0
LINE
  5
151
  8
1
  6
CONTINUOUS
 62
   253
 10
-640.5299220943351
 20
249.4214677813816
 30
0.0
 11
-640.5399338095602
 21
249.476029101084
 31
0.0
  0
LINE
  5
152
  8
1
  6
CONTINUOUS
 62
   253
 10
-640.5399338095602
 20
249.476029101084
 30
0.0
 11
-640.5499455247856
 21
249.5305904207864
 31
0.0
  0
LINE
  5
153
  8
1
  6
CONTINUOUS
 62
   253
 10
-640.5499455247856
 20
249.5305904207864
 30
0.0
 11
-640.5599572400108
 21
249.5851517404887
 31
0.0
  0
LINE
  5
154
  8
1
  6
CONTINUOUS
 62
   253
 10
-640.5599572400108
 20
249.5851517404887
 30
0.0
 11
-640.569968955236
 21
249.639713060191
 31
0.0
  0
LINE
  5
155
  8
1
  6
CONTINUOUS
 62
   253
 10
-640.569968955236
 20
249.639713060191
 30
0.0
 11
-640.5799806704615
 21
249.6942743798935
 31
0.0
  0
LINE
  5
156
  8
1
  6
CONTINUOUS
 62
   253
 10
-640.5799806704615
 20
249.6942743798935
 30
0.0
 11
-640.5899923856867
 21
249.7488356995958
 31
0.0
  0
LINE
  5
157
  8
1
  6
CONTINUOUS
 62
   253
 10
-640.5899923856867
 20
249.7488356995958
 30
0.0
 11
-640.6000041009121
 21
249.8033970192982
 31
0.0
  0
LINE
  5
158
  8
1
  6
CONTINUOUS
 62
   253
 10
-640.6000041009121
 20
249.8033970192982
 30
0.0
 11
-640.6100158161373
 21
249.8579583390006
 31
0.0
  0
LINE
  5
159
  8
1
  6
CONTINUOUS
 62
   253
 10
-640.6100158161373
 20
249.8579583390006
 30
0.0
 11
-640.6200275313627
 21
249.9125196587029
 31
0.0
  0
LINE
  5
15A
  8
1
  6
CONTINUOUS
 62
   253
 10
-640.6200275313627
 20
249.9125196587029
 30
0.0
 11
-640.6300392465878
 21
249.9670809784053
 31
0.0
  0
LINE
  5
15B
  8
1
  6
CONTINUOUS
 62
   253
 10
-640.6300392465878
 20
249.9670809784053
 30
0.0
 11
-640.6400509618132
 21
250.0216422981077
 31
0.0
  0
LINE
  5
15C
  8
1
  6
CONTINUOUS
 62
   253
 10
-640.6400509618132
 20
250.0216422981077
 30
0.0
 11
-640.6500626770384
 21
250.0762036178101
 31
0.0
  0
LINE
  5
15D
  8
1
  6
CONTINUOUS
 62
     7
 10
-639.7292191808184
 20
251.6389574237828
 30
0.0
 11
-639.9243095028345
 21
251.6253705652573
 31
0.0
  0
LINE
  5
15E
  8
1
  6
CONTINUOUS
 62
     7
 10
-639.9243095028345
 20
251.6253705652573
 30
0.0
 11
-640.1119026131835
 21
251.5851321250344
 31
0.0
  0
LINE
  5
15F
  8
1
  6
CONTINUOUS
 62
     7
 10
-640.1119026131835
 20
251.5851321250344
 30
0.0
 11
-640.284789413838
 21
251.5197884438059
 31
0.0
  0
LINE
  5
160
  8
1
  6
CONTINUOUS
 62
     7
 10
-640.284789413838
 20
251.5197884438059
 30
0.0
 11
-640.436325962005
 21
251.4318506425963
 31
0.0
  0
LINE
  5
161
  8
1
  6
CONTINUOUS
 62
     7
 10
-640.436325962005
 20
251.4318506425963
 30
0.0
 11
-640.5606887931209
 21
251.3246981217898
 31
0.0
  0
LINE
  5
162
  8
1
  6
CONTINUOUS
 62
     7
 10
-640.5606887931209
 20
251.3246981217898
 30
0.0
 11
-640.6530987133297
 21
251.2024486926693
 31
0.0
  0
LINE
  5
163
  8
1
  6
CONTINUOUS
 62
     7
 10
-640.6530987133297
 20
251.2024486926693
 30
0.0
 11
-640.7100044612216
 21
251.0698003322377
 31
0.0
  0
LINE
  5
164
  8
1
  6
CONTINUOUS
 62
     7
 10
-640.7100044612216
 20
251.0698003322377
 30
0.0
 11
-640.7292191808184
 21
250.9318506425963
 31
0.0
  0
LINE
  5
165
  8
1
  6
CONTINUOUS
 62
     7
 10
-640.7292191808183
 20
249.8922271631783
 30
0.0
 11
-640.7276473544407
 21
249.9128854343967
 31
0.0
  0
LINE
  5
166
  8
1
  6
CONTINUOUS
 62
     7
 10
-640.7276473544407
 20
249.9128854343967
 30
0.0
 11
-640.7227555261601
 21
249.9351983025639
 31
0.0
  0
LINE
  5
167
  8
1
  6
CONTINUOUS
 62
     7
 10
-640.7227555261601
 20
249.9351983025639
 30
0.0
 11
-640.7156910966116
 21
249.9560075323166
 31
0.0
  0
LINE
  5
168
  8
1
  6
CONTINUOUS
 62
     7
 10
-640.7156910966116
 20
249.9560075323166
 30
0.0
 11
-640.706797678619
 21
249.976579846505
 31
0.0
  0
LINE
  5
169
  8
1
  6
CONTINUOUS
 62
     7
 10
-640.706797678619
 20
249.976579846505
 30
0.0
 11
-640.6963422912677
 21
249.9973323034281
 31
0.0
  0
ARC
  5
16A
  8
1
  6
CONTINUOUS
 62
     7
 10
-639.1261130562924
 20
249.1289765479781
 30
0.0
 40
1.794341541734566
 50
148.1365434010202
 51
151.0568756053205
  0
LINE
  5
16B
  8
1
  6
CONTINUOUS
 62
   253
 10
-639.7292191808184
 20
250.5075865738843
 30
0.0
 11
-639.7292191808184
 21
251.6389574237828
 31
0.0
  0
LINE
  5
16C
  8
1
  6
CONTINUOUS
 62
     7
 10
-639.7292191808184
 20
251.6389574237828
 30
0.0
 11
-617.7292191808183
 21
251.6389574237828
 31
0.0
  0
LINE
  5
16D
  8
1
  6
CONTINUOUS
 62
   253
 10
-617.7292191808183
 20
250.5075865738843
 30
0.0
 11
-617.7292191808183
 21
251.6389574237828
 31
0.0
  0
LINE
  5
16E
  8
1
  6
CONTINUOUS
 62
     7
 10
-639.7292191808184
 20
250.5075865738843
 30
0.0
 11
-617.7292191808183
 21
250.5075865738843
 31
0.0
  0
LINE
  5
16F
  8
1
  6
CONTINUOUS
 62
     7
 10
-616.7292191808183
 20
250.9318506425963
 30
0.0
 11
-616.7484339004151
 21
251.0698003322377
 31
0.0
  0
LINE
  5
170
  8
1
  6
CONTINUOUS
 62
     7
 10
-616.7484339004151
 20
251.0698003322377
 30
0.0
 11
-616.805339648307
 21
251.2024486926693
 31
0.0
  0
LINE
  5
171
  8
1
  6
CONTINUOUS
 62
     7
 10
-616.805339648307
 20
251.2024486926693
 30
0.0
 11
-616.8977495685158
 21
251.3246981217898
 31
0.0
  0
LINE
  5
172
  8
1
  6
CONTINUOUS
 62
     7
 10
-616.8977495685158
 20
251.3246981217898
 30
0.0
 11
-617.0221123996317
 21
251.4318506425963
 31
0.0
  0
LINE
  5
173
  8
1
  6
CONTINUOUS
 62
     7
 10
-617.0221123996317
 20
251.4318506425963
 30
0.0
 11
-617.1736489477987
 21
251.5197884438059
 31
0.0
  0
LINE
  5
174
  8
1
  6
CONTINUOUS
 62
     7
 10
-617.1736489477987
 20
251.5197884438059
 30
0.0
 11
-617.3465357484532
 21
251.5851321250344
 31
0.0
  0
LINE
  5
175
  8
1
  6
CONTINUOUS
 62
     7
 10
-617.3465357484532
 20
251.5851321250344
 30
0.0
 11
-617.5341288588022
 21
251.6253705652573
 31
0.0
  0
LINE
  5
176
  8
1
  6
CONTINUOUS
 62
     7
 10
-617.5341288588022
 20
251.6253705652573
 30
0.0
 11
-617.7292191808183
 21
251.6389574237828
 31
0.0
  0
LINE
  5
177
  8
1
  6
CONTINUOUS
 62
     7
 10
-616.7292191808182
 20
249.8922271631783
 30
0.0
 11
-616.730791007196
 21
249.9128854343967
 31
0.0
  0
LINE
  5
178
  8
1
  6
CONTINUOUS
 62
     7
 10
-616.730791007196
 20
249.9128854343967
 30
0.0
 11
-616.7356828354766
 21
249.935198302564
 31
0.0
  0
LINE
  5
179
  8
1
  6
CONTINUOUS
 62
     7
 10
-616.7356828354766
 20
249.935198302564
 30
0.0
 11
-616.7427472650248
 21
249.9560075323166
 31
0.0
  0
LINE
  5
17A
  8
1
  6
CONTINUOUS
 62
     7
 10
-616.7427472650248
 20
249.9560075323166
 30
0.0
 11
-616.7516406830175
 21
249.976579846505
 31
0.0
  0
LINE
  5
17B
  8
1
  6
CONTINUOUS
 62
     7
 10
-616.7516406830175
 20
249.976579846505
 30
0.0
 11
-616.7620960703688
 21
249.9973323034281
 31
0.0
  0
ARC
  5
17C
  8
1
  6
CONTINUOUS
 62
     7
 10
-618.332325305344
 20
249.1289765479781
 30
0.0
 40
1.794341541734566
 50
28.94312439467945
 51
31.86345659897978
  0
ARC
  5
17D
  8
1
  6
CONTINUOUS
 62
   253
 10
-639.2836399772368
 20
247.7101979721397
 30
0.0
 40
1.453155611792918
 50
185.8533180726789
 51
256.3648005609847
  0
ARC
  5
17E
  8
1
  6
CONTINUOUS
 62
   253
 10
-638.7386578285126
 20
248.8447474950922
 30
0.0
 40
2.6969754121957
 50
250.786443181041
 51
270.2005193590935
  0
ARC
  5
17F
  8
1
  6
CONTINUOUS
 62
   253
 10
-618.1747983843997
 20
247.7101979721396
 30
0.0
 40
1.453155611792691
 50
283.6351994390036
 51
354.1466819273223
  0
ARC
  5
180
  8
1
  6
CONTINUOUS
 62
   253
 10
-618.7197805331236
 20
248.8447474950889
 30
0.0
 40
2.696975412192462
 50
269.7994806408992
 51
289.2135568189731
  0
LINE
  5
181
  8
1
  6
CONTINUOUS
 62
   253
 10
-638.1292191808183
 20
244.5075865738843
 30
0.0
 11
-638.1478718351776
 21
244.522660440124
 31
0.0
  0
LINE
  5
182
  8
1
  6
CONTINUOUS
 62
   253
 10
-638.1478718351776
 20
244.522660440124
 30
0.0
 11
-638.1645115362427
 21
244.5385285448594
 31
0.0
  0
LINE
  5
183
  8
1
  6
CONTINUOUS
 62
   253
 10
-638.1645115362427
 20
244.5385285448594
 30
0.0
 11
-638.1786293519813
 21
244.5532474945368
 31
0.0
  0
LINE
  5
184
  8
1
  6
CONTINUOUS
 62
   253
 10
-638.1786293519813
 20
244.5532474945368
 30
0.0
 11
-638.1951168312792
 21
244.5716776880016
 31
0.0
  0
ARC
  5
185
  8
1
  6
CONTINUOUS
 62
   253
 10
-636.088895791646
 20
246.163972399101
 30
0.0
 40
2.640372987816089
 50
180.3511887293906
 51
217.0891352267729
  0
LINE
  5
186
  8
1
  6
CONTINUOUS
 62
   253
 10
-619.3292191808184
 20
244.5075865738843
 30
0.0
 11
-619.3105665264591
 21
244.522660440124
 31
0.0
  0
LINE
  5
187
  8
1
  6
CONTINUOUS
 62
   253
 10
-619.3105665264591
 20
244.522660440124
 30
0.0
 11
-619.2939268253941
 21
244.5385285448594
 31
0.0
  0
LINE
  5
188
  8
1
  6
CONTINUOUS
 62
   253
 10
-619.2939268253941
 20
244.5385285448594
 30
0.0
 11
-619.2798090096554
 21
244.5532474945368
 31
0.0
  0
LINE
  5
189
  8
1
  6
CONTINUOUS
 62
   253
 10
-619.2798090096554
 20
244.5532474945368
 30
0.0
 11
-619.2633215303575
 21
244.5716776880016
 31
0.0
  0
ARC
  5
18A
  8
1
  6
CONTINUOUS
 62
   253
 10
-621.3695425699908
 20
246.163972399101
 30
0.0
 40
2.640372987816089
 50
322.9108647732271
 51
359.6488112706094
  0
LINE
  5
18B
  8
1
  6
CONTINUOUS
 62
     7
 10
-638.1292191808183
 20
244.5075865738843
 30
0.0
 11
-619.3292191808184
 21
244.5075865738843
 31
0.0
  0
ARC
  5
18C
  8
1
  6
CONTINUOUS
 62
     7
 10
-638.1292191808187
 20
247.1075865738839
 30
0.0
 40
2.59999999999941
 50
204.1763799666113
 51
245.0449113932008
  0
ARC
  5
18D
  8
1
  6
CONTINUOUS
 62
     7
 10
-638.1292191808185
 20
247.107586573883
 30
0.0
 40
2.599999999998651
 50
245.5434212934898
 51
270.0000000000049
  0
LINE
  5
18E
  8
1
  6
CONTINUOUS
 62
     7
 10
-639.226179255668
 20
244.7503257494982
 30
0.0
 11
-639.2056283184121
 21
244.740870839263
 31
0.0
  0
ARC
  5
18F
  8
1
  6
CONTINUOUS
 62
     7
 10
-619.3292191808184
 20
247.1075865738845
 30
0.0
 40
2.60000000000023
 50
270.0
 51
294.4565702892201
  0
LINE
  5
190
  8
1
  6
CONTINUOUS
 62
     7
 10
-618.2322591059685
 20
244.7503257494982
 30
0.0
 11
-618.2528103909168
 21
244.7408706811285
 31
0.0
  0
ARC
  5
191
  8
1
  6
CONTINUOUS
 62
     7
 10
-619.3292191808177
 20
247.1075865738837
 30
0.0
 40
2.599999999999087
 50
294.9550886067968
 51
335.8837443140993
  0
LINE
  5
192
  8
1
  6
CONTINUOUS
 62
     7
 10
-623.9667191808182
 20
150.5075865738843
 30
0.0
 11
-623.9667191808182
 21
156.9075665738843
 31
0.0
  0
LINE
  5
193
  8
1
  6
CONTINUOUS
 62
     7
 10
-623.9667191808182
 20
168.1076065738843
 30
0.0
 11
-623.9667191808182
 21
236.5075665738846
 31
0.0
  0
LINE
  5
194
  8
1
  6
CONTINUOUS
 62
     7
 10
-633.4917191808182
 20
236.5075665738846
 30
0.0
 11
-633.4917191808182
 21
168.1076065738843
 31
0.0
  0
LINE
  5
195
  8
1
  6
CONTINUOUS
 62
     7
 10
-637.2292191808182
 20
236.9983343026958
 30
0.0
 11
-636.3792191808182
 21
236.5075865738847
 31
0.0
  0
LINE
  5
196
  8
1
  6
CONTINUOUS
 62
     7
 10
-621.0792191808185
 20
236.5075865738847
 30
0.0
 11
-620.2292191808186
 21
236.9983343026958
 31
0.0
  0
LINE
  5
197
  8
1
  6
CONTINUOUS
 62
     7
 10
-620.2292191808183
 20
167.6168388450731
 30
0.0
 11
-621.0792191808182
 21
168.1075865738843
 31
0.0
  0
LINE
  5
198
  8
1
  6
CONTINUOUS
 62
     7
 10
-636.3792191808184
 20
168.1075865738843
 30
0.0
 11
-637.2292191808183
 21
167.6168388450731
 31
0.0
  0
LINE
  5
199
  8
1
  6
CONTINUOUS
 62
     7
 10
-636.1292191808183
 20
137.0075865738843
 30
0.0
 11
-634.8292191808183
 21
138.3075865738843
 31
0.0
  0
LINE
  5
19A
  8
1
  6
CONTINUOUS
 62
     7
 10
-634.8292191808182
 20
143.7075865738843
 30
0.0
 11
-636.1292191808182
 21
145.0075865738843
 31
0.0
  0
LINE
  5
19B
  8
1
  6
CONTINUOUS
 62
     7
 10
-636.1292191808183
 20
145.0075865738843
 30
0.0
 11
-636.4292191808184
 21
145.0075865738843
 31
0.0
  0
LINE
  5
19C
  8
1
  6
CONTINUOUS
 62
     7
 10
-636.4292191808183
 20
137.0075865738843
 30
0.0
 11
-636.1292191808182
 21
137.0075865738843
 31
0.0
  0
LINE
  5
19D
  8
1
  6
CONTINUOUS
 62
     7
 10
-611.4292191808183
 20
143.0075865738843
 30
0.0
 11
-617.5291991808184
 21
143.0075865738843
 31
0.0
  0
LINE
  5
19E
  8
1
  6
CONTINUOUS
 62
     7
 10
-620.7292391808184
 20
143.0075865738843
 30
0.0
 11
-622.3292191808184
 21
143.0075865738843
 31
0.0
  0
LINE
  5
19F
  8
1
  6
CONTINUOUS
 62
     7
 10
-622.4631937770339
 20
139.0075865738843
 30
0.0
 11
-620.7292391808184
 21
139.0075865738843
 31
0.0
  0
LINE
  5
1A0
  8
1
  6
CONTINUOUS
 62
     7
 10
-617.5291991808183
 20
139.0075865738843
 30
0.0
 11
-611.4292191808182
 21
139.0075865738843
 31
0.0
  0
LINE
  5
1A1
  8
1
  6
CONTINUOUS
 62
     7
 10
-617.5292191808184
 20
144.3075865738843
 30
0.0
 11
-619.1292191808184
 21
144.3075865738843
 31
0.0
  0
LINE
  5
1A2
  8
1
  6
CONTINUOUS
 62
     7
 10
-619.1292191808184
 20
137.7075865738843
 30
0.0
 11
-617.5292191808184
 21
137.7075865738843
 31
0.0
  0
LINE
  5
1A3
  8
1
  6
CONTINUOUS
 62
     7
 10
-623.3592191808184
 20
156.9075865738843
 30
0.0
 11
-623.3592191808184
 21
158.5075865738843
 31
0.0
  0
ARC
  5
1A4
  8
1
  6
CONTINUOUS
 62
     7
 10
-638.1161581062112
 20
247.1163728291869
 30
0.0
 40
2.61341830631571
 50
180.9473557888927
 51
245.3622538501093
  0
ARC
  5
1A5
  8
1
  6
CONTINUOUS
 62
     7
 10
-619.3506305833379
 20
247.1218277281719
 30
0.0
 40
2.62186307206712
 50
294.7539191905535
 51
358.9364711704428
  0
LINE
  5
1A6
  8
1
  6
CONTINUOUS
 62
     7
 10
-542.9436178326065
 20
166.8576494665183
 30
0.0
 11
-542.9436178326065
 21
160.1075865738843
 31
0.0
  0
ARC
  5
1A7
  8
1
  6
CONTINUOUS
 62
     7
 10
-545.3671075183811
 20
163.5038821897024
 30
0.0
 40
4.109564480938491
 50
58.96080223110415
 51
107.7598465410282
  0
LINE
  5
1A8
  8
1
  6
CONTINUOUS
 62
     7
 10
-543.2481159288654
 20
167.0250176410239
 30
0.0
 11
-543.0955814065542
 21
166.9433178348925
 31
0.0
  0
LINE
  5
1A9
  8
1
  6
CONTINUOUS
 62
     7
 10
-543.0955814065542
 20
166.9433178348925
 30
0.0
 11
-542.9436178326065
 21
166.8576494665183
 31
0.0
  0
LINE
  5
1AA
  8
1
  6
CONTINUOUS
 62
     7
 10
-528.2211859682711
 20
166.8576494665183
 30
0.0
 11
-528.2211859682711
 21
160.1075865738843
 31
0.0
  0
LINE
  5
1AB
  8
1
  6
CONTINUOUS
 62
     7
 10
-533.1286632563829
 20
166.8576494665183
 30
0.0
 11
-533.1286632563829
 21
160.1075865738843
 31
0.0
  0
ARC
  5
1AC
  8
1
  6
CONTINUOUS
 62
     7
 10
-530.641514575224
 20
163.0948537464627
 30
0.0
 40
4.510492234009428
 50
83.3482484496995
 51
123.4640752282229
  0
ARC
  5
1AD
  8
1
  6
CONTINUOUS
 62
     7
 10
-531.0398186900079
 20
162.2696236092074
 30
0.0
 40
5.384670063002825
 50
58.43570409871744
 51
80.15408255110492
  0
ARC
  5
1AE
  8
1
  6
CONTINUOUS
 62
     7
 10
-538.0361405444947
 20
151.3736599800231
 30
0.0
 40
16.24306817541644
 50
72.41457047118115
 51
107.5854295288188
  0
CIRCLE
  5
1AF
  8
1
  6
CONTINUOUS
 62
     7
 10
-553.0361405444946
 20
141.0075865738843
 30
0.0
 40
2.000000000000002
  0
CIRCLE
  5
1B0
  8
1
  6
CONTINUOUS
 62
     7
 10
-553.0361405444946
 20
141.0075865738843
 30
0.0
 40
3.29999999999997
  0
ARC
  5
1B1
  8
1
  6
CONTINUOUS
 62
     7
 10
-559.0361405444946
 20
159.6075865738843
 30
0.0
 40
1.000000000000001
 50
90.0
 51
180.0
  0
LINE
  5
1B2
  8
1
  6
CONTINUOUS
 62
     7
 10
-559.0361405444946
 20
160.6075865738843
 30
0.0
 11
-555.5361405444946
 21
160.6075865738843
 31
0.0
  0
ARC
  5
1B3
  8
1
  6
CONTINUOUS
 62
     7
 10
-555.5361405444946
 20
161.6075865738843
 30
0.0
 40
1.000000000000001
 50
270.0
 51
0.0
  0
ARC
  5
1B4
  8
1
  6
CONTINUOUS
 62
     7
 10
-550.5361405444947
 20
161.6075865738843
 30
0.0
 40
1.000000000000001
 50
180.0
 51
270.0
  0
LINE
  5
1B5
  8
1
  6
CONTINUOUS
 62
     7
 10
-550.5361405444947
 20
160.6075865738843
 30
0.0
 11
-547.0361405444947
 21
160.6075865738843
 31
0.0
  0
LINE
  5
1B6
  8
1
  6
CONTINUOUS
 62
     7
 10
-539.0361405444946
 20
157.6075865738843
 30
0.0
 11
-545.0361405444946
 21
157.6075865738843
 31
0.0
  0
ARC
  5
1B7
  8
1
  6
CONTINUOUS
 62
     7
 10
-539.0361405444946
 20
156.6075865738843
 30
0.0
 40
1.000000000000001
 50
0.0
 51
89.99999999999994
  0
ARC
  5
1B8
  8
1
  6
CONTINUOUS
 62
     7
 10
-547.0361405444946
 20
159.6075865738843
 30
0.0
 40
1.000000000000001
 50
359.9999999999998
 51
90.0
  0
ARC
  5
1B9
  8
1
  6
CONTINUOUS
 62
     7
 10
-545.0361405444946
 20
158.6075865738843
 30
0.0
 40
1.000000000000001
 50
180.0000000000001
 51
270.0000000000005
  0
LINE
  5
1BA
  8
1
  6
CONTINUOUS
 62
     7
 10
-560.0361405444947
 20
124.9075865738843
 30
0.0
 11
-538.0361405444947
 21
124.9075865738843
 31
0.0
  0
LINE
  5
1BB
  8
1
  6
CONTINUOUS
 62
     7
 10
-554.5361405444947
 20
161.6075865738843
 30
0.0
 11
-554.5361405444947
 21
163.2075865738843
 31
0.0
  0
LINE
  5
1BC
  8
1
  6
CONTINUOUS
 62
     7
 10
-551.5361405444946
 20
163.2075865738843
 30
0.0
 11
-551.5361405444946
 21
161.6075865738843
 31
0.0
  0
LINE
  5
1BD
  8
1
  6
CONTINUOUS
 62
     7
 10
-551.2361405444947
 20
161.6075865738843
 30
0.0
 11
-551.5361405444946
 21
161.6075865738843
 31
0.0
  0
LINE
  5
1BE
  8
1
  6
CONTINUOUS
 62
     7
 10
-554.5361405444947
 20
161.6075865738843
 30
0.0
 11
-554.8361405444948
 21
161.6075865738843
 31
0.0
  0
ARC
  5
1BF
  8
1
  6
CONTINUOUS
 62
     7
 10
-539.0361405444946
 20
116.5075865738843
 30
0.0
 40
1.000000000000001
 50
270.0
 51
0.0
  0
LINE
  5
1C0
  8
1
  6
CONTINUOUS
 62
     7
 10
-559.0361405444946
 20
115.5075865738843
 30
0.0
 11
-539.0361405444946
 21
115.5075865738843
 31
0.0
  0
ARC
  5
1C1
  8
1
  6
CONTINUOUS
 62
     7
 10
-559.0361405444946
 20
116.5075865738843
 30
0.0
 40
1.000000000000001
 50
180.0
 51
270.0
  0
ARC
  5
1C2
  8
1
  6
CONTINUOUS
 62
     7
 10
-547.0361405444946
 20
166.5075865738843
 30
0.0
 40
1.000000000000001
 50
0.0
 51
90.0
  0
ARC
  5
1C3
  8
1
  6
CONTINUOUS
 62
     7
 10
-559.0361405444946
 20
166.5075865738843
 30
0.0
 40
1.000000000000001
 50
90.0
 51
180.0
  0
LINE
  5
1C4
  8
1
  6
CONTINUOUS
 62
     7
 10
-559.0361405444946
 20
167.5075865738843
 30
0.0
 11
-555.8361405444947
 21
167.5075865738843
 31
0.0
  0
ARC
  5
1C5
  8
1
  6
CONTINUOUS
 62
     7
 10
-555.8361405444948
 20
166.5075865738843
 30
0.0
 40
1.000000000000001
 50
0.0
 51
90.0
  0
LINE
  5
1C6
  8
1
  6
CONTINUOUS
 62
     7
 10
-554.8361405444947
 20
166.5075865738843
 30
0.0
 11
-554.8361405444947
 21
161.6075865738843
 31
0.0
  0
ARC
  5
1C7
  8
1
  6
CONTINUOUS
 62
     7
 10
-554.3361405444947
 20
161.6075865738843
 30
0.0
 40
0.5000000000000246
 50
179.9999999999998
 51
234.9003678046003
  0
LINE
  5
1C8
  8
1
  6
CONTINUOUS
 62
     7
 10
-551.2361405444947
 20
161.6075865738843
 30
0.0
 11
-551.2361405444947
 21
166.5075865738843
 31
0.0
  0
ARC
  5
1C9
  8
1
  6
CONTINUOUS
 62
     7
 10
-550.2361405444948
 20
166.5075865738843
 30
0.0
 40
1.000000000000001
 50
90.0
 51
180.0
  0
LINE
  5
1CA
  8
1
  6
CONTINUOUS
 62
     7
 10
-550.2361405444948
 20
167.5075865738843
 30
0.0
 11
-547.0361405444947
 21
167.5075865738843
 31
0.0
  0
ARC
  5
1CB
  8
1
  6
CONTINUOUS
 62
     7
 10
-551.7361405444948
 20
161.6075865738843
 30
0.0
 40
0.500000000000056
 50
305.099632195396
 51
359.9999999999998
  0
LINE
  5
1CC
  8
1
  6
CONTINUOUS
 62
     7
 10
-538.0822013430778
 20
156.9075865738843
 30
0.0
 11
-532.6661405444947
 21
156.9075865738843
 31
0.0
  0
ARC
  5
1CD
  8
1
  6
CONTINUOUS
 62
     7
 10
-524.0361405444947
 20
119.5075865738843
 30
0.0
 40
1.000000000000001
 50
270.0
 51
0.0
  0
LINE
  5
1CE
  8
1
  6
CONTINUOUS
 62
     7
 10
-538.0361405444947
 20
118.5075865738843
 30
0.0
 11
-524.0361405444947
 21
118.5075865738843
 31
0.0
  0
LINE
  5
1CF
  8
1
  6
CONTINUOUS
 62
     7
 10
-538.0361405444947
 20
126.5075865738843
 30
0.0
 11
-523.0361405444947
 21
126.5075865738843
 31
0.0
  0
ARC
  5
1D0
  8
1
  6
CONTINUOUS
 62
     7
 10
-560.8361405444947
 20
151.3075865738843
 30
0.0
 40
0.8000000000000229
 50
270.0
 51
0.0000000000001137
  0
ARC
  5
1D1
  8
1
  6
CONTINUOUS
 62
     7
 10
-530.0361405444947
 20
151.5075865738843
 30
0.0
 40
1.000000000000001
 50
270.0
 51
0.0
  0
LINE
  5
1D2
  8
1
  6
CONTINUOUS
 62
     7
 10
-529.0361405444946
 20
151.5075865738843
 30
0.0
 11
-529.0361405444946
 21
158.5075865738843
 31
0.0
  0
ARC
  5
1D3
  8
1
  6
CONTINUOUS
 62
     7
 10
-522.2361405444948
 20
151.3075865738843
 30
0.0
 40
0.7999999999999952
 50
179.9999999999999
 51
270.0
  0
ARC
  5
1D4
  8
1
  6
CONTINUOUS
 62
     7
 10
-560.8361405444947
 20
137.7075865738843
 30
0.0
 40
0.8000000000000229
 50
0.0
 51
90.0
  0
ARC
  5
1D5
  8
1
  6
CONTINUOUS
 62
     7
 10
-522.2361405444948
 20
137.7075865738843
 30
0.0
 40
0.8000000000000229
 50
90.0
 51
180.0
  0
LINE
  5
1D6
  8
1
  6
CONTINUOUS
 62
     7
 10
-542.9436178326063
 20
237.7575236812506
 30
0.0
 11
-542.9436178326063
 21
244.5075865738843
 31
0.0
  0
LINE
  5
1D7
  8
1
  6
CONTINUOUS
 62
     7
 10
-533.1286632563833
 20
237.7575236812506
 30
0.0
 11
-533.1286632563833
 21
244.5075865738843
 31
0.0
  0
ARC
  5
1D8
  8
1
  6
CONTINUOUS
 62
     7
 10
-538.0361405444947
 20
253.2397371190152
 30
0.0
 40
16.24137513469306
 50
252.4126774958973
 51
287.5873225041028
  0
LINE
  5
1D9
  8
1
  6
CONTINUOUS
 62
     7
 10
-547.8510951207177
 20
237.7575236812506
 30
0.0
 11
-547.8510951207177
 21
244.5075865738843
 31
0.0
  0
ARC
  5
1DA
  8
1
  6
CONTINUOUS
 62
     7
 10
-545.4113204179772
 20
241.461144596988
 30
0.0
 40
4.450434129086031
 50
261.3613920993379
 51
303.6753061455526
  0
ARC
  5
1DB
  8
1
  6
CONTINUOUS
 62
     7
 10
-544.9996975645414
 20
242.409818253584
 30
0.0
 40
5.45658435389121
 50
238.4958120151458
 51
258.5833848417219
  0
LINE
  5
1DC
  8
1
  6
CONTINUOUS
 62
     7
 10
-545.686140544494
 20
236.5075865738847
 30
0.0
 11
-530.3861405444953
 21
236.5075865738847
 31
0.0
  0
ARC
  5
1DD
  8
1
  6
CONTINUOUS
 62
     7
 10
-530.6888885536429
 20
241.461144596988
 30
0.0
 40
4.450434129086031
 50
261.3613920993379
 51
303.6753061455526
  0
ARC
  5
1DE
  8
1
  6
CONTINUOUS
 62
     7
 10
-530.2772657002056
 20
242.4098182535873
 30
0.0
 40
5.456584353894739
 50
238.4958120151522
 51
258.5833848417151
  0
LINE
  5
1DF
  8
1
  6
CONTINUOUS
 62
     7
 10
-528.2211859682718
 20
237.7575236812506
 30
0.0
 11
-528.2211859682718
 21
244.5075865738843
 31
0.0
  0
ARC
  5
1E0
  8
1
  6
CONTINUOUS
 62
     7
 10
-549.0361405444946
 20
251.5075865738843
 30
0.0
 40
1.000000000000001
 50
270.0000000000005
 51
0.0
  0
LINE
  5
1E1
  8
1
  6
CONTINUOUS
 62
     7
 10
-548.0361405444947
 20
251.5075865738843
 30
0.0
 11
-548.0361405444947
 21
252.5075865738843
 31
0.0
  0
ARC
  5
1E2
  8
1
  6
CONTINUOUS
 62
     7
 10
-547.0361405444946
 20
252.5075865738843
 30
0.0
 40
1.000000000000001
 50
90.0
 51
180.0000000000008
  0
LINE
  5
1E3
  8
1
  6
CONTINUOUS
 62
     7
 10
-529.0361405444946
 20
253.5075865738843
 30
0.0
 11
-547.0361405444946
 21
253.5075865738843
 31
0.0
  0
ARC
  5
1E4
  8
1
  6
CONTINUOUS
 62
     7
 10
-529.0361405444946
 20
252.5075865738843
 30
0.0
 40
1.000000000000001
 50
359.9999999999993
 51
90.0
  0
LINE
  5
1E5
  8
1
  6
CONTINUOUS
 62
     7
 10
-528.0361405444947
 20
251.5075865738843
 30
0.0
 11
-528.0361405444947
 21
252.5075865738843
 31
0.0
  0
ARC
  5
1E6
  8
1
  6
CONTINUOUS
 62
     7
 10
-527.0361405444946
 20
251.5075865738843
 30
0.0
 40
1.000000000000001
 50
180.0
 51
269.9999999999995
  0
LINE
  5
1E7
  8
1
  6
CONTINUOUS
 62
     7
 10
-517.0361405444946
 20
250.5075865738843
 30
0.0
 11
-518.167511394393
 21
251.6389574237828
 31
0.0
  0
LINE
  5
1E8
  8
1
  6
CONTINUOUS
 62
     7
 10
-559.0361405444946
 20
250.5075865738843
 30
0.0
 11
-557.9047696945961
 21
251.6389574237828
 31
0.0
  0
ARC
  5
1E9
  8
1
  6
CONTINUOUS
 62
     7
 10
-550.7165445952055
 20
250.1075865738842
 30
0.0
 40
5.599999999999938
 50
224.9999999999996
 51
270.0
  0
ARC
  5
1EA
  8
1
  6
CONTINUOUS
 62
     7
 10
-525.3557364937841
 20
250.1075865738842
 30
0.0
 40
5.599999999999938
 50
270.0
 51
315.0000000000004
  0
LINE
  5
1EB
  8
1
  6
CONTINUOUS
 62
     7
 10
-542.7986405444948
 20
270.5075865738843
 30
0.0
 11
-533.2736405444948
 21
270.5075865738843
 31
0.0
  0
LINE
  5
1EC
  8
1
  6
CONTINUOUS
 62
     7
 10
-528.2211859682711
 20
166.8576494665183
 30
0.0
 11
-530.3861405444948
 21
168.1075865738843
 31
0.0
  0
LINE
  5
1ED
  8
1
  6
CONTINUOUS
 62
     7
 10
-545.6861405444947
 20
168.1075865738843
 30
0.0
 11
-546.7821642204522
 21
167.474797009532
 31
0.0
  0
LINE
  5
1EE
  8
1
  6
CONTINUOUS
 62
     7
 10
-532.6661405444946
 20
156.9075865738843
 30
0.0
 11
-532.6661405444946
 21
158.5075865738843
 31
0.0
  0
LINE
  5
1EF
  8
1
  6
CONTINUOUS
 62
     7
 10
-543.4061405444946
 20
158.5075865738843
 30
0.0
 11
-543.4061405444946
 21
157.6075865738843
 31
0.0
  0
LINE
  5
1F0
  8
1
  6
CONTINUOUS
 62
     7
 10
-547.8510951207177
 20
237.7575236812506
 30
0.0
 11
-545.6861405444943
 21
236.5075865738847
 31
0.0
  0
LINE
  5
1F1
  8
1
  6
CONTINUOUS
 62
     7
 10
-530.3861405444953
 20
236.5075865738847
 30
0.0
 11
-528.2211859682718
 21
237.7575236812506
 31
0.0
  0
LINE
  5
1F2
  8
1
  6
CONTINUOUS
 62
     7
 10
-533.2736405444948
 20
150.5075865738843
 30
0.0
 11
-533.2736405444948
 21
156.9075665738843
 31
0.0
  0
LINE
  5
1F3
  8
1
  6
CONTINUOUS
 62
     7
 10
-533.2736405444948
 20
168.1076065738843
 30
0.0
 11
-533.2736405444948
 21
236.5075665738846
 31
0.0
  0
LINE
  5
1F4
  8
1
  6
CONTINUOUS
 62
     7
 10
-533.2736405444948
 20
253.5075865738843
 30
0.0
 11
-533.2736405444948
 21
255.5075865738843
 31
0.0
  0
LINE
  5
1F5
  8
1
  6
CONTINUOUS
 62
     7
 10
-533.2736405444948
 20
261.5075865738843
 30
0.0
 11
-533.2736405444948
 21
270.5075865738843
 31
0.0
  0
LINE
  5
1F6
  8
1
  6
CONTINUOUS
 62
     7
 10
-542.7986405444948
 20
270.5075865738843
 30
0.0
 11
-542.7986405444948
 21
261.5075865738843
 31
0.0
  0
LINE
  5
1F7
  8
1
  6
CONTINUOUS
 62
     7
 10
-542.7986405444948
 20
255.5075865738843
 30
0.0
 11
-542.7986405444948
 21
253.5075865738843
 31
0.0
  0
LINE
  5
1F8
  8
1
  6
CONTINUOUS
 62
     7
 10
-542.7986405444948
 20
236.5075665738846
 30
0.0
 11
-542.7986405444948
 21
168.1076065738843
 31
0.0
  0
LINE
  5
1F9
  8
1
  6
CONTINUOUS
 62
     4
 10
-632.4942191808183
 20
156.9075865738843
 30
0.0
 11
-632.4942191808183
 21
150.5075865738843
 31
0.0
  0
LINE
  5
1FA
  8
1
  6
CONTINUOUS
 62
     4
 10
-541.7986405444949
 20
236.5075865738847
 30
0.0
 11
-541.7986405444949
 21
168.1075865738843
 31
0.0
  0
LINE
  5
1FB
  8
1
  6
CONTINUOUS
 62
     4
 10
-534.2736405444947
 20
150.5075865738843
 30
0.0
 11
-534.2736405444947
 21
156.9075865738843
 31
0.0
  0
LINE
  5
1FC
  8
1
  6
CENTER
 62
     1
 10
-628.7292191808183
 20
273.5075665738846
 30
0.0
 11
-628.7292191808183
 21
109.0075865738843
 31
0.0
  0
LINE
  5
1FD
  8
1
  6
CONTINUOUS
 62
     4
 10
-534.2736405444947
 20
168.1075865738843
 30
0.0
 11
-534.2736405444947
 21
236.5075865738847
 31
0.0
  0
LINE
  5
1FE
  8
1
  6
CONTINUOUS
 62
     4
 10
-624.9642191808182
 20
156.9075865738843
 30
0.0
 11
-624.9642191808182
 21
150.5075865738843
 31
0.0
  0
LINE
  5
1FF
  8
1
  6
CONTINUOUS
 62
     7
 10
-560.0361405444947
 20
116.5075865738843
 30
0.0
 11
-560.0361405444947
 21
166.5075865738843
 31
0.0
  0
LINE
  5
200
  8
1
  6
CONTINUOUS
 62
     7
 10
-522.2361405444948
 20
150.5075865738843
 30
0.0
 11
-520.5361405444949
 21
150.5075865738843
 31
0.0
  0
LINE
  5
201
  8
1
  6
CONTINUOUS
 62
     7
 10
-560.8361405444947
 20
138.5075865738843
 30
0.0
 11
-562.5361405444946
 21
138.5075865738843
 31
0.0
  0
LINE
  5
202
  8
1
  6
CONTINUOUS
 62
     7
 10
-523.0361405444946
 20
151.3075865738843
 30
0.0
 11
-523.0361405444946
 21
160.1075865738843
 31
0.0
  0
LINE
  5
203
  8
1
  6
CONTINUOUS
 62
     7
 10
-520.0361405444947
 20
255.5075865738843
 30
0.0
 11
-556.0361405444947
 21
255.5075865738843
 31
0.0
  0
LINE
  5
204
  8
1
  6
CONTINUOUS
 62
     7
 10
-637.2292191808182
 20
236.9983343026994
 30
0.0
 11
-637.2292191808182
 21
244.5075865738843
 31
0.0
  0
LINE
  5
205
  8
1
  6
CONTINUOUS
 62
     7
 10
-538.0361405444947
 20
150.5075865738843
 30
0.0
 11
-530.0361405444947
 21
150.5075865738843
 31
0.0
  0
LINE
  5
206
  8
1
  6
CONTINUOUS
 62
     7
 10
-525.3557364937841
 20
244.5075865738843
 30
0.0
 11
-550.7165445952055
 21
244.5075865738843
 31
0.0
  0
LINE
  5
207
  8
1
  6
CONTINUOUS
 62
     7
 10
-556.7733988446977
 20
250.5075865738843
 30
0.0
 11
-557.9047696945961
 21
251.6389574237827
 31
0.0
  0
LINE
  5
208
  8
1
  6
CONTINUOUS
 62
     7
 10
-617.5292191808184
 20
137.7075865738843
 30
0.0
 11
-617.5292191808184
 21
144.3075865738843
 31
0.0
  0
LINE
  5
209
  8
1
  6
CONTINUOUS
 62
     7
 10
-522.1361405444948
 20
138.5075865738843
 30
0.0
 11
-522.1361405444948
 21
150.5075865738843
 31
0.0
  0
LINE
  5
20A
  8
1
  6
CONTINUOUS
 62
     7
 10
-560.8361405444947
 20
150.5075865738843
 30
0.0
 11
-562.5361405444947
 21
150.5075865738843
 31
0.0
  0
LINE
  5
20B
  8
1
  6
CONTINUOUS
 62
     7
 10
-518.167511394393
 20
251.6389574237829
 30
0.0
 11
-519.2988822442919
 21
250.5075865738845
 31
0.0
  0
LINE
  5
20C
  8
1
  6
CONTINUOUS
 62
     7
 10
-521.3959385191395
 20
246.1477885992397
 30
0.0
 11
-517.0361405444946
 21
250.5075865738843
 31
0.0
  0
LINE
  5
20D
  8
1
  6
CONTINUOUS
 62
     7
 10
-637.2292191808182
 20
160.1075865738843
 30
0.0
 11
-622.3292191808183
 21
160.1075865738843
 31
0.0
  0
LINE
  5
20E
  8
1
  6
CONTINUOUS
 62
     7
 10
-562.5361405444947
 20
138.5075865738843
 30
0.0
 11
-562.5361405444947
 21
150.5075865738843
 31
0.0
  0
LINE
  5
20F
  8
1
  6
CONTINUOUS
 62
     7
 10
-520.0361405444947
 20
261.5075865738843
 30
0.0
 11
-556.0361405444947
 21
261.5075865738843
 31
0.0
  0
LINE
  5
210
  8
1
  6
CONTINUOUS
 62
     7
 10
-522.2361405444948
 20
138.5075865738843
 30
0.0
 11
-520.5361405444947
 21
138.5075865738843
 31
0.0
  0
LINE
  5
211
  8
1
  6
CONTINUOUS
 62
     7
 10
-620.2292191808185
 20
236.9983343026976
 30
0.0
 11
-620.2292191808185
 21
244.5075865738843
 31
0.0
  0
LINE
  5
212
  8
1
  6
CONTINUOUS
 62
     7
 10
-523.0361405444946
 20
158.5075865738843
 30
0.0
 11
-546.0311279816013
 21
158.5075865738843
 31
0.0
  0
LINE
  5
213
  8
1
  6
CONTINUOUS
 62
     7
 10
-546.0361405444947
 20
158.6075865738843
 30
0.0
 11
-546.0361405444947
 21
166.5075865738843
 31
0.0
  0
LINE
  5
214
  8
1
  6
CONTINUOUS
 62
     7
 10
-554.6763425698501
 20
246.1477885992397
 30
0.0
 11
-559.0361405444946
 21
250.5075865738844
 31
0.0
  0
LINE
  5
215
  8
1
  6
CONTINUOUS
 62
     7
 10
-634.8292191808182
 20
158.5075865738843
 30
0.0
 11
-636.2292191808182
 21
158.5075865738843
 31
0.0
  0
LINE
  5
216
  8
1
  6
CONTINUOUS
 62
     7
 10
-520.5361405444947
 20
138.5075865738843
 30
0.0
 11
-520.5361405444947
 21
150.5075865738843
 31
0.0
  0
LINE
  5
217
  8
1
  6
CONTINUOUS
 62
     7
 10
-519.2988822442918
 20
250.5075865738843
 30
0.0
 11
-527.0361405444947
 21
250.5075865738843
 31
0.0
  0
LINE
  5
218
  8
1
  6
CONTINUOUS
 62
     7
 10
-620.7292191808183
 20
167.5075865738843
 30
0.0
 11
-620.7292191808183
 21
126.5075865738843
 31
0.0
  0
LINE
  5
219
  8
1
  6
CONTINUOUS
 62
     7
 10
-523.0361405444946
 20
119.5075865738843
 30
0.0
 11
-523.0361405444946
 21
137.7075865738843
 31
0.0
  0
LINE
  5
21A
  8
1
  6
CONTINUOUS
 62
     7
 10
-627.7292191808184
 20
115.5075865738843
 30
0.0
 11
-627.7292191808184
 21
124.9075865738843
 31
0.0
  0
LINE
  5
21B
  8
1
  6
CONTINUOUS
 62
     7
 10
-623.966719180818
 20
255.5075865738843
 30
0.0
 11
-623.966719180818
 21
251.6389574237828
 31
0.0
  0
LINE
  5
21C
  8
1
  6
CONTINUOUS
 62
     4
 10
-624.9642191808182
 20
255.5075865738843
 30
0.0
 11
-624.9642191808182
 21
251.6389574237828
 31
0.0
  0
LINE
  5
21D
  8
1
  6
CONTINUOUS
 62
     7
 10
-633.491719180818
 20
270.5075865738843
 30
0.0
 11
-633.491719180818
 21
261.5075865738843
 31
0.0
  0
LINE
  5
21E
  8
1
  6
CONTINUOUS
 62
     7
 10
-623.966719180818
 20
270.5075865738843
 30
0.0
 11
-623.966719180818
 21
261.5075865738843
 31
0.0
  0
LINE
  5
21F
  8
1
  6
CONTINUOUS
 62
     4
 10
-632.4942191808183
 20
270.5075865738843
 30
0.0
 11
-632.4942191808183
 21
261.5075865738843
 31
0.0
  0
LINE
  5
220
  8
1
  6
CONTINUOUS
 62
     4
 10
-624.9642191808182
 20
270.5075865738843
 30
0.0
 11
-624.9642191808182
 21
261.5075865738843
 31
0.0
  0
LINE
  5
221
  8
1
  6
CENTER
 62
     1
 10
-538.0361405444947
 20
288.5075665738846
 30
0.0
 11
-538.0361405444947
 21
161.1076065738843
 31
0.0
  0
LINE
  5
222
  8
1
  6
CONTINUOUS
 62
     7
 10
-633.491719180818
 20
255.5075865738843
 30
0.0
 11
-633.491719180818
 21
251.6389574237828
 31
0.0
  0
LINE
  5
223
  8
1
  6
CONTINUOUS
 62
     4
 10
-632.4942191808183
 20
255.5075865738843
 30
0.0
 11
-632.4942191808183
 21
251.6389574237828
 31
0.0
  0
LINE
  5
224
  8
1
  6
CONTINUOUS
 62
     7
 10
-623.966719180818
 20
270.5075865738843
 30
0.0
 11
-633.491719180818
 21
270.5075865738843
 31
0.0
  0
LINE
  5
225
  8
1
  6
CONTINUOUS
 62
     4
 10
-541.7986405444949
 20
261.5075865738843
 30
0.0
 11
-541.7986405444949
 21
253.5075865738843
 31
0.0
  0
LINE
  5
226
  8
1
  6
CONTINUOUS
 62
     4
 10
-534.2736405444947
 20
253.5075865738843
 30
0.0
 11
-534.2736405444947
 21
261.5075865738843
 31
0.0
  0
LINE
  5
227
  8
1
  6
CONTINUOUS
 62
     4
 10
-632.4942191808183
 20
236.5075865738847
 30
0.0
 11
-632.4942191808183
 21
168.1075865738843
 31
0.0
  0
LINE
  5
228
  8
1
  6
CONTINUOUS
 62
     7
 10
-619.2292191808183
 20
261.5075865738843
 30
0.0
 11
-619.2292191808183
 21
255.5075865738843
 31
0.0
  0
LINE
  5
229
  8
1
  6
CONTINUOUS
 62
     7
 10
-556.7733988446978
 20
250.5075865738843
 30
0.0
 11
-549.0361405444947
 21
250.5075865738843
 31
0.0
  0
ENDSEC
  0
EOF
