  0
SECTION
  2
HEADER
  9
$ACADVER
  1
AC1004
  9
$INSBASE
 10
0.0
 20
0.0
  9
$EXTMIN
 10
-840.0000000000001
 20
462.7704545454546
  9
$EXTMAX
 10
-279.9999999999999
 20
567.5000000000001
  9
$LIMMIN
 10
0.0
 20
0.0
  9
$LIMMAX
 10
12.0
 20
9.0
  9
$ORTHOMODE
 70
     0
  9
$REGENMODE
 70
     1
  9
$FILLMODE
 70
     1
  9
$QTEXTMODE
 70
     0
  9
$DRAGMODE
 70
     2
  9
$LTSCALE
 40
1.0
  9
$OSMODE
 70
    37
  9
$ATTMODE
 70
     1
  9
$TEXTSIZE
 40
0.2
  9
$TRACEWID
 40
0.05
  9
$TEXTSTYLE
  7
STANDARD
  9
$CLAYER
  8
0
  9
$CELTYPE
  6
BYLAYER
  9
$CECOLOR
 62
   256
  9
$DIMSCALE
 40
1.0
  9
$DIMASZ
 40
3.0
  9
$DIMEXO
 40
0.0625
  9
$DIMDLI
 40
0.38
  9
$DIMRND
 40
0.0
  9
$DIMDLE
 40
0.0
  9
$DIMEXE
 40
1.5
  9
$DIMTP
 40
0.0
  9
$DIMTM
 40
0.0
  9
$DIMTXT
 40
3.0
  9
$DIMCEN
 40
0.09
  9
$DIMTSZ
 40
0.0
  9
$DIMTOL
 70
     0
  9
$DIMLIM
 70
     0
  9
$DIMTIH
 70
     1
  9
$DIMTOH
 70
     1
  9
$DIMSE1
 70
     0
  9
$DIMSE2
 70
     0
  9
$DIMTAD
 70
     1
  9
$DIMZIN
 70
     0
  9
$DIMBLK
  1

  9
$DIMASO
 70
     1
  9
$DIMSHO
 70
     1
  9
$DIMPOST
  1

  9
$DIMAPOST
  1

  9
$DIMALT
 70
     0
  9
$DIMALTD
 70
     2
  9
$DIMALTF
 40
25.4
  9
$DIMLFAC
 40
1.0
  9
$DIMTOFL
 70
     0
  9
$DIMTVP
 40
0.0
  9
$DIMTIX
 70
     0
  9
$DIMSOXD
 70
     0
  9
$DIMSAH
 70
     0
  9
$DIMBLK1
  1

  9
$DIMBLK2
  1

  9
$LUNITS
 70
     2
  9
$LUPREC
 70
     4
  9
$SKETCHINC
 40
0.1
  9
$FILLETRAD
 40
0.5
  9
$AUNITS
 70
     0
  9
$AUPREC
 70
     0
  9
$MENU
  1
.
  9
$ELEVATION
 40
0.0
  9
$THICKNESS
 40
0.0
  9
$LIMCHECK
 70
     0
  9
$CHAMFERA
 40
0.0
  9
$CHAMFERB
 40
0.0
  9
$SKPOLY
 70
     0
  9
$TDCREATE
 40
2459767.689562338
  9
$TDUPDATE
 40
2459767.689562558
  9
$TDINDWG
 40
0.0000000116
  9
$TDUSRTIMER
 40
0.0000000116
  9
$USRTIMER
 70
     1
  9
$ANGBASE
 50
0.0
  9
$ANGDIR
 70
     0
  9
$PDMODE
 70
     0
  9
$PDSIZE
 40
0.0
  9
$PLINEWID
 40
0.0
  9
$COORDS
 70
     1
  9
$SPLFRAME
 70
     0
  9
$SPLINETYPE
 70
     6
  9
$SPLINESEGS
 70
     8
  9
$ATTDIA
 70
     0
  9
$ATTREQ
 70
     1
  9
$SURFTAB1
 70
     6
  9
$SURFTAB2
 70
     6
  9
$SURFTYPE
 70
     6
  9
$SURFU
 70
     6
  9
$SURFV
 70
     6
  9
$UCSNAME
  2

  9
$UCSORG
 10
0.0
 20
0.0
 30
0.0
  9
$UCSXDIR
 10
1.0
 20
0.0
 30
0.0
  9
$UCSYDIR
 10
0.0
 20
1.0
 30
0.0
  9
$USERI1
 70
     0
  9
$USERI2
 70
     0
  9
$USERI3
 70
     0
  9
$USERI4
 70
     0
  9
$USERI5
 70
     0
  9
$USERR1
 40
0.0
  9
$USERR2
 40
0.0
  9
$USERR3
 40
0.0
  9
$USERR4
 40
0.0
  9
$USERR5
 40
0.0
  9
$WORLDVIEW
 70
     1
  0
ENDSEC
  0
SECTION
  2
TABLES
  0
TABLE
  2
LTYPE
 70
     2
  0
LTYPE
  2
CONTINUOUS
 70
     0
  3
Solid line
 72
    65
 73
     0
 40
0.0
  0
LTYPE
  2
CENTER
 70
     0
  3

 72
    65
 73
     0
 40
0.0
  0
ENDTAB
  0
TABLE
  2
LAYER
 70
     2
  0
LAYER
  2
0
 70
     0
 62
     7
  6
CONTINUOUS
  0
LAYER
  2
1
 70
     0
 62
     7
  6
CONTINUOUS
  0
ENDTAB
  0
TABLE
  2
STYLE
 70
     2
  0
STYLE
  2
STANDARD
 70
     0
 40
0.0
 41
1.0
 50
0.0
 71
     0
 42
0.2
  3
txt
  4

  0
STYLE
  2
ＭＳ_ゴシック
 70
     0
 40
0.0
 41
1.0
 50
0.0
 71
     0
 42
0.2
  3
ＭＳ ゴシック.shx
  4

  0
ENDTAB
  0
TABLE
  2
VIEW
 70
     0
  0
ENDTAB
  0
ENDSEC
  0
SECTION
  2
BLOCKS
  0
BLOCK
  8
0
  2
D_FRAME_VIEW_1484
 70
     0
 10
0.0
 20
0.0
  0
LINE
  8
1
  6
CONTINUOUS
 62
     9
 10
-314.3420496028236
 20
511.1856538583481
 11
-314.2464207249369
 21
510.8600889580802
  0
LINE
  8
1
  6
CONTINUOUS
 62
     7
 10
-314.1182677714469
 20
510.9721165646984
 11
-308.8412071600084
 21
512.5221589199916
  0
LINE
  8
1
  6
CONTINUOUS
 62
     7
 10
-308.8564275338525
 20
512.5739761074572
 11
-308.8412071600084
 21
512.5221589199916
  0
LINE
  8
1
  6
CONTINUOUS
 62
     7
 10
-307.8649336642806
 20
509.1984727041252
 11
-307.8497132904365
 21
509.1466555166597
  0
LINE
  8
1
  6
CONTINUOUS
 62
     7
 10
-307.8649336642806
 20
509.1984727041252
 11
-313.1419942757191
 21
507.648430348832
  0
LINE
  8
1
  6
CONTINUOUS
 62
     7
 10
-313.1419942757191
 20
507.648430348832
 11
-314.1182677714469
 21
510.9721165646983
  0
LINE
  8
1
  6
CONTINUOUS
 62
     7
 10
-303.0249034396169
 20
514.5098635246138
 11
-300.2184224116082
 21
511.1652296769369
  0
CIRCLE
  8
1
  6
CONTINUOUS
 62
     7
 10
-312.1909094573758
 20
509.7330141977708
 40
0.4999980837042816
  0
LINE
  8
1
  6
CONTINUOUS
 62
     9
 10
-301.2409976519767
 20
515.0338540057353
 11
-300.184002692875
 21
511.4353546188524
  0
LINE
  8
1
  6
CONTINUOUS
 62
     7
 10
-300.0089658301005
 20
511.2267538088046
 11
-300.1207593859602
 21
511.3599841806292
  0
LINE
  8
1
  6
CONTINUOUS
 62
     7
 10
-300.1207593859602
 20
511.3599841806292
 11
-300.184002692875
 21
511.4353546188524
  0
LINE
  8
1
  6
CONTINUOUS
 62
     7
 10
-300.184002692875
 20
511.4353546188526
 11
-302.8154468581092
 21
514.5713876564815
  0
LINE
  8
1
  6
CONTINUOUS
 62
     7
 10
-314.1931662708871
 20
511.0064043680674
 11
-314.2464207249369
 21
510.8600889580802
  0
LINE
  8
1
  6
CONTINUOUS
 62
     7
 10
-314.193166270887
 20
511.0064043680674
 11
-314.1022924079506
 21
511.2560782545041
  0
LINE
  8
1
  6
CONTINUOUS
 62
     7
 10
-314.1022924079506
 20
511.2560782545041
 11
-308.9167221777056
 21
512.7792469434906
  0
LINE
  8
1
  6
CONTINUOUS
 62
     7
 10
-308.9167221777056
 20
512.7792469434906
 11
-308.8564275338525
 21
512.5739761074572
  0
LINE
  8
1
  6
CONTINUOUS
 62
     7
 10
-307.8497132904365
 20
509.1466555166597
 11
-307.7894186465833
 21
508.9413846806262
  0
LINE
  8
1
  6
CONTINUOUS
 62
     7
 10
-313.2147460717013
 20
507.3477915954837
 11
-307.7894186465833
 21
508.9413846806262
  0
ARC
  8
1
  6
CONTINUOUS
 62
     7
 10
-316.5966566650683
 20
518.8613783840769
 40
12.0
 50
274.3363059247752
 51
286.3692093682837
  0
ARC
  8
1
  6
CONTINUOUS
 62
     7
 10
-839.0000000000001
 20
504.0
 40
1.000000000000001
 50
90.0
 51
180.0
  0
ARC
  8
1
  6
CONTINUOUS
 62
     7
 10
-839.0000000000001
 20
504.0
 40
0.999999999999987
 50
180.0
 51
270.0
  0
ARC
  8
1
  6
CONTINUOUS
 62
     7
 10
-839.0000000000001
 20
504.0
 40
0.999999999999987
 50
90.0
 51
180.0
  0
ARC
  8
1
  6
CONTINUOUS
 62
     7
 10
-839.0000000000001
 20
504.0
 40
1.000000000000001
 50
180.0
 51
270.0
  0
POLYLINE
  8
1
  6
CONTINUOUS
 62
     9
 66
     1
  0
VERTEX
  8
1
  6
CONTINUOUS
 62
     9
 10
-329.6475951746412
 20
504.0
  0
VERTEX
  8
1
  6
CONTINUOUS
 62
     9
 10
-329.6420931160961
 20
503.8049096779839
  0
VERTEX
  8
1
  6
CONTINUOUS
 62
     9
 10
-329.6257983814852
 20
503.6173165676349
  0
VERTEX
  8
1
  6
CONTINUOUS
 62
     9
 10
-329.5993371683213
 20
503.4444297669804
  0
VERTEX
  8
1
  6
CONTINUOUS
 62
     9
 10
-329.5637263661867
 20
503.2928932188134
  0
VERTEX
  8
1
  6
CONTINUOUS
 62
     9
 10
-329.5203344782366
 20
503.1685303876974
  0
VERTEX
  8
1
  6
CONTINUOUS
 62
     9
 10
-329.4708290303907
 20
503.0761204674887
  0
VERTEX
  8
1
  6
CONTINUOUS
 62
     9
 10
-329.4171124892465
 20
503.0192147195968
  0
VERTEX
  8
1
  6
CONTINUOUS
 62
     9
 10
-329.3612491513557
 20
503.0
  0
SEQEND
  8
1
  6
CONTINUOUS
 62
     9
  0
ARC
  8
1
  6
CONTINUOUS
 62
     7
 10
-320.9999999999999
 20
504.0
 40
0.999999999999987
 50
270.0
 51
0.0
  0
POLYLINE
  8
1
  6
CONTINUOUS
 62
     9
 66
     1
  0
VERTEX
  8
1
  6
CONTINUOUS
 62
     9
 10
-329.3612491513557
 20
505.0
  0
VERTEX
  8
1
  6
CONTINUOUS
 62
     9
 10
-329.4171124892465
 20
504.9807852804032
  0
VERTEX
  8
1
  6
CONTINUOUS
 62
     9
 10
-329.4708290303907
 20
504.9238795325113
  0
VERTEX
  8
1
  6
CONTINUOUS
 62
     9
 10
-329.5203344782366
 20
504.8314696123026
  0
VERTEX
  8
1
  6
CONTINUOUS
 62
     9
 10
-329.5637263661866
 20
504.7071067811866
  0
VERTEX
  8
1
  6
CONTINUOUS
 62
     9
 10
-329.5993371683213
 20
504.5555702330196
  0
VERTEX
  8
1
  6
CONTINUOUS
 62
     9
 10
-329.6257983814851
 20
504.3826834323651
  0
VERTEX
  8
1
  6
CONTINUOUS
 62
     9
 10
-329.6420931160961
 20
504.1950903220161
  0
VERTEX
  8
1
  6
CONTINUOUS
 62
     9
 10
-329.6475951746412
 20
504.0
  0
SEQEND
  8
1
  6
CONTINUOUS
 62
     9
  0
ARC
  8
1
  6
CONTINUOUS
 62
     7
 10
-320.9999999999999
 20
504.0
 40
1.000000000000001
 50
0.0
 51
90.0
  0
POLYLINE
  8
1
  6
CONTINUOUS
 62
     9
 66
     1
  0
VERTEX
  8
1
  6
CONTINUOUS
 62
     9
 10
-345.5988868447506
 20
504.0
  0
VERTEX
  8
1
  6
CONTINUOUS
 62
     9
 10
-345.5933847862055
 20
503.8049096779839
  0
VERTEX
  8
1
  6
CONTINUOUS
 62
     9
 10
-345.5770900515946
 20
503.6173165676349
  0
VERTEX
  8
1
  6
CONTINUOUS
 62
     9
 10
-345.5506288384306
 20
503.4444297669804
  0
VERTEX
  8
1
  6
CONTINUOUS
 62
     9
 10
-345.5150180362961
 20
503.2928932188134
  0
VERTEX
  8
1
  6
CONTINUOUS
 62
     9
 10
-345.471626148346
 20
503.1685303876974
  0
VERTEX
  8
1
  6
CONTINUOUS
 62
     9
 10
-345.4221207005
 20
503.0761204674887
  0
VERTEX
  8
1
  6
CONTINUOUS
 62
     9
 10
-345.3684041593559
 20
503.0192147195968
  0
VERTEX
  8
1
  6
CONTINUOUS
 62
     9
 10
-345.3125408214651
 20
503.0
  0
SEQEND
  8
1
  6
CONTINUOUS
 62
     9
  0
POLYLINE
  8
1
  6
CONTINUOUS
 62
     9
 66
     1
  0
VERTEX
  8
1
  6
CONTINUOUS
 62
     9
 10
-345.3125408214651
 20
505.0
  0
VERTEX
  8
1
  6
CONTINUOUS
 62
     9
 10
-345.3684041593559
 20
504.9807852804032
  0
VERTEX
  8
1
  6
CONTINUOUS
 62
     9
 10
-345.4221207005
 20
504.9238795325113
  0
VERTEX
  8
1
  6
CONTINUOUS
 62
     9
 10
-345.471626148346
 20
504.8314696123026
  0
VERTEX
  8
1
  6
CONTINUOUS
 62
     9
 10
-345.515018036296
 20
504.7071067811866
  0
VERTEX
  8
1
  6
CONTINUOUS
 62
     9
 10
-345.5506288384306
 20
504.5555702330196
  0
VERTEX
  8
1
  6
CONTINUOUS
 62
     9
 10
-345.5770900515945
 20
504.3826834323651
  0
VERTEX
  8
1
  6
CONTINUOUS
 62
     9
 10
-345.5933847862054
 20
504.1950903220161
  0
VERTEX
  8
1
  6
CONTINUOUS
 62
     9
 10
-345.5988868447506
 20
504.0
  0
SEQEND
  8
1
  6
CONTINUOUS
 62
     9
  0
LINE
  8
1
  6
CONTINUOUS
 62
     7
 10
-800.5000000000003
 20
501.2499999999999
 11
-800.5000000000003
 21
506.75
  0
LINE
  8
1
  6
CONTINUOUS
 62
     7
 10
-809.5000000000003
 20
506.75
 11
-809.5000000000003
 21
501.2499999999999
  0
LINE
  8
1
  6
CONTINUOUS
 62
     7
 10
-810.0000000000002
 20
501.75
 11
-810.0000000000002
 21
506.2500000000001
  0
LINE
  8
1
  6
CONTINUOUS
 62
     7
 10
-800.0000000000002
 20
506.2500000000001
 11
-800.0000000000002
 21
501.7500000000001
  0
LINE
  8
1
  6
CONTINUOUS
 62
     7
 10
-359.4999999999997
 20
506.75
 11
-359.4999999999997
 21
501.2499999999999
  0
LINE
  8
1
  6
CONTINUOUS
 62
     7
 10
-350.4999999999997
 20
501.2499999999999
 11
-350.4999999999997
 21
506.75
  0
LINE
  8
1
  6
CONTINUOUS
 62
     7
 10
-359.9999999999997
 20
501.7499999999999
 11
-359.9999999999997
 21
506.2499999999998
  0
LINE
  8
1
  6
CONTINUOUS
 62
     7
 10
-349.9999999999997
 20
506.2499999999999
 11
-349.9999999999997
 21
501.7499999999999
  0
LINE
  8
1
  6
CONTINUOUS
 62
     9
 10
-811.5376529223945
 20
505.0
 11
-811.5376529223945
 21
504.0
  0
LINE
  8
1
  6
CONTINUOUS
 62
     9
 10
-811.5376529223945
 20
504.0
 11
-811.5376529223945
 21
503.0
  0
LINE
  8
1
  6
CONTINUOUS
 62
     9
 10
-348.4623470776055
 20
503.0
 11
-348.4623470776055
 21
504.0
  0
LINE
  8
1
  6
CONTINUOUS
 62
     9
 10
-348.4623470776055
 20
504.0
 11
-348.4623470776055
 21
505.0
  0
ARC
  8
1
  6
CONTINUOUS
 62
     7
 10
-320.9999999999999
 20
504.0
 40
0.999999999999987
 50
0.0
 51
90.0
  0
ARC
  8
1
  6
CONTINUOUS
 62
     7
 10
-320.9999999999999
 20
504.0
 40
1.000000000000001
 50
270.0
 51
0.0
  0
LINE
  8
1
  6
CONTINUOUS
 62
     7
 10
-310.0000000000001
 20
484.5
 11
-310.0000000000001
 21
487.0
  0
LINE
  8
1
  6
CONTINUOUS
 62
     9
 10
-307.0000000000001
 20
487.0
 11
-307.0000000000001
 21
484.5
  0
LINE
  8
1
  6
CONTINUOUS
 62
     7
 10
-307.0000000000001
 20
484.5
 11
-310.0000000000001
 21
484.5
  0
LINE
  8
1
  6
CONTINUOUS
 62
     7
 10
-310.0000000000001
 20
487.0
 11
-307.0000000000001
 21
487.0
  0
LINE
  8
1
  6
CONTINUOUS
 62
     9
 10
-283.0
 20
484.5
 11
-283.0
 21
487.0
  0
LINE
  8
1
  6
CONTINUOUS
 62
     7
 10
-280.0
 20
487.0
 11
-280.0
 21
484.5
  0
LINE
  8
1
  6
CONTINUOUS
 62
     7
 10
-280.0
 20
484.5
 11
-283.0
 21
484.5
  0
LINE
  8
1
  6
CONTINUOUS
 62
     7
 10
-283.0
 20
487.0
 11
-280.0
 21
487.0
  0
LINE
  8
1
  6
CONTINUOUS
 62
     7
 10
-307.0000000000001
 20
484.5
 11
-283.0
 21
484.5
  0
LINE
  8
1
  6
CONTINUOUS
 62
     7
 10
-307.0000000000001
 20
487.0
 11
-283.0
 21
487.0
  0
ARC
  8
1
  6
CONTINUOUS
 62
     7
 10
-316.5966566650683
 20
518.8613783840769
 40
7.999999999999948
 50
253.4957379909522
 51
286.3692093682834
  0
ARC
  8
1
  6
CONTINUOUS
 62
     7
 10
-316.5966566650683
 20
518.8613783840769
 40
11.99999999999998
 50
253.4957379909521
 51
274.3362907796682
  0
LINE
  8
1
  6
CONTINUOUS
 62
     7
 10
-307.7894186465833
 20
508.9413846806261
 11
-300.2184224116082
 21
511.1652296769369
  0
LINE
  8
1
  6
CONTINUOUS
 62
     7
 10
-303.0249034396169
 20
514.5098635246138
 11
-308.9167221777056
 21
512.7792469434906
  0
ARC
  8
1
  6
CONTINUOUS
 62
     7
 10
-298.0
 20
504.0
 40
7.499999999999966
 50
317.1665719339327
 51
104.7047404844846
  0
ARC
  8
1
  6
CONTINUOUS
 62
     7
 10
-298.0
 20
504.0
 40
7.499999999999972
 50
253.6307906317163
 51
273.8225537292741
  0
ARC
  8
1
  6
CONTINUOUS
 62
     7
 10
-298.0
 20
504.0
 40
11.50000000000004
 50
253.6307906317163
 51
272.4919063689798
  0
ARC
  8
1
  6
CONTINUOUS
 62
     7
 10
-298.0
 20
504.0
 40
11.50000000000006
 50
298.5718781423086
 51
0.0
  0
ARC
  8
1
  6
CONTINUOUS
 62
     7
 10
-298.0
 20
504.0
 40
11.50000000000001
 50
0.0
 51
106.3692093682832
  0
LINE
  8
1
  6
CONTINUOUS
 62
     7
 10
-301.2409976519767
 20
515.0338540057353
 11
-302.8154468581092
 21
514.5713876564814
  0
LINE
  8
1
  6
CONTINUOUS
 62
     7
 10
-314.3420496028236
 20
496.8143461416518
 11
-301.2409976519767
 21
492.9661459942646
  0
LINE
  8
1
  6
CONTINUOUS
 62
     7
 10
-300.1136941208543
 20
496.8040082571291
 11
-313.2147460717013
 21
500.6522084045163
  0
ARC
  8
1
  6
CONTINUOUS
 62
     7
 10
-316.5966566650683
 20
489.1386216159229
 40
7.999999999999948
 50
73.6307906317171
 51
106.504262009048
  0
ARC
  8
1
  6
CONTINUOUS
 62
     7
 10
-316.5966566650683
 20
489.1386216159229
 40
11.99999999999998
 50
73.630790631717
 51
106.5042620090479
  0
ARC
  8
1
  6
CONTINUOUS
 62
     7
 10
-321.0
 20
504.0
 40
3.499999999999992
 50
196.60154959902
 51
286.5042620090476
  0
ARC
  8
1
  6
CONTINUOUS
 62
     7
 10
-321.0
 20
504.0
 40
3.500000000000001
 50
73.49573799095243
 51
163.39845040098
  0
ARC
  8
1
  6
CONTINUOUS
 62
     7
 10
-321.0
 20
504.0
 40
7.499999999999988
 50
73.49573799095245
 51
172.337744339234
  0
ARC
  8
1
  6
CONTINUOUS
 62
     7
 10
-321.0
 20
504.0
 40
7.499999999999993
 50
187.662255660766
 51
286.5042620090476
  0
LINE
  8
1
  6
CONTINUOUS
 62
     7
 10
-314.1022924079506
 20
511.2560782545041
 11
-314.3420496028237
 21
511.185653858348
  0
LINE
  8
1
  6
CONTINUOUS
 62
     7
 10
-839.0000000000001
 20
503.0
 11
-830.6387508486442
 21
503.0
  0
LINE
  8
1
  6
CONTINUOUS
 62
     7
 10
-830.6387508486442
 20
505.0
 11
-839.0000000000001
 21
505.0
  0
LINE
  8
1
  6
CONTINUOUS
 62
     7
 10
-320.9999999999999
 20
505.0
 11
-329.3612491513558
 21
505.0
  0
LINE
  8
1
  6
CONTINUOUS
 62
     7
 10
-329.3612491513558
 20
503.0
 11
-320.9999999999999
 21
503.0
  0
LINE
  8
1
  6
CONTINUOUS
 62
     7
 10
-814.6874591785349
 20
505.0
 11
-830.6387508486442
 21
505.0
  0
LINE
  8
1
  6
CONTINUOUS
 62
     7
 10
-830.6387508486442
 20
503.0
 11
-814.6874591785349
 21
503.0
  0
LINE
  8
1
  6
CONTINUOUS
 62
     7
 10
-345.3125408214651
 20
503.0
 11
-329.3612491513557
 21
503.0
  0
LINE
  8
1
  6
CONTINUOUS
 62
     7
 10
-329.3612491513557
 20
505.0
 11
-345.3125408214651
 21
505.0
  0
LINE
  8
1
  6
CONTINUOUS
 62
     7
 10
-809.5000000000003
 20
501.2499999999999
 11
-800.5000000000003
 21
501.2499999999999
  0
LINE
  8
1
  6
CONTINUOUS
 62
     7
 10
-800.5000000000003
 20
506.75
 11
-809.5000000000003
 21
506.75
  0
LINE
  8
1
  6
CONTINUOUS
 62
     7
 10
-809.5000000000003
 20
506.75
 11
-810.0000000000002
 21
506.2500000000001
  0
LINE
  8
1
  6
CONTINUOUS
 62
     7
 10
-810.0000000000002
 20
501.7499999999999
 11
-809.5000000000003
 21
501.2499999999999
  0
LINE
  8
1
  6
CONTINUOUS
 62
     7
 10
-800.5000000000003
 20
501.2499999999999
 11
-800.0000000000002
 21
501.75
  0
LINE
  8
1
  6
CONTINUOUS
 62
     7
 10
-800.0000000000002
 20
506.2500000000001
 11
-800.5000000000003
 21
506.7500000000001
  0
LINE
  8
1
  6
CONTINUOUS
 62
     7
 10
-350.4999999999997
 20
506.75
 11
-359.4999999999997
 21
506.75
  0
LINE
  8
1
  6
CONTINUOUS
 62
     7
 10
-359.4999999999997
 20
501.2499999999999
 11
-350.4999999999997
 21
501.2499999999999
  0
LINE
  8
1
  6
CONTINUOUS
 62
     7
 10
-359.4999999999997
 20
506.75
 11
-359.9999999999997
 21
506.2500000000001
  0
LINE
  8
1
  6
CONTINUOUS
 62
     7
 10
-359.9999999999997
 20
501.7499999999999
 11
-359.4999999999997
 21
501.2499999999999
  0
LINE
  8
1
  6
CONTINUOUS
 62
     7
 10
-350.4999999999997
 20
501.2499999999999
 11
-349.9999999999997
 21
501.7499999999999
  0
LINE
  8
1
  6
CONTINUOUS
 62
     7
 10
-349.9999999999997
 20
506.2499999999999
 11
-350.4999999999997
 21
506.75
  0
LINE
  8
1
  6
CONTINUOUS
 62
     7
 10
-814.6874591785349
 20
505.0
 11
-811.5376529223945
 21
505.0
  0
LINE
  8
1
  6
CONTINUOUS
 62
     7
 10
-811.5376529223945
 20
503.0
 11
-814.6874591785349
 21
503.0
  0
LINE
  8
1
  6
CONTINUOUS
 62
     7
 10
-345.3125408214651
 20
503.0
 11
-348.4623470776055
 21
503.0
  0
LINE
  8
1
  6
CONTINUOUS
 62
     7
 10
-348.4623470776055
 20
505.0
 11
-345.3125408214651
 21
505.0
  0
LINE
  8
1
  6
CONTINUOUS
 62
     7
 10
-810.0
 20
505.0
 11
-811.5376529223945
 21
505.0
  0
LINE
  8
1
  6
CONTINUOUS
 62
     7
 10
-811.5376529223945
 20
503.0
 11
-810.0
 21
503.0
  0
LINE
  8
1
  6
CONTINUOUS
 62
     7
 10
-349.9999999999999
 20
503.0
 11
-348.4623470776054
 21
503.0
  0
LINE
  8
1
  6
CONTINUOUS
 62
     7
 10
-348.4623470776055
 20
505.0
 11
-350.0
 21
505.0
  0
LINE
  8
1
  6
CONTINUOUS
 62
     7
 10
-800.0000000000002
 20
503.0
 11
-359.9999999999997
 21
503.0
  0
LINE
  8
1
  6
CONTINUOUS
 62
     7
 10
-359.9999999999997
 20
505.0
 11
-800.0000000000002
 21
505.0
  0
ARC
  8
1
  6
CONTINUOUS
 62
     7
 10
-295.0000000000001
 20
503.0
 40
2.500000000000058
 50
0.0
 51
180.0
  0
LINE
  8
1
  6
CONTINUOUS
 62
     7
 10
-297.5
 20
503.0
 11
-297.5
 21
493.0
  0
LINE
  8
1
  6
CONTINUOUS
 62
     7
 10
-292.5
 20
493.0
 11
-292.5
 21
503.0
  0
LINE
  8
1
  6
CONTINUOUS
 62
     7
 10
-292.5
 20
487.0
 11
-292.5
 21
493.0
  0
LINE
  8
1
  6
CONTINUOUS
 62
     7
 10
-297.5
 20
493.0
 11
-297.5
 21
487.0
  0
ENDBLK
  8
0
  0
BLOCK
  8
0
  2
D_FRAME_VIEW_1894
 70
     0
 10
0.0
 20
0.0
  0
POLYLINE
  8
1
  6
CONTINUOUS
 62
     9
 66
     1
  0
VERTEX
  8
1
  6
CONTINUOUS
 62
     9
 10
-300.6773458864155
 20
552.0
  0
VERTEX
  8
1
  6
CONTINUOUS
 62
     9
 10
-300.7873088908638
 20
551.9615705608064
  0
VERTEX
  8
1
  6
CONTINUOUS
 62
     9
 10
-300.8930460787191
 20
551.8477590650226
  0
VERTEX
  8
1
  6
CONTINUOUS
 62
     9
 10
-300.9904940291502
 20
551.6629392246051
  0
VERTEX
  8
1
  6
CONTINUOUS
 62
     9
 10
-301.0759078720715
 20
551.4142135623731
  0
VERTEX
  8
1
  6
CONTINUOUS
 62
     9
 10
-301.1460052014003
 20
551.1111404660392
  0
VERTEX
  8
1
  6
CONTINUOUS
 62
     9
 10
-301.1980922160813
 20
550.7653668647301
  0
VERTEX
  8
1
  6
CONTINUOUS
 62
     9
 10
-301.2301672413512
 20
550.3901806440323
  0
VERTEX
  8
1
  6
CONTINUOUS
 62
     9
 10
-301.2409976519767
 20
550.0
  0
VERTEX
  8
1
  6
CONTINUOUS
 62
     9
 10
-301.2301672413512
 20
549.6098193559677
  0
VERTEX
  8
1
  6
CONTINUOUS
 62
     9
 10
-301.1980922160813
 20
549.2346331352699
  0
VERTEX
  8
1
  6
CONTINUOUS
 62
     9
 10
-301.1460052014003
 20
548.8888595339608
  0
VERTEX
  8
1
  6
CONTINUOUS
 62
     9
 10
-301.0759078720715
 20
548.5857864376269
  0
VERTEX
  8
1
  6
CONTINUOUS
 62
     9
 10
-300.9904940291502
 20
548.3370607753949
  0
VERTEX
  8
1
  6
CONTINUOUS
 62
     9
 10
-300.8930460787191
 20
548.1522409349774
  0
VERTEX
  8
1
  6
CONTINUOUS
 62
     9
 10
-300.7873088908638
 20
548.0384294391936
  0
VERTEX
  8
1
  6
CONTINUOUS
 62
     9
 10
-300.6773458864155
 20
548.0
  0
SEQEND
  8
1
  6
CONTINUOUS
 62
     9
  0
POLYLINE
  8
1
  6
CONTINUOUS
 62
     7
 66
     1
  0
VERTEX
  8
1
  6
CONTINUOUS
 62
     7
 10
-301.4122063441048
 20
552.0
  0
VERTEX
  8
1
  6
CONTINUOUS
 62
     7
 10
-301.685964987848
 20
551.9615705608065
  0
VERTEX
  8
1
  6
CONTINUOUS
 62
     7
 10
-301.9492032404377
 20
551.8477590650226
  0
VERTEX
  8
1
  6
CONTINUOUS
 62
     7
 10
-302.1918050034527
 20
551.6629392246051
  0
VERTEX
  8
1
  6
CONTINUOUS
 62
     7
 10
-302.404447227193
 20
551.4142135623731
  0
VERTEX
  8
1
  6
CONTINUOUS
 62
     7
 10
-302.5789581902512
 20
551.1111404660393
  0
VERTEX
  8
1
  6
CONTINUOUS
 62
     7
 10
-302.7086315341841
 20
550.7653668647301
  0
VERTEX
  8
1
  6
CONTINUOUS
 62
     7
 10
-302.7884839851058
 20
550.3901806440323
  0
VERTEX
  8
1
  6
CONTINUOUS
 62
     7
 10
-302.8154468581092
 20
550.0
  0
VERTEX
  8
1
  6
CONTINUOUS
 62
     7
 10
-302.7884839851058
 20
549.6098193559677
  0
VERTEX
  8
1
  6
CONTINUOUS
 62
     7
 10
-302.708631534184
 20
549.2346331352697
  0
VERTEX
  8
1
  6
CONTINUOUS
 62
     7
 10
-302.5789581902512
 20
548.8888595339607
  0
VERTEX
  8
1
  6
CONTINUOUS
 62
     7
 10
-302.404447227193
 20
548.5857864376269
  0
VERTEX
  8
1
  6
CONTINUOUS
 62
     7
 10
-302.1918050034527
 20
548.3370607753949
  0
VERTEX
  8
1
  6
CONTINUOUS
 62
     7
 10
-301.9492032404377
 20
548.1522409349774
  0
VERTEX
  8
1
  6
CONTINUOUS
 62
     7
 10
-301.685964987848
 20
548.0384294391935
  0
VERTEX
  8
1
  6
CONTINUOUS
 62
     7
 10
-301.4122063441048
 20
548.0
  0
SEQEND
  8
1
  6
CONTINUOUS
 62
     7
  0
POLYLINE
  8
1
  6
CONTINUOUS
 62
     7
 66
     1
  0
VERTEX
  8
1
  6
CONTINUOUS
 62
     7
 10
-314.1182677714468
 20
549.0000000000001
  0
VERTEX
  8
1
  6
CONTINUOUS
 62
     7
 10
-314.0490059165309
 20
548.6617387872824
  0
VERTEX
  8
1
  6
CONTINUOUS
 62
     7
 10
-313.9614372188084
 20
548.3819660112501
  0
VERTEX
  8
1
  6
CONTINUOUS
 62
     7
 10
-313.859388850571
 20
548.1729090847148
  0
VERTEX
  8
1
  6
CONTINUOUS
 62
     7
 10
-313.7473208151932
 20
548.0437047985324
  0
VERTEX
  8
1
  6
CONTINUOUS
 62
     7
 10
-313.6301310235829
 20
548.0
  0
SEQEND
  8
1
  6
CONTINUOUS
 62
     7
  0
POLYLINE
  8
1
  6
CONTINUOUS
 62
     7
 66
     1
  0
VERTEX
  8
1
  6
CONTINUOUS
 62
     7
 10
-301.6216629256126
 20
552.0
  0
VERTEX
  8
1
  6
CONTINUOUS
 62
     7
 10
-301.8954215693557
 20
551.9615705608065
  0
VERTEX
  8
1
  6
CONTINUOUS
 62
     7
 10
-302.1586598219455
 20
551.8477590650226
  0
VERTEX
  8
1
  6
CONTINUOUS
 62
     7
 10
-302.4012615849605
 20
551.6629392246051
  0
VERTEX
  8
1
  6
CONTINUOUS
 62
     7
 10
-302.6139038087007
 20
551.4142135623731
  0
VERTEX
  8
1
  6
CONTINUOUS
 62
     7
 10
-302.788414771759
 20
551.1111404660393
  0
VERTEX
  8
1
  6
CONTINUOUS
 62
     7
 10
-302.9180881156918
 20
550.7653668647301
  0
VERTEX
  8
1
  6
CONTINUOUS
 62
     7
 10
-302.9979405666135
 20
550.3901806440323
  0
VERTEX
  8
1
  6
CONTINUOUS
 62
     7
 10
-303.0249034396169
 20
550.0
  0
SEQEND
  8
1
  6
CONTINUOUS
 62
     7
  0
LINE
  8
1
  6
CONTINUOUS
 62
     7
 10
-301.6216629256126
 20
548.0
 11
-301.5169346348745
 21
548.0055778885835
  0
LINE
  8
1
  6
CONTINUOUS
 62
     7
 10
-301.5169346348745
 20
551.9944221114165
 11
-301.6216629256126
 21
552.0
  0
LINE
  8
1
  6
CONTINUOUS
 62
     7
 10
-312.6706654718117
 20
548.0
 11
-312.6909326750052
 21
548.0049704183064
  0
ARC
  8
1
  6
CONTINUOUS
 62
     7
 10
-312.2878942210926
 20
554.8223775207339
 40
2.880692839142244
 50
264.3660984230664
 51
281.5482413173946
  0
POLYLINE
  8
1
  6
CONTINUOUS
 62
     7
 66
     1
  0
VERTEX
  8
1
  6
CONTINUOUS
 62
     7
 10
-312.5706968865695
 20
551.9555999071258
  0
VERTEX
  8
1
  6
CONTINUOUS
 62
     7
 10
-312.6698928954631
 20
551.9813238044729
  0
VERTEX
  8
1
  6
CONTINUOUS
 62
     7
 10
-312.6909326750088
 20
551.9950297073838
  0
SEQEND
  8
1
  6
CONTINUOUS
 62
     7
  0
LINE
  8
1
  6
CONTINUOUS
 62
     7
 10
-314.1182677714469
 20
549.0
 11
-308.8412071600084
 21
549.0
  0
LINE
  8
1
  6
CONTINUOUS
 62
     7
 10
-308.8564275338524
 20
549.1
 11
-308.8412071600083
 21
549.0000000000001
  0
POLYLINE
  8
1
  6
CONTINUOUS
 62
     7
 66
     1
  0
VERTEX
  8
1
  6
CONTINUOUS
 62
     7
 10
-308.9167221777055
 20
550.0
  0
VERTEX
  8
1
  6
CONTINUOUS
 62
     7
 10
-308.9014413829199
 20
549.5374603908303
  0
VERTEX
  8
1
  6
CONTINUOUS
 62
     7
 10
-308.8564275338524
 20
549.1
  0
SEQEND
  8
1
  6
CONTINUOUS
 62
     7
  0
POLYLINE
  8
1
  6
CONTINUOUS
 62
     7
 66
     1
  0
VERTEX
  8
1
  6
CONTINUOUS
 62
     7
 10
-308.8564275338524
 20
550.9
  0
VERTEX
  8
1
  6
CONTINUOUS
 62
     7
 10
-308.90144138292
 20
550.4625396091697
  0
VERTEX
  8
1
  6
CONTINUOUS
 62
     7
 10
-308.9167221777055
 20
550.0
  0
SEQEND
  8
1
  6
CONTINUOUS
 62
     7
  0
LINE
  8
1
  6
CONTINUOUS
 62
     7
 10
-308.8412071600084
 20
551.0
 11
-308.8564275338524
 21
550.9000000000001
  0
LINE
  8
1
  6
CONTINUOUS
 62
     7
 10
-314.1182677714469
 20
551.0
 11
-308.8412071600084
 21
551.0
  0
POLYLINE
  8
1
  6
CONTINUOUS
 62
     7
 66
     1
  0
VERTEX
  8
1
  6
CONTINUOUS
 62
     7
 10
-313.6301310235829
 20
552.0
  0
VERTEX
  8
1
  6
CONTINUOUS
 62
     7
 10
-313.7473208151932
 20
551.9562952014676
  0
VERTEX
  8
1
  6
CONTINUOUS
 62
     7
 10
-313.859388850571
 20
551.8270909152852
  0
VERTEX
  8
1
  6
CONTINUOUS
 62
     7
 10
-313.9614372188084
 20
551.6180339887499
  0
VERTEX
  8
1
  6
CONTINUOUS
 62
     7
 10
-314.0490059165309
 20
551.3382612127176
  0
VERTEX
  8
1
  6
CONTINUOUS
 62
     7
 10
-314.1182677714468
 20
550.9999999999999
  0
SEQEND
  8
1
  6
CONTINUOUS
 62
     7
  0
POLYLINE
  8
1
  6
CONTINUOUS
 62
     7
 66
     1
  0
VERTEX
  8
1
  6
CONTINUOUS
 62
     7
 10
-303.0249034396169
 20
550.0
  0
VERTEX
  8
1
  6
CONTINUOUS
 62
     7
 10
-302.9979405666135
 20
549.6098193559677
  0
VERTEX
  8
1
  6
CONTINUOUS
 62
     7
 10
-302.9180881156918
 20
549.2346331352699
  0
VERTEX
  8
1
  6
CONTINUOUS
 62
     7
 10
-302.788414771759
 20
548.8888595339607
  0
VERTEX
  8
1
  6
CONTINUOUS
 62
     7
 10
-302.6139038087007
 20
548.5857864376269
  0
VERTEX
  8
1
  6
CONTINUOUS
 62
     7
 10
-302.4012615849605
 20
548.3370607753949
  0
VERTEX
  8
1
  6
CONTINUOUS
 62
     7
 10
-302.1586598219455
 20
548.1522409349774
  0
VERTEX
  8
1
  6
CONTINUOUS
 62
     7
 10
-301.8954215693557
 20
548.0384294391935
  0
VERTEX
  8
1
  6
CONTINUOUS
 62
     7
 10
-301.6216629256126
 20
548.0
  0
SEQEND
  8
1
  6
CONTINUOUS
 62
     7
  0
LINE
  8
1
  6
CONTINUOUS
 62
     7
 10
-312.1909326750089
 20
548.058388180647
 11
-311.7111998945604
 21
548.0
  0
LINE
  8
1
  6
CONTINUOUS
 62
     7
 10
-312.6706654578669
 20
552.0
 11
-312.190929477508
 21
551.9416115967023
  0
LINE
  8
1
  6
CONTINUOUS
 62
     7
 10
-308.9167221777056
 20
550.0
 11
-308.9167221777056
 21
550.9000000000001
  0
LINE
  8
1
  6
CONTINUOUS
 62
     7
 10
-308.9167221777056
 20
550.9000000000001
 11
-308.8564275338525
 21
550.9000000000001
  0
LINE
  8
1
  6
CONTINUOUS
 62
     7
 10
-308.9167221777056
 20
549.1
 11
-308.8564275338525
 21
549.1
  0
LINE
  8
1
  6
CONTINUOUS
 62
     7
 10
-308.9167221777056
 20
549.1
 11
-308.9167221777056
 21
550.0
  0
LINE
  8
1
  6
CONTINUOUS
 62
     7
 10
-314.1022924079506
 20
549.1
 11
-308.9167221777056
 21
549.1
  0
LINE
  8
1
  6
CONTINUOUS
 62
     7
 10
-314.1022924079506
 20
549.1
 11
-314.1022924079505
 21
550.0
  0
LINE
  8
1
  6
CONTINUOUS
 62
     7
 10
-314.1022924079505
 20
550.0
 11
-314.1022924079506
 21
550.9000000000001
  0
LINE
  8
1
  6
CONTINUOUS
 62
     7
 10
-314.1022924079506
 20
550.9000000000001
 11
-308.9167221777056
 21
550.9000000000001
  0
POLYLINE
  8
1
  6
CONTINUOUS
 62
     9
 66
     1
  0
VERTEX
  8
1
  6
CONTINUOUS
 62
     9
 10
-318.8693499992266
 20
550.0
  0
VERTEX
  8
1
  6
CONTINUOUS
 62
     9
 10
-318.880267290513
 20
550.3901806440323
  0
VERTEX
  8
1
  6
CONTINUOUS
 62
     9
 10
-318.9125996189903
 20
550.7653668647301
  0
VERTEX
  8
1
  6
CONTINUOUS
 62
     9
 10
-318.9651044714074
 20
551.1111404660392
  0
VERTEX
  8
1
  6
CONTINUOUS
 62
     9
 10
-319.035764115731
 20
551.4142135623731
  0
VERTEX
  8
1
  6
CONTINUOUS
 62
     9
 10
-319.1218631414561
 20
551.6629392246051
  0
VERTEX
  8
1
  6
CONTINUOUS
 62
     9
 10
-319.220092811309
 20
551.8477590650226
  0
VERTEX
  8
1
  6
CONTINUOUS
 62
     9
 10
-319.326678214165
 20
551.9615705608064
  0
VERTEX
  8
1
  6
CONTINUOUS
 62
     9
 10
-319.4375233327662
 20
552.0
  0
SEQEND
  8
1
  6
CONTINUOUS
 62
     9
  0
POLYLINE
  8
1
  6
CONTINUOUS
 62
     9
 66
     1
  0
VERTEX
  8
1
  6
CONTINUOUS
 62
     9
 10
-319.4375233327662
 20
548.0
  0
VERTEX
  8
1
  6
CONTINUOUS
 62
     9
 10
-319.326678214165
 20
548.0384294391936
  0
VERTEX
  8
1
  6
CONTINUOUS
 62
     9
 10
-319.220092811309
 20
548.1522409349774
  0
VERTEX
  8
1
  6
CONTINUOUS
 62
     9
 10
-319.1218631414561
 20
548.3370607753949
  0
VERTEX
  8
1
  6
CONTINUOUS
 62
     9
 10
-319.035764115731
 20
548.5857864376269
  0
VERTEX
  8
1
  6
CONTINUOUS
 62
     9
 10
-318.9651044714074
 20
548.8888595339608
  0
VERTEX
  8
1
  6
CONTINUOUS
 62
     9
 10
-318.9125996189903
 20
549.2346331352699
  0
VERTEX
  8
1
  6
CONTINUOUS
 62
     9
 10
-318.880267290513
 20
549.6098193559677
  0
VERTEX
  8
1
  6
CONTINUOUS
 62
     9
 10
-318.8693499992266
 20
550.0
  0
SEQEND
  8
1
  6
CONTINUOUS
 62
     9
  0
POLYLINE
  8
1
  6
CONTINUOUS
 62
     7
 66
     1
  0
VERTEX
  8
1
  6
CONTINUOUS
 62
     7
 10
-314.1022924079506
 20
550.0
  0
VERTEX
  8
1
  6
CONTINUOUS
 62
     7
 10
-314.1253230581405
 20
550.4625396091697
  0
VERTEX
  8
1
  6
CONTINUOUS
 62
     7
 10
-314.1931662708872
 20
550.9
  0
SEQEND
  8
1
  6
CONTINUOUS
 62
     7
  0
LINE
  8
1
  6
CONTINUOUS
 62
     7
 10
-314.1022924079506
 20
550.9000000000001
 11
-314.1931662708871
 21
550.9000000000001
  0
POLYLINE
  8
1
  6
CONTINUOUS
 62
     7
 66
     1
  0
VERTEX
  8
1
  6
CONTINUOUS
 62
     7
 10
-314.1931662708872
 20
549.1
  0
VERTEX
  8
1
  6
CONTINUOUS
 62
     7
 10
-314.1253230581405
 20
549.5374603908303
  0
VERTEX
  8
1
  6
CONTINUOUS
 62
     7
 10
-314.1022924079506
 20
550.0
  0
SEQEND
  8
1
  6
CONTINUOUS
 62
     7
  0
LINE
  8
1
  6
CONTINUOUS
 62
     7
 10
-314.193166270887
 20
549.1
 11
-314.1022924079506
 21
549.1
  0
LINE
  8
1
  6
CONTINUOUS
 62
     7
 10
-314.1931662708872
 20
550.9
 11
-314.246420724937
 21
551.1145127320934
  0
LINE
  8
1
  6
CONTINUOUS
 62
     7
 10
-314.246420724937
 20
548.8854872679066
 11
-314.1931662708872
 21
549.1
  0
POLYLINE
  8
1
  6
CONTINUOUS
 62
     9
 66
     1
  0
VERTEX
  8
1
  6
CONTINUOUS
 62
     9
 10
-314.2464207249369
 20
551.1145127320934
  0
VERTEX
  8
1
  6
CONTINUOUS
 62
     9
 10
-314.2988518808944
 20
550.7678659008637
  0
VERTEX
  8
1
  6
CONTINUOUS
 62
     9
 10
-314.3311446841132
 20
550.39150740814
  0
VERTEX
  8
1
  6
CONTINUOUS
 62
     9
 10
-314.3420496028236
 20
550.0
  0
VERTEX
  8
1
  6
CONTINUOUS
 62
     9
 10
-314.3311446841132
 20
549.6084925918601
  0
VERTEX
  8
1
  6
CONTINUOUS
 62
     9
 10
-314.2988518808944
 20
549.2321340991363
  0
VERTEX
  8
1
  6
CONTINUOUS
 62
     9
 10
-314.2464207249369
 20
548.8854872679066
  0
SEQEND
  8
1
  6
CONTINUOUS
 62
     9
  0
POLYLINE
  8
1
  6
CONTINUOUS
 62
     7
 66
     1
  0
VERTEX
  8
1
  6
CONTINUOUS
 62
     7
 10
-314.9216120083846
 20
551.9999986570468
  0
VERTEX
  8
1
  6
CONTINUOUS
 62
     7
 10
-314.8056708306388
 20
551.9780514276538
  0
VERTEX
  8
1
  6
CONTINUOUS
 62
     7
 10
-314.6988298250841
 20
551.9191436699216
  0
VERTEX
  8
1
  6
CONTINUOUS
 62
     7
 10
-314.5899743546873
 20
551.8185063047404
  0
VERTEX
  8
1
  6
CONTINUOUS
 62
     7
 10
-314.5190499109046
 20
551.7283373199533
  0
SEQEND
  8
1
  6
CONTINUOUS
 62
     7
  0
ARC
  8
1
  6
CONTINUOUS
 62
     7
 10
-316.2973668866564
 20
550.5710445487072
 40
2.121729913213639
 50
14.84137741017815
 51
33.05526545008127
  0
ARC
  8
1
  6
CONTINUOUS
 62
     7
 10
-316.2813434227275
 20
549.4273068248294
 40
2.105820224579336
 50
325.6731831855402
 51
345.0903110719059
  0
POLYLINE
  8
1
  6
CONTINUOUS
 62
     7
 66
     1
  0
VERTEX
  8
1
  6
CONTINUOUS
 62
     7
 10
-314.5422845350733
 20
548.2398081917698
  0
VERTEX
  8
1
  6
CONTINUOUS
 62
     7
 10
-314.6236464434298
 20
548.1457220840126
  0
VERTEX
  8
1
  6
CONTINUOUS
 62
     7
 10
-314.7306491729519
 20
548.0593390328784
  0
VERTEX
  8
1
  6
CONTINUOUS
 62
     7
 10
-314.8424214409293
 20
548.0103166103404
  0
VERTEX
  8
1
  6
CONTINUOUS
 62
     7
 10
-314.9216122566032
 20
548.0000013422226
  0
SEQEND
  8
1
  6
CONTINUOUS
 62
     7
  0
LINE
  8
1
  6
CONTINUOUS
 62
     7
 10
-312.6909326750088
 20
551.9950297073838
 11
-312.6706654578669
 21
552.0
  0
LINE
  8
1
  6
CONTINUOUS
 62
     7
 10
-312.6909326750052
 20
548.0049704183064
 11
-312.1909326750089
 21
548.058388180647
  0
LINE
  8
1
  6
CONTINUOUS
 62
     7
 10
-312.189443970693
 20
548.0584913664751
 11
-312.6706654718117
 21
548.0
  0
LINE
  8
1
  6
CONTINUOUS
 62
     9
 10
-313.7783978372624
 20
548.0
 11
-313.7042644304254
 21
548.0173738723748
  0
LINE
  8
1
  6
CONTINUOUS
 62
     9
 10
-313.2902610893985
 20
549.0
 11
-313.2750407155545
 21
549.1
  0
LINE
  8
1
  6
CONTINUOUS
 62
     9
 10
-313.2750407155545
 20
550.9
 11
-313.2902610893985
 21
551.0
  0
LINE
  8
1
  6
CONTINUOUS
 62
     9
 10
-313.7042644304254
 20
551.9826261276252
 11
-313.7783978372624
 21
552.0
  0
LINE
  8
1
  6
CONTINUOUS
 62
     7
 10
-800.5000000000003
 20
547.25
 11
-800.5000000000003
 21
550.0
  0
LINE
  8
1
  6
CONTINUOUS
 62
     7
 10
-809.5000000000003
 20
552.7500000000001
 11
-809.5000000000003
 21
550.0
  0
LINE
  8
1
  6
CONTINUOUS
 62
     7
 10
-800.5000000000003
 20
550.0
 11
-800.5000000000003
 21
552.7500000000001
  0
LINE
  8
1
  6
CONTINUOUS
 62
     7
 10
-809.5000000000003
 20
550.0
 11
-809.5000000000003
 21
547.25
  0
LINE
  8
1
  6
CONTINUOUS
 62
     7
 10
-800.0000000000002
 20
552.25
 11
-800.0000000000002
 21
550.0
  0
LINE
  8
1
  6
CONTINUOUS
 62
     7
 10
-800.0000000000002
 20
550.0
 11
-800.0000000000002
 21
547.7500000000001
  0
LINE
  8
1
  6
CONTINUOUS
 62
     7
 10
-810.0000000000002
 20
547.7500000000001
 11
-810.0000000000002
 21
550.0
  0
LINE
  8
1
  6
CONTINUOUS
 62
     7
 10
-810.0000000000002
 20
550.0
 11
-810.0000000000002
 21
552.25
  0
LINE
  8
1
  6
CONTINUOUS
 62
     7
 10
-359.9999999999997
 20
547.7500000000001
 11
-359.9999999999997
 21
552.25
  0
LINE
  8
1
  6
CONTINUOUS
 62
     7
 10
-359.4999999999997
 20
552.7500000000001
 11
-359.4999999999997
 21
547.25
  0
LINE
  8
1
  6
CONTINUOUS
 62
     7
 10
-350.4999999999997
 20
547.25
 11
-350.4999999999997
 21
552.7500000000001
  0
LINE
  8
1
  6
CONTINUOUS
 62
     7
 10
-349.9999999999997
 20
552.25
 11
-349.9999999999997
 21
547.7500000000001
  0
LINE
  8
1
  6
CONTINUOUS
 62
     9
 10
-348.4623470776054
 20
548.0
 11
-348.4623470776054
 21
550.0
  0
LINE
  8
1
  6
CONTINUOUS
 62
     9
 10
-348.4623470776054
 20
550.0
 11
-348.4623470776054
 21
552.0
  0
ARC
  8
1
  6
CONTINUOUS
 62
     7
 10
-295.0
 20
560.0
 40
2.500000000000002
 50
0.0
 51
180.0
  0
ARC
  8
1
  6
CONTINUOUS
 62
     7
 10
-295.0
 20
540.0
 40
2.500000000000002
 50
180.0
 51
0.0
  0
ARC
  8
1
  6
CONTINUOUS
 62
     7
 10
-307.0
 20
564.5000000000001
 40
3.000000000000003
 50
90.00000000000001
 51
180.0
  0
ARC
  8
1
  6
CONTINUOUS
 62
     7
 10
-282.9999999999999
 20
564.5000000000001
 40
3.000000000000003
 50
0.0000000000000105
 51
90.00000000000001
  0
LINE
  8
1
  6
CONTINUOUS
 62
     7
 10
-279.9999999999999
 20
535.5000000000001
 11
-279.9999999999999
 21
564.5000000000001
  0
ARC
  8
1
  6
CONTINUOUS
 62
     7
 10
-282.9999999999999
 20
535.5000000000001
 40
3.000000000000003
 50
270.0
 51
0.0
  0
LINE
  8
1
  6
CONTINUOUS
 62
     7
 10
-307.0
 20
532.5000000000001
 11
-282.9999999999999
 21
532.5000000000001
  0
ARC
  8
1
  6
CONTINUOUS
 62
     7
 10
-307.0
 20
535.5000000000001
 40
3.000000000000003
 50
180.0
 51
270.0
  0
LINE
  8
1
  6
CONTINUOUS
 62
     7
 10
-310.0
 20
564.5000000000001
 11
-310.0
 21
552.0
  0
LINE
  8
1
  6
CONTINUOUS
 62
     7
 10
-310.0
 20
548.0
 11
-310.0
 21
535.5000000000001
  0
CIRCLE
  8
1
  6
CONTINUOUS
 62
     7
 10
-304.0
 20
561.0
 40
3.000000000000003
  0
CIRCLE
  8
1
  6
CONTINUOUS
 62
     7
 10
-285.9999999999999
 20
561.0
 40
3.000000000000003
  0
CIRCLE
  8
1
  6
CONTINUOUS
 62
     7
 10
-285.9999999999999
 20
539.0
 40
3.000000000000003
  0
CIRCLE
  8
1
  6
CONTINUOUS
 62
     7
 10
-304.0
 20
539.0
 40
3.000000000000003
  0
LINE
  8
1
  6
CONTINUOUS
 62
     7
 10
-282.9999999999999
 20
567.5000000000001
 11
-307.0
 21
567.5000000000001
  0
CIRCLE
  8
1
  6
CONTINUOUS
 62
     7
 10
-285.9999999999999
 20
539.0
 40
2.000000000000002
  0
CIRCLE
  8
1
  6
CONTINUOUS
 62
     7
 10
-285.9999999999999
 20
561.0
 40
2.000000000000002
  0
CIRCLE
  8
1
  6
CONTINUOUS
 62
     7
 10
-304.0
 20
539.0
 40
2.000000000000002
  0
CIRCLE
  8
1
  6
CONTINUOUS
 62
     7
 10
-304.0
 20
561.0
 40
2.000000000000002
  0
ARC
  8
1
  6
CONTINUOUS
 62
     7
 10
-288.5
 20
550.0
 40
2.000000000000002
 50
270.0
 51
90.0
  0
LINE
  8
1
  6
CONTINUOUS
 62
     7
 10
-300.6773458864155
 20
548.0
 11
-288.5
 21
548.0
  0
LINE
  8
1
  6
CONTINUOUS
 62
     7
 10
-288.5
 20
552.0
 11
-300.6773458864155
 21
552.0
  0
LINE
  8
1
  6
CONTINUOUS
 62
     7
 10
-301.4122063441048
 20
548.0
 11
-300.6773458864155
 21
548.0
  0
LINE
  8
1
  6
CONTINUOUS
 62
     7
 10
-300.6773458864155
 20
552.0
 11
-301.4122063441048
 21
552.0
  0
LINE
  8
1
  6
CONTINUOUS
 62
     7
 10
-311.7113095197965
 20
548.0
 11
-301.6216629256126
 21
548.0
  0
LINE
  8
1
  6
CONTINUOUS
 62
     7
 10
-313.630131023583
 20
548.0
 11
-312.6706074395747
 21
548.0
  0
LINE
  8
1
  6
CONTINUOUS
 62
     7
 10
-312.6706654578669
 20
552.0
 11
-313.6301310235829
 21
552.0
  0
LINE
  8
1
  6
CONTINUOUS
 62
     7
 10
-301.6216629256126
 20
552.0
 11
-311.711287308236
 21
552.0
  0
ARC
  8
1
  6
CONTINUOUS
 62
     7
 10
-326.4999999999999
 20
550.0
 40
2.000000000000002
 50
90.00000000000001
 51
270.0
  0
LINE
  8
1
  6
CONTINUOUS
 62
     7
 10
-326.4999999999999
 20
548.0
 11
-319.4375233327662
 21
548.0
  0
LINE
  8
1
  6
CONTINUOUS
 62
     7
 10
-319.4375233327662
 20
552.0
 11
-326.4999999999999
 21
552.0
  0
LINE
  8
1
  6
CONTINUOUS
 62
     7
 10
-314.9212013838628
 20
548.0
 11
-319.4375233327661
 21
548.0
  0
LINE
  8
1
  6
CONTINUOUS
 62
     7
 10
-319.4375233327661
 20
552.0
 11
-314.9212011335166
 21
552.0
  0
LINE
  8
1
  6
CONTINUOUS
 62
     7
 10
-313.7783978372624
 20
552.0
 11
-314.9165456764358
 21
552.0
  0
LINE
  8
1
  6
CONTINUOUS
 62
     7
 10
-314.9197495100903
 20
548.0
 11
-313.7783978372625
 21
548.0
  0
LINE
  8
1
  6
CONTINUOUS
 62
     7
 10
-313.7783978372623
 20
548.0
 11
-313.6301310235829
 21
548.0
  0
LINE
  8
1
  6
CONTINUOUS
 62
     7
 10
-312.6681474385783
 20
548.0
 11
-311.7127278751545
 21
548.0
  0
LINE
  8
1
  6
CONTINUOUS
 62
     7
 10
-311.7127278751545
 20
548.0
 11
-311.7113095197965
 21
548.0
  0
LINE
  8
1
  6
CONTINUOUS
 62
     7
 10
-301.6216629256126
 20
548.0
 11
-301.4122063441048
 21
548.0
  0
LINE
  8
1
  6
CONTINUOUS
 62
     7
 10
-301.4122063441048
 20
552.0
 11
-301.6216629256126
 21
552.0
  0
LINE
  8
1
  6
CONTINUOUS
 62
     7
 10
-311.711287308236
 20
552.0
 11
-311.713369937693
 21
552.0
  0
LINE
  8
1
  6
CONTINUOUS
 62
     7
 10
-311.713369937693
 20
552.0
 11
-312.6706654578669
 21
552.0
  0
LINE
  8
1
  6
CONTINUOUS
 62
     7
 10
-313.6301310235829
 20
552.0
 11
-313.7783978372623
 21
552.0
  0
ARC
  8
1
  6
CONTINUOUS
 62
     7
 10
-811.5376529223945
 20
562.0
 40
10.00000000000001
 50
253.3606763260111
 51
270.0
  0
ARC
  8
1
  6
CONTINUOUS
 62
     7
 10
-811.5376529223945
 20
562.0
 40
12.00000000000006
 50
253.3606763260112
 51
270.0
  0
LINE
  8
1
  6
CONTINUOUS
 62
     7
 10
-810.0
 20
552.0
 11
-811.5376529223945
 21
552.0
  0
LINE
  8
1
  6
CONTINUOUS
 62
     7
 10
-811.5376529223945
 20
550.0
 11
-810.0
 21
550.0
  0
LINE
  8
1
  6
CONTINUOUS
 62
     7
 10
-814.4011131552494
 20
552.4187372703356
 11
-830.3524048253588
 21
557.1859470472484
  0
LINE
  8
1
  6
CONTINUOUS
 62
     7
 10
-830.9250968719297
 20
555.2696945013156
 11
-814.9738052018204
 21
550.5024847244026
  0
ARC
  8
1
  6
CONTINUOUS
 62
     7
 10
-832.5
 20
550.0
 40
5.50000000000006
 50
73.3606763260102
 51
179.9999999999999
  0
ARC
  8
1
  6
CONTINUOUS
 62
     7
 10
-832.5
 20
550.0
 40
7.500000000000022
 50
73.36067632601016
 51
90.00000000000006
  0
ARC
  8
1
  6
CONTINUOUS
 62
     7
 10
-832.5
 20
550.0
 40
7.500000000000062
 50
90.00000000000001
 51
179.9999999999998
  0
LINE
  8
1
  6
CONTINUOUS
 62
     7
 10
-809.5000000000003
 20
547.25
 11
-800.5000000000003
 21
547.25
  0
LINE
  8
1
  6
CONTINUOUS
 62
     7
 10
-800.5000000000003
 20
552.7500000000001
 11
-809.5000000000003
 21
552.7500000000001
  0
LINE
  8
1
  6
CONTINUOUS
 62
     7
 10
-800.5000000000003
 20
547.25
 11
-800.0000000000002
 21
547.7500000000001
  0
LINE
  8
1
  6
CONTINUOUS
 62
     7
 10
-800.0000000000002
 20
552.25
 11
-800.5000000000003
 21
552.7500000000001
  0
LINE
  8
1
  6
CONTINUOUS
 62
     7
 10
-809.5000000000003
 20
552.7500000000001
 11
-810.0000000000002
 21
552.2500000000001
  0
LINE
  8
1
  6
CONTINUOUS
 62
     7
 10
-810.0000000000002
 20
547.75
 11
-809.5000000000003
 21
547.25
  0
LINE
  8
1
  6
CONTINUOUS
 62
     7
 10
-359.4999999999997
 20
552.7500000000001
 11
-359.9999999999997
 21
552.25
  0
LINE
  8
1
  6
CONTINUOUS
 62
     7
 10
-359.9999999999997
 20
547.7500000000001
 11
-359.4999999999997
 21
547.25
  0
LINE
  8
1
  6
CONTINUOUS
 62
     7
 10
-350.4999999999997
 20
547.25
 11
-349.9999999999997
 21
547.7500000000001
  0
LINE
  8
1
  6
CONTINUOUS
 62
     7
 10
-349.9999999999997
 20
552.25
 11
-350.4999999999997
 21
552.7500000000001
  0
LINE
  8
1
  6
CONTINUOUS
 62
     7
 10
-350.4999999999997
 20
552.7500000000001
 11
-359.4999999999997
 21
552.7500000000001
  0
LINE
  8
1
  6
CONTINUOUS
 62
     7
 10
-359.4999999999997
 20
547.25
 11
-350.4999999999997
 21
547.25
  0
ARC
  8
1
  6
CONTINUOUS
 62
     7
 10
-811.5376529223945
 20
538.0
 40
9.999999999999998
 50
90.0
 51
106.6393236739889
  0
ARC
  8
1
  6
CONTINUOUS
 62
     7
 10
-811.5376529223945
 20
538.0
 40
12.00000000000001
 50
90.00000000000001
 51
106.6393236739888
  0
LINE
  8
1
  6
CONTINUOUS
 62
     7
 10
-810.0
 20
550.0
 11
-811.5376529223945
 21
550.0
  0
LINE
  8
1
  6
CONTINUOUS
 62
     7
 10
-811.5376529223945
 20
548.0
 11
-810.0
 21
548.0
  0
LINE
  8
1
  6
CONTINUOUS
 62
     7
 10
-800.0000000000002
 20
549.0
 11
-359.9999999999997
 21
549.0
  0
LINE
  8
1
  6
CONTINUOUS
 62
     7
 10
-359.9999999999997
 20
551.0
 11
-800.0000000000002
 21
551.0
  0
LINE
  8
1
  6
CONTINUOUS
 62
     7
 10
-814.9738052018204
 20
549.4975152755974
 11
-830.9250968719297
 21
544.7303054986845
  0
LINE
  8
1
  6
CONTINUOUS
 62
     7
 10
-830.3524048253588
 20
542.8140529527516
 11
-814.4011131552494
 21
547.5812627296646
  0
ARC
  8
1
  6
CONTINUOUS
 62
     7
 10
-832.5
 20
550.0
 40
5.500000000000072
 50
270.0
 51
286.6393236739898
  0
ARC
  8
1
  6
CONTINUOUS
 62
     7
 10
-832.5
 20
550.0
 40
5.50000000000006
 50
180.0000000000001
 51
270.0
  0
ARC
  8
1
  6
CONTINUOUS
 62
     7
 10
-832.5
 20
550.0
 40
7.500000000000062
 50
180.0000000000002
 51
286.6393236739898
  0
ARC
  8
1
  6
CONTINUOUS
 62
     7
 10
-348.4623470776054
 20
538.0
 40
10.00000000000001
 50
73.3606763260111
 51
90.0
  0
ARC
  8
1
  6
CONTINUOUS
 62
     7
 10
-348.4623470776054
 20
538.0
 40
11.99999999999996
 50
73.3606763260111
 51
90.00000000000001
  0
LINE
  8
1
  6
CONTINUOUS
 62
     7
 10
-349.9999999999999
 20
548.0
 11
-348.4623470776054
 21
548.0
  0
LINE
  8
1
  6
CONTINUOUS
 62
     7
 10
-348.4623470776054
 20
550.0
 11
-349.9999999999999
 21
550.0
  0
ARC
  8
1
  6
CONTINUOUS
 62
     7
 10
-327.5
 20
550.0
 40
5.500000000000107
 50
270.0
 51
338.6763137365024
  0
ARC
  8
1
  6
CONTINUOUS
 62
     7
 10
-327.5
 20
550.0
 40
5.50000000000006
 50
253.3606763260109
 51
270.0
  0
ARC
  8
1
  6
CONTINUOUS
 62
     7
 10
-327.5
 20
550.0
 40
7.500000000000006
 50
253.3606763260109
 51
344.5339900465796
  0
LINE
  8
1
  6
CONTINUOUS
 62
     7
 10
-345.5988868447505
 20
547.5812627296646
 11
-329.6475951746411
 21
542.8140529527516
  0
LINE
  8
1
  6
CONTINUOUS
 62
     7
 10
-329.0749031280702
 20
544.7303054986845
 11
-345.0261947981795
 21
549.4975152755974
  0
LINE
  8
1
  6
CONTINUOUS
 62
     7
 10
-349.9999999999999
 20
550.0
 11
-348.4623470776054
 21
550.0
  0
LINE
  8
1
  6
CONTINUOUS
 62
     7
 10
-348.4623470776054
 20
552.0
 11
-349.9999999999999
 21
552.0
  0
ARC
  8
1
  6
CONTINUOUS
 62
     7
 10
-348.4623470776054
 20
562.0
 40
9.999999999999998
 50
270.0
 51
286.6393236739889
  0
ARC
  8
1
  6
CONTINUOUS
 62
     7
 10
-348.4623470776054
 20
562.0
 40
12.00000000000001
 50
270.0
 51
286.6393236739889
  0
ARC
  8
1
  6
CONTINUOUS
 62
     7
 10
-327.5
 20
550.0
 40
5.500000000000039
 50
21.32368626349756
 51
106.6393236739892
  0
ARC
  8
1
  6
CONTINUOUS
 62
     7
 10
-327.5
 20
550.0
 40
7.500000000000069
 50
15.46600995342048
 51
90.0
  0
ARC
  8
1
  6
CONTINUOUS
 62
     7
 10
-327.5
 20
550.0
 40
7.500000000000062
 50
90.00000000000001
 51
106.6393236739892
  0
LINE
  8
1
  6
CONTINUOUS
 62
     7
 10
-345.0261947981795
 20
550.5024847244026
 11
-329.0749031280702
 21
555.2696945013156
  0
LINE
  8
1
  6
CONTINUOUS
 62
     7
 10
-329.6475951746411
 20
557.1859470472484
 11
-345.5988868447505
 21
552.4187372703356
  0
LINE
  8
1
  6
CONTINUOUS
 62
     7
 10
-297.5
 20
560.0
 11
-297.5
 21
552.0
  0
LINE
  8
1
  6
CONTINUOUS
 62
     7
 10
-297.5
 20
548.0
 11
-297.5
 21
540.0
  0
LINE
  8
1
  6
CONTINUOUS
 62
     7
 10
-292.5
 20
540.0
 11
-292.5
 21
548.0
  0
LINE
  8
1
  6
CONTINUOUS
 62
     7
 10
-292.5
 20
552.0
 11
-292.5
 21
560.0
  0
ENDBLK
  8
0
  0
ENDSEC
  0
SECTION
  2
ENTITIES
  0
INSERT
  8
1
  6
CONTINUOUS
 62
     7
  2
D_FRAME_VIEW_1484
 10
0.0
 20
0.0
 30
0.0
  0
TEXT
  8
1
  6
CONTINUOUS
 62
     7
 10
-517.8535231961987
 20
463.3284200325122
 40
3.0
  1
TY2-05FIP
  0
LINE
  8
1
  6
CONTINUOUS
 62
     2
 10
-517.7113636363636
 20
462.7704545454546
 11
-502.2886363636363
 21
462.7704545454546
  0
INSERT
  8
1
  6
CONTINUOUS
 62
     7
  2
D_FRAME_VIEW_1894
 10
0.0
 20
0.0
 30
0.0
  0
LINE
  8
1
  6
CENTER
 62
     1
 10
-291.0
 20
539.0
 11
-280.9999999999999
 21
539.0
  0
LINE
  8
1
  6
CENTER
 62
     1
 10
-291.0
 20
561.0
 11
-280.9999999999999
 21
561.0
  0
LINE
  8
1
  6
CENTER
 62
     1
 10
-285.9999999999999
 20
534.0
 11
-285.9999999999999
 21
544.0
  0
LINE
  8
1
  6
CENTER
 62
     1
 10
-285.9999999999999
 20
556.0
 11
-285.9999999999999
 21
566.0
  0
LINE
  8
1
  6
CENTER
 62
     1
 10
-309.0
 20
561.0
 11
-299.0
 21
561.0
  0
LINE
  8
1
  6
CENTER
 62
     1
 10
-304.0
 20
556.0
 11
-304.0
 21
566.0
  0
LINE
  8
1
  6
CENTER
 62
     1
 10
-304.0
 20
534.0
 11
-304.0
 21
544.0
  0
LINE
  8
1
  6
CENTER
 62
     1
 10
-309.0
 20
539.0
 11
-299.0
 21
539.0
  0
ENDSEC
  0
EOF
