  0
SECTION
  2
HEADER
  9
$ACADVER
  1
AC1004
  9
$INSBASE
 10
0.0
 20
0.0
  9
$EXTMIN
 10
-964.0000000000001
 20
107.7704545454545
  9
$EXTMAX
 10
-405.9999999999999
 20
281.6736505062824
  9
$LIMMIN
 10
0.0
 20
0.0
  9
$LIMMAX
 10
12.0
 20
9.0
  9
$ORTHOMODE
 70
     0
  9
$REGENMODE
 70
     1
  9
$FILLMODE
 70
     1
  9
$QTEXTMODE
 70
     0
  9
$DRAGMODE
 70
     2
  9
$LTSCALE
 40
1.0
  9
$OSMODE
 70
    37
  9
$ATTMODE
 70
     1
  9
$TEXTSIZE
 40
0.2
  9
$TRACEWID
 40
0.05
  9
$TEXTSTYLE
  7
STANDARD
  9
$CLAYER
  8
0
  9
$CELTYPE
  6
BYLAYER
  9
$CECOLOR
 62
   256
  9
$DIMSCALE
 40
1.0
  9
$DIMASZ
 40
3.0
  9
$DIMEXO
 40
0.0625
  9
$DIMDLI
 40
0.38
  9
$DIMRND
 40
0.0
  9
$DIMDLE
 40
0.0
  9
$DIMEXE
 40
1.5
  9
$DIMTP
 40
0.0
  9
$DIMTM
 40
0.0
  9
$DIMTXT
 40
3.0
  9
$DIMCEN
 40
0.09
  9
$DIMTSZ
 40
0.0
  9
$DIMTOL
 70
     0
  9
$DIMLIM
 70
     0
  9
$DIMTIH
 70
     1
  9
$DIMTOH
 70
     1
  9
$DIMSE1
 70
     0
  9
$DIMSE2
 70
     0
  9
$DIMTAD
 70
     1
  9
$DIMZIN
 70
     0
  9
$DIMBLK
  1

  9
$DIMASO
 70
     1
  9
$DIMSHO
 70
     1
  9
$DIMPOST
  1

  9
$DIMAPOST
  1

  9
$DIMALT
 70
     0
  9
$DIMALTD
 70
     2
  9
$DIMALTF
 40
25.4
  9
$DIMLFAC
 40
1.0
  9
$DIMTOFL
 70
     0
  9
$DIMTVP
 40
0.0
  9
$DIMTIX
 70
     0
  9
$DIMSOXD
 70
     0
  9
$DIMSAH
 70
     0
  9
$DIMBLK1
  1

  9
$DIMBLK2
  1

  9
$LUNITS
 70
     2
  9
$LUPREC
 70
     4
  9
$SKETCHINC
 40
0.1
  9
$FILLETRAD
 40
0.5
  9
$AUNITS
 70
     0
  9
$AUPREC
 70
     0
  9
$MENU
  1
.
  9
$ELEVATION
 40
0.0
  9
$THICKNESS
 40
0.0
  9
$LIMCHECK
 70
     0
  9
$CHAMFERA
 40
0.0
  9
$CHAMFERB
 40
0.0
  9
$SKPOLY
 70
     0
  9
$TDCREATE
 40
2459767.689294282
  9
$TDUPDATE
 40
2459767.689294491
  9
$TDINDWG
 40
0.0000000116
  9
$TDUSRTIMER
 40
0.0000000116
  9
$USRTIMER
 70
     1
  9
$ANGBASE
 50
0.0
  9
$ANGDIR
 70
     0
  9
$PDMODE
 70
     0
  9
$PDSIZE
 40
0.0
  9
$PLINEWID
 40
0.0
  9
$COORDS
 70
     1
  9
$SPLFRAME
 70
     0
  9
$SPLINETYPE
 70
     6
  9
$SPLINESEGS
 70
     8
  9
$ATTDIA
 70
     0
  9
$ATTREQ
 70
     1
  9
$SURFTAB1
 70
     6
  9
$SURFTAB2
 70
     6
  9
$SURFTYPE
 70
     6
  9
$SURFU
 70
     6
  9
$SURFV
 70
     6
  9
$UCSNAME
  2

  9
$UCSORG
 10
0.0
 20
0.0
 30
0.0
  9
$UCSXDIR
 10
1.0
 20
0.0
 30
0.0
  9
$UCSYDIR
 10
0.0
 20
1.0
 30
0.0
  9
$USERI1
 70
     0
  9
$USERI2
 70
     0
  9
$USERI3
 70
     0
  9
$USERI4
 70
     0
  9
$USERI5
 70
     0
  9
$USERR1
 40
0.0
  9
$USERR2
 40
0.0
  9
$USERR3
 40
0.0
  9
$USERR4
 40
0.0
  9
$USERR5
 40
0.0
  9
$WORLDVIEW
 70
     1
  0
ENDSEC
  0
SECTION
  2
TABLES
  0
TABLE
  2
LTYPE
 70
     2
  0
LTYPE
  2
CONTINUOUS
 70
     0
  3
Solid line
 72
    65
 73
     0
 40
0.0
  0
LTYPE
  2
CENTER
 70
     0
  3

 72
    65
 73
     0
 40
0.0
  0
ENDTAB
  0
TABLE
  2
LAYER
 70
     2
  0
LAYER
  2
0
 70
     0
 62
     7
  6
CONTINUOUS
  0
LAYER
  2
1
 70
     0
 62
     7
  6
CONTINUOUS
  0
ENDTAB
  0
TABLE
  2
STYLE
 70
     2
  0
STYLE
  2
STANDARD
 70
     0
 40
0.0
 41
1.0
 50
0.0
 71
     0
 42
0.2
  3
txt
  4

  0
STYLE
  2
ＭＳ_ゴシック
 70
     0
 40
0.0
 41
1.0
 50
0.0
 71
     0
 42
0.2
  3
ＭＳ ゴシック.shx
  4

  0
ENDTAB
  0
TABLE
  2
VIEW
 70
     0
  0
ENDTAB
  0
ENDSEC
  0
SECTION
  2
BLOCKS
  0
BLOCK
  8
0
  2
D_FRAME_VIEW_1484
 70
     0
 10
0.0
 20
0.0
  0
ARC
  8
1
  6
CONTINUOUS
 62
     7
 10
-424.0000000000001
 20
265.0000000000001
 40
8.99999999999998
 50
112.8853804761586
 51
167.1604115930957
  0
ARC
  8
1
  6
CONTINUOUS
 62
     7
 10
-424.0000000000001
 20
265.0000000000001
 40
9.000000000000002
 50
192.8395884069045
 51
247.1146195238415
  0
ARC
  8
1
  6
CONTINUOUS
 62
     7
 10
-424.0000000000001
 20
265.0000000000001
 40
9.000000000000023
 50
292.8853804761587
 51
347.1604115930956
  0
ARC
  8
1
  6
CONTINUOUS
 62
     7
 10
-424.0000000000001
 20
265.0000000000001
 40
8.999999999999996
 50
12.83958840690426
 51
67.11461952384141
  0
POLYLINE
  8
1
  6
CONTINUOUS
 62
     9
 66
     1
  0
VERTEX
  8
1
  6
CONTINUOUS
 62
     9
 10
-424.6773458864155
 20
267.0000000000001
  0
VERTEX
  8
1
  6
CONTINUOUS
 62
     9
 10
-424.7873088908638
 20
266.9615705608065
  0
VERTEX
  8
1
  6
CONTINUOUS
 62
     9
 10
-424.8930460787191
 20
266.8477590650227
  0
VERTEX
  8
1
  6
CONTINUOUS
 62
     9
 10
-424.9904940291503
 20
266.6629392246052
  0
VERTEX
  8
1
  6
CONTINUOUS
 62
     9
 10
-425.0759078720716
 20
266.4142135623732
  0
VERTEX
  8
1
  6
CONTINUOUS
 62
     9
 10
-425.1460052014003
 20
266.1111404660393
  0
VERTEX
  8
1
  6
CONTINUOUS
 62
     9
 10
-425.1980922160814
 20
265.7653668647303
  0
VERTEX
  8
1
  6
CONTINUOUS
 62
     9
 10
-425.2301672413512
 20
265.3901806440323
  0
VERTEX
  8
1
  6
CONTINUOUS
 62
     9
 10
-425.2409976519767
 20
265.0000000000001
  0
VERTEX
  8
1
  6
CONTINUOUS
 62
     9
 10
-425.2301672413512
 20
264.6098193559678
  0
VERTEX
  8
1
  6
CONTINUOUS
 62
     9
 10
-425.1980922160814
 20
264.2346331352699
  0
VERTEX
  8
1
  6
CONTINUOUS
 62
     9
 10
-425.1460052014003
 20
263.8888595339608
  0
VERTEX
  8
1
  6
CONTINUOUS
 62
     9
 10
-425.0759078720716
 20
263.585786437627
  0
VERTEX
  8
1
  6
CONTINUOUS
 62
     9
 10
-424.9904940291503
 20
263.3370607753949
  0
VERTEX
  8
1
  6
CONTINUOUS
 62
     9
 10
-424.8930460787191
 20
263.1522409349774
  0
VERTEX
  8
1
  6
CONTINUOUS
 62
     9
 10
-424.7873088908638
 20
263.0384294391936
  0
VERTEX
  8
1
  6
CONTINUOUS
 62
     9
 10
-424.6773458864155
 20
263.0
  0
SEQEND
  8
1
  6
CONTINUOUS
 62
     9
  0
POLYLINE
  8
1
  6
CONTINUOUS
 62
     7
 66
     1
  0
VERTEX
  8
1
  6
CONTINUOUS
 62
     7
 10
-425.4122063441048
 20
267.0000000000001
  0
VERTEX
  8
1
  6
CONTINUOUS
 62
     7
 10
-425.685964987848
 20
266.9615705608065
  0
VERTEX
  8
1
  6
CONTINUOUS
 62
     7
 10
-425.9492032404378
 20
266.8477590650227
  0
VERTEX
  8
1
  6
CONTINUOUS
 62
     7
 10
-426.1918050034528
 20
266.6629392246052
  0
VERTEX
  8
1
  6
CONTINUOUS
 62
     7
 10
-426.404447227193
 20
266.4142135623732
  0
VERTEX
  8
1
  6
CONTINUOUS
 62
     7
 10
-426.5789581902513
 20
266.1111404660393
  0
VERTEX
  8
1
  6
CONTINUOUS
 62
     7
 10
-426.7086315341841
 20
265.7653668647303
  0
VERTEX
  8
1
  6
CONTINUOUS
 62
     7
 10
-426.7884839851058
 20
265.3901806440323
  0
VERTEX
  8
1
  6
CONTINUOUS
 62
     7
 10
-426.8154468581092
 20
265.0000000000001
  0
VERTEX
  8
1
  6
CONTINUOUS
 62
     7
 10
-426.7884839851058
 20
264.6098193559678
  0
VERTEX
  8
1
  6
CONTINUOUS
 62
     7
 10
-426.7086315341841
 20
264.2346331352699
  0
VERTEX
  8
1
  6
CONTINUOUS
 62
     7
 10
-426.5789581902513
 20
263.8888595339608
  0
VERTEX
  8
1
  6
CONTINUOUS
 62
     7
 10
-426.404447227193
 20
263.585786437627
  0
VERTEX
  8
1
  6
CONTINUOUS
 62
     7
 10
-426.1918050034528
 20
263.3370607753949
  0
VERTEX
  8
1
  6
CONTINUOUS
 62
     7
 10
-425.9492032404378
 20
263.1522409349774
  0
VERTEX
  8
1
  6
CONTINUOUS
 62
     7
 10
-425.685964987848
 20
263.0384294391936
  0
VERTEX
  8
1
  6
CONTINUOUS
 62
     7
 10
-425.4122063441048
 20
263.0
  0
SEQEND
  8
1
  6
CONTINUOUS
 62
     7
  0
POLYLINE
  8
1
  6
CONTINUOUS
 62
     7
 66
     1
  0
VERTEX
  8
1
  6
CONTINUOUS
 62
     7
 10
-427.024903439617
 20
265.0000000000001
  0
VERTEX
  8
1
  6
CONTINUOUS
 62
     7
 10
-426.9979405666136
 20
264.6098193559678
  0
VERTEX
  8
1
  6
CONTINUOUS
 62
     7
 10
-426.9180881156918
 20
264.2346331352699
  0
VERTEX
  8
1
  6
CONTINUOUS
 62
     7
 10
-426.7884147717591
 20
263.8888595339608
  0
VERTEX
  8
1
  6
CONTINUOUS
 62
     7
 10
-426.6139038087008
 20
263.585786437627
  0
VERTEX
  8
1
  6
CONTINUOUS
 62
     7
 10
-426.4012615849605
 20
263.3370607753949
  0
VERTEX
  8
1
  6
CONTINUOUS
 62
     7
 10
-426.1586598219455
 20
263.1522409349774
  0
VERTEX
  8
1
  6
CONTINUOUS
 62
     7
 10
-425.8954215693558
 20
263.0384294391936
  0
VERTEX
  8
1
  6
CONTINUOUS
 62
     7
 10
-425.6216629256126
 20
263.0
  0
SEQEND
  8
1
  6
CONTINUOUS
 62
     7
  0
POLYLINE
  8
1
  6
CONTINUOUS
 62
     7
 66
     1
  0
VERTEX
  8
1
  6
CONTINUOUS
 62
     7
 10
-438.1182677714469
 20
264.0000000000001
  0
VERTEX
  8
1
  6
CONTINUOUS
 62
     7
 10
-438.049005916531
 20
263.6617387872823
  0
VERTEX
  8
1
  6
CONTINUOUS
 62
     7
 10
-437.9614372188084
 20
263.3819660112501
  0
VERTEX
  8
1
  6
CONTINUOUS
 62
     7
 10
-437.8593888505711
 20
263.1729090847148
  0
VERTEX
  8
1
  6
CONTINUOUS
 62
     7
 10
-437.7473208151932
 20
263.0437047985324
  0
VERTEX
  8
1
  6
CONTINUOUS
 62
     7
 10
-437.630131023583
 20
263.0
  0
SEQEND
  8
1
  6
CONTINUOUS
 62
     7
  0
POLYLINE
  8
1
  6
CONTINUOUS
 62
     7
 66
     1
  0
VERTEX
  8
1
  6
CONTINUOUS
 62
     7
 10
-425.6216629256126
 20
267.0000000000001
  0
VERTEX
  8
1
  6
CONTINUOUS
 62
     7
 10
-425.8954215693558
 20
266.9615705608065
  0
VERTEX
  8
1
  6
CONTINUOUS
 62
     7
 10
-426.1586598219455
 20
266.8477590650227
  0
VERTEX
  8
1
  6
CONTINUOUS
 62
     7
 10
-426.4012615849605
 20
266.6629392246052
  0
VERTEX
  8
1
  6
CONTINUOUS
 62
     7
 10
-426.6139038087008
 20
266.4142135623732
  0
VERTEX
  8
1
  6
CONTINUOUS
 62
     7
 10
-426.7884147717591
 20
266.1111404660393
  0
VERTEX
  8
1
  6
CONTINUOUS
 62
     7
 10
-426.9180881156918
 20
265.7653668647303
  0
VERTEX
  8
1
  6
CONTINUOUS
 62
     7
 10
-426.9979405666136
 20
265.3901806440323
  0
VERTEX
  8
1
  6
CONTINUOUS
 62
     7
 10
-427.024903439617
 20
265.0000000000001
  0
SEQEND
  8
1
  6
CONTINUOUS
 62
     7
  0
LINE
  8
1
  6
CONTINUOUS
 62
     7
 10
-425.6216629256126
 20
263.0
 11
-425.5169346348746
 21
263.0055778885836
  0
LINE
  8
1
  6
CONTINUOUS
 62
     7
 10
-425.5169346348746
 20
266.9944221114166
 11
-425.6216629256126
 21
267.0000000000001
  0
LINE
  8
1
  6
CONTINUOUS
 62
     7
 10
-436.6706654730874
 20
262.9999999999999
 11
-436.6909326750051
 21
263.0049704217656
  0
ARC
  8
1
  6
CONTINUOUS
 62
     7
 10
-436.2878628287095
 20
269.822128694979
 40
2.880442765882294
 50
264.3637419869594
 51
281.548620357842
  0
POLYLINE
  8
1
  6
CONTINUOUS
 62
     7
 66
     1
  0
VERTEX
  8
1
  6
CONTINUOUS
 62
     7
 10
-436.5707588371749
 20
266.9556115790493
  0
VERTEX
  8
1
  6
CONTINUOUS
 62
     7
 10
-436.6699151119503
 20
266.981332978189
  0
VERTEX
  8
1
  6
CONTINUOUS
 62
     7
 10
-436.6909326750089
 20
266.9950297069889
  0
SEQEND
  8
1
  6
CONTINUOUS
 62
     7
  0
LINE
  8
1
  6
CONTINUOUS
 62
     7
 10
-438.1182677714469
 20
264.0000000000001
 11
-432.8412071600084
 21
264.0000000000001
  0
LINE
  8
1
  6
CONTINUOUS
 62
     7
 10
-432.8564275338524
 20
264.1
 11
-432.8412071600084
 21
264.0000000000001
  0
POLYLINE
  8
1
  6
CONTINUOUS
 62
     7
 66
     1
  0
VERTEX
  8
1
  6
CONTINUOUS
 62
     7
 10
-432.9167221777056
 20
265.0000000000001
  0
VERTEX
  8
1
  6
CONTINUOUS
 62
     7
 10
-432.90144138292
 20
264.5374603908304
  0
VERTEX
  8
1
  6
CONTINUOUS
 62
     7
 10
-432.8564275338524
 20
264.1000000000001
  0
SEQEND
  8
1
  6
CONTINUOUS
 62
     7
  0
POLYLINE
  8
1
  6
CONTINUOUS
 62
     7
 66
     1
  0
VERTEX
  8
1
  6
CONTINUOUS
 62
     7
 10
-432.8564275338524
 20
265.9000000000001
  0
VERTEX
  8
1
  6
CONTINUOUS
 62
     7
 10
-432.90144138292
 20
265.4625396091697
  0
VERTEX
  8
1
  6
CONTINUOUS
 62
     7
 10
-432.9167221777057
 20
265.0000000000001
  0
SEQEND
  8
1
  6
CONTINUOUS
 62
     7
  0
LINE
  8
1
  6
CONTINUOUS
 62
     7
 10
-432.8412071600084
 20
266.0000000000001
 11
-432.8564275338525
 21
265.9000000000001
  0
LINE
  8
1
  6
CONTINUOUS
 62
     7
 10
-438.1182677714469
 20
266.0000000000001
 11
-432.8412071600084
 21
266.0000000000001
  0
POLYLINE
  8
1
  6
CONTINUOUS
 62
     7
 66
     1
  0
VERTEX
  8
1
  6
CONTINUOUS
 62
     7
 10
-437.630131023583
 20
267.0000000000001
  0
VERTEX
  8
1
  6
CONTINUOUS
 62
     7
 10
-437.7473208151932
 20
266.9562952014677
  0
VERTEX
  8
1
  6
CONTINUOUS
 62
     7
 10
-437.8593888505711
 20
266.8270909152853
  0
VERTEX
  8
1
  6
CONTINUOUS
 62
     7
 10
-437.9614372188084
 20
266.61803398875
  0
VERTEX
  8
1
  6
CONTINUOUS
 62
     7
 10
-438.049005916531
 20
266.3382612127178
  0
VERTEX
  8
1
  6
CONTINUOUS
 62
     7
 10
-438.1182677714469
 20
266.0000000000001
  0
SEQEND
  8
1
  6
CONTINUOUS
 62
     7
  0
LINE
  8
1
  6
CONTINUOUS
 62
     7
 10
-436.1909326750089
 20
263.0583881806469
 11
-435.7111998949529
 21
262.9999999999999
  0
LINE
  8
1
  6
CONTINUOUS
 62
     7
 10
-436.6706654578669
 20
267.0000000000001
 11
-436.1909247024485
 21
266.9416112642099
  0
LINE
  8
1
  6
CONTINUOUS
 62
     7
 10
-432.9167221777056
 20
265.0000000000001
 11
-432.9167221777056
 21
265.9000000000001
  0
LINE
  8
1
  6
CONTINUOUS
 62
     7
 10
-432.9167221777056
 20
265.9
 11
-432.8564275338525
 21
265.9
  0
LINE
  8
1
  6
CONTINUOUS
 62
     7
 10
-432.9167221777056
 20
264.1000000000001
 11
-432.8564275338525
 21
264.1000000000001
  0
LINE
  8
1
  6
CONTINUOUS
 62
     7
 10
-432.9167221777056
 20
264.1000000000001
 11
-432.9167221777056
 21
265.0000000000001
  0
LINE
  8
1
  6
CONTINUOUS
 62
     7
 10
-438.1022924079506
 20
264.1000000000001
 11
-432.9167221777056
 21
264.1000000000001
  0
LINE
  8
1
  6
CONTINUOUS
 62
     7
 10
-438.1022924079506
 20
264.1000000000001
 11
-438.1022924079506
 21
265.0000000000001
  0
LINE
  8
1
  6
CONTINUOUS
 62
     7
 10
-438.1022924079506
 20
265.0000000000001
 11
-438.1022924079506
 21
265.9000000000001
  0
LINE
  8
1
  6
CONTINUOUS
 62
     7
 10
-438.1022924079506
 20
265.9
 11
-432.9167221777056
 21
265.9
  0
POLYLINE
  8
1
  6
CONTINUOUS
 62
     9
 66
     1
  0
VERTEX
  8
1
  6
CONTINUOUS
 62
     9
 10
-442.8693499992266
 20
265.0000000000001
  0
VERTEX
  8
1
  6
CONTINUOUS
 62
     9
 10
-442.880267290513
 20
265.3901806440323
  0
VERTEX
  8
1
  6
CONTINUOUS
 62
     9
 10
-442.9125996189903
 20
265.7653668647303
  0
VERTEX
  8
1
  6
CONTINUOUS
 62
     9
 10
-442.9651044714074
 20
266.1111404660393
  0
VERTEX
  8
1
  6
CONTINUOUS
 62
     9
 10
-443.035764115731
 20
266.4142135623732
  0
VERTEX
  8
1
  6
CONTINUOUS
 62
     9
 10
-443.1218631414561
 20
266.6629392246052
  0
VERTEX
  8
1
  6
CONTINUOUS
 62
     9
 10
-443.220092811309
 20
266.8477590650226
  0
VERTEX
  8
1
  6
CONTINUOUS
 62
     9
 10
-443.326678214165
 20
266.9615705608065
  0
VERTEX
  8
1
  6
CONTINUOUS
 62
     9
 10
-443.4375233327662
 20
267.0000000000001
  0
SEQEND
  8
1
  6
CONTINUOUS
 62
     9
  0
POLYLINE
  8
1
  6
CONTINUOUS
 62
     9
 66
     1
  0
VERTEX
  8
1
  6
CONTINUOUS
 62
     9
 10
-443.4375233327662
 20
263.0000000000001
  0
VERTEX
  8
1
  6
CONTINUOUS
 62
     9
 10
-443.326678214165
 20
263.0384294391936
  0
VERTEX
  8
1
  6
CONTINUOUS
 62
     9
 10
-443.220092811309
 20
263.1522409349775
  0
VERTEX
  8
1
  6
CONTINUOUS
 62
     9
 10
-443.1218631414561
 20
263.3370607753949
  0
VERTEX
  8
1
  6
CONTINUOUS
 62
     9
 10
-443.035764115731
 20
263.585786437627
  0
VERTEX
  8
1
  6
CONTINUOUS
 62
     9
 10
-442.9651044714074
 20
263.8888595339608
  0
VERTEX
  8
1
  6
CONTINUOUS
 62
     9
 10
-442.9125996189903
 20
264.2346331352699
  0
VERTEX
  8
1
  6
CONTINUOUS
 62
     9
 10
-442.880267290513
 20
264.6098193559678
  0
VERTEX
  8
1
  6
CONTINUOUS
 62
     9
 10
-442.8693499992266
 20
265.0000000000001
  0
SEQEND
  8
1
  6
CONTINUOUS
 62
     9
  0
POLYLINE
  8
1
  6
CONTINUOUS
 62
     7
 66
     1
  0
VERTEX
  8
1
  6
CONTINUOUS
 62
     7
 10
-438.1931662708872
 20
264.1
  0
VERTEX
  8
1
  6
CONTINUOUS
 62
     7
 10
-438.1253230581405
 20
264.5374603908304
  0
VERTEX
  8
1
  6
CONTINUOUS
 62
     7
 10
-438.1022924079506
 20
265.0000000000001
  0
SEQEND
  8
1
  6
CONTINUOUS
 62
     7
  0
LINE
  8
1
  6
CONTINUOUS
 62
     7
 10
-438.193166270887
 20
264.1000000000001
 11
-438.1022924079506
 21
264.1000000000001
  0
POLYLINE
  8
1
  6
CONTINUOUS
 62
     7
 66
     1
  0
VERTEX
  8
1
  6
CONTINUOUS
 62
     7
 10
-438.1022924079506
 20
265.0000000000001
  0
VERTEX
  8
1
  6
CONTINUOUS
 62
     7
 10
-438.1253230581405
 20
265.4625396091697
  0
VERTEX
  8
1
  6
CONTINUOUS
 62
     7
 10
-438.1931662708872
 20
265.9000000000001
  0
SEQEND
  8
1
  6
CONTINUOUS
 62
     7
  0
LINE
  8
1
  6
CONTINUOUS
 62
     7
 10
-438.1022924079506
 20
265.9
 11
-438.1931662708871
 21
265.9
  0
LINE
  8
1
  6
CONTINUOUS
 62
     7
 10
-438.1931662708872
 20
265.9000000000001
 11
-438.246420724937
 21
266.1145127320934
  0
LINE
  8
1
  6
CONTINUOUS
 62
     7
 10
-438.246420724937
 20
263.8854872679067
 11
-438.1931662708872
 21
264.1
  0
POLYLINE
  8
1
  6
CONTINUOUS
 62
     9
 66
     1
  0
VERTEX
  8
1
  6
CONTINUOUS
 62
     9
 10
-438.2464207249369
 20
266.1145127320934
  0
VERTEX
  8
1
  6
CONTINUOUS
 62
     9
 10
-438.2988518808944
 20
265.7678659008637
  0
VERTEX
  8
1
  6
CONTINUOUS
 62
     9
 10
-438.3311446841132
 20
265.3915074081399
  0
VERTEX
  8
1
  6
CONTINUOUS
 62
     9
 10
-438.3420496028237
 20
265.0000000000001
  0
VERTEX
  8
1
  6
CONTINUOUS
 62
     9
 10
-438.3311446841132
 20
264.6084925918602
  0
VERTEX
  8
1
  6
CONTINUOUS
 62
     9
 10
-438.2988518808944
 20
264.2321340991364
  0
VERTEX
  8
1
  6
CONTINUOUS
 62
     9
 10
-438.2464207249369
 20
263.8854872679067
  0
SEQEND
  8
1
  6
CONTINUOUS
 62
     9
  0
POLYLINE
  8
1
  6
CONTINUOUS
 62
     7
 66
     1
  0
VERTEX
  8
1
  6
CONTINUOUS
 62
     7
 10
-438.9216173702413
 20
266.9999986727899
  0
VERTEX
  8
1
  6
CONTINUOUS
 62
     7
 10
-438.7935824117694
 20
266.9732652938062
  0
VERTEX
  8
1
  6
CONTINUOUS
 62
     7
 10
-438.6988298250841
 20
266.9191436699216
  0
VERTEX
  8
1
  6
CONTINUOUS
 62
     7
 10
-438.5898079869625
 20
266.8183137941909
  0
VERTEX
  8
1
  6
CONTINUOUS
 62
     7
 10
-438.5188968269243
 20
266.7281137857639
  0
SEQEND
  8
1
  6
CONTINUOUS
 62
     7
  0
ARC
  8
1
  6
CONTINUOUS
 62
     7
 10
-440.2130015881422
 20
265.6085299825818
 40
2.030630156953494
 50
14.42871230610376
 51
33.45953817980211
  0
ARC
  8
1
  6
CONTINUOUS
 62
     7
 10
-440.2665157685724
 20
264.4205124800599
 40
2.089745430180479
 50
325.5977711545764
 51
345.1657231028699
  0
POLYLINE
  8
1
  6
CONTINUOUS
 62
     7
 66
     1
  0
VERTEX
  8
1
  6
CONTINUOUS
 62
     7
 10
-438.5422845350733
 20
263.2398081917698
  0
VERTEX
  8
1
  6
CONTINUOUS
 62
     7
 10
-438.6236464434298
 20
263.1457220840126
  0
VERTEX
  8
1
  6
CONTINUOUS
 62
     7
 10
-438.7308081756082
 20
263.059244754014
  0
VERTEX
  8
1
  6
CONTINUOUS
 62
     7
 10
-438.8426818905178
 20
263.0102605937375
  0
VERTEX
  8
1
  6
CONTINUOUS
 62
     7
 10
-438.9216122328232
 20
263.0000013422926
  0
SEQEND
  8
1
  6
CONTINUOUS
 62
     7
  0
LINE
  8
1
  6
CONTINUOUS
 62
     7
 10
-436.6909326750089
 20
266.9950297069889
 11
-436.6706654578669
 21
267.0000000000001
  0
LINE
  8
1
  6
CONTINUOUS
 62
     7
 10
-436.6909326750051
 20
263.0049704217656
 11
-436.1909326750089
 21
263.0583881806469
  0
LINE
  8
1
  6
CONTINUOUS
 62
     7
 10
-436.1908871841038
 20
263.058391347891
 11
-436.6706654730874
 21
262.9999999999999
  0
LINE
  8
1
  6
CONTINUOUS
 62
     9
 10
-437.7783978372624
 20
263.0
 11
-437.7042644304254
 21
263.0173738723748
  0
LINE
  8
1
  6
CONTINUOUS
 62
     9
 10
-437.2902610893985
 20
264.0000000000001
 11
-437.2750407155545
 21
264.1000000000001
  0
LINE
  8
1
  6
CONTINUOUS
 62
     9
 10
-437.2750407155545
 20
265.9
 11
-437.2902610893985
 21
266.0000000000001
  0
LINE
  8
1
  6
CONTINUOUS
 62
     9
 10
-437.7042644304254
 20
266.9826261276253
 11
-437.7783978372624
 21
267.0000000000001
  0
LINE
  8
1
  6
CONTINUOUS
 62
     7
 10
-924.0000000000002
 20
267.25
 11
-924.0000000000002
 21
265.0
  0
LINE
  8
1
  6
CONTINUOUS
 62
     7
 10
-924.5000000000003
 20
262.2500000000001
 11
-924.5000000000003
 21
265.0
  0
LINE
  8
1
  6
CONTINUOUS
 62
     7
 10
-924.0000000000002
 20
265.0
 11
-924.0000000000002
 21
262.7500000000001
  0
LINE
  8
1
  6
CONTINUOUS
 62
     7
 10
-924.5000000000003
 20
265.0
 11
-924.5000000000003
 21
267.75
  0
LINE
  8
1
  6
CONTINUOUS
 62
     7
 10
-933.5000000000003
 20
267.75
 11
-933.5000000000003
 21
265.0
  0
LINE
  8
1
  6
CONTINUOUS
 62
     7
 10
-934.0000000000002
 20
262.75
 11
-934.0000000000002
 21
264.9999999999999
  0
LINE
  8
1
  6
CONTINUOUS
 62
     7
 10
-933.5000000000003
 20
265.0
 11
-933.5000000000003
 21
262.2500000000001
  0
LINE
  8
1
  6
CONTINUOUS
 62
     7
 10
-934.0000000000002
 20
265.0
 11
-934.0000000000002
 21
267.25
  0
LINE
  8
1
  6
CONTINUOUS
 62
     7
 10
-483.4999999999997
 20
267.7500000000001
 11
-483.4999999999997
 21
262.2500000000001
  0
LINE
  8
1
  6
CONTINUOUS
 62
     7
 10
-474.4999999999997
 20
262.2500000000001
 11
-474.4999999999997
 21
267.7500000000001
  0
LINE
  8
1
  6
CONTINUOUS
 62
     7
 10
-483.9999999999997
 20
262.7500000000001
 11
-483.9999999999997
 21
267.2500000000001
  0
LINE
  8
1
  6
CONTINUOUS
 62
     7
 10
-473.9999999999997
 20
267.2500000000001
 11
-473.9999999999997
 21
262.7500000000001
  0
ARC
  8
1
  6
CONTINUOUS
 62
     9
 10
-424.0000000000001
 20
265.0000000000001
 40
6.865004311684557
 50
196.937757572553
 51
239.4084658944041
  0
ARC
  8
1
  6
CONTINUOUS
 62
     9
 10
-424.0000000000001
 20
265.0000000000001
 40
6.865004311684537
 50
120.5915341056011
 51
163.0622424274472
  0
ARC
  8
1
  6
CONTINUOUS
 62
     9
 10
-424.0000000000001
 20
265.0000000000001
 40
6.865004311684587
 50
16.93775757255275
 51
59.40846589440405
  0
ARC
  8
1
  6
CONTINUOUS
 62
     9
 10
-424.0000000000001
 20
265.0000000000001
 40
6.865004311684601
 50
300.5915341056011
 51
343.062242427447
  0
ARC
  8
1
  6
CONTINUOUS
 62
     7
 10
-424.0000000000001
 20
265.0000000000001
 40
7.475922207169559
 50
117.9155510220696
 51
164.482926028156
  0
ARC
  8
1
  6
CONTINUOUS
 62
     7
 10
-424.0000000000001
 20
265.0000000000001
 40
7.47592220716955
 50
195.5170739718444
 51
242.0844489779304
  0
ARC
  8
1
  6
CONTINUOUS
 62
     7
 10
-424.0000000000001
 20
265.0000000000001
 40
7.475922207169611
 50
297.9155510220696
 51
344.4829260281556
  0
ARC
  8
1
  6
CONTINUOUS
 62
     7
 10
-424.0000000000001
 20
265.0000000000001
 40
7.475922207169591
 50
15.51707397184401
 51
62.08444897793042
  0
LINE
  8
1
  6
CONTINUOUS
 62
     7
 10
-406.0
 20
271.5000000000001
 11
-406.0
 21
258.5000000000001
  0
LINE
  8
1
  6
CONTINUOUS
 62
     9
 10
-417.7750502010056
 20
258.5000000000001
 11
-406.0
 21
258.5000000000001
  0
LINE
  8
1
  6
CONTINUOUS
 62
     9
 10
-417.7750502010056
 20
271.5000000000001
 11
-406.0
 21
271.5000000000001
  0
LINE
  8
1
  6
CONTINUOUS
 62
     9
 10
-442.0
 20
256.6206147584283
 11
-427.5
 21
256.6206147584283
  0
LINE
  8
1
  6
CONTINUOUS
 62
     9
 10
-420.5
 20
256.6206147584283
 11
-406.0
 21
256.6206147584283
  0
LINE
  8
1
  6
CONTINUOUS
 62
     9
 10
-442.0
 20
258.5000000000001
 11
-430.2249497989944
 21
258.5000000000001
  0
LINE
  8
1
  6
CONTINUOUS
 62
     7
 10
-442.0
 20
258.5000000000001
 11
-442.0
 21
256.6206147584282
  0
LINE
  8
1
  6
CONTINUOUS
 62
     7
 10
-406.0
 20
258.5000000000001
 11
-406.0
 21
256.6206147584282
  0
LINE
  8
1
  6
CONTINUOUS
 62
     9
 10
-442.0
 20
271.5
 11
-430.2249497989944
 21
271.5
  0
LINE
  8
1
  6
CONTINUOUS
 62
     7
 10
-442.0
 20
271.5
 11
-442.0
 21
267.0
  0
LINE
  8
1
  6
CONTINUOUS
 62
     7
 10
-442.0
 20
263.0
 11
-442.0
 21
258.5000000000001
  0
LINE
  8
1
  6
CONTINUOUS
 62
     9
 10
-442.0
 20
273.3793852415719
 11
-427.5
 21
273.3793852415719
  0
LINE
  8
1
  6
CONTINUOUS
 62
     9
 10
-420.5
 20
273.3793852415719
 11
-406.0
 21
273.3793852415719
  0
LINE
  8
1
  6
CONTINUOUS
 62
     7
 10
-442.0
 20
271.5
 11
-442.0
 21
273.3793852415719
  0
LINE
  8
1
  6
CONTINUOUS
 62
     7
 10
-406.0
 20
271.5000000000001
 11
-406.0
 21
273.3793852415719
  0
POLYLINE
  8
1
  6
CONTINUOUS
 62
     7
 66
     1
  0
VERTEX
  8
1
  6
CONTINUOUS
 62
     7
 10
-434.5
 20
254.8828764667649
  0
VERTEX
  8
1
  6
CONTINUOUS
 62
     7
 10
-434.5975451610081
 20
254.8795905561896
  0
VERTEX
  8
1
  6
CONTINUOUS
 62
     7
 10
-434.6913417161826
 20
254.8698591001646
  0
VERTEX
  8
1
  6
CONTINUOUS
 62
     7
 10
-434.7777851165098
 20
254.8540560730874
  0
VERTEX
  8
1
  6
CONTINUOUS
 62
     7
 10
-434.8535533905933
 20
254.832788776426
  0
VERTEX
  8
1
  6
CONTINUOUS
 62
     7
 10
-434.9157348061513
 20
254.8068745004645
  0
VERTEX
  8
1
  6
CONTINUOUS
 62
     7
 10
-434.9619397662557
 20
254.777309116295
  0
VERTEX
  8
1
  6
CONTINUOUS
 62
     7
 10
-434.9903926402017
 20
254.7452288050507
  0
VERTEX
  8
1
  6
CONTINUOUS
 62
     7
 10
-435.0000000000001
 20
254.711866395102
  0
SEQEND
  8
1
  6
CONTINUOUS
 62
     7
  0
LINE
  8
1
  6
CONTINUOUS
 62
     7
 10
-435.0000000000001
 20
254.7118663951021
 11
-435.0000000000001
 21
254.0278261084508
  0
LINE
  8
1
  6
CONTINUOUS
 62
     7
 10
-442.0
 20
254.0278261084507
 11
-435.0000000000001
 21
254.0278261084507
  0
LINE
  8
1
  6
CONTINUOUS
 62
     7
 10
-406.0
 20
254.0278261084507
 11
-413.0
 21
254.0278261084507
  0
LINE
  8
1
  6
CONTINUOUS
 62
     7
 10
-413.0
 20
254.7118663951021
 11
-413.0
 21
254.0278261084508
  0
POLYLINE
  8
1
  6
CONTINUOUS
 62
     7
 66
     1
  0
VERTEX
  8
1
  6
CONTINUOUS
 62
     7
 10
-413.0
 20
254.711866395102
  0
VERTEX
  8
1
  6
CONTINUOUS
 62
     7
 10
-413.0096073597984
 20
254.7452288050507
  0
VERTEX
  8
1
  6
CONTINUOUS
 62
     7
 10
-413.0380602337444
 20
254.777309116295
  0
VERTEX
  8
1
  6
CONTINUOUS
 62
     7
 10
-413.0842651938487
 20
254.8068745004644
  0
VERTEX
  8
1
  6
CONTINUOUS
 62
     7
 10
-413.1464466094067
 20
254.832788776426
  0
VERTEX
  8
1
  6
CONTINUOUS
 62
     7
 10
-413.2222148834902
 20
254.8540560730873
  0
VERTEX
  8
1
  6
CONTINUOUS
 62
     7
 10
-413.3086582838174
 20
254.8698591001646
  0
VERTEX
  8
1
  6
CONTINUOUS
 62
     7
 10
-413.4024548389919
 20
254.8795905561896
  0
VERTEX
  8
1
  6
CONTINUOUS
 62
     7
 10
-413.4999999999999
 20
254.8828764667648
  0
SEQEND
  8
1
  6
CONTINUOUS
 62
     7
  0
LINE
  8
1
  6
CONTINUOUS
 62
     7
 10
-413.4999999999999
 20
254.8828764667648
 11
-420.5
 21
254.8828764667648
  0
LINE
  8
1
  6
CONTINUOUS
 62
     7
 10
-427.5
 20
254.8828764667648
 11
-434.5
 21
254.8828764667648
  0
LINE
  8
1
  6
CONTINUOUS
 62
     7
 10
-442.0
 20
256.6206147584283
 11
-442.0
 21
254.0278261084507
  0
LINE
  8
1
  6
CONTINUOUS
 62
     7
 10
-406.0
 20
256.6206147584283
 11
-406.0
 21
254.0278261084507
  0
POLYLINE
  8
1
  6
CONTINUOUS
 62
     7
 66
     1
  0
VERTEX
  8
1
  6
CONTINUOUS
 62
     7
 10
-413.4999999999999
 20
275.1171235332353
  0
VERTEX
  8
1
  6
CONTINUOUS
 62
     7
 10
-413.4024548389919
 20
275.1204094438105
  0
VERTEX
  8
1
  6
CONTINUOUS
 62
     7
 10
-413.3086582838174
 20
275.1301408998355
  0
VERTEX
  8
1
  6
CONTINUOUS
 62
     7
 10
-413.2222148834902
 20
275.1459439269128
  0
VERTEX
  8
1
  6
CONTINUOUS
 62
     7
 10
-413.1464466094067
 20
275.1672112235741
  0
VERTEX
  8
1
  6
CONTINUOUS
 62
     7
 10
-413.0842651938487
 20
275.1931254995357
  0
VERTEX
  8
1
  6
CONTINUOUS
 62
     7
 10
-413.0380602337444
 20
275.2226908837051
  0
VERTEX
  8
1
  6
CONTINUOUS
 62
     7
 10
-413.0096073597984
 20
275.2547711949493
  0
VERTEX
  8
1
  6
CONTINUOUS
 62
     7
 10
-413.0
 20
275.2881336048981
  0
SEQEND
  8
1
  6
CONTINUOUS
 62
     7
  0
LINE
  8
1
  6
CONTINUOUS
 62
     7
 10
-413.0
 20
275.2881336048981
 11
-413.0
 21
275.9721738915493
  0
LINE
  8
1
  6
CONTINUOUS
 62
     7
 10
-406.0
 20
275.9721738915494
 11
-413.0
 21
275.9721738915494
  0
LINE
  8
1
  6
CONTINUOUS
 62
     7
 10
-442.0
 20
275.9721738915494
 11
-435.0000000000001
 21
275.9721738915494
  0
LINE
  8
1
  6
CONTINUOUS
 62
     7
 10
-435.0000000000001
 20
275.2881336048981
 11
-435.0000000000001
 21
275.9721738915493
  0
POLYLINE
  8
1
  6
CONTINUOUS
 62
     7
 66
     1
  0
VERTEX
  8
1
  6
CONTINUOUS
 62
     7
 10
-435.0000000000001
 20
275.2881336048981
  0
VERTEX
  8
1
  6
CONTINUOUS
 62
     7
 10
-434.9903926402017
 20
275.2547711949493
  0
VERTEX
  8
1
  6
CONTINUOUS
 62
     7
 10
-434.9619397662557
 20
275.2226908837051
  0
VERTEX
  8
1
  6
CONTINUOUS
 62
     7
 10
-434.9157348061513
 20
275.1931254995357
  0
VERTEX
  8
1
  6
CONTINUOUS
 62
     7
 10
-434.8535533905933
 20
275.167211223574
  0
VERTEX
  8
1
  6
CONTINUOUS
 62
     7
 10
-434.7777851165098
 20
275.1459439269127
  0
VERTEX
  8
1
  6
CONTINUOUS
 62
     7
 10
-434.6913417161826
 20
275.1301408998355
  0
VERTEX
  8
1
  6
CONTINUOUS
 62
     7
 10
-434.5975451610081
 20
275.1204094438104
  0
VERTEX
  8
1
  6
CONTINUOUS
 62
     7
 10
-434.5
 20
275.1171235332352
  0
SEQEND
  8
1
  6
CONTINUOUS
 62
     7
  0
LINE
  8
1
  6
CONTINUOUS
 62
     7
 10
-413.4999999999999
 20
275.1171235332353
 11
-420.5
 21
275.1171235332353
  0
LINE
  8
1
  6
CONTINUOUS
 62
     7
 10
-427.5
 20
275.1171235332353
 11
-434.5
 21
275.1171235332353
  0
LINE
  8
1
  6
CONTINUOUS
 62
     7
 10
-442.0
 20
273.3793852415719
 11
-442.0
 21
275.9721738915494
  0
LINE
  8
1
  6
CONTINUOUS
 62
     7
 10
-406.0
 20
273.3793852415719
 11
-406.0
 21
275.9721738915494
  0
POLYLINE
  8
1
  6
CONTINUOUS
 62
     7
 66
     1
  0
VERTEX
  8
1
  6
CONTINUOUS
 62
     7
 10
-440.0000000000001
 20
281.6736505062824
  0
VERTEX
  8
1
  6
CONTINUOUS
 62
     7
 10
-440.3901806440323
 20
281.6375386458513
  0
VERTEX
  8
1
  6
CONTINUOUS
 62
     7
 10
-440.7653668647303
 20
281.5305908231026
  0
VERTEX
  8
1
  6
CONTINUOUS
 62
     7
 10
-441.1111404660393
 20
281.3569169828874
  0
VERTEX
  8
1
  6
CONTINUOUS
 62
     7
 10
-441.4142135623732
 20
281.123191313488
  0
VERTEX
  8
1
  6
CONTINUOUS
 62
     7
 10
-441.6629392246052
 20
280.8383957613042
  0
VERTEX
  8
1
  6
CONTINUOUS
 62
     7
 10
-441.8477590650226
 20
280.5134748596916
  0
VERTEX
  8
1
  6
CONTINUOUS
 62
     7
 10
-441.9615705608065
 20
280.1609151366812
  0
VERTEX
  8
1
  6
CONTINUOUS
 62
     7
 10
-442.0000000000001
 20
279.7942652647106
  0
SEQEND
  8
1
  6
CONTINUOUS
 62
     7
  0
LINE
  8
1
  6
CONTINUOUS
 62
     7
 10
-440.0000000000001
 20
281.6736505062823
 11
-408.0
 21
281.6736505062823
  0
POLYLINE
  8
1
  6
CONTINUOUS
 62
     7
 66
     1
  0
VERTEX
  8
1
  6
CONTINUOUS
 62
     7
 10
-406.0
 20
279.7942652647106
  0
VERTEX
  8
1
  6
CONTINUOUS
 62
     7
 10
-406.0384294391935
 20
280.1609151366812
  0
VERTEX
  8
1
  6
CONTINUOUS
 62
     7
 10
-406.1522409349774
 20
280.5134748596916
  0
VERTEX
  8
1
  6
CONTINUOUS
 62
     7
 10
-406.3370607753949
 20
280.8383957613042
  0
VERTEX
  8
1
  6
CONTINUOUS
 62
     7
 10
-406.5857864376269
 20
281.123191313488
  0
VERTEX
  8
1
  6
CONTINUOUS
 62
     7
 10
-406.8888595339608
 20
281.3569169828874
  0
VERTEX
  8
1
  6
CONTINUOUS
 62
     7
 10
-407.2346331352698
 20
281.5305908231026
  0
VERTEX
  8
1
  6
CONTINUOUS
 62
     7
 10
-407.6098193559678
 20
281.6375386458513
  0
VERTEX
  8
1
  6
CONTINUOUS
 62
     7
 10
-408.0
 20
281.6736505062824
  0
SEQEND
  8
1
  6
CONTINUOUS
 62
     7
  0
POLYLINE
  8
1
  6
CONTINUOUS
 62
     7
 66
     1
  0
VERTEX
  8
1
  6
CONTINUOUS
 62
     7
 10
-413.0
 20
276.5053410919599
  0
VERTEX
  8
1
  6
CONTINUOUS
 62
     7
 10
-413.0096073597984
 20
276.5970035599526
  0
VERTEX
  8
1
  6
CONTINUOUS
 62
     7
 10
-413.0380602337444
 20
276.6851434907051
  0
VERTEX
  8
1
  6
CONTINUOUS
 62
     7
 10
-413.0842651938487
 20
276.7663737161083
  0
VERTEX
  8
1
  6
CONTINUOUS
 62
     7
 10
-413.1464466094067
 20
276.8375726041542
  0
VERTEX
  8
1
  6
CONTINUOUS
 62
     7
 10
-413.2222148834902
 20
276.8960040215041
  0
VERTEX
  8
1
  6
CONTINUOUS
 62
     7
 10
-413.3086582838174
 20
276.9394224815579
  0
VERTEX
  8
1
  6
CONTINUOUS
 62
     7
 10
-413.4024548389919
 20
276.966159437245
  0
VERTEX
  8
1
  6
CONTINUOUS
 62
     7
 10
-413.4999999999999
 20
276.9751874023528
  0
SEQEND
  8
1
  6
CONTINUOUS
 62
     7
  0
LINE
  8
1
  6
CONTINUOUS
 62
     7
 10
-413.4999999999999
 20
276.9751874023528
 11
-420.5
 21
276.9751874023528
  0
LINE
  8
1
  6
CONTINUOUS
 62
     7
 10
-427.5
 20
276.9751874023528
 11
-434.5
 21
276.9751874023528
  0
POLYLINE
  8
1
  6
CONTINUOUS
 62
     7
 66
     1
  0
VERTEX
  8
1
  6
CONTINUOUS
 62
     7
 10
-434.5
 20
276.9751874023529
  0
VERTEX
  8
1
  6
CONTINUOUS
 62
     7
 10
-434.5975451610081
 20
276.9661594372452
  0
VERTEX
  8
1
  6
CONTINUOUS
 62
     7
 10
-434.6913417161826
 20
276.9394224815579
  0
VERTEX
  8
1
  6
CONTINUOUS
 62
     7
 10
-434.7777851165098
 20
276.8960040215042
  0
VERTEX
  8
1
  6
CONTINUOUS
 62
     7
 10
-434.8535533905933
 20
276.8375726041543
  0
VERTEX
  8
1
  6
CONTINUOUS
 62
     7
 10
-434.9157348061513
 20
276.7663737161083
  0
VERTEX
  8
1
  6
CONTINUOUS
 62
     7
 10
-434.9619397662557
 20
276.6851434907052
  0
VERTEX
  8
1
  6
CONTINUOUS
 62
     7
 10
-434.9903926402017
 20
276.5970035599526
  0
VERTEX
  8
1
  6
CONTINUOUS
 62
     7
 10
-435.0000000000001
 20
276.5053410919599
  0
SEQEND
  8
1
  6
CONTINUOUS
 62
     7
  0
LINE
  8
1
  6
CONTINUOUS
 62
     7
 10
-435.0000000000001
 20
275.9721738915494
 11
-435.0000000000001
 21
276.5053410919599
  0
LINE
  8
1
  6
CONTINUOUS
 62
     7
 10
-413.0
 20
275.9721738915494
 11
-413.0
 21
276.5053410919599
  0
LINE
  8
1
  6
CONTINUOUS
 62
     7
 10
-442.0
 20
275.9721738915494
 11
-442.0
 21
279.7942652647106
  0
LINE
  8
1
  6
CONTINUOUS
 62
     7
 10
-406.0
 20
275.9721738915494
 11
-406.0
 21
279.7942652647106
  0
POLYLINE
  8
1
  6
CONTINUOUS
 62
     7
 66
     1
  0
VERTEX
  8
1
  6
CONTINUOUS
 62
     7
 10
-435.0000000000001
 20
253.4946589080402
  0
VERTEX
  8
1
  6
CONTINUOUS
 62
     7
 10
-434.9903926402017
 20
253.4029964400476
  0
VERTEX
  8
1
  6
CONTINUOUS
 62
     7
 10
-434.9619397662557
 20
253.314856509295
  0
VERTEX
  8
1
  6
CONTINUOUS
 62
     7
 10
-434.9157348061513
 20
253.2336262838918
  0
VERTEX
  8
1
  6
CONTINUOUS
 62
     7
 10
-434.8535533905933
 20
253.1624273958459
  0
VERTEX
  8
1
  6
CONTINUOUS
 62
     7
 10
-434.7777851165098
 20
253.103995978496
  0
VERTEX
  8
1
  6
CONTINUOUS
 62
     7
 10
-434.6913417161826
 20
253.0605775184422
  0
VERTEX
  8
1
  6
CONTINUOUS
 62
     7
 10
-434.5975451610081
 20
253.033840562755
  0
VERTEX
  8
1
  6
CONTINUOUS
 62
     7
 10
-434.5
 20
253.0248125976472
  0
SEQEND
  8
1
  6
CONTINUOUS
 62
     7
  0
LINE
  8
1
  6
CONTINUOUS
 62
     7
 10
-413.4999999999999
 20
253.0248125976473
 11
-420.5
 21
253.0248125976473
  0
LINE
  8
1
  6
CONTINUOUS
 62
     7
 10
-427.5
 20
253.0248125976473
 11
-434.5
 21
253.0248125976473
  0
POLYLINE
  8
1
  6
CONTINUOUS
 62
     7
 66
     1
  0
VERTEX
  8
1
  6
CONTINUOUS
 62
     7
 10
-413.4999999999999
 20
253.0248125976473
  0
VERTEX
  8
1
  6
CONTINUOUS
 62
     7
 10
-413.4024548389919
 20
253.0338405627551
  0
VERTEX
  8
1
  6
CONTINUOUS
 62
     7
 10
-413.3086582838174
 20
253.0605775184423
  0
VERTEX
  8
1
  6
CONTINUOUS
 62
     7
 10
-413.2222148834902
 20
253.1039959784961
  0
VERTEX
  8
1
  6
CONTINUOUS
 62
     7
 10
-413.1464466094067
 20
253.162427395846
  0
VERTEX
  8
1
  6
CONTINUOUS
 62
     7
 10
-413.0842651938487
 20
253.2336262838919
  0
VERTEX
  8
1
  6
CONTINUOUS
 62
     7
 10
-413.0380602337444
 20
253.314856509295
  0
VERTEX
  8
1
  6
CONTINUOUS
 62
     7
 10
-413.0096073597984
 20
253.4029964400476
  0
VERTEX
  8
1
  6
CONTINUOUS
 62
     7
 10
-413.0
 20
253.4946589080402
  0
SEQEND
  8
1
  6
CONTINUOUS
 62
     7
  0
POLYLINE
  8
1
  6
CONTINUOUS
 62
     7
 66
     1
  0
VERTEX
  8
1
  6
CONTINUOUS
 62
     7
 10
-408.0
 20
248.3263494937177
  0
VERTEX
  8
1
  6
CONTINUOUS
 62
     7
 10
-407.6098193559677
 20
248.3624613541488
  0
VERTEX
  8
1
  6
CONTINUOUS
 62
     7
 10
-407.2346331352698
 20
248.4694091768976
  0
VERTEX
  8
1
  6
CONTINUOUS
 62
     7
 10
-406.8888595339608
 20
248.6430830171127
  0
VERTEX
  8
1
  6
CONTINUOUS
 62
     7
 10
-406.5857864376269
 20
248.8768086865122
  0
VERTEX
  8
1
  6
CONTINUOUS
 62
     7
 10
-406.3370607753949
 20
249.1616042386959
  0
VERTEX
  8
1
  6
CONTINUOUS
 62
     7
 10
-406.1522409349774
 20
249.4865251403085
  0
VERTEX
  8
1
  6
CONTINUOUS
 62
     7
 10
-406.0384294391935
 20
249.839084863319
  0
VERTEX
  8
1
  6
CONTINUOUS
 62
     7
 10
-406.0
 20
250.2057347352896
  0
SEQEND
  8
1
  6
CONTINUOUS
 62
     7
  0
LINE
  8
1
  6
CONTINUOUS
 62
     7
 10
-440.0000000000001
 20
248.3263494937177
 11
-408.0
 21
248.3263494937177
  0
POLYLINE
  8
1
  6
CONTINUOUS
 62
     7
 66
     1
  0
VERTEX
  8
1
  6
CONTINUOUS
 62
     7
 10
-442.0000000000001
 20
250.2057347352896
  0
VERTEX
  8
1
  6
CONTINUOUS
 62
     7
 10
-441.9615705608065
 20
249.839084863319
  0
VERTEX
  8
1
  6
CONTINUOUS
 62
     7
 10
-441.8477590650226
 20
249.4865251403086
  0
VERTEX
  8
1
  6
CONTINUOUS
 62
     7
 10
-441.6629392246052
 20
249.1616042386959
  0
VERTEX
  8
1
  6
CONTINUOUS
 62
     7
 10
-441.4142135623732
 20
248.8768086865122
  0
VERTEX
  8
1
  6
CONTINUOUS
 62
     7
 10
-441.1111404660393
 20
248.6430830171127
  0
VERTEX
  8
1
  6
CONTINUOUS
 62
     7
 10
-440.7653668647303
 20
248.4694091768976
  0
VERTEX
  8
1
  6
CONTINUOUS
 62
     7
 10
-440.3901806440323
 20
248.3624613541488
  0
VERTEX
  8
1
  6
CONTINUOUS
 62
     7
 10
-440.0000000000001
 20
248.3263494937177
  0
SEQEND
  8
1
  6
CONTINUOUS
 62
     7
  0
LINE
  8
1
  6
CONTINUOUS
 62
     7
 10
-435.0000000000001
 20
254.0278261084507
 11
-435.0000000000001
 21
253.4946589080402
  0
LINE
  8
1
  6
CONTINUOUS
 62
     7
 10
-413.0
 20
254.0278261084507
 11
-413.0
 21
253.4946589080402
  0
LINE
  8
1
  6
CONTINUOUS
 62
     7
 10
-442.0
 20
254.0278261084507
 11
-442.0
 21
250.2057347352896
  0
LINE
  8
1
  6
CONTINUOUS
 62
     7
 10
-406.0
 20
254.0278261084507
 11
-406.0
 21
250.2057347352896
  0
LINE
  8
1
  6
CONTINUOUS
 62
     9
 10
-413.4999999999999
 20
253.7088528842986
 11
-413.4999999999999
 21
253.0248125976473
  0
POLYLINE
  8
1
  6
CONTINUOUS
 62
     7
 66
     1
  0
VERTEX
  8
1
  6
CONTINUOUS
 62
     7
 10
-413.4999999999999
 20
253.7088528842986
  0
VERTEX
  8
1
  6
CONTINUOUS
 62
     7
 10
-413.4024548389918
 20
253.7178808494064
  0
VERTEX
  8
1
  6
CONTINUOUS
 62
     7
 10
-413.3086582838174
 20
253.7446178050936
  0
VERTEX
  8
1
  6
CONTINUOUS
 62
     7
 10
-413.2222148834901
 20
253.7880362651474
  0
VERTEX
  8
1
  6
CONTINUOUS
 62
     7
 10
-413.1464466094066
 20
253.8464676824972
  0
VERTEX
  8
1
  6
CONTINUOUS
 62
     7
 10
-413.0842651938486
 20
253.9176665705432
  0
VERTEX
  8
1
  6
CONTINUOUS
 62
     7
 10
-413.0380602337443
 20
253.9988967959463
  0
VERTEX
  8
1
  6
CONTINUOUS
 62
     7
 10
-413.0096073597983
 20
254.087036726699
  0
VERTEX
  8
1
  6
CONTINUOUS
 62
     7
 10
-412.9999999999999
 20
254.1786991946916
  0
SEQEND
  8
1
  6
CONTINUOUS
 62
     7
  0
POLYLINE
  8
1
  6
CONTINUOUS
 62
     7
 66
     1
  0
VERTEX
  8
1
  6
CONTINUOUS
 62
     7
 10
-434.9999999999999
 20
254.1786991946916
  0
VERTEX
  8
1
  6
CONTINUOUS
 62
     7
 10
-434.9903926402015
 20
254.087036726699
  0
VERTEX
  8
1
  6
CONTINUOUS
 62
     7
 10
-434.9619397662556
 20
253.9988967959464
  0
VERTEX
  8
1
  6
CONTINUOUS
 62
     7
 10
-434.9157348061512
 20
253.9176665705432
  0
VERTEX
  8
1
  6
CONTINUOUS
 62
     7
 10
-434.8535533905932
 20
253.8464676824973
  0
VERTEX
  8
1
  6
CONTINUOUS
 62
     7
 10
-434.7777851165098
 20
253.7880362651474
  0
VERTEX
  8
1
  6
CONTINUOUS
 62
     7
 10
-434.6913417161825
 20
253.7446178050937
  0
VERTEX
  8
1
  6
CONTINUOUS
 62
     7
 10
-434.597545161008
 20
253.7178808494065
  0
VERTEX
  8
1
  6
CONTINUOUS
 62
     7
 10
-434.5
 20
253.7088528842987
  0
SEQEND
  8
1
  6
CONTINUOUS
 62
     7
  0
LINE
  8
1
  6
CONTINUOUS
 62
     9
 10
-434.5
 20
253.7088528842986
 11
-434.5
 21
253.0248125976473
  0
POLYLINE
  8
1
  6
CONTINUOUS
 62
     7
 66
     1
  0
VERTEX
  8
1
  6
CONTINUOUS
 62
     7
 10
-412.9999999999999
 20
275.8213008053085
  0
VERTEX
  8
1
  6
CONTINUOUS
 62
     7
 10
-413.0096073597983
 20
275.9129632733012
  0
VERTEX
  8
1
  6
CONTINUOUS
 62
     7
 10
-413.0380602337443
 20
276.0011032040538
  0
VERTEX
  8
1
  6
CONTINUOUS
 62
     7
 10
-413.0842651938486
 20
276.082333429457
  0
VERTEX
  8
1
  6
CONTINUOUS
 62
     7
 10
-413.1464466094066
 20
276.1535323175029
  0
VERTEX
  8
1
  6
CONTINUOUS
 62
     7
 10
-413.2222148834901
 20
276.2119637348528
  0
VERTEX
  8
1
  6
CONTINUOUS
 62
     7
 10
-413.3086582838174
 20
276.2553821949065
  0
VERTEX
  8
1
  6
CONTINUOUS
 62
     7
 10
-413.4024548389918
 20
276.2821191505938
  0
VERTEX
  8
1
  6
CONTINUOUS
 62
     7
 10
-413.4999999999999
 20
276.2911471157015
  0
SEQEND
  8
1
  6
CONTINUOUS
 62
     7
  0
LINE
  8
1
  6
CONTINUOUS
 62
     9
 10
-413.4999999999999
 20
276.2911471157015
 11
-413.4999999999999
 21
276.9751874023528
  0
LINE
  8
1
  6
CONTINUOUS
 62
     9
 10
-434.5
 20
276.2911471157015
 11
-434.5
 21
276.9751874023528
  0
POLYLINE
  8
1
  6
CONTINUOUS
 62
     7
 66
     1
  0
VERTEX
  8
1
  6
CONTINUOUS
 62
     7
 10
-434.5
 20
276.2911471157014
  0
VERTEX
  8
1
  6
CONTINUOUS
 62
     7
 10
-434.597545161008
 20
276.2821191505936
  0
VERTEX
  8
1
  6
CONTINUOUS
 62
     7
 10
-434.6913417161825
 20
276.2553821949065
  0
VERTEX
  8
1
  6
CONTINUOUS
 62
     7
 10
-434.7777851165098
 20
276.2119637348527
  0
VERTEX
  8
1
  6
CONTINUOUS
 62
     7
 10
-434.8535533905932
 20
276.1535323175028
  0
VERTEX
  8
1
  6
CONTINUOUS
 62
     7
 10
-434.9157348061512
 20
276.0823334294569
  0
VERTEX
  8
1
  6
CONTINUOUS
 62
     7
 10
-434.9619397662556
 20
276.0011032040537
  0
VERTEX
  8
1
  6
CONTINUOUS
 62
     7
 10
-434.9903926402015
 20
275.9129632733012
  0
VERTEX
  8
1
  6
CONTINUOUS
 62
     7
 10
-434.9999999999999
 20
275.8213008053085
  0
SEQEND
  8
1
  6
CONTINUOUS
 62
     7
  0
LINE
  8
1
  6
CONTINUOUS
 62
     7
 10
-413.4999999999999
 20
276.2911471157015
 11
-420.5
 21
276.2911471157015
  0
LINE
  8
1
  6
CONTINUOUS
 62
     7
 10
-427.5
 20
276.2911471157015
 11
-434.5
 21
276.2911471157015
  0
LINE
  8
1
  6
CONTINUOUS
 62
     7
 10
-413.4999999999999
 20
253.7088528842986
 11
-420.5
 21
253.7088528842986
  0
LINE
  8
1
  6
CONTINUOUS
 62
     7
 10
-427.5
 20
253.7088528842986
 11
-434.5
 21
253.7088528842986
  0
ARC
  8
1
  6
CONTINUOUS
 62
     7
 10
-412.4999999999999
 20
265.0000000000001
 40
2.000000000000036
 50
270.0
 51
90.0
  0
LINE
  8
1
  6
CONTINUOUS
 62
     7
 10
-424.6773458864155
 20
263.0
 11
-412.4999999999999
 21
263.0
  0
LINE
  8
1
  6
CONTINUOUS
 62
     7
 10
-412.4999999999999
 20
267.0000000000001
 11
-424.6773458864155
 21
267.0000000000001
  0
LINE
  8
1
  6
CONTINUOUS
 62
     7
 10
-425.4122063441048
 20
263.0
 11
-424.6773458864155
 21
263.0
  0
LINE
  8
1
  6
CONTINUOUS
 62
     7
 10
-424.6773458864155
 20
267.0000000000001
 11
-425.4122063441048
 21
267.0000000000001
  0
LINE
  8
1
  6
CONTINUOUS
 62
     7
 10
-435.7113116598911
 20
263.0
 11
-425.6216629256126
 21
263.0
  0
LINE
  8
1
  6
CONTINUOUS
 62
     7
 10
-437.630131023583
 20
263.0
 11
-436.6706026843764
 21
263.0
  0
LINE
  8
1
  6
CONTINUOUS
 62
     7
 10
-436.6717152978166
 20
267.0000000000001
 11
-437.6301310235829
 21
267.0000000000001
  0
LINE
  8
1
  6
CONTINUOUS
 62
     7
 10
-425.6216629256126
 20
267.0000000000001
 11
-435.7112874406375
 21
267.0000000000001
  0
ARC
  8
1
  6
CONTINUOUS
 62
     7
 10
-450.5
 20
265.0000000000001
 40
2.0
 50
90.00000000000001
 51
270.0
  0
LINE
  8
1
  6
CONTINUOUS
 62
     7
 10
-450.5
 20
263.0000000000001
 11
-443.4375233327662
 21
263.0000000000001
  0
LINE
  8
1
  6
CONTINUOUS
 62
     7
 10
-443.4375233327662
 20
267.0
 11
-450.5
 21
267.0
  0
LINE
  8
1
  6
CONTINUOUS
 62
     7
 10
-438.9212013497621
 20
263.0
 11
-443.4375233327661
 21
263.0
  0
LINE
  8
1
  6
CONTINUOUS
 62
     7
 10
-443.4375233327662
 20
267.0000000000001
 11
-438.9212091610808
 21
267.0000000000001
  0
LINE
  8
1
  6
CONTINUOUS
 62
     7
 10
-437.7783978372625
 20
267.0000000000001
 11
-438.9046043155792
 21
267.0000000000001
  0
LINE
  8
1
  6
CONTINUOUS
 62
     7
 10
-438.9197495382143
 20
263.0
 11
-437.7783978372624
 21
263.0
  0
LINE
  8
1
  6
CONTINUOUS
 62
     7
 10
-437.7783978372624
 20
263.0
 11
-437.630131023583
 21
263.0
  0
LINE
  8
1
  6
CONTINUOUS
 62
     7
 10
-436.668156917888
 20
263.0
 11
-435.7127057906057
 21
263.0
  0
LINE
  8
1
  6
CONTINUOUS
 62
     7
 10
-435.7133223292323
 20
267.0000000000001
 11
-436.6706654578661
 21
267.0000000000001
  0
LINE
  8
1
  6
CONTINUOUS
 62
     7
 10
-437.630131023583
 20
267.0000000000001
 11
-437.7783978372624
 21
267.0000000000001
  0
ARC
  8
1
  6
CONTINUOUS
 62
     7
 10
-935.5376529223945
 20
277.0
 40
9.999999999999984
 50
253.3606763260111
 51
270.0
  0
ARC
  8
1
  6
CONTINUOUS
 62
     7
 10
-935.5376529223945
 20
277.0
 40
11.99999999999998
 50
253.3606763260112
 51
270.0
  0
LINE
  8
1
  6
CONTINUOUS
 62
     7
 10
-934.0
 20
267.0
 11
-935.5376529223945
 21
267.0
  0
LINE
  8
1
  6
CONTINUOUS
 62
     7
 10
-935.5376529223945
 20
265.0
 11
-934.0
 21
265.0
  0
ARC
  8
1
  6
CONTINUOUS
 62
     7
 10
-956.5
 20
265.0
 40
5.50000000000006
 50
73.3606763260102
 51
179.9999999999999
  0
ARC
  8
1
  6
CONTINUOUS
 62
     7
 10
-956.5
 20
265.0
 40
7.500000000000034
 50
73.36067632601016
 51
90.00000000000006
  0
ARC
  8
1
  6
CONTINUOUS
 62
     7
 10
-956.5
 20
265.0
 40
7.500000000000048
 50
90.00000000000001
 51
179.9999999999998
  0
LINE
  8
1
  6
CONTINUOUS
 62
     7
 10
-938.4011131552494
 20
267.4187372703355
 11
-954.3524048253588
 21
272.1859470472484
  0
LINE
  8
1
  6
CONTINUOUS
 62
     7
 10
-954.9250968719297
 20
270.2696945013155
 11
-938.9738052018204
 21
265.5024847244026
  0
LINE
  8
1
  6
CONTINUOUS
 62
     7
 10
-924.5000000000003
 20
262.2499999999999
 11
-924.0000000000002
 21
262.75
  0
LINE
  8
1
  6
CONTINUOUS
 62
     7
 10
-924.0000000000002
 20
267.25
 11
-924.5000000000003
 21
267.7500000000001
  0
LINE
  8
1
  6
CONTINUOUS
 62
     7
 10
-933.5000000000003
 20
267.75
 11
-934.0000000000002
 21
267.2500000000001
  0
LINE
  8
1
  6
CONTINUOUS
 62
     7
 10
-934.0000000000002
 20
262.7499999999999
 11
-933.5000000000003
 21
262.25
  0
LINE
  8
1
  6
CONTINUOUS
 62
     7
 10
-933.5000000000003
 20
262.25
 11
-924.5000000000003
 21
262.25
  0
LINE
  8
1
  6
CONTINUOUS
 62
     7
 10
-924.5000000000003
 20
267.75
 11
-933.5000000000003
 21
267.75
  0
LINE
  8
1
  6
CONTINUOUS
 62
     7
 10
-474.4999999999997
 20
267.7500000000001
 11
-483.4999999999997
 21
267.7500000000001
  0
LINE
  8
1
  6
CONTINUOUS
 62
     7
 10
-483.4999999999997
 20
262.2500000000001
 11
-474.4999999999997
 21
262.2500000000001
  0
LINE
  8
1
  6
CONTINUOUS
 62
     7
 10
-483.4999999999997
 20
267.7500000000001
 11
-483.9999999999997
 21
267.2500000000001
  0
LINE
  8
1
  6
CONTINUOUS
 62
     7
 10
-483.9999999999997
 20
262.7500000000001
 11
-483.4999999999997
 21
262.2500000000001
  0
LINE
  8
1
  6
CONTINUOUS
 62
     7
 10
-474.4999999999997
 20
262.2500000000001
 11
-473.9999999999997
 21
262.7500000000001
  0
LINE
  8
1
  6
CONTINUOUS
 62
     7
 10
-473.9999999999997
 20
267.2500000000001
 11
-474.4999999999997
 21
267.7500000000001
  0
ARC
  8
1
  6
CONTINUOUS
 62
     7
 10
-935.5376529223945
 20
253.0
 40
9.999999999999982
 50
90.0
 51
106.6393236739889
  0
ARC
  8
1
  6
CONTINUOUS
 62
     7
 10
-935.5376529223945
 20
253.0
 40
11.99999999999998
 50
90.00000000000001
 51
106.6393236739888
  0
LINE
  8
1
  6
CONTINUOUS
 62
     7
 10
-934.0
 20
265.0
 11
-935.5376529223945
 21
265.0
  0
LINE
  8
1
  6
CONTINUOUS
 62
     7
 10
-935.5376529223945
 20
263.0
 11
-934.0
 21
263.0
  0
LINE
  8
1
  6
CONTINUOUS
 62
     7
 10
-924.0000000000002
 20
263.9999999999999
 11
-483.9999999999997
 21
264.0
  0
LINE
  8
1
  6
CONTINUOUS
 62
     7
 10
-483.9999999999997
 20
266.0
 11
-924.0000000000002
 21
265.9999999999999
  0
ARC
  8
1
  6
CONTINUOUS
 62
     7
 10
-956.5
 20
265.0
 40
5.500000000000073
 50
270.0
 51
286.6393236739898
  0
ARC
  8
1
  6
CONTINUOUS
 62
     7
 10
-956.5
 20
265.0
 40
5.500000000000074
 50
180.0000000000001
 51
270.0
  0
ARC
  8
1
  6
CONTINUOUS
 62
     7
 10
-956.5
 20
265.0
 40
7.500000000000062
 50
180.0000000000002
 51
286.6393236739898
  0
LINE
  8
1
  6
CONTINUOUS
 62
     7
 10
-938.9738052018204
 20
264.4975152755974
 11
-954.9250968719297
 21
259.7303054986845
  0
LINE
  8
1
  6
CONTINUOUS
 62
     7
 10
-954.3524048253588
 20
257.8140529527516
 11
-938.4011131552494
 21
262.5812627296645
  0
LINE
  8
1
  6
CONTINUOUS
 62
     7
 10
-473.9999999999999
 20
263.0
 11
-472.4623470776054
 21
263.0
  0
LINE
  8
1
  6
CONTINUOUS
 62
     7
 10
-472.4623470776055
 20
265.0
 11
-474.0
 21
265.0
  0
ARC
  8
1
  6
CONTINUOUS
 62
     7
 10
-472.4623470776055
 20
253.0000000000001
 40
9.999999999999984
 50
73.3606763260111
 51
90.0
  0
ARC
  8
1
  6
CONTINUOUS
 62
     7
 10
-472.4623470776055
 20
253.0000000000001
 40
11.99999999999998
 50
73.3606763260111
 51
90.00000000000001
  0
ARC
  8
1
  6
CONTINUOUS
 62
     7
 10
-451.5
 20
265.0
 40
5.500000000000078
 50
270.0
 51
338.6763137365024
  0
ARC
  8
1
  6
CONTINUOUS
 62
     7
 10
-451.5
 20
265.0
 40
5.500000000000074
 50
253.3606763260109
 51
270.0
  0
ARC
  8
1
  6
CONTINUOUS
 62
     7
 10
-451.5
 20
265.0
 40
7.500000000000052
 50
253.3606763260109
 51
344.5339900465796
  0
LINE
  8
1
  6
CONTINUOUS
 62
     7
 10
-469.5988868447506
 20
262.5812627296646
 11
-453.6475951746412
 21
257.8140529527516
  0
LINE
  8
1
  6
CONTINUOUS
 62
     7
 10
-453.0749031280702
 20
259.7303054986845
 11
-469.0261947981796
 21
264.4975152755974
  0
LINE
  8
1
  6
CONTINUOUS
 62
     7
 10
-473.9999999999999
 20
265.0
 11
-472.4623470776054
 21
265.0
  0
LINE
  8
1
  6
CONTINUOUS
 62
     7
 10
-472.4623470776055
 20
267.0
 11
-474.0
 21
267.0
  0
ARC
  8
1
  6
CONTINUOUS
 62
     7
 10
-472.4623470776055
 20
277.0
 40
9.999999999999984
 50
270.0
 51
286.6393236739889
  0
ARC
  8
1
  6
CONTINUOUS
 62
     7
 10
-472.4623470776055
 20
277.0
 40
11.99999999999998
 50
270.0
 51
286.6393236739889
  0
ARC
  8
1
  6
CONTINUOUS
 62
     7
 10
-451.5
 20
265.0
 40
5.500000000000072
 50
21.32368626349756
 51
106.6393236739892
  0
ARC
  8
1
  6
CONTINUOUS
 62
     7
 10
-451.5
 20
265.0
 40
7.500000000000044
 50
15.46600995342048
 51
90.0
  0
ARC
  8
1
  6
CONTINUOUS
 62
     7
 10
-451.5
 20
265.0
 40
7.500000000000048
 50
90.00000000000001
 51
106.6393236739892
  0
LINE
  8
1
  6
CONTINUOUS
 62
     7
 10
-469.0261947981796
 20
265.5024847244026
 11
-453.0749031280702
 21
270.2696945013155
  0
LINE
  8
1
  6
CONTINUOUS
 62
     7
 10
-453.6475951746412
 20
272.1859470472484
 11
-469.5988868447506
 21
267.4187372703355
  0
ARC
  8
1
  6
CONTINUOUS
 62
     7
 10
-424.0000000000001
 20
252.0000000000001
 40
3.499999999999948
 50
180.0
 51
0.0
  0
ARC
  8
1
  6
CONTINUOUS
 62
     7
 10
-424.0000000000001
 20
278.0
 40
3.500000000000059
 50
0.0000000000000105
 51
180.0
  0
LINE
  8
1
  6
CONTINUOUS
 62
     7
 10
-420.5
 20
252.0000000000001
 11
-420.5
 21
263.0
  0
LINE
  8
1
  6
CONTINUOUS
 62
     7
 10
-420.5
 20
267.0000000000001
 11
-420.5
 21
278.0
  0
LINE
  8
1
  6
CONTINUOUS
 62
     7
 10
-427.5
 20
278.0
 11
-427.5
 21
267.0
  0
LINE
  8
1
  6
CONTINUOUS
 62
     7
 10
-427.5
 20
263.0
 11
-427.5
 21
252.0000000000001
  0
ENDBLK
  8
0
  0
BLOCK
  8
0
  2
D_FRAME_VIEW_1896
 70
     0
 10
0.0
 20
0.0
  0
LINE
  8
1
  6
CONTINUOUS
 62
     7
 10
-433.0
 20
146.0970705016398
 11
-414.9999999999999
 21
146.0970705016398
  0
LINE
  8
1
  6
CONTINUOUS
 62
     7
 10
-433.0
 20
147.6970705016398
 11
-414.9999999999999
 21
147.6970705016398
  0
LINE
  8
1
  6
CONTINUOUS
 62
     9
 10
-438.3420496028236
 20
193.382724359988
 11
-438.2464207249369
 21
193.0571594597201
  0
LINE
  8
1
  6
CONTINUOUS
 62
     7
 10
-438.1182677714469
 20
193.1691870663383
 11
-432.8412071600084
 21
194.7192294216314
  0
LINE
  8
1
  6
CONTINUOUS
 62
     7
 10
-432.8564275338525
 20
194.771046609097
 11
-432.8412071600084
 21
194.7192294216314
  0
LINE
  8
1
  6
CONTINUOUS
 62
     7
 10
-431.8649336642806
 20
191.3955432057651
 11
-431.8497132904365
 21
191.3437260182996
  0
LINE
  8
1
  6
CONTINUOUS
 62
     7
 10
-431.8649336642806
 20
191.3955432057651
 11
-437.1419942757191
 21
189.845500850472
  0
LINE
  8
1
  6
CONTINUOUS
 62
     7
 10
-437.1419942757191
 20
189.8455008504719
 11
-438.1182677714469
 21
193.1691870663383
  0
LINE
  8
1
  6
CONTINUOUS
 62
     7
 10
-427.0249034396169
 20
196.7069340262537
 11
-424.2184224116082
 21
193.3623001785768
  0
CIRCLE
  8
1
  6
CONTINUOUS
 62
     7
 10
-436.1909302506768
 20
191.9300835941559
 40
0.4999991884259635
  0
LINE
  8
1
  6
CONTINUOUS
 62
     9
 10
-425.2409976519766
 20
197.2309245073752
 11
-424.1840026928749
 21
193.6324251204924
  0
LINE
  8
1
  6
CONTINUOUS
 62
     7
 10
-424.1840026928749
 20
193.6324251204924
 11
-426.8154468581092
 21
196.7684581581214
  0
LINE
  8
1
  6
CONTINUOUS
 62
     7
 10
-424.0089658301005
 20
193.4238243104445
 11
-424.1207593859601
 21
193.5570546822691
  0
LINE
  8
1
  6
CONTINUOUS
 62
     7
 10
-424.1207593859601
 20
193.5570546822691
 11
-424.1840026928749
 21
193.6324251204924
  0
LINE
  8
1
  6
CONTINUOUS
 62
     7
 10
-438.1931662708871
 20
193.2034748697073
 11
-438.2464207249369
 21
193.05715945972
  0
LINE
  8
1
  6
CONTINUOUS
 62
     7
 10
-438.193166270887
 20
193.2034748697073
 11
-438.1022924079506
 21
193.453148756144
  0
LINE
  8
1
  6
CONTINUOUS
 62
     7
 10
-438.1022924079506
 20
193.453148756144
 11
-432.9167221777056
 21
194.9763174451305
  0
LINE
  8
1
  6
CONTINUOUS
 62
     7
 10
-432.9167221777056
 20
194.9763174451305
 11
-432.8564275338525
 21
194.771046609097
  0
LINE
  8
1
  6
CONTINUOUS
 62
     7
 10
-431.8497132904365
 20
191.3437260182996
 11
-431.7894186465833
 21
191.1384551822661
  0
LINE
  8
1
  6
CONTINUOUS
 62
     7
 10
-437.2147460717012
 20
189.5448620971236
 11
-431.7894186465833
 21
191.1384551822661
  0
ARC
  8
1
  6
CONTINUOUS
 62
     7
 10
-440.5966566650683
 20
201.0584488857169
 40
12.0
 50
274.3363059247752
 51
286.3692093682837
  0
ARC
  8
1
  6
CONTINUOUS
 62
     7
 10
-963.0000000000001
 20
186.1970705016399
 40
1.000000000000001
 50
180.0
 51
270.0
  0
ARC
  8
1
  6
CONTINUOUS
 62
     7
 10
-963.0000000000001
 20
186.1970705016399
 40
1.000000000000001
 50
90.0
 51
180.0
  0
ARC
  8
1
  6
CONTINUOUS
 62
     7
 10
-963.0000000000001
 20
186.1970705016399
 40
0.9999999999999731
 50
90.0
 51
180.0
  0
ARC
  8
1
  6
CONTINUOUS
 62
     7
 10
-963.0000000000001
 20
186.1970705016399
 40
1.000000000000001
 50
180.0
 51
270.0
  0
ARC
  8
1
  6
CONTINUOUS
 62
     7
 10
-444.9999999999999
 20
186.1970705016399
 40
1.000000000000001
 50
270.0
 51
0.0
  0
ARC
  8
1
  6
CONTINUOUS
 62
     7
 10
-444.9999999999999
 20
186.1970705016399
 40
1.000000000000001
 50
0.0
 51
90.0
  0
LINE
  8
1
  6
CONTINUOUS
 62
     7
 10
-924.5000000000003
 20
183.4470705016399
 11
-924.5000000000003
 21
188.9470705016399
  0
LINE
  8
1
  6
CONTINUOUS
 62
     7
 10
-933.5000000000003
 20
188.9470705016399
 11
-933.5000000000003
 21
183.4470705016399
  0
LINE
  8
1
  6
CONTINUOUS
 62
     7
 10
-924.0000000000002
 20
188.4470705016399
 11
-924.0000000000002
 21
183.9470705016399
  0
LINE
  8
1
  6
CONTINUOUS
 62
     7
 10
-934.0000000000002
 20
183.9470705016399
 11
-934.0000000000002
 21
188.4470705016399
  0
LINE
  8
1
  6
CONTINUOUS
 62
     7
 10
-483.4999999999997
 20
188.9470705016398
 11
-483.4999999999997
 21
183.4470705016398
  0
LINE
  8
1
  6
CONTINUOUS
 62
     7
 10
-474.4999999999997
 20
183.4470705016398
 11
-474.4999999999997
 21
188.9470705016398
  0
LINE
  8
1
  6
CONTINUOUS
 62
     7
 10
-483.9999999999997
 20
183.9470705016398
 11
-483.9999999999997
 21
188.4470705016398
  0
LINE
  8
1
  6
CONTINUOUS
 62
     7
 10
-473.9999999999997
 20
188.4470705016398
 11
-473.9999999999997
 21
183.9470705016398
  0
ARC
  8
1
  6
CONTINUOUS
 62
     7
 10
-444.9999999999999
 20
186.1970705016399
 40
0.9999999999999731
 50
0.0
 51
90.0
  0
ARC
  8
1
  6
CONTINUOUS
 62
     7
 10
-444.9999999999999
 20
186.1970705016399
 40
1.000000000000001
 50
270.0
 51
0.0
  0
ARC
  8
1
  6
CONTINUOUS
 62
     7
 10
-424.0000008396356
 20
161.7835544808778
 40
3.503641784386859
 50
182.6129181812692
 51
357.3876820887006
  0
LINE
  8
1
  6
CONTINUOUS
 62
     9
 10
-417.1349956883154
 20
161.8540783703687
 11
-420.5063016242907
 21
161.8540783703687
  0
LINE
  8
1
  6
CONTINUOUS
 62
     7
 10
-431.4759222071696
 20
150.1970705016398
 11
-416.5240777928304
 21
150.1970705016398
  0
LINE
  8
1
  6
CONTINUOUS
 62
     9
 10
-427.4936983757087
 20
161.8540783703687
 11
-430.8650043116846
 21
161.8540783703687
  0
LINE
  8
1
  6
CONTINUOUS
 62
     7
 10
-427.8691157074208
 20
164.6970705016399
 11
-427.5
 21
164.6970705016399
  0
LINE
  8
1
  6
CONTINUOUS
 62
     7
 10
-420.5
 20
164.6970705016399
 11
-420.1308842925791
 21
164.6970705016399
  0
LINE
  8
1
  6
CONTINUOUS
 62
     7
 10
-423.845
 20
150.1970705016399
 11
-424.17
 21
147.6970705016399
  0
LINE
  8
1
  6
CONTINUOUS
 62
     7
 10
-423.83
 20
147.6970705016399
 11
-423.505
 21
150.1970705016398
  0
LINE
  8
1
  6
CONTINUOUS
 62
     7
 10
-420.2472232502674
 20
137.3970705016399
 11
-420.2472232502674
 21
137.9226737843734
  0
LINE
  8
1
  6
CONTINUOUS
 62
     7
 10
-420.2472232502674
 20
137.3970705016399
 11
-427.7527767497326
 21
137.3970705016399
  0
LINE
  8
1
  6
CONTINUOUS
 62
     7
 10
-427.7527767497326
 20
137.3970705016399
 11
-427.7527767497326
 21
137.9226737843734
  0
LINE
  8
1
  6
CONTINUOUS
 62
     7
 10
-431.5055534994651
 20
137.3970705016399
 11
-431.5055534994651
 21
137.9226737843734
  0
LINE
  8
1
  6
CONTINUOUS
 62
     7
 10
-427.7527767497326
 20
137.3970705016399
 11
-431.5055534994651
 21
137.3970705016399
  0
LINE
  8
1
  6
CONTINUOUS
 62
     7
 10
-416.4944465005348
 20
137.3970705016399
 11
-416.4944465005348
 21
137.9226737843734
  0
LINE
  8
1
  6
CONTINUOUS
 62
     7
 10
-416.4944465005348
 20
137.3970705016399
 11
-420.2472232502674
 21
137.3970705016399
  0
LINE
  8
1
  6
CONTINUOUS
 62
     9
 10
-407.9999999999999
 20
134.182314739932
 11
-407.9999999999999
 21
132.3029294983601
  0
LINE
  8
1
  6
CONTINUOUS
 62
     7
 10
-440.0
 20
132.3029294983601
 11
-407.9999999999999
 21
132.3029294983601
  0
LINE
  8
1
  6
CONTINUOUS
 62
     9
 10
-440.0
 20
134.182314739932
 11
-440.0
 21
132.3029294983601
  0
LINE
  8
1
  6
CONTINUOUS
 62
     7
 10
-440.0
 20
134.182314739932
 11
-407.9999999999999
 21
134.182314739932
  0
POLYLINE
  8
1
  6
CONTINUOUS
 62
     7
 66
     1
  0
VERTEX
  8
1
  6
CONTINUOUS
 62
     7
 10
-442.0
 20
132.9869697850115
  0
VERTEX
  8
1
  6
CONTINUOUS
 62
     7
 10
-441.9615705608065
 20
132.8535201452167
  0
VERTEX
  8
1
  6
CONTINUOUS
 62
     7
 10
-441.8477590650226
 20
132.7251989002397
  0
VERTEX
  8
1
  6
CONTINUOUS
 62
     7
 10
-441.6629392246051
 20
132.6069373635618
  0
VERTEX
  8
1
  6
CONTINUOUS
 62
     7
 10
-441.4142135623731
 20
132.5032802597155
  0
VERTEX
  8
1
  6
CONTINUOUS
 62
     7
 10
-441.1111404660392
 20
132.4182110730702
  0
VERTEX
  8
1
  6
CONTINUOUS
 62
     7
 10
-440.7653668647302
 20
132.3549989647612
  0
VERTEX
  8
1
  6
CONTINUOUS
 62
     7
 10
-440.3901806440322
 20
132.316073140661
  0
VERTEX
  8
1
  6
CONTINUOUS
 62
     7
 10
-440.0
 20
132.3029294983601
  0
SEQEND
  8
1
  6
CONTINUOUS
 62
     7
  0
LINE
  8
1
  6
CONTINUOUS
 62
     7
 10
-441.9999999999999
 20
132.9869697850115
 11
-441.9999999999999
 21
134.8663550265833
  0
POLYLINE
  8
1
  6
CONTINUOUS
 62
     7
 66
     1
  0
VERTEX
  8
1
  6
CONTINUOUS
 62
     7
 10
-442.0
 20
134.8663550265833
  0
VERTEX
  8
1
  6
CONTINUOUS
 62
     7
 10
-441.9615705608065
 20
134.7329053867885
  0
VERTEX
  8
1
  6
CONTINUOUS
 62
     7
 10
-441.8477590650226
 20
134.6045841418116
  0
VERTEX
  8
1
  6
CONTINUOUS
 62
     7
 10
-441.6629392246051
 20
134.4863226051337
  0
VERTEX
  8
1
  6
CONTINUOUS
 62
     7
 10
-441.4142135623731
 20
134.3826655012874
  0
VERTEX
  8
1
  6
CONTINUOUS
 62
     7
 10
-441.1111404660392
 20
134.297596314642
  0
VERTEX
  8
1
  6
CONTINUOUS
 62
     7
 10
-440.7653668647302
 20
134.234384206333
  0
VERTEX
  8
1
  6
CONTINUOUS
 62
     7
 10
-440.3901806440323
 20
134.1954583822329
  0
VERTEX
  8
1
  6
CONTINUOUS
 62
     7
 10
-440.0
 20
134.182314739932
  0
SEQEND
  8
1
  6
CONTINUOUS
 62
     7
  0
LINE
  8
1
  6
CONTINUOUS
 62
     7
 10
-441.9999999999999
 20
136.2574825190596
 11
-435.0
 21
136.2574825190596
  0
LINE
  8
1
  6
CONTINUOUS
 62
     7
 10
-435.0
 20
136.2574825190596
 11
-435.0
 21
136.0634255282232
  0
POLYLINE
  8
1
  6
CONTINUOUS
 62
     7
 66
     1
  0
VERTEX
  8
1
  6
CONTINUOUS
 62
     7
 10
-435.0
 20
136.0634255282232
  0
VERTEX
  8
1
  6
CONTINUOUS
 62
     7
 10
-434.9903926402016
 20
136.0300631182745
  0
VERTEX
  8
1
  6
CONTINUOUS
 62
     7
 10
-434.9619397662556
 20
135.9979828070302
  0
VERTEX
  8
1
  6
CONTINUOUS
 62
     7
 10
-434.9157348061512
 20
135.9684174228607
  0
VERTEX
  8
1
  6
CONTINUOUS
 62
     7
 10
-434.8535533905933
 20
135.9425031468992
  0
VERTEX
  8
1
  6
CONTINUOUS
 62
     7
 10
-434.7777851165098
 20
135.9212358502378
  0
VERTEX
  8
1
  6
CONTINUOUS
 62
     7
 10
-434.6913417161825
 20
135.9054328231606
  0
VERTEX
  8
1
  6
CONTINUOUS
 62
     7
 10
-434.597545161008
 20
135.8957013671356
  0
VERTEX
  8
1
  6
CONTINUOUS
 62
     7
 10
-434.5
 20
135.8924154565603
  0
SEQEND
  8
1
  6
CONTINUOUS
 62
     7
  0
LINE
  8
1
  6
CONTINUOUS
 62
     7
 10
-413.4999999999999
 20
135.8924154565603
 11
-434.5
 21
135.8924154565603
  0
POLYLINE
  8
1
  6
CONTINUOUS
 62
     7
 66
     1
  0
VERTEX
  8
1
  6
CONTINUOUS
 62
     7
 10
-413.4999999999999
 20
135.8924154565603
  0
VERTEX
  8
1
  6
CONTINUOUS
 62
     7
 10
-413.4024548389919
 20
135.8957013671356
  0
VERTEX
  8
1
  6
CONTINUOUS
 62
     7
 10
-413.3086582838174
 20
135.9054328231606
  0
VERTEX
  8
1
  6
CONTINUOUS
 62
     7
 10
-413.2222148834902
 20
135.9212358502378
  0
VERTEX
  8
1
  6
CONTINUOUS
 62
     7
 10
-413.1464466094067
 20
135.9425031468992
  0
VERTEX
  8
1
  6
CONTINUOUS
 62
     7
 10
-413.0842651938487
 20
135.9684174228607
  0
VERTEX
  8
1
  6
CONTINUOUS
 62
     7
 10
-413.0380602337443
 20
135.9979828070302
  0
VERTEX
  8
1
  6
CONTINUOUS
 62
     7
 10
-413.0096073597983
 20
136.0300631182745
  0
VERTEX
  8
1
  6
CONTINUOUS
 62
     7
 10
-412.9999999999999
 20
136.0634255282232
  0
SEQEND
  8
1
  6
CONTINUOUS
 62
     7
  0
LINE
  8
1
  6
CONTINUOUS
 62
     7
 10
-412.9999999999999
 20
136.2574825190596
 11
-412.9999999999999
 21
136.0634255282232
  0
LINE
  8
1
  6
CONTINUOUS
 62
     7
 10
-406.0
 20
136.2574825190596
 11
-412.9999999999999
 21
136.2574825190596
  0
LINE
  8
1
  6
CONTINUOUS
 62
     7
 10
-406.0
 20
136.2574825190596
 11
-406.0
 21
134.8663550265833
  0
POLYLINE
  8
1
  6
CONTINUOUS
 62
     7
 66
     1
  0
VERTEX
  8
1
  6
CONTINUOUS
 62
     7
 10
-407.9999999999999
 20
134.182314739932
  0
VERTEX
  8
1
  6
CONTINUOUS
 62
     7
 10
-407.6098193559677
 20
134.1954583822329
  0
VERTEX
  8
1
  6
CONTINUOUS
 62
     7
 10
-407.2346331352697
 20
134.234384206333
  0
VERTEX
  8
1
  6
CONTINUOUS
 62
     7
 10
-406.8888595339607
 20
134.297596314642
  0
VERTEX
  8
1
  6
CONTINUOUS
 62
     7
 10
-406.5857864376268
 20
134.3826655012874
  0
VERTEX
  8
1
  6
CONTINUOUS
 62
     7
 10
-406.3370607753948
 20
134.4863226051337
  0
VERTEX
  8
1
  6
CONTINUOUS
 62
     7
 10
-406.1522409349774
 20
134.6045841418116
  0
VERTEX
  8
1
  6
CONTINUOUS
 62
     7
 10
-406.0384294391935
 20
134.7329053867885
  0
VERTEX
  8
1
  6
CONTINUOUS
 62
     7
 10
-405.9999999999999
 20
134.8663550265833
  0
SEQEND
  8
1
  6
CONTINUOUS
 62
     7
  0
LINE
  8
1
  6
CONTINUOUS
 62
     7
 10
-441.9999999999999
 20
136.2574825190596
 11
-441.9999999999999
 21
134.8663550265833
  0
LINE
  8
1
  6
CONTINUOUS
 62
     7
 10
-406.0
 20
132.9869697850115
 11
-406.0
 21
134.8663550265833
  0
POLYLINE
  8
1
  6
CONTINUOUS
 62
     7
 66
     1
  0
VERTEX
  8
1
  6
CONTINUOUS
 62
     7
 10
-407.9999999999999
 20
132.3029294983601
  0
VERTEX
  8
1
  6
CONTINUOUS
 62
     7
 10
-407.6098193559677
 20
132.316073140661
  0
VERTEX
  8
1
  6
CONTINUOUS
 62
     7
 10
-407.2346331352697
 20
132.3549989647612
  0
VERTEX
  8
1
  6
CONTINUOUS
 62
     7
 10
-406.8888595339607
 20
132.4182110730702
  0
VERTEX
  8
1
  6
CONTINUOUS
 62
     7
 10
-406.5857864376268
 20
132.5032802597155
  0
VERTEX
  8
1
  6
CONTINUOUS
 62
     7
 10
-406.3370607753948
 20
132.6069373635618
  0
VERTEX
  8
1
  6
CONTINUOUS
 62
     7
 10
-406.1522409349774
 20
132.7251989002397
  0
VERTEX
  8
1
  6
CONTINUOUS
 62
     7
 10
-406.0384294391935
 20
132.8535201452167
  0
VERTEX
  8
1
  6
CONTINUOUS
 62
     7
 10
-405.9999999999999
 20
132.9869697850115
  0
SEQEND
  8
1
  6
CONTINUOUS
 62
     7
  0
POLYLINE
  8
1
  6
CONTINUOUS
 62
     7
 66
     1
  0
VERTEX
  8
1
  6
CONTINUOUS
 62
     7
 10
-434.5
 20
138.6067140710244
  0
VERTEX
  8
1
  6
CONTINUOUS
 62
     7
 10
-434.597545161008
 20
138.5976861059166
  0
VERTEX
  8
1
  6
CONTINUOUS
 62
     7
 10
-434.6913417161825
 20
138.5709491502294
  0
VERTEX
  8
1
  6
CONTINUOUS
 62
     7
 10
-434.7777851165098
 20
138.5275306901757
  0
VERTEX
  8
1
  6
CONTINUOUS
 62
     7
 10
-434.8535533905933
 20
138.4690992728258
  0
VERTEX
  8
1
  6
CONTINUOUS
 62
     7
 10
-434.9157348061512
 20
138.3979003847799
  0
VERTEX
  8
1
  6
CONTINUOUS
 62
     7
 10
-434.9619397662556
 20
138.3166701593767
  0
VERTEX
  8
1
  6
CONTINUOUS
 62
     7
 10
-434.9903926402016
 20
138.2285302286241
  0
VERTEX
  8
1
  6
CONTINUOUS
 62
     7
 10
-435.0
 20
138.1368677606314
  0
SEQEND
  8
1
  6
CONTINUOUS
 62
     7
  0
LINE
  8
1
  6
CONTINUOUS
 62
     9
 10
-441.9999999999999
 20
143.3811107882912
 11
-406.0
 21
143.3811107882912
  0
POLYLINE
  8
1
  6
CONTINUOUS
 62
     7
 66
     1
  0
VERTEX
  8
1
  6
CONTINUOUS
 62
     7
 10
-412.9999999999999
 20
138.1368677606314
  0
VERTEX
  8
1
  6
CONTINUOUS
 62
     7
 10
-413.0096073597983
 20
138.2285302286241
  0
VERTEX
  8
1
  6
CONTINUOUS
 62
     7
 10
-413.0380602337443
 20
138.3166701593767
  0
VERTEX
  8
1
  6
CONTINUOUS
 62
     7
 10
-413.0842651938487
 20
138.3979003847799
  0
VERTEX
  8
1
  6
CONTINUOUS
 62
     7
 10
-413.1464466094067
 20
138.4690992728258
  0
VERTEX
  8
1
  6
CONTINUOUS
 62
     7
 10
-413.2222148834902
 20
138.5275306901757
  0
VERTEX
  8
1
  6
CONTINUOUS
 62
     7
 10
-413.3086582838174
 20
138.5709491502294
  0
VERTEX
  8
1
  6
CONTINUOUS
 62
     7
 10
-413.4024548389919
 20
138.5976861059166
  0
VERTEX
  8
1
  6
CONTINUOUS
 62
     7
 10
-413.4999999999999
 20
138.6067140710244
  0
SEQEND
  8
1
  6
CONTINUOUS
 62
     7
  0
LINE
  8
1
  6
CONTINUOUS
 62
     7
 10
-413.4999999999999
 20
138.6067140710244
 11
-434.5
 21
138.6067140710244
  0
LINE
  8
1
  6
CONTINUOUS
 62
     7
 10
-412.9999999999999
 20
138.1368677606314
 11
-412.9999999999999
 21
136.2574825190596
  0
LINE
  8
1
  6
CONTINUOUS
 62
     7
 10
-435.0
 20
138.1368677606314
 11
-435.0
 21
136.2574825190596
  0
LINE
  8
1
  6
CONTINUOUS
 62
     7
 10
-406.0
 20
143.3811107882912
 11
-406.0
 21
136.2574825190596
  0
LINE
  8
1
  6
CONTINUOUS
 62
     7
 10
-441.9999999999999
 20
143.3811107882912
 11
-441.9999999999999
 21
136.2574825190596
  0
LINE
  8
1
  6
CONTINUOUS
 62
     9
 10
-434.5
 20
138.6067140710244
 11
-434.5
 21
137.9226737843734
  0
POLYLINE
  8
1
  6
CONTINUOUS
 62
     7
 66
     1
  0
VERTEX
  8
1
  6
CONTINUOUS
 62
     7
 10
-434.5
 20
137.9226737843731
  0
VERTEX
  8
1
  6
CONTINUOUS
 62
     7
 10
-434.597545161008
 20
137.9136458192653
  0
VERTEX
  8
1
  6
CONTINUOUS
 62
     7
 10
-434.6913417161825
 20
137.8869088635781
  0
VERTEX
  8
1
  6
CONTINUOUS
 62
     7
 10
-434.7777851165098
 20
137.8434904035243
  0
VERTEX
  8
1
  6
CONTINUOUS
 62
     7
 10
-434.8535533905933
 20
137.7850589861744
  0
VERTEX
  8
1
  6
CONTINUOUS
 62
     7
 10
-434.9157348061512
 20
137.7138600981285
  0
VERTEX
  8
1
  6
CONTINUOUS
 62
     7
 10
-434.9619397662556
 20
137.6326298727253
  0
VERTEX
  8
1
  6
CONTINUOUS
 62
     7
 10
-434.9903926402016
 20
137.5444899419728
  0
VERTEX
  8
1
  6
CONTINUOUS
 62
     7
 10
-435.0
 20
137.4528274739801
  0
SEQEND
  8
1
  6
CONTINUOUS
 62
     7
  0
LINE
  8
1
  6
CONTINUOUS
 62
     9
 10
-413.4999999999999
 20
138.6067140710244
 11
-413.4999999999999
 21
137.9226737843734
  0
POLYLINE
  8
1
  6
CONTINUOUS
 62
     7
 66
     1
  0
VERTEX
  8
1
  6
CONTINUOUS
 62
     7
 10
-412.9999999999999
 20
137.4528274739801
  0
VERTEX
  8
1
  6
CONTINUOUS
 62
     7
 10
-413.0096073597983
 20
137.5444899419728
  0
VERTEX
  8
1
  6
CONTINUOUS
 62
     7
 10
-413.0380602337443
 20
137.6326298727253
  0
VERTEX
  8
1
  6
CONTINUOUS
 62
     7
 10
-413.0842651938487
 20
137.7138600981285
  0
VERTEX
  8
1
  6
CONTINUOUS
 62
     7
 10
-413.1464466094067
 20
137.7850589861744
  0
VERTEX
  8
1
  6
CONTINUOUS
 62
     7
 10
-413.2222148834902
 20
137.8434904035243
  0
VERTEX
  8
1
  6
CONTINUOUS
 62
     7
 10
-413.3086582838174
 20
137.8869088635781
  0
VERTEX
  8
1
  6
CONTINUOUS
 62
     7
 10
-413.4024548389919
 20
137.9136458192653
  0
VERTEX
  8
1
  6
CONTINUOUS
 62
     7
 10
-413.4999999999999
 20
137.9226737843731
  0
SEQEND
  8
1
  6
CONTINUOUS
 62
     7
  0
LINE
  8
1
  6
CONTINUOUS
 62
     7
 10
-413.4999999999999
 20
137.9226737843734
 11
-434.5
 21
137.9226737843734
  0
LINE
  8
1
  6
CONTINUOUS
 62
     7
 10
-441.9999999999999
 20
144.6970705016399
 11
-427.2580735803743
 21
144.6970705016399
  0
ARC
  8
1
  6
CONTINUOUS
 62
     7
 10
-427.2580735803743
 20
142.6970705016399
 40
2.0
 50
78.46304096718255
 51
89.99999999999999
  0
LINE
  8
1
  6
CONTINUOUS
 62
     7
 10
-421.1419264196256
 20
144.6566622958664
 11
-426.8580735803743
 21
144.6566622958664
  0
ARC
  8
1
  6
CONTINUOUS
 62
     7
 10
-420.7419264196256
 20
142.6970705016399
 40
2.0
 50
90.0
 51
101.5369590328174
  0
LINE
  8
1
  6
CONTINUOUS
 62
     7
 10
-420.7419264196256
 20
144.6970705016399
 11
-406.0
 21
144.6970705016399
  0
LINE
  8
1
  6
CONTINUOUS
 62
     7
 10
-406.0
 20
144.6970705016399
 11
-406.0
 21
143.3811107882912
  0
LINE
  8
1
  6
CONTINUOUS
 62
     7
 10
-441.9999999999999
 20
144.6970705016399
 11
-441.9999999999999
 21
143.3811107882912
  0
LINE
  8
1
  6
CONTINUOUS
 62
     7
 10
-430.8999999999999
 20
144.6970705016398
 11
-430.8999999999999
 21
145.5970705016398
  0
LINE
  8
1
  6
CONTINUOUS
 62
     7
 10
-426.8580735803743
 20
144.6566622958664
 11
-426.8580735803743
 21
145.5970705016398
  0
POLYLINE
  8
1
  6
CONTINUOUS
 62
     7
 66
     1
  0
VERTEX
  8
1
  6
CONTINUOUS
 62
     7
 10
-430.8999999999999
 20
145.5970705016398
  0
VERTEX
  8
1
  6
CONTINUOUS
 62
     7
 10
-430.8993977281026
 20
145.6216043388036
  0
VERTEX
  8
1
  6
CONTINUOUS
 62
     7
 10
-430.8975923633361
 20
145.6460790718046
  0
VERTEX
  8
1
  6
CONTINUOUS
 62
     7
 10
-430.8945882549824
 20
145.6704357388675
  0
VERTEX
  8
1
  6
CONTINUOUS
 62
     7
 10
-430.8903926402016
 20
145.6946156626479
  0
VERTEX
  8
1
  6
CONTINUOUS
 62
     7
 10
-430.8850156265972
 20
145.7185605915915
  0
VERTEX
  8
1
  6
CONTINUOUS
 62
     7
 10
-430.8784701678661
 20
145.7422128402671
  0
VERTEX
  8
1
  6
CONTINUOUS
 62
     7
 10
-430.8707720325915
 20
145.765515428336
  0
VERTEX
  8
1
  6
CONTINUOUS
 62
     7
 10
-430.8619397662557
 20
145.7884122178224
  0
VERTEX
  8
1
  6
CONTINUOUS
 62
     7
 10
-430.8519946465617
 20
145.810848048355
  0
VERTEX
  8
1
  6
CONTINUOUS
 62
     7
 10
-430.8409606321741
 20
145.8327688700529
  0
VERTEX
  8
1
  6
CONTINUOUS
 62
     7
 10
-430.8288643050001
 20
145.8541218737365
  0
VERTEX
  8
1
  6
CONTINUOUS
 62
     7
 10
-430.8157348061512
 20
145.8748556181497
  0
VERTEX
  8
1
  6
CONTINUOUS
 62
     7
 10
-430.8016037657403
 20
145.8949201538861
  0
VERTEX
  8
1
  6
CONTINUOUS
 62
     7
 10
-430.7865052266814
 20
145.9142671437217
  0
VERTEX
  8
1
  6
CONTINUOUS
 62
     7
 10
-430.7704755626775
 20
145.9328499790633
  0
VERTEX
  8
1
  6
CONTINUOUS
 62
     7
 10
-430.7535533905933
 20
145.9506238922331
  0
VERTEX
  8
1
  6
CONTINUOUS
 62
     7
 10
-430.7357794774235
 20
145.9675460643173
  0
VERTEX
  8
1
  6
CONTINUOUS
 62
     7
 10
-430.7171966420818
 20
145.9835757283212
  0
VERTEX
  8
1
  6
CONTINUOUS
 62
     7
 10
-430.6978496522462
 20
145.9986742673802
  0
VERTEX
  8
1
  6
CONTINUOUS
 62
     7
 10
-430.6777851165098
 20
146.0128053077912
  0
VERTEX
  8
1
  6
CONTINUOUS
 62
     7
 10
-430.6570513720966
 20
146.02593480664
  0
VERTEX
  8
1
  6
CONTINUOUS
 62
     7
 10
-430.635698368413
 20
146.038031133814
  0
VERTEX
  8
1
  6
CONTINUOUS
 62
     7
 10
-430.6137775467151
 20
146.0490651482016
  0
VERTEX
  8
1
  6
CONTINUOUS
 62
     7
 10
-430.5913417161825
 20
146.0590102678955
  0
VERTEX
  8
1
  6
CONTINUOUS
 62
     7
 10
-430.5684449266961
 20
146.0678425342314
  0
VERTEX
  8
1
  6
CONTINUOUS
 62
     7
 10
-430.5451423386272
 20
146.075540669506
  0
VERTEX
  8
1
  6
CONTINUOUS
 62
     7
 10
-430.5214900899516
 20
146.0820861282371
  0
VERTEX
  8
1
  6
CONTINUOUS
 62
     7
 10
-430.497545161008
 20
146.0874631418415
  0
VERTEX
  8
1
  6
CONTINUOUS
 62
     7
 10
-430.4733652372277
 20
146.0916587566223
  0
VERTEX
  8
1
  6
CONTINUOUS
 62
     7
 10
-430.4490085701648
 20
146.094662864976
  0
VERTEX
  8
1
  6
CONTINUOUS
 62
     7
 10
-430.4245338371637
 20
146.0964682297424
  0
VERTEX
  8
1
  6
CONTINUOUS
 62
     7
 10
-430.4
 20
146.0970705016398
  0
SEQEND
  8
1
  6
CONTINUOUS
 62
     7
  0
POLYLINE
  8
1
  6
CONTINUOUS
 62
     7
 66
     1
  0
VERTEX
  8
1
  6
CONTINUOUS
 62
     7
 10
-426.6509667991878
 20
146.0970705016398
  0
VERTEX
  8
1
  6
CONTINUOUS
 62
     7
 10
-426.6611290472781
 20
146.0964682297424
  0
VERTEX
  8
1
  6
CONTINUOUS
 62
     7
 10
-426.6712668136225
 20
146.094662864976
  0
VERTEX
  8
1
  6
CONTINUOUS
 62
     7
 10
-426.6813556754541
 20
146.0916587566223
  0
VERTEX
  8
1
  6
CONTINUOUS
 62
     7
 10
-426.6913713278212
 20
146.0874631418415
  0
VERTEX
  8
1
  6
CONTINUOUS
 62
     7
 10
-426.7012896421397
 20
146.0820861282371
  0
VERTEX
  8
1
  6
CONTINUOUS
 62
     7
 10
-426.7110867243217
 20
146.075540669506
  0
VERTEX
  8
1
  6
CONTINUOUS
 62
     7
 10
-426.7207389723383
 20
146.0678425342314
  0
VERTEX
  8
1
  6
CONTINUOUS
 62
     7
 10
-426.7302231330783
 20
146.0590102678955
  0
VERTEX
  8
1
  6
CONTINUOUS
 62
     7
 10
-426.739516358368
 20
146.0490651482016
  0
VERTEX
  8
1
  6
CONTINUOUS
 62
     7
 10
-426.7485962600136
 20
146.038031133814
  0
VERTEX
  8
1
  6
CONTINUOUS
 62
     7
 10
-426.7574409637368
 20
146.02593480664
  0
VERTEX
  8
1
  6
CONTINUOUS
 62
     7
 10
-426.7660291618715
 20
146.0128053077912
  0
VERTEX
  8
1
  6
CONTINUOUS
 62
     7
 10
-426.7743401646963
 20
145.9986742673802
  0
VERTEX
  8
1
  6
CONTINUOUS
 62
     7
 10
-426.7823539502773
 20
145.9835757283212
  0
VERTEX
  8
1
  6
CONTINUOUS
 62
     7
 10
-426.7900512127032
 20
145.9675460643173
  0
VERTEX
  8
1
  6
CONTINUOUS
 62
     7
 10
-426.7974134085945
 20
145.9506238922331
  0
VERTEX
  8
1
  6
CONTINUOUS
 62
     7
 10
-426.8044228017766
 20
145.9328499790633
  0
VERTEX
  8
1
  6
CONTINUOUS
 62
     7
 10
-426.8110625060073
 20
145.9142671437217
  0
VERTEX
  8
1
  6
CONTINUOUS
 62
     7
 10
-426.8173165256576
 20
145.8949201538861
  0
VERTEX
  8
1
  6
CONTINUOUS
 62
     7
 10
-426.8231697942462
 20
145.8748556181497
  0
VERTEX
  8
1
  6
CONTINUOUS
 62
     7
 10
-426.8286082107365
 20
145.8541218737365
  0
VERTEX
  8
1
  6
CONTINUOUS
 62
     7
 10
-426.8336186735069
 20
145.8327688700529
  0
VERTEX
  8
1
  6
CONTINUOUS
 62
     7
 10
-426.8381891119137
 20
145.810848048355
  0
VERTEX
  8
1
  6
CONTINUOUS
 62
     7
 10
-426.8423085153703
 20
145.7884122178224
  0
VERTEX
  8
1
  6
CONTINUOUS
 62
     7
 10
-426.8459669598731
 20
145.765515428336
  0
VERTEX
  8
1
  6
CONTINUOUS
 62
     7
 10
-426.8491556319088
 20
145.7422128402671
  0
VERTEX
  8
1
  6
CONTINUOUS
 62
     7
 10
-426.8518668496872
 20
145.7185605915915
  0
VERTEX
  8
1
  6
CONTINUOUS
 62
     7
 10
-426.8540940816472
 20
145.6946156626479
  0
VERTEX
  8
1
  6
CONTINUOUS
 62
     7
 10
-426.8558319621919
 20
145.6704357388675
  0
VERTEX
  8
1
  6
CONTINUOUS
 62
     7
 10
-426.8570763046149
 20
145.6460790718046
  0
VERTEX
  8
1
  6
CONTINUOUS
 62
     7
 10
-426.8578241111862
 20
145.6216043388036
  0
VERTEX
  8
1
  6
CONTINUOUS
 62
     7
 10
-426.8580735803743
 20
145.5970705016398
  0
SEQEND
  8
1
  6
CONTINUOUS
 62
     7
  0
LINE
  8
1
  6
CONTINUOUS
 62
     7
 10
-421.1419264196256
 20
144.6566622958664
 11
-421.1419264196256
 21
145.5970705016398
  0
POLYLINE
  8
1
  6
CONTINUOUS
 62
     7
 66
     1
  0
VERTEX
  8
1
  6
CONTINUOUS
 62
     7
 10
-421.3490332008122
 20
146.0970705016398
  0
VERTEX
  8
1
  6
CONTINUOUS
 62
     7
 10
-421.3388709527219
 20
146.0964682297424
  0
VERTEX
  8
1
  6
CONTINUOUS
 62
     7
 10
-421.3287331863774
 20
146.094662864976
  0
VERTEX
  8
1
  6
CONTINUOUS
 62
     7
 10
-421.3186443245458
 20
146.0916587566223
  0
VERTEX
  8
1
  6
CONTINUOUS
 62
     7
 10
-421.3086286721788
 20
146.0874631418415
  0
VERTEX
  8
1
  6
CONTINUOUS
 62
     7
 10
-421.2987103578603
 20
146.0820861282371
  0
VERTEX
  8
1
  6
CONTINUOUS
 62
     7
 10
-421.2889132756782
 20
146.075540669506
  0
VERTEX
  8
1
  6
CONTINUOUS
 62
     7
 10
-421.2792610276617
 20
146.0678425342314
  0
VERTEX
  8
1
  6
CONTINUOUS
 62
     7
 10
-421.2697768669216
 20
146.0590102678955
  0
VERTEX
  8
1
  6
CONTINUOUS
 62
     7
 10
-421.2604836416319
 20
146.0490651482016
  0
VERTEX
  8
1
  6
CONTINUOUS
 62
     7
 10
-421.2514037399863
 20
146.0380311338141
  0
VERTEX
  8
1
  6
CONTINUOUS
 62
     7
 10
-421.2425590362632
 20
146.02593480664
  0
VERTEX
  8
1
  6
CONTINUOUS
 62
     7
 10
-421.2339708381284
 20
146.0128053077912
  0
VERTEX
  8
1
  6
CONTINUOUS
 62
     7
 10
-421.2256598353037
 20
145.9986742673802
  0
VERTEX
  8
1
  6
CONTINUOUS
 62
     7
 10
-421.2176460497226
 20
145.9835757283212
  0
VERTEX
  8
1
  6
CONTINUOUS
 62
     7
 10
-421.2099487872968
 20
145.9675460643173
  0
VERTEX
  8
1
  6
CONTINUOUS
 62
     7
 10
-421.2025865914054
 20
145.9506238922331
  0
VERTEX
  8
1
  6
CONTINUOUS
 62
     7
 10
-421.1955771982234
 20
145.9328499790633
  0
VERTEX
  8
1
  6
CONTINUOUS
 62
     7
 10
-421.1889374939927
 20
145.9142671437217
  0
VERTEX
  8
1
  6
CONTINUOUS
 62
     7
 10
-421.1826834743424
 20
145.8949201538861
  0
VERTEX
  8
1
  6
CONTINUOUS
 62
     7
 10
-421.1768302057538
 20
145.8748556181497
  0
VERTEX
  8
1
  6
CONTINUOUS
 62
     7
 10
-421.1713917892635
 20
145.8541218737365
  0
VERTEX
  8
1
  6
CONTINUOUS
 62
     7
 10
-421.166381326493
 20
145.8327688700529
  0
VERTEX
  8
1
  6
CONTINUOUS
 62
     7
 10
-421.1618108880863
 20
145.810848048355
  0
VERTEX
  8
1
  6
CONTINUOUS
 62
     7
 10
-421.1576914846297
 20
145.7884122178224
  0
VERTEX
  8
1
  6
CONTINUOUS
 62
     7
 10
-421.1540330401268
 20
145.765515428336
  0
VERTEX
  8
1
  6
CONTINUOUS
 62
     7
 10
-421.1508443680912
 20
145.7422128402671
  0
VERTEX
  8
1
  6
CONTINUOUS
 62
     7
 10
-421.1481331503127
 20
145.7185605915915
  0
VERTEX
  8
1
  6
CONTINUOUS
 62
     7
 10
-421.1459059183527
 20
145.6946156626479
  0
VERTEX
  8
1
  6
CONTINUOUS
 62
     7
 10
-421.1441680378081
 20
145.6704357388675
  0
VERTEX
  8
1
  6
CONTINUOUS
 62
     7
 10
-421.1429236953851
 20
145.6460790718046
  0
VERTEX
  8
1
  6
CONTINUOUS
 62
     7
 10
-421.1421758888138
 20
145.6216043388036
  0
VERTEX
  8
1
  6
CONTINUOUS
 62
     7
 10
-421.1419264196256
 20
145.5970705016398
  0
SEQEND
  8
1
  6
CONTINUOUS
 62
     7
  0
LINE
  8
1
  6
CONTINUOUS
 62
     7
 10
-417.1
 20
144.6970705016398
 11
-417.1
 21
145.5970705016398
  0
POLYLINE
  8
1
  6
CONTINUOUS
 62
     7
 66
     1
  0
VERTEX
  8
1
  6
CONTINUOUS
 62
     7
 10
-417.6
 20
146.0970705016398
  0
VERTEX
  8
1
  6
CONTINUOUS
 62
     7
 10
-417.5754661628362
 20
146.0964682297424
  0
VERTEX
  8
1
  6
CONTINUOUS
 62
     7
 10
-417.5509914298352
 20
146.094662864976
  0
VERTEX
  8
1
  6
CONTINUOUS
 62
     7
 10
-417.5266347627723
 20
146.0916587566223
  0
VERTEX
  8
1
  6
CONTINUOUS
 62
     7
 10
-417.5024548389919
 20
146.0874631418415
  0
VERTEX
  8
1
  6
CONTINUOUS
 62
     7
 10
-417.4785099100483
 20
146.0820861282371
  0
VERTEX
  8
1
  6
CONTINUOUS
 62
     7
 10
-417.4548576613728
 20
146.075540669506
  0
VERTEX
  8
1
  6
CONTINUOUS
 62
     7
 10
-417.4315550733039
 20
146.0678425342314
  0
VERTEX
  8
1
  6
CONTINUOUS
 62
     7
 10
-417.4086582838174
 20
146.0590102678955
  0
VERTEX
  8
1
  6
CONTINUOUS
 62
     7
 10
-417.3862224532848
 20
146.0490651482016
  0
VERTEX
  8
1
  6
CONTINUOUS
 62
     7
 10
-417.364301631587
 20
146.0380311338141
  0
VERTEX
  8
1
  6
CONTINUOUS
 62
     7
 10
-417.3429486279034
 20
146.02593480664
  0
VERTEX
  8
1
  6
CONTINUOUS
 62
     7
 10
-417.3222148834902
 20
146.0128053077912
  0
VERTEX
  8
1
  6
CONTINUOUS
 62
     7
 10
-417.3021503477538
 20
145.9986742673802
  0
VERTEX
  8
1
  6
CONTINUOUS
 62
     7
 10
-417.2828033579182
 20
145.9835757283212
  0
VERTEX
  8
1
  6
CONTINUOUS
 62
     7
 10
-417.2642205225765
 20
145.9675460643173
  0
VERTEX
  8
1
  6
CONTINUOUS
 62
     7
 10
-417.2464466094067
 20
145.9506238922332
  0
VERTEX
  8
1
  6
CONTINUOUS
 62
     7
 10
-417.2295244373225
 20
145.9328499790633
  0
VERTEX
  8
1
  6
CONTINUOUS
 62
     7
 10
-417.2134947733186
 20
145.9142671437217
  0
VERTEX
  8
1
  6
CONTINUOUS
 62
     7
 10
-417.1983962342597
 20
145.8949201538861
  0
VERTEX
  8
1
  6
CONTINUOUS
 62
     7
 10
-417.1842651938487
 20
145.8748556181497
  0
VERTEX
  8
1
  6
CONTINUOUS
 62
     7
 10
-417.1711356949999
 20
145.8541218737365
  0
VERTEX
  8
1
  6
CONTINUOUS
 62
     7
 10
-417.1590393678258
 20
145.8327688700529
  0
VERTEX
  8
1
  6
CONTINUOUS
 62
     7
 10
-417.1480053534382
 20
145.810848048355
  0
VERTEX
  8
1
  6
CONTINUOUS
 62
     7
 10
-417.1380602337443
 20
145.7884122178224
  0
VERTEX
  8
1
  6
CONTINUOUS
 62
     7
 10
-417.1292279674085
 20
145.765515428336
  0
VERTEX
  8
1
  6
CONTINUOUS
 62
     7
 10
-417.1215298321339
 20
145.7422128402671
  0
VERTEX
  8
1
  6
CONTINUOUS
 62
     7
 10
-417.1149843734027
 20
145.7185605915915
  0
VERTEX
  8
1
  6
CONTINUOUS
 62
     7
 10
-417.1096073597984
 20
145.6946156626479
  0
VERTEX
  8
1
  6
CONTINUOUS
 62
     7
 10
-417.1054117450176
 20
145.6704357388675
  0
VERTEX
  8
1
  6
CONTINUOUS
 62
     7
 10
-417.1024076366639
 20
145.6460790718046
  0
VERTEX
  8
1
  6
CONTINUOUS
 62
     7
 10
-417.1006022718973
 20
145.6216043388036
  0
VERTEX
  8
1
  6
CONTINUOUS
 62
     7
 10
-417.1
 20
145.5970705016398
  0
SEQEND
  8
1
  6
CONTINUOUS
 62
     7
  0
LINE
  8
1
  6
CONTINUOUS
 62
     7
 10
-414.9999999999999
 20
146.0970705016398
 11
-414.9999999999999
 21
147.6970705016398
  0
LINE
  8
1
  6
CONTINUOUS
 62
     7
 10
-433.0
 20
147.6970705016398
 11
-433.0
 21
146.0970705016398
  0
ARC
  8
1
  6
CONTINUOUS
 62
     7
 10
-440.5966566650683
 20
201.0584488857169
 40
7.999999999999981
 50
253.4957379909522
 51
286.3692093682834
  0
ARC
  8
1
  6
CONTINUOUS
 62
     7
 10
-440.5966566650683
 20
201.0584488857169
 40
11.99999999999999
 50
253.4957379909521
 51
274.3362907796682
  0
LINE
  8
1
  6
CONTINUOUS
 62
     7
 10
-431.7894186465833
 20
191.138455182266
 11
-424.2184224116082
 21
193.3623001785768
  0
LINE
  8
1
  6
CONTINUOUS
 62
     7
 10
-427.0249034396169
 20
196.7069340262537
 11
-432.9167221777056
 21
194.9763174451305
  0
LINE
  8
1
  6
CONTINUOUS
 62
     7
 10
-425.2409976519766
 20
197.2309245073752
 11
-426.8154468581092
 21
196.7684581581214
  0
ARC
  8
1
  6
CONTINUOUS
 62
     7
 10
-421.9999999999999
 20
186.1970705016398
 40
7.499999999999974
 50
281.5369590328154
 51
104.7047404844846
  0
ARC
  8
1
  6
CONTINUOUS
 62
     7
 10
-421.9999999999999
 20
186.1970705016398
 40
11.50000000000002
 50
277.4947174539265
 51
0.0
  0
ARC
  8
1
  6
CONTINUOUS
 62
     7
 10
-421.9999999999999
 20
186.1970705016398
 40
11.50000000000001
 50
0.0
 51
106.3692093682832
  0
LINE
  8
1
  6
CONTINUOUS
 62
     7
 10
-438.3420496028235
 20
179.0114166432917
 11
-427.5
 21
175.8267581108242
  0
LINE
  8
1
  6
CONTINUOUS
 62
     7
 10
-427.5
 20
179.9957456627793
 11
-437.2147460717012
 21
182.8492789061562
  0
ARC
  8
1
  6
CONTINUOUS
 62
     7
 10
-440.5966566650683
 20
171.3356921175628
 40
7.999999999999931
 50
73.63079063171705
 51
106.504262009048
  0
ARC
  8
1
  6
CONTINUOUS
 62
     7
 10
-440.5966566650683
 20
171.3356921175628
 40
12.0
 50
73.630790631717
 51
106.5042620090479
  0
ARC
  8
1
  6
CONTINUOUS
 62
     7
 10
-444.9999999999999
 20
186.1970705016399
 40
3.499999999999997
 50
196.6015495990202
 51
286.5042620090476
  0
ARC
  8
1
  6
CONTINUOUS
 62
     7
 10
-444.9999999999999
 20
186.1970705016399
 40
3.50000000000005
 50
73.49573799095236
 51
163.39845040098
  0
ARC
  8
1
  6
CONTINUOUS
 62
     7
 10
-444.9999999999999
 20
186.1970705016399
 40
7.499999999999963
 50
73.49573799095243
 51
172.337744339234
  0
ARC
  8
1
  6
CONTINUOUS
 62
     7
 10
-444.9999999999999
 20
186.1970705016399
 40
7.500000000000022
 50
187.662255660766
 51
286.5042620090476
  0
LINE
  8
1
  6
CONTINUOUS
 62
     7
 10
-438.1022924079506
 20
193.4531487561441
 11
-438.3420496028236
 21
193.382724359988
  0
LINE
  8
1
  6
CONTINUOUS
 62
     7
 10
-963.0000000000001
 20
185.1970705016399
 11
-954.6387508486442
 21
185.1970705016399
  0
LINE
  8
1
  6
CONTINUOUS
 62
     7
 10
-954.6387508486442
 20
187.1970705016399
 11
-963.0000000000001
 21
187.1970705016399
  0
LINE
  8
1
  6
CONTINUOUS
 62
     7
 10
-444.9999999999999
 20
187.1970705016398
 11
-453.3612491513557
 21
187.1970705016398
  0
LINE
  8
1
  6
CONTINUOUS
 62
     7
 10
-453.3612491513557
 20
185.1970705016398
 11
-444.9999999999999
 21
185.1970705016398
  0
LINE
  8
1
  6
CONTINUOUS
 62
     7
 10
-938.6874591785349
 20
187.1970705016399
 11
-954.6387508486442
 21
187.1970705016399
  0
LINE
  8
1
  6
CONTINUOUS
 62
     7
 10
-954.6387508486442
 20
185.1970705016399
 11
-938.6874591785349
 21
185.1970705016399
  0
LINE
  8
1
  6
CONTINUOUS
 62
     7
 10
-469.312540821465
 20
185.1970705016398
 11
-453.3612491513557
 21
185.1970705016398
  0
LINE
  8
1
  6
CONTINUOUS
 62
     7
 10
-453.3612491513557
 20
187.1970705016398
 11
-469.312540821465
 21
187.1970705016398
  0
LINE
  8
1
  6
CONTINUOUS
 62
     7
 10
-933.5000000000003
 20
183.4470705016399
 11
-924.5000000000003
 21
183.4470705016399
  0
LINE
  8
1
  6
CONTINUOUS
 62
     7
 10
-924.5000000000003
 20
188.9470705016399
 11
-933.5000000000003
 21
188.9470705016399
  0
LINE
  8
1
  6
CONTINUOUS
 62
     7
 10
-924.5000000000003
 20
183.4470705016398
 11
-924.0000000000002
 21
183.9470705016399
  0
LINE
  8
1
  6
CONTINUOUS
 62
     7
 10
-924.0000000000002
 20
188.4470705016399
 11
-924.5000000000003
 21
188.94707050164
  0
LINE
  8
1
  6
CONTINUOUS
 62
     7
 10
-933.5000000000003
 20
188.9470705016399
 11
-934.0000000000002
 21
188.44707050164
  0
LINE
  8
1
  6
CONTINUOUS
 62
     7
 10
-934.0000000000002
 20
183.9470705016398
 11
-933.5000000000003
 21
183.4470705016399
  0
LINE
  8
1
  6
CONTINUOUS
 62
     7
 10
-474.4999999999997
 20
188.9470705016398
 11
-483.4999999999997
 21
188.9470705016398
  0
LINE
  8
1
  6
CONTINUOUS
 62
     7
 10
-483.4999999999997
 20
183.4470705016398
 11
-474.4999999999997
 21
183.4470705016398
  0
LINE
  8
1
  6
CONTINUOUS
 62
     7
 10
-483.4999999999997
 20
188.9470705016398
 11
-483.9999999999997
 21
188.4470705016398
  0
LINE
  8
1
  6
CONTINUOUS
 62
     7
 10
-483.9999999999997
 20
183.9470705016398
 11
-483.4999999999997
 21
183.4470705016398
  0
LINE
  8
1
  6
CONTINUOUS
 62
     7
 10
-474.4999999999997
 20
183.4470705016398
 11
-473.9999999999997
 21
183.9470705016398
  0
LINE
  8
1
  6
CONTINUOUS
 62
     7
 10
-473.9999999999997
 20
188.4470705016398
 11
-474.4999999999997
 21
188.9470705016398
  0
LINE
  8
1
  6
CONTINUOUS
 62
     7
 10
-938.6874591785349
 20
187.1970705016399
 11
-935.5376529223945
 21
187.1970705016399
  0
LINE
  8
1
  6
CONTINUOUS
 62
     7
 10
-935.5376529223945
 20
185.1970705016399
 11
-938.6874591785349
 21
185.1970705016399
  0
LINE
  8
1
  6
CONTINUOUS
 62
     7
 10
-469.312540821465
 20
185.1970705016398
 11
-472.4623470776054
 21
185.1970705016398
  0
LINE
  8
1
  6
CONTINUOUS
 62
     7
 10
-472.4623470776054
 20
187.1970705016398
 11
-469.312540821465
 21
187.1970705016398
  0
LINE
  8
1
  6
CONTINUOUS
 62
     7
 10
-934.0
 20
187.1970705016399
 11
-935.5376529223945
 21
187.1970705016399
  0
LINE
  8
1
  6
CONTINUOUS
 62
     7
 10
-935.5376529223945
 20
185.1970705016399
 11
-934.0
 21
185.1970705016399
  0
LINE
  8
1
  6
CONTINUOUS
 62
     7
 10
-473.9999999999999
 20
185.1970705016398
 11
-472.4623470776054
 21
185.1970705016398
  0
LINE
  8
1
  6
CONTINUOUS
 62
     7
 10
-472.4623470776054
 20
187.1970705016398
 11
-473.9999999999999
 21
187.1970705016398
  0
LINE
  8
1
  6
CONTINUOUS
 62
     7
 10
-924.0000000000002
 20
185.1970705016399
 11
-483.9999999999997
 21
185.1970705016398
  0
LINE
  8
1
  6
CONTINUOUS
 62
     7
 10
-483.9999999999997
 20
187.1970705016399
 11
-924.0000000000001
 21
187.1970705016399
  0
ARC
  8
1
  6
CONTINUOUS
 62
     7
 10
-424.0
 20
186.1970705016399
 40
3.500000000000003
 50
0.0
 51
180.0
  0
LINE
  8
1
  6
CONTINUOUS
 62
     7
 10
-420.5
 20
161.6234221171937
 11
-420.5
 21
186.1970705016399
  0
LINE
  8
1
  6
CONTINUOUS
 62
     7
 10
-427.5
 20
186.1970705016399
 11
-427.5
 21
161.6233765305897
  0
LINE
  8
1
  6
CONTINUOUS
 62
     7
 10
-416.5240777928304
 20
150.1970705016398
 11
-417.1349956883154
 21
161.8540783703687
  0
LINE
  8
1
  6
CONTINUOUS
 62
     7
 10
-430.8650043116846
 20
161.8540783703687
 11
-431.4759222071696
 21
150.1970705016398
  0
ARC
  8
1
  6
CONTINUOUS
 62
     7
 10
-427.8691157074208
 20
161.6970705016399
 40
3.000000000000003
 50
90.0
 51
176.9999999999999
  0
ARC
  8
1
  6
CONTINUOUS
 62
     7
 10
-420.1308842925791
 20
161.6970705016399
 40
3.00000000000003
 50
3.000000000000166
 51
90.00000000000009
  0
LINE
  8
1
  6
CONTINUOUS
 62
     7
 10
-417.3
 20
147.6970705016399
 11
-417.3
 21
150.1970705016399
  0
LINE
  8
1
  6
CONTINUOUS
 62
     7
 10
-430.7
 20
150.1970705016399
 11
-430.7
 21
147.6970705016399
  0
ENDBLK
  8
0
  0
ENDSEC
  0
SECTION
  2
ENTITIES
  0
INSERT
  8
1
  6
CONTINUOUS
 62
     7
  2
D_FRAME_VIEW_1484
 10
0.0
 20
0.0
 30
0.0
  0
LINE
  8
1
  6
CENTER
 62
     1
 10
-488.8695461813655
 20
265.0
 11
-485.8695461813655
 21
265.0
  0
LINE
  8
1
  6
CENTER
 62
     1
 10
-487.3695461813654
 20
262.0
 11
-487.3695461813654
 21
268.0
  0
LINE
  8
1
  6
CENTER
 62
     1
 10
-488.8695461813655
 20
265.0
 11
-485.8695461813655
 21
265.0
  0
LINE
  8
1
  6
CENTER
 62
     1
 10
-487.3695461813654
 20
268.0
 11
-487.3695461813654
 21
262.0
  0
TEXT
  8
1
  6
CONTINUOUS
 62
     7
 10
-562.826250468926
 20
108.3284200325122
 40
3.0
  1
TY2-05FMN
  0
LINE
  8
1
  6
CONTINUOUS
 62
     2
 10
-562.684090909091
 20
107.7704545454545
 11
-547.3159090909093
 21
107.7704545454545
  0
INSERT
  8
1
  6
CONTINUOUS
 62
     7
  2
D_FRAME_VIEW_1896
 10
0.0
 20
0.0
 30
0.0
  0
ENDSEC
  0
EOF
