  0
SECTION
  2
HEADER
  9
$ACADVER
  1
AC1004
  9
$INSBASE
 10
0.0
 20
0.0
  9
$EXTMIN
 10
41.43665746600454
 20
93.67045454545455
  9
$EXTMAX
 10
253.5633425339955
 20
160.7277864045001
  9
$LIMMIN
 10
0.0
 20
0.0
  9
$LIMMAX
 10
12.0
 20
9.0
  9
$ORTHOMODE
 70
     0
  9
$REGENMODE
 70
     1
  9
$FILLMODE
 70
     1
  9
$QTEXTMODE
 70
     0
  9
$DRAGMODE
 70
     2
  9
$LTSCALE
 40
1.0
  9
$OSMODE
 70
    37
  9
$ATTMODE
 70
     1
  9
$TEXTSIZE
 40
0.2
  9
$TRACEWID
 40
0.05
  9
$TEXTSTYLE
  7
STANDARD
  9
$CLAYER
  8
0
  9
$CELTYPE
  6
BYLAYER
  9
$CECOLOR
 62
   256
  9
$DIMSCALE
 40
1.0
  9
$DIMASZ
 40
3.0
  9
$DIMEXO
 40
0.0625
  9
$DIMDLI
 40
0.38
  9
$DIMRND
 40
0.0
  9
$DIMDLE
 40
0.0
  9
$DIMEXE
 40
1.5
  9
$DIMTP
 40
0.0
  9
$DIMTM
 40
0.0
  9
$DIMTXT
 40
3.0
  9
$DIMCEN
 40
0.09
  9
$DIMTSZ
 40
0.0
  9
$DIMTOL
 70
     0
  9
$DIMLIM
 70
     0
  9
$DIMTIH
 70
     1
  9
$DIMTOH
 70
     1
  9
$DIMSE1
 70
     0
  9
$DIMSE2
 70
     0
  9
$DIMTAD
 70
     1
  9
$DIMZIN
 70
     0
  9
$DIMBLK
  1

  9
$DIMASO
 70
     1
  9
$DIMSHO
 70
     1
  9
$DIMPOST
  1

  9
$DIMAPOST
  1

  9
$DIMALT
 70
     0
  9
$DIMALTD
 70
     2
  9
$DIMALTF
 40
25.4
  9
$DIMLFAC
 40
1.0
  9
$DIMTOFL
 70
     0
  9
$DIMTVP
 40
0.0
  9
$DIMTIX
 70
     0
  9
$DIMSOXD
 70
     0
  9
$DIMSAH
 70
     0
  9
$DIMBLK1
  1

  9
$DIMBLK2
  1

  9
$LUNITS
 70
     2
  9
$LUPREC
 70
     4
  9
$SKETCHINC
 40
0.1
  9
$FILLETRAD
 40
0.5
  9
$AUNITS
 70
     0
  9
$AUPREC
 70
     0
  9
$MENU
  1
.
  9
$ELEVATION
 40
0.0
  9
$THICKNESS
 40
0.0
  9
$LIMCHECK
 70
     0
  9
$CHAMFERA
 40
0.0
  9
$CHAMFERB
 40
0.0
  9
$SKPOLY
 70
     0
  9
$TDCREATE
 40
2458808.464832847
  9
$TDUPDATE
 40
2458808.464833032
  9
$TDINDWG
 40
0.0000000116
  9
$TDUSRTIMER
 40
0.0000000116
  9
$USRTIMER
 70
     1
  9
$ANGBASE
 50
0.0
  9
$ANGDIR
 70
     0
  9
$PDMODE
 70
     0
  9
$PDSIZE
 40
0.0
  9
$PLINEWID
 40
0.0
  9
$COORDS
 70
     1
  9
$SPLFRAME
 70
     0
  9
$SPLINETYPE
 70
     6
  9
$SPLINESEGS
 70
     8
  9
$ATTDIA
 70
     0
  9
$ATTREQ
 70
     1
  9
$SURFTAB1
 70
     6
  9
$SURFTAB2
 70
     6
  9
$SURFTYPE
 70
     6
  9
$SURFU
 70
     6
  9
$SURFV
 70
     6
  9
$UCSNAME
  2

  9
$UCSORG
 10
0.0
 20
0.0
 30
0.0
  9
$UCSXDIR
 10
1.0
 20
0.0
 30
0.0
  9
$UCSYDIR
 10
0.0
 20
1.0
 30
0.0
  9
$USERI1
 70
     0
  9
$USERI2
 70
     0
  9
$USERI3
 70
     0
  9
$USERI4
 70
     0
  9
$USERI5
 70
     0
  9
$USERR1
 40
0.0
  9
$USERR2
 40
0.0
  9
$USERR3
 40
0.0
  9
$USERR4
 40
0.0
  9
$USERR5
 40
0.0
  9
$WORLDVIEW
 70
     1
  0
ENDSEC
  0
SECTION
  2
TABLES
  0
TABLE
  2
LTYPE
 70
     1
  0
LTYPE
  2
CONTINUOUS
 70
     0
  3
Solid line
 72
    65
 73
     0
 40
0.0
  0
ENDTAB
  0
TABLE
  2
LAYER
 70
     1
  0
LAYER
  2
0
 70
     0
 62
     7
  6
CONTINUOUS
  0
ENDTAB
  0
TABLE
  2
STYLE
 70
     2
  0
STYLE
  2
STANDARD
 70
     0
 40
0.0
 41
1.0
 50
0.0
 71
     0
 42
0.2
  3
txt
  4

  0
STYLE
  2
ＭＳ_ゴシック
 70
     0
 40
0.0
 41
1.0
 50
0.0
 71
     0
 42
0.2
  3
ＭＳ ゴシック.shx
  4

  0
ENDTAB
  0
TABLE
  2
VIEW
 70
     0
  0
ENDTAB
  0
ENDSEC
  0
SECTION
  2
BLOCKS
  0
BLOCK
  8
0
  2
D_FRAME_VIEW_1379
 70
     0
 10
0.0
 20
0.0
  0
LINE
  8
0
  6
CONTINUOUS
 62
     7
 10
252.5633425339955
 20
108.7277864045001
 11
251.5633425339954
 21
108.7277864045001
  0
LINE
  8
0
  6
CONTINUOUS
 62
     7
 10
218.5633425339954
 20
108.7277864045001
 11
217.5633425339954
 21
108.7277864045001
  0
ARC
  8
0
  6
CONTINUOUS
 62
     7
 10
221.4174445002451
 20
157.7277864045001
 40
1.000000000000001
 50
89.99999999999883
 51
153.4349488229224
  0
LINE
  8
0
  6
CONTINUOUS
 62
     7
 10
248.7092405677458
 20
158.7277864045001
 11
221.4174445002451
 21
158.7277864045001
  0
LINE
  8
0
  6
CONTINUOUS
 62
     7
 10
251.4577697249953
 20
154.4667960675007
 11
249.6036677587456
 21
158.1750000000001
  0
ARC
  8
0
  6
CONTINUOUS
 62
     7
 10
219.5633425339954
 20
154.0195824720007
 40
1.000000000000034
 50
153.4349488229222
 51
180.0
  0
LINE
  8
0
  6
CONTINUOUS
 62
     7
 10
220.5230173092452
 20
158.1750000000001
 11
218.6689153429955
 21
154.4667960675007
  0
LINE
  8
0
  6
CONTINUOUS
 62
     7
 10
218.5633425339954
 20
154.0195824720007
 11
218.5633425339954
 21
108.7277864045001
  0
ARC
  8
0
  6
CONTINUOUS
 62
     7
 10
248.7092405677458
 20
157.7277864045001
 40
1.00000000000001
 50
26.56505117707825
 51
89.9999999999999
  0
LINE
  8
0
  6
CONTINUOUS
 62
     7
 10
251.5633425339954
 20
108.7277864045001
 11
251.5633425339954
 21
154.0195824720007
  0
ARC
  8
0
  6
CONTINUOUS
 62
     7
 10
250.5633425339955
 20
154.0195824720007
 40
1.000000000000001
 50
359.9999999999996
 51
26.56505117707763
  0
LINE
  8
0
  6
CONTINUOUS
 62
     7
 10
253.5633425339955
 20
154.2556504495005
 11
253.5633425339955
 21
108.7277864045001
  0
LINE
  8
0
  6
CONTINUOUS
 62
     7
 10
253.5633425339955
 20
108.7277864045001
 11
252.5633425339955
 21
108.7277864045001
  0
LINE
  8
0
  6
CONTINUOUS
 62
     7
 10
216.5633425339954
 20
108.7277864045001
 11
216.5633425339954
 21
154.2556504495005
  0
LINE
  8
0
  6
CONTINUOUS
 62
     7
 10
217.5633425339954
 20
108.7277864045001
 11
216.5633425339954
 21
108.7277864045001
  0
ARC
  8
0
  6
CONTINUOUS
 62
     7
 10
249.3272745564956
 20
158.7277864045001
 40
2.000000000000002
 50
26.56505117707809
 51
89.9999999999999
  0
LINE
  8
0
  6
CONTINUOUS
 62
     7
 10
216.7744881519956
 20
155.1500776405004
 11
219.0105561294954
 21
159.6222135955
  0
LINE
  8
0
  6
CONTINUOUS
 62
     7
 10
220.7994105114952
 20
160.7277864045001
 11
249.3272745564956
 21
160.7277864045001
  0
ARC
  8
0
  6
CONTINUOUS
 62
     7
 10
218.5633425339954
 20
154.2556504495005
 40
2.000000000000002
 50
153.4349488229222
 51
179.9999999999998
  0
ARC
  8
0
  6
CONTINUOUS
 62
     7
 10
251.5633425339955
 20
154.2556504495005
 40
1.999999999999995
 50
0.0000000000002274
 51
26.56505117707815
  0
ARC
  8
0
  6
CONTINUOUS
 62
     7
 10
220.7994105114952
 20
158.7277864045001
 40
1.999999999999995
 50
90.0
 51
153.434948822922
  0
LINE
  8
0
  6
CONTINUOUS
 62
     7
 10
251.1161289384955
 20
159.6222135955
 11
253.3521969159953
 21
155.1500776405004
  0
LINE
  8
0
  6
CONTINUOUS
 62
     7
 10
224.0633425339954
 20
108.7277864045001
 11
224.0633425339954
 21
119.7277864045001
  0
LINE
  8
0
  6
CONTINUOUS
 62
     7
 10
224.0633425339954
 20
108.7277864045001
 11
218.5633425339954
 21
108.7277864045001
  0
LINE
  8
0
  6
CONTINUOUS
 62
     7
 10
246.0633425339954
 20
119.7277864045001
 11
246.0633425339954
 21
108.7277864045569
  0
LINE
  8
0
  6
CONTINUOUS
 62
     7
 10
251.5633425339954
 20
108.7277864045001
 11
246.0633425339954
 21
108.7277864045001
  0
ARC
  8
0
  6
CONTINUOUS
 62
     7
 10
235.0633425339954
 20
119.7277864045002
 40
10.9999999999999
 50
68.49963601905203
 51
90.0
  0
ARC
  8
0
  6
CONTINUOUS
 62
     7
 10
235.0633425339953
 20
119.7277864045011
 40
10.99999999999902
 50
89.99999999999928
 51
111.5003639628318
  0
LINE
  8
0
  6
CONTINUOUS
 62
     7
 10
231.0317640263937
 20
129.9623540425121
 11
230.6923373512861
 21
129.8220577349493
  0
LINE
  8
0
  6
CONTINUOUS
 62
     7
 10
239.4300605778631
 20
129.8239130640344
 11
239.0949210448334
 21
129.9623540412373
  0
ARC
  8
0
  6
CONTINUOUS
 62
     7
 10
235.0633425339953
 20
119.7277864045003
 40
10.99999999999973
 50
113.4134991927639
 51
134.9999999997633
  0
ARC
  8
0
  6
CONTINUOUS
 62
     7
 10
235.0633425339955
 20
119.7277864045001
 40
10.99999999999996
 50
45.39647255746867
 51
66.6108326661958
  0
ARC
  8
0
  6
CONTINUOUS
 62
     7
 10
235.0633425339947
 20
119.7277864044996
 40
11.0000000000009
 50
23.41349917321917
 51
45.39647255746783
  0
ARC
  8
0
  6
CONTINUOUS
 62
     7
 10
235.0633425339954
 20
119.7277864045001
 40
10.99999999999995
 50
134.9999999997631
 51
156.6048426626619
  0
LINE
  8
0
  6
CONTINUOUS
 62
     7
 10
245.2979101720188
 20
123.7593649120732
 11
245.1576138659358
 21
124.0987915837658
  0
LINE
  8
0
  6
CONTINUOUS
 62
     7
 10
224.9676724494117
 20
124.09555992693
 11
224.8276939136605
 21
123.756619650123
  0
ARC
  8
0
  6
CONTINUOUS
 62
     7
 10
235.0633425339949
 20
119.7277864044999
 40
11.00000000000056
 50
0.0000000000007951
 51
21.50036396266983
  0
ARC
  8
0
  6
CONTINUOUS
 62
     7
 10
235.0633425339955
 20
119.7277864045001
 40
11.00000000000001
 50
158.5150039182043
 51
179.9999957348276
  0
ARC
  8
0
  6
CONTINUOUS
 62
     7
 10
235.0633425339954
 20
119.7277864045001
 40
10.99999999999998
 50
179.9999957348274
 51
211.0027191338739
  0
ARC
  8
0
  6
CONTINUOUS
 62
     7
 10
223.0633425339954
 20
112.5166838535721
 40
3.000000000000003
 50
0.0
 51
31.00271913387397
  0
LINE
  8
0
  6
CONTINUOUS
 62
     7
 10
226.0633425339954
 20
112.5166838535721
 11
226.0633425339954
 21
110.7277864045001
  0
ARC
  8
0
  6
CONTINUOUS
 62
     7
 10
224.0633425339954
 20
110.7277864045001
 40
2.000000000000002
 50
270.0
 51
0.0
  0
ARC
  8
0
  6
CONTINUOUS
 62
     7
 10
247.0633425339954
 20
112.5166838535721
 40
3.000000000000008
 50
148.997280866126
 51
180.0
  0
ARC
  8
0
  6
CONTINUOUS
 62
     7
 10
246.0633425339954
 20
110.7277864045001
 40
2.000000000000002
 50
180.0
 51
270.0
  0
LINE
  8
0
  6
CONTINUOUS
 62
     7
 10
244.0633425339954
 20
110.7277864045001
 11
244.0633425339954
 21
112.5166838535721
  0
ARC
  8
0
  6
CONTINUOUS
 62
     7
 10
235.0633425339954
 20
119.7277864045001
 40
11.0
 50
328.9972808661259
 51
359.9999895867381
  0
ENDBLK
  8
0
  0
BLOCK
  8
0
  2
D_FRAME_VIEW_1418
 70
     0
 10
0.0
 20
0.0
  0
LINE
  8
0
  6
CONTINUOUS
 62
     7
 10
68.93665746600456
 20
112.5166838535721
 11
68.93665746600456
 21
110.7277864045001
  0
ARC
  8
0
  6
CONTINUOUS
 62
     7
 10
71.93665746600455
 20
112.5166838535721
 40
2.999999999999996
 50
148.997280866126
 51
180.0
  0
ARC
  8
0
  6
CONTINUOUS
 62
     7
 10
59.93665746600455
 20
119.7277864045001
 40
11.0
 50
328.9972808661261
 51
211.0027191338739
  0
ARC
  8
0
  6
CONTINUOUS
 62
     7
 10
47.93665746600456
 20
112.5166838535721
 40
2.999999999999989
 50
0.0
 51
31.00271913387398
  0
LINE
  8
0
  6
CONTINUOUS
 62
     7
 10
50.93665746600455
 20
110.7277864045001
 11
50.93665746600455
 21
112.5166838535721
  0
LINE
  8
0
  6
CONTINUOUS
 62
     7
 10
70.93665746600455
 20
108.7277864045001
 11
71.93665746600455
 21
108.7277864045001
  0
LINE
  8
0
  6
CONTINUOUS
 62
     7
 10
47.93665746600456
 20
108.7277864045001
 11
48.93665746600456
 21
108.7277864045001
  0
ARC
  8
0
  6
CONTINUOUS
 62
     7
 10
48.93665746600456
 20
110.7277864045001
 40
2.000000000000002
 50
270.0
 51
0.0
  0
ARC
  8
0
  6
CONTINUOUS
 62
     7
 10
70.93665746600455
 20
110.7277864045001
 40
1.999999999999988
 50
180.0
 51
270.0
  0
ARC
  8
0
  6
CONTINUOUS
 62
     7
 10
59.93665746600455
 20
119.7277864045001
 40
13.0
 50
0.0
 51
180.0
  0
LINE
  8
0
  6
CONTINUOUS
 62
     7
 10
72.93665746600456
 20
119.7277864045001
 11
72.93665746600458
 21
108.7277864045001
  0
LINE
  8
0
  6
CONTINUOUS
 62
     7
 10
72.93665746600456
 20
108.7277864045001
 11
71.93665746600455
 21
108.7277864045001
  0
LINE
  8
0
  6
CONTINUOUS
 62
     7
 10
46.93665746600456
 20
108.7277864045001
 11
46.93665746600456
 21
119.7277864045001
  0
LINE
  8
0
  6
CONTINUOUS
 62
     7
 10
47.93665746600456
 20
108.7277864045001
 11
46.93665746600456
 21
108.7277864045001
  0
LINE
  8
0
  6
CONTINUOUS
 62
     7
 10
78.43665746600458
 20
108.7277864045001
 11
78.43665746600458
 21
154.2556504495005
  0
LINE
  8
0
  6
CONTINUOUS
 62
     7
 10
72.99126762993899
 20
108.7277864045001
 11
78.43665746600458
 21
108.7277864045001
  0
LINE
  8
0
  6
CONTINUOUS
 62
     7
 10
41.43665746600455
 20
154.2556504495005
 11
41.43665746600455
 21
108.7277864045001
  0
LINE
  8
0
  6
CONTINUOUS
 62
     7
 10
41.43665746600455
 20
108.7277864045001
 11
46.88204730207013
 21
108.7277864045001
  0
LINE
  8
0
  6
CONTINUOUS
 62
     7
 10
46.91206730207013
 20
108.7277864045001
 11
46.93665746600456
 21
108.7277864045001
  0
LINE
  8
0
  6
CONTINUOUS
 62
     7
 10
72.93665746600456
 20
108.7277864045001
 11
72.96124762993898
 21
108.7277864045001
  0
ARC
  8
0
  6
CONTINUOUS
 62
     7
 10
45.67272544350431
 20
158.7277864045002
 40
1.99999999999992
 50
90.00000000000318
 51
153.4349488229236
  0
ARC
  8
0
  6
CONTINUOUS
 62
     7
 10
74.20058948850478
 20
158.7277864045001
 40
2.000000000000002
 50
26.56505117707889
 51
89.99999999999761
  0
LINE
  8
0
  6
CONTINUOUS
 62
     7
 10
75.9894438705046
 20
159.6222135955
 11
78.22551184800439
 21
155.1500776405004
  0
LINE
  8
0
  6
CONTINUOUS
 62
     7
 10
41.64780308400471
 20
155.1500776405004
 11
43.88387106150454
 21
159.6222135955001
  0
LINE
  8
0
  6
CONTINUOUS
 62
     7
 10
45.67272544350438
 20
160.7277864045001
 11
59.93665746600457
 21
160.7277864045001
  0
LINE
  8
0
  6
CONTINUOUS
 62
     7
 10
59.93665746600455
 20
160.7277864045001
 11
74.20058948850478
 21
160.7277864045001
  0
LINE
  8
0
  6
CONTINUOUS
 62
     7
 10
78.38315544494004
 20
154.7151562905951
 11
78.43665746600455
 21
154.2556504495005
  0
LINE
  8
0
  6
CONTINUOUS
 62
     7
 10
78.22551184800457
 20
155.1500776405001
 11
78.38315544494004
 21
154.7151562905951
  0
LINE
  8
0
  6
CONTINUOUS
 62
     7
 10
41.55125055788932
 20
154.9229141086573
 11
41.6478030840048
 21
155.1500776405006
  0
LINE
  8
0
  6
CONTINUOUS
 62
     7
 10
41.43665746601284
 20
154.2556446924736
 11
41.55125055788932
 21
154.9229141086573
  0
LINE
  8
0
  6
CONTINUOUS
 62
     7
 10
70.86164609954464
 20
121.007128167215
 11
70.86086525079529
 21
121.0138940582985
  0
ENDBLK
  8
0
  0
BLOCK
  8
0
  2
D_FRAME_VIEW_1292
 70
     0
 10
0.0
 20
0.0
  0
LINE
  8
0
  6
CONTINUOUS
 62
     7
 10
164.705691575822
 20
160.4404562205132
 11
164.7118449302602
 21
160.4588416727429
  0
LINE
  8
0
  6
CONTINUOUS
 62
     7
 10
135.134128166915
 20
108.7277864045001
 11
165.0
 21
108.7277864045001
  0
LINE
  8
0
  6
CONTINUOUS
 62
     7
 10
165.0
 20
108.7277864045001
 11
184.0
 21
108.7277864045001
  0
LINE
  8
0
  6
CONTINUOUS
 62
     7
 10
185.0
 20
154.2556504495005
 11
185.0
 21
108.7277864045001
  0
LINE
  8
0
  6
CONTINUOUS
 62
     7
 10
185.0
 20
108.7277864045001
 11
184.0
 21
108.7277864045001
  0
LINE
  8
0
  6
CONTINUOUS
 62
     7
 10
185.0
 20
154.7028640450005
 11
185.0
 21
154.2556504495005
  0
LINE
  8
0
  6
CONTINUOUS
 62
     7
 10
185.0
 20
159.1750000000001
 11
185.0
 21
154.7028640450005
  0
LINE
  8
0
  6
CONTINUOUS
 62
     7
 10
165.413316173896
 20
160.7277864045001
 11
184.0
 21
160.7277864045001
  0
ARC
  8
0
  6
CONTINUOUS
 62
     7
 10
184.0
 20
159.7277864045001
 40
1.000000000000001
 50
0.0000000000003979
 51
90.0
  0
LINE
  8
0
  6
CONTINUOUS
 62
     7
 10
185.0
 20
159.7277864045001
 11
185.0
 21
159.1750000000001
  0
POLYLINE
  8
0
  6
CONTINUOUS
 62
     7
 66
     1
  0
VERTEX
  8
0
  6
CONTINUOUS
 62
     7
 10
165.3941631806202
 20
160.7277864045001
  0
VERTEX
  8
0
  6
CONTINUOUS
 62
     7
 10
165.3481490226499
 20
160.7267271921679
  0
VERTEX
  8
0
  6
CONTINUOUS
 62
     7
 10
165.301879005463
 20
160.7235191151286
  0
VERTEX
  8
0
  6
CONTINUOUS
 62
     7
 10
165.2555019488685
 20
160.7181262768718
  0
VERTEX
  8
0
  6
CONTINUOUS
 62
     7
 10
165.2091713824636
 20
160.7105264691229
  0
VERTEX
  8
0
  6
CONTINUOUS
 62
     7
 10
165.1630439682606
 20
160.7007118434101
  0
VERTEX
  8
0
  6
CONTINUOUS
 62
     7
 10
165.1172778171962
 20
160.6886893629312
  0
VERTEX
  8
0
  6
CONTINUOUS
 62
     7
 10
165.0720307356048
 20
160.6744810162247
  0
VERTEX
  8
0
  6
CONTINUOUS
 62
     7
 10
165.0274584412473
 20
160.6581237810047
  0
VERTEX
  8
0
  6
CONTINUOUS
 62
     7
 10
164.9837127905235
 20
160.6396693340856
  0
VERTEX
  8
0
  6
CONTINUOUS
 62
     7
 10
164.9409400588882
 20
160.619183511253
  0
VERTEX
  8
0
  6
CONTINUOUS
 62
     7
 10
164.8992793152
 20
160.5967455288246
  0
VERTEX
  8
0
  6
CONTINUOUS
 62
     7
 10
164.8588609277922
 20
160.5724469861051
  0
VERTEX
  8
0
  6
CONTINUOUS
 62
     7
 10
164.819805235615
 20
160.54639067459
  0
VERTEX
  8
0
  6
CONTINUOUS
 62
     7
 10
164.7822214121021
 20
160.518689225296
  0
VERTEX
  8
0
  6
CONTINUOUS
 62
     7
 10
164.7462065427635
 20
160.4894636297454
  0
VERTEX
  8
0
  6
CONTINUOUS
 62
     7
 10
164.7118449302602
 20
160.4588416727429
  0
SEQEND
  8
0
  6
CONTINUOUS
 62
     7
  0
ARC
  8
0
  6
CONTINUOUS
 62
     7
 10
134.4087552290696
 20
134.2277864045001
 40
1.500000000000001
 50
270.0
 51
313.025065989118
  0
LINE
  8
0
  6
CONTINUOUS
 62
     7
 10
134.8636363636363
 20
108.7277864045001
 11
135.134128166915
 21
108.7277864045001
  0
LINE
  8
0
  6
CONTINUOUS
 62
     7
 10
134.8636363636363
 20
108.7277864045001
 11
116.0
 21
108.7277864045001
  0
LINE
  8
0
  6
CONTINUOUS
 62
     7
 10
115.0
 20
108.7277864045001
 11
115.0
 21
119.7277864045001
  0
LINE
  8
0
  6
CONTINUOUS
 62
     7
 10
116.0
 20
108.7277864045001
 11
115.0
 21
108.7277864045001
  0
LINE
  8
0
  6
CONTINUOUS
 62
     7
 10
115.0
 20
119.7277864045001
 11
115.0
 21
131.7277864045001
  0
ARC
  8
0
  6
CONTINUOUS
 62
     7
 10
-1017.116903547482
 20
1397.908964239191
 40
1711.149610027015
 50
312.3418518182824
 51
313.6823124289606
  0
LINE
  8
0
  6
CONTINUOUS
 62
     7
 10
134.4087552290696
 20
132.7277864045001
 11
116.0
 21
132.7277864045001
  0
ARC
  8
0
  6
CONTINUOUS
 62
     7
 10
116.0
 20
131.7277864045001
 40
1.000000000000001
 50
90.00000000000001
 51
180.0
  0
ENDBLK
  8
0
  0
ENDSEC
  0
SECTION
  2
ENTITIES
  0
INSERT
  8
0
  6
CONTINUOUS
 62
     7
  2
D_FRAME_VIEW_1379
 10
0.0
 20
0.0
 30
0.0
  0
INSERT
  8
0
  6
CONTINUOUS
 62
     7
  2
D_FRAME_VIEW_1418
 10
0.0
 20
0.0
 30
0.0
  0
INSERT
  8
0
  6
CONTINUOUS
 62
     7
  2
D_FRAME_VIEW_1292
 10
0.0
 20
0.0
 30
0.0
  0
TEXT
  8
0
  6
CONTINUOUS
 62
     7
 10
139.0817900462673
 20
93.32842003251218
 40
3.0
  1
VECJ-16
  0
ENDSEC
  0
EOF
