  0
SECTION
  2
HEADER
  9
$ACADVER
  1
AC1004
  9
$INSBASE
 10
0.0
 20
0.0
  9
$EXTMIN
 10
53.43665650823967
 20
83.67045454545455
  9
$EXTMAX
 10
256.5633434917603
 20
153.7277864045001
  9
$LIMMIN
 10
0.0
 20
0.0
  9
$LIMMAX
 10
12.0
 20
9.0
  9
$ORTHOMODE
 70
     0
  9
$REGENMODE
 70
     1
  9
$FILLMODE
 70
     1
  9
$QTEXTMODE
 70
     0
  9
$DRAGMODE
 70
     2
  9
$LTSCALE
 40
1.0
  9
$OSMODE
 70
    37
  9
$ATTMODE
 70
     1
  9
$TEXTSIZE
 40
0.2
  9
$TRACEWID
 40
0.05
  9
$TEXTSTYLE
  7
STANDARD
  9
$CLAYER
  8
0
  9
$CELTYPE
  6
BYLAYER
  9
$CECOLOR
 62
   256
  9
$DIMSCALE
 40
1.0
  9
$DIMASZ
 40
3.0
  9
$DIMEXO
 40
0.0625
  9
$DIMDLI
 40
0.38
  9
$DIMRND
 40
0.0
  9
$DIMDLE
 40
0.0
  9
$DIMEXE
 40
1.5
  9
$DIMTP
 40
0.0
  9
$DIMTM
 40
0.0
  9
$DIMTXT
 40
3.0
  9
$DIMCEN
 40
0.09
  9
$DIMTSZ
 40
0.0
  9
$DIMTOL
 70
     0
  9
$DIMLIM
 70
     0
  9
$DIMTIH
 70
     1
  9
$DIMTOH
 70
     1
  9
$DIMSE1
 70
     0
  9
$DIMSE2
 70
     0
  9
$DIMTAD
 70
     1
  9
$DIMZIN
 70
     0
  9
$DIMBLK
  1

  9
$DIMASO
 70
     1
  9
$DIMSHO
 70
     1
  9
$DIMPOST
  1

  9
$DIMAPOST
  1

  9
$DIMALT
 70
     0
  9
$DIMALTD
 70
     2
  9
$DIMALTF
 40
25.4
  9
$DIMLFAC
 40
1.0
  9
$DIMTOFL
 70
     0
  9
$DIMTVP
 40
0.0
  9
$DIMTIX
 70
     0
  9
$DIMSOXD
 70
     0
  9
$DIMSAH
 70
     0
  9
$DIMBLK1
  1

  9
$DIMBLK2
  1

  9
$LUNITS
 70
     2
  9
$LUPREC
 70
     4
  9
$SKETCHINC
 40
0.1
  9
$FILLETRAD
 40
0.5
  9
$AUNITS
 70
     0
  9
$AUPREC
 70
     0
  9
$MENU
  1
.
  9
$ELEVATION
 40
0.0
  9
$THICKNESS
 40
0.0
  9
$LIMCHECK
 70
     0
  9
$CHAMFERA
 40
0.0
  9
$CHAMFERB
 40
0.0
  9
$SKPOLY
 70
     0
  9
$TDCREATE
 40
2458808.466800833
  9
$TDUPDATE
 40
2458808.466801018
  9
$TDINDWG
 40
0.0000000116
  9
$TDUSRTIMER
 40
0.0000000116
  9
$USRTIMER
 70
     1
  9
$ANGBASE
 50
0.0
  9
$ANGDIR
 70
     0
  9
$PDMODE
 70
     0
  9
$PDSIZE
 40
0.0
  9
$PLINEWID
 40
0.0
  9
$COORDS
 70
     1
  9
$SPLFRAME
 70
     0
  9
$SPLINETYPE
 70
     6
  9
$SPLINESEGS
 70
     8
  9
$ATTDIA
 70
     0
  9
$ATTREQ
 70
     1
  9
$SURFTAB1
 70
     6
  9
$SURFTAB2
 70
     6
  9
$SURFTYPE
 70
     6
  9
$SURFU
 70
     6
  9
$SURFV
 70
     6
  9
$UCSNAME
  2

  9
$UCSORG
 10
0.0
 20
0.0
 30
0.0
  9
$UCSXDIR
 10
1.0
 20
0.0
 30
0.0
  9
$UCSYDIR
 10
0.0
 20
1.0
 30
0.0
  9
$USERI1
 70
     0
  9
$USERI2
 70
     0
  9
$USERI3
 70
     0
  9
$USERI4
 70
     0
  9
$USERI5
 70
     0
  9
$USERR1
 40
0.0
  9
$USERR2
 40
0.0
  9
$USERR3
 40
0.0
  9
$USERR4
 40
0.0
  9
$USERR5
 40
0.0
  9
$WORLDVIEW
 70
     1
  0
ENDSEC
  0
SECTION
  2
TABLES
  0
TABLE
  2
LTYPE
 70
     1
  0
LTYPE
  2
CONTINUOUS
 70
     0
  3
Solid line
 72
    65
 73
     0
 40
0.0
  0
ENDTAB
  0
TABLE
  2
LAYER
 70
     1
  0
LAYER
  2
0
 70
     0
 62
     7
  6
CONTINUOUS
  0
ENDTAB
  0
TABLE
  2
STYLE
 70
     2
  0
STYLE
  2
STANDARD
 70
     0
 40
0.0
 41
1.0
 50
0.0
 71
     0
 42
0.2
  3
txt
  4

  0
STYLE
  2
ＭＳ_ゴシック
 70
     0
 40
0.0
 41
1.0
 50
0.0
 71
     0
 42
0.2
  3
ＭＳ ゴシック.shx
  4

  0
ENDTAB
  0
TABLE
  2
VIEW
 70
     0
  0
ENDTAB
  0
ENDSEC
  0
SECTION
  2
BLOCKS
  0
BLOCK
  8
0
  2
D_FRAME_VIEW_1292
 70
     0
 10
0.0
 20
0.0
  0
LINE
  8
0
  6
CONTINUOUS
 62
     7
 10
172.2054328763058
 20
153.441711884557
 11
172.2139340807355
 21
153.467726477896
  0
LINE
  8
0
  6
CONTINUOUS
 62
     7
 10
139.5
 20
95.72778640450007
 11
172.5
 21
95.72778640450007
  0
LINE
  8
0
  6
CONTINUOUS
 62
     7
 10
172.5
 20
95.72778640450005
 11
191.5
 21
95.72778640450005
  0
LINE
  8
0
  6
CONTINUOUS
 62
     7
 10
192.5
 20
147.2556504495005
 11
192.5
 21
95.72778640450005
  0
LINE
  8
0
  6
CONTINUOUS
 62
     7
 10
192.5
 20
95.72778640450005
 11
191.5
 21
95.72778640450008
  0
LINE
  8
0
  6
CONTINUOUS
 62
     7
 10
192.5
 20
147.7028640450004
 11
192.5
 21
147.2556504495005
  0
LINE
  8
0
  6
CONTINUOUS
 62
     7
 10
192.5
 20
152.1750000000001
 11
192.5
 21
147.7028640450004
  0
LINE
  8
0
  6
CONTINUOUS
 62
     7
 10
172.9100531417545
 20
153.7277864045001
 11
191.5
 21
153.7277864045001
  0
ARC
  8
0
  6
CONTINUOUS
 62
     7
 10
191.5
 20
152.7277864045001
 40
1.000000000000001
 50
359.9999999999987
 51
90.0
  0
LINE
  8
0
  6
CONTINUOUS
 62
     7
 10
192.5
 20
152.7277864045001
 11
192.5
 21
152.1750000000001
  0
POLYLINE
  8
0
  6
CONTINUOUS
 62
     7
 66
     1
  0
VERTEX
  8
0
  6
CONTINUOUS
 62
     7
 10
172.2139340807355
 20
153.467726477896
  0
VERTEX
  8
0
  6
CONTINUOUS
 62
     7
 10
172.2480990314613
 20
153.4974017201494
  0
VERTEX
  8
0
  6
CONTINUOUS
 62
     7
 10
172.2838402692977
 20
153.5257039562392
  0
VERTEX
  8
0
  6
CONTINUOUS
 62
     7
 10
172.3210757077432
 20
153.5525133284964
  0
VERTEX
  8
0
  6
CONTINUOUS
 62
     7
 10
172.3597114673713
 20
153.5777165367477
  0
VERTEX
  8
0
  6
CONTINUOUS
 62
     7
 10
172.3996425410238
 20
153.6012082600179
  0
VERTEX
  8
0
  6
CONTINUOUS
 62
     7
 10
172.4407536618445
 20
153.6228924946134
  0
VERTEX
  8
0
  6
CONTINUOUS
 62
     7
 10
172.4829203612823
 20
153.6426837751701
  0
VERTEX
  8
0
  6
CONTINUOUS
 62
     7
 10
172.5260101979557
 20
153.6605082476548
  0
VERTEX
  8
0
  6
CONTINUOUS
 62
     7
 10
172.5698841325742
 20
153.6763045670041
  0
VERTEX
  8
0
  6
CONTINUOUS
 62
     7
 10
172.6143980192399
 20
153.6900245969409
  0
VERTEX
  8
0
  6
CONTINUOUS
 62
     7
 10
172.6594041796684
 20
153.7016338953096
  0
VERTEX
  8
0
  6
CONTINUOUS
 62
     7
 10
172.7047530243655
 20
153.7111119747498
  0
VERTEX
  8
0
  6
CONTINUOUS
 62
     7
 10
172.7502946836925
 20
153.7184523353638
  0
VERTEX
  8
0
  6
CONTINUOUS
 62
     7
 10
172.7958806120903
 20
153.7236622729029
  0
VERTEX
  8
0
  6
CONTINUOUS
 62
     7
 10
172.8413651304651
 20
153.7267624725696
  0
VERTEX
  8
0
  6
CONTINUOUS
 62
     7
 10
172.8866068747318
 20
153.7277864045001
  0
SEQEND
  8
0
  6
CONTINUOUS
 62
     7
  0
LINE
  8
0
  6
CONTINUOUS
 62
     7
 10
139.5
 20
95.72778640450007
 11
118.5
 21
95.72778640450007
  0
ARC
  8
0
  6
CONTINUOUS
 62
     7
 10
138.7267862505363
 20
125.7277864045
 40
1.999999999999948
 50
269.9999999999996
 51
312.2736890060944
  0
LINE
  8
0
  6
CONTINUOUS
 62
     7
 10
117.5
 20
108.7277864045001
 11
117.5
 21
122.7277864045001
  0
LINE
  8
0
  6
CONTINUOUS
 62
     7
 10
117.5
 20
95.72778640450007
 11
117.5
 21
108.7277864045001
  0
LINE
  8
0
  6
CONTINUOUS
 62
     7
 10
118.5
 20
95.72778640450007
 11
117.5
 21
95.72778640450007
  0
ARC
  8
0
  6
CONTINUOUS
 62
     7
 10
-680.0560216749114
 20
1059.217261860407
 40
1243.695728684041
 50
311.2562977080572
 51
313.2562755115636
  0
LINE
  8
0
  6
CONTINUOUS
 62
     7
 10
138.7267862505363
 20
123.7277864045001
 11
118.5
 21
123.7277864045001
  0
ARC
  8
0
  6
CONTINUOUS
 62
     7
 10
118.5
 20
122.7277864045001
 40
1.000000000000001
 50
90.00000000000001
 51
179.9999999999996
  0
ENDBLK
  8
0
  0
BLOCK
  8
0
  2
D_FRAME_VIEW_1419
 70
     0
 10
0.0
 20
0.0
  0
LINE
  8
0
  6
CONTINUOUS
 62
     7
 10
215.5633434917604
 20
95.72778640450005
 11
214.5633434917603
 21
95.72778640450005
  0
LINE
  8
0
  6
CONTINUOUS
 62
     7
 10
255.5633434917603
 20
95.72778640450005
 11
254.5633434917603
 21
95.72778640450005
  0
ARC
  8
0
  6
CONTINUOUS
 62
     7
 10
218.41744545801
 20
150.7277864045001
 40
1.000000000000001
 50
89.9999999999992
 51
153.4349488229224
  0
LINE
  8
0
  6
CONTINUOUS
 62
     7
 10
251.7092415255107
 20
151.7277864045001
 11
218.4174454580101
 21
151.7277864045001
  0
ARC
  8
0
  6
CONTINUOUS
 62
     7
 10
253.5633434917603
 20
147.0195824720007
 40
1.000000000000001
 50
0.0000000000007951
 51
26.56505117707824
  0
ARC
  8
0
  6
CONTINUOUS
 62
     7
 10
216.5633434917603
 20
147.0195824720007
 40
0.9999999999999974
 50
153.434948822922
 51
180.0
  0
LINE
  8
0
  6
CONTINUOUS
 62
     7
 10
217.5230182670101
 20
151.175
 11
215.6689163007604
 21
147.4667960675006
  0
LINE
  8
0
  6
CONTINUOUS
 62
     7
 10
215.5633434917603
 20
147.0195824720007
 11
215.5633434917604
 21
95.72778640450005
  0
LINE
  8
0
  6
CONTINUOUS
 62
     7
 10
254.5633434917603
 20
95.72778640450005
 11
254.5633434917603
 21
147.0195824720008
  0
ARC
  8
0
  6
CONTINUOUS
 62
     7
 10
251.7092415255107
 20
150.7277864045001
 40
1.00000000000001
 50
26.56505117707843
 51
90.0000000000002
  0
LINE
  8
0
  6
CONTINUOUS
 62
     7
 10
254.4577706827603
 20
147.4667960675007
 11
252.6036687165106
 21
151.1750000000001
  0
ARC
  8
0
  6
CONTINUOUS
 62
     7
 10
215.5633434917603
 20
147.2556504495005
 40
2.000000000000002
 50
153.434948822922
 51
180.0000000000006
  0
LINE
  8
0
  6
CONTINUOUS
 62
     7
 10
217.7994114692601
 20
153.7277864045001
 11
252.3272755142605
 21
153.7277864045001
  0
LINE
  8
0
  6
CONTINUOUS
 62
     7
 10
256.5633434917603
 20
147.2556504495005
 11
256.5633434917603
 21
95.72778640450008
  0
LINE
  8
0
  6
CONTINUOUS
 62
     7
 10
256.5633434917603
 20
95.72778640450008
 11
255.5633434917603
 21
95.72778640450007
  0
ARC
  8
0
  6
CONTINUOUS
 62
     7
 10
217.7994114692601
 20
151.7277864045001
 40
1.999999999999995
 50
90.0
 51
153.4349488229221
  0
LINE
  8
0
  6
CONTINUOUS
 62
     7
 10
213.5633434917603
 20
95.72778640450007
 11
213.5633434917603
 21
147.2556504495005
  0
LINE
  8
0
  6
CONTINUOUS
 62
     7
 10
214.5633434917603
 20
95.72778640450008
 11
213.5633434917603
 21
95.72778640450008
  0
LINE
  8
0
  6
CONTINUOUS
 62
     7
 10
213.7744891097605
 20
148.1500776405004
 11
216.0105570872603
 21
152.6222135955
  0
LINE
  8
0
  6
CONTINUOUS
 62
     7
 10
254.1161298962604
 20
152.6222135955
 11
256.3521978737602
 21
148.1500776405004
  0
ARC
  8
0
  6
CONTINUOUS
 62
     7
 10
252.3272755142605
 20
151.7277864045001
 40
1.999999999999974
 50
26.5650511770778
 51
90.0000000000005
  0
ARC
  8
0
  6
CONTINUOUS
 62
     7
 10
254.5633434917603
 20
147.2556504495005
 40
1.999999999999995
 50
0.0
 51
26.56505117707792
  0
LINE
  8
0
  6
CONTINUOUS
 62
     7
 10
222.0633434917603
 20
95.72778640450007
 11
222.0633434917603
 21
108.7277864045001
  0
LINE
  8
0
  6
CONTINUOUS
 62
     7
 10
222.0633434917603
 20
95.72778640450007
 11
215.5633434917604
 21
95.72778640450007
  0
LINE
  8
0
  6
CONTINUOUS
 62
     7
 10
248.0633434917603
 20
108.7277864045001
 11
248.0633434917603
 21
95.72778640450007
  0
LINE
  8
0
  6
CONTINUOUS
 62
     7
 10
254.5633434917603
 20
95.72778640450005
 11
248.0633434917604
 21
95.72778640450007
  0
ARC
  8
0
  6
CONTINUOUS
 62
     7
 10
235.0633434917602
 20
108.7277864044997
 40
13.00000000000043
 50
68.49963601931918
 51
89.99999999999943
  0
ARC
  8
0
  6
CONTINUOUS
 62
     7
 10
235.0633434917603
 20
108.7277864045001
 40
13.0
 50
90.00000000000011
 51
111.4779410714546
  0
LINE
  8
0
  6
CONTINUOUS
 62
     7
 10
240.2247836745715
 20
120.6592379188491
 11
239.8279362772398
 21
120.8231845206663
  0
LINE
  8
0
  6
CONTINUOUS
 62
     7
 10
230.303484648549
 20
120.8250482348774
 11
229.8976100940024
 21
120.6573797950263
  0
ARC
  8
0
  6
CONTINUOUS
 62
     7
 10
235.06334349176
 20
108.7277864045006
 40
12.99999999999939
 50
113.4134991928147
 51
135.0673380284187
  0
ARC
  8
0
  6
CONTINUOUS
 62
     7
 10
235.0633434917602
 20
108.7277864044998
 40
13.00000000000035
 50
45.39647255746879
 51
66.60711877218358
  0
ARC
  8
0
  6
CONTINUOUS
 62
     7
 10
235.0633434917604
 20
108.7277864045002
 40
12.99999999999991
 50
23.41349919285303
 51
45.39647255746827
  0
ARC
  8
0
  6
CONTINUOUS
 62
     7
 10
235.0633434917601
 20
108.7277864045003
 40
12.99999999999964
 50
135.067338028418
 51
156.6001101965879
  0
LINE
  8
0
  6
CONTINUOUS
 62
     7
 10
247.1596983840524
 20
113.4899496020104
 11
246.9929368822831
 21
113.893519802266
  0
LINE
  8
0
  6
CONTINUOUS
 62
     7
 10
223.1325234280764
 20
113.8906860362958
 11
222.9679453740932
 21
113.4923791861693
  0
ARC
  8
0
  6
CONTINUOUS
 62
     7
 10
235.0633434917599
 20
108.7277864045001
 40
12.99999999999953
 50
158.4996360373675
 51
179.9999889099191
  0
ARC
  8
0
  6
CONTINUOUS
 62
     7
 10
235.06334349176
 20
108.7277864045
 40
13.00000000000032
 50
0.0000000000004282
 51
21.4888555020626
  0
ARC
  8
0
  6
CONTINUOUS
 62
     7
 10
221.0633434917603
 20
100.9818197120852
 40
3.000000000000003
 50
0.0
 51
28.95502437185986
  0
LINE
  8
0
  6
CONTINUOUS
 62
     7
 10
224.0633434917603
 20
100.9818197120852
 11
224.0633434917603
 21
97.72778640450007
  0
ARC
  8
0
  6
CONTINUOUS
 62
     7
 10
222.0633434917603
 20
97.72778640450007
 40
2.000000000000002
 50
270.0
 51
0.0
  0
ARC
  8
0
  6
CONTINUOUS
 62
     7
 10
235.0633434917603
 20
108.7277864045001
 40
13.00000000000001
 50
179.999988909919
 51
208.9550243718598
  0
ARC
  8
0
  6
CONTINUOUS
 62
     7
 10
249.0633434917603
 20
100.9818197120852
 40
3.000000000000013
 50
151.0449756281401
 51
180.0
  0
ARC
  8
0
  6
CONTINUOUS
 62
     7
 10
248.0633434917603
 20
97.72778640450007
 40
2.000000000000002
 50
180.0
 51
270.0
  0
LINE
  8
0
  6
CONTINUOUS
 62
     7
 10
246.0633434917603
 20
97.72778640450007
 11
246.0633434917603
 21
100.9818197120852
  0
ARC
  8
0
  6
CONTINUOUS
 62
     7
 10
235.0633434917603
 20
108.7277864045001
 40
12.99999999999999
 50
331.0449756281402
 51
0.0000000612587883
  0
ENDBLK
  8
0
  0
BLOCK
  8
0
  2
D_FRAME_VIEW_1363
 70
     0
 10
0.0
 20
0.0
  0
LINE
  8
0
  6
CONTINUOUS
 62
     7
 10
85.93665650823965
 20
100.9818197120852
 11
85.93665650823965
 21
97.72778640450007
  0
ARC
  8
0
  6
CONTINUOUS
 62
     7
 10
88.93665650823966
 20
100.9818197120852
 40
3.000000000000001
 50
151.0449756281401
 51
180.0
  0
ARC
  8
0
  6
CONTINUOUS
 62
     7
 10
74.93665650823966
 20
108.7277864045001
 40
12.99999999999999
 50
331.0449756281402
 51
208.9550243718598
  0
ARC
  8
0
  6
CONTINUOUS
 62
     7
 10
60.93665650823966
 20
100.9818197120852
 40
3.000000000000003
 50
0.0
 51
28.95502437185988
  0
LINE
  8
0
  6
CONTINUOUS
 62
     7
 10
63.93665650823966
 20
97.72778640450007
 11
63.93665650823966
 21
100.9818197120852
  0
LINE
  8
0
  6
CONTINUOUS
 62
     7
 10
87.93665650823966
 20
95.72778640450007
 11
88.93665650823966
 21
95.72778640450007
  0
LINE
  8
0
  6
CONTINUOUS
 62
     7
 10
60.93665650823966
 20
95.72778640450007
 11
61.93665650823966
 21
95.72778640450007
  0
ARC
  8
0
  6
CONTINUOUS
 62
     7
 10
87.93665650823966
 20
97.72778640450007
 40
2.000000000000002
 50
180.0
 51
270.0
  0
ARC
  8
0
  6
CONTINUOUS
 62
     7
 10
61.93665650823966
 20
97.72778640450007
 40
2.000000000000002
 50
270.0
 51
0.0
  0
ARC
  8
0
  6
CONTINUOUS
 62
     7
 10
74.93665650823966
 20
108.7277864045001
 40
15.0
 50
0.0
 51
180.0
  0
LINE
  8
0
  6
CONTINUOUS
 62
     7
 10
59.93665650823966
 20
95.72778640450007
 11
59.93665650823966
 21
108.7277864045001
  0
LINE
  8
0
  6
CONTINUOUS
 62
     7
 10
60.93665650823966
 20
95.72778640450007
 11
59.93665650823966
 21
95.72778640450007
  0
LINE
  8
0
  6
CONTINUOUS
 62
     7
 10
89.93665650823966
 20
108.7277864045001
 11
89.93665650823962
 21
95.72778640450007
  0
LINE
  8
0
  6
CONTINUOUS
 62
     7
 10
89.93665650823966
 20
95.72778640450007
 11
88.93665650823966
 21
95.72778640450007
  0
ARC
  8
0
  6
CONTINUOUS
 62
     7
 10
75.01773087548105
 20
109.1644834564795
 40
15.08739567935675
 50
92.86003194261536
 51
181.6586290661217
  0
LINE
  8
0
  6
CONTINUOUS
 62
     7
 10
74.2649264545282
 20
124.2330863741115
 11
74.93665650823966
 21
124.2479062577082
  0
ARC
  8
0
  6
CONTINUOUS
 62
     7
 10
75.08989897277402
 20
109.5543988770601
 40
14.6943064619633
 50
11.08625960385467
 51
90.59753113506669
  0
ARC
  8
0
  6
CONTINUOUS
 62
     7
 10
74.10850727453294
 20
108.722244932986
 40
15.8298548548009
 50
4.205983287227127
 51
13.35958454903192
  0
LINE
  8
0
  6
CONTINUOUS
 62
     7
 10
96.43665650823965
 20
95.72778640450007
 11
96.43665650823965
 21
147.2556504495005
  0
LINE
  8
0
  6
CONTINUOUS
 62
     7
 10
89.93665650823966
 20
95.72778640450007
 11
96.43665650823965
 21
95.72778640450007
  0
LINE
  8
0
  6
CONTINUOUS
 62
     7
 10
53.43665650823967
 20
147.2556504495005
 11
53.43665650823967
 21
95.72778640450008
  0
LINE
  8
0
  6
CONTINUOUS
 62
     7
 10
53.43665650823967
 20
95.72778640450008
 11
59.93665650823966
 21
95.72778640450007
  0
ARC
  8
0
  6
CONTINUOUS
 62
     7
 10
57.6727244857394
 20
151.7277864045002
 40
1.999999999999908
 50
90.000000000002
 51
153.4349488229234
  0
ARC
  8
0
  6
CONTINUOUS
 62
     7
 10
92.20058853073986
 20
151.7277864045001
 40
2.000000000000029
 50
26.56505117708366
 51
89.99999999999761
  0
LINE
  8
0
  6
CONTINUOUS
 62
     7
 10
93.98944291273965
 20
152.6222135955001
 11
96.2255108902395
 21
148.1500776405004
  0
LINE
  8
0
  6
CONTINUOUS
 62
     7
 10
53.64780212623985
 20
148.1500776405005
 11
55.88387010373959
 21
152.6222135955
  0
LINE
  8
0
  6
CONTINUOUS
 62
     7
 10
74.93665650823968
 20
153.7277864045001
 11
92.20058853073982
 21
153.7277864045001
  0
LINE
  8
0
  6
CONTINUOUS
 62
     7
 10
57.67272448573937
 20
153.7277864045001
 11
74.93665650823968
 21
153.7277864045001
  0
LINE
  8
0
  6
CONTINUOUS
 62
     7
 10
96.3831544871751
 20
147.7151562905953
 11
96.43665650823965
 21
147.2556504495005
  0
LINE
  8
0
  6
CONTINUOUS
 62
     7
 10
96.2255108902395
 20
148.1500776405004
 11
96.3831544871751
 21
147.7151562905953
  0
LINE
  8
0
  6
CONTINUOUS
 62
     7
 10
53.49015664576729
 20
147.7151483117317
 11
53.6478021262399
 21
148.1500776405006
  0
LINE
  8
0
  6
CONTINUOUS
 62
     7
 10
53.43665650823989
 20
147.2556494813018
 11
53.49015664576729
 21
147.7151483117317
  0
ENDBLK
  8
0
  0
ENDSEC
  0
SECTION
  2
ENTITIES
  0
TEXT
  8
0
  6
CONTINUOUS
 62
     7
 10
154.0817900462674
 20
83.3284200325122
 40
3.0
  1
VECJ-22
  0
INSERT
  8
0
  6
CONTINUOUS
 62
     7
  2
D_FRAME_VIEW_1292
 10
0.0
 20
0.0
 30
0.0
  0
INSERT
  8
0
  6
CONTINUOUS
 62
     7
  2
D_FRAME_VIEW_1419
 10
0.0
 20
0.0
 30
0.0
  0
INSERT
  8
0
  6
CONTINUOUS
 62
     7
  2
D_FRAME_VIEW_1363
 10
0.0
 20
0.0
 30
0.0
  0
ENDSEC
  0
EOF
