  0
SECTION
  2
HEADER
  9
$ACADVER
  1
AC1006
  9
$DWGCODEPAGE
  3
ansi_932
  9
$INSBASE
 10
0.0
 20
0.0
 30
0.0
  9
$EXTMIN
 10
52.99999999999994
 20
321.7113855195698
  9
$EXTMAX
 10
302.0000000000001
 20
407.4250000000001
  9
$LIMMIN
 10
0.0
 20
0.0
  9
$LIMMAX
 10
12.0
 20
9.0
  9
$ORTHOMODE
 70
     0
  9
$REGENMODE
 70
     1
  9
$FILLMODE
 70
     1
  9
$QTEXTMODE
 70
     0
  9
$MIRRTEXT
 70
     1
  9
$DRAGMODE
 70
     2
  9
$LTSCALE
 40
1.0
  9
$OSMODE
 70
    37
  9
$ATTMODE
 70
     1
  9
$TEXTSIZE
 40
0.2
  9
$TRACEWID
 40
0.05
  9
$TEXTSTYLE
  7
STANDARD
  9
$CLAYER
  8
0
  9
$CELTYPE
  6
BYLAYER
  9
$CECOLOR
 62
   256
  9
$DIMSCALE
 40
1.0
  9
$DIMASZ
 40
3.0
  9
$DIMEXO
 40
0.0625
  9
$DIMDLI
 40
0.38
  9
$DIMRND
 40
0.0
  9
$DIMDLE
 40
0.0
  9
$DIMEXE
 40
1.5
  9
$DIMTP
 40
0.0
  9
$DIMTM
 40
0.0
  9
$DIMTXT
 40
3.0
  9
$DIMCEN
 40
0.09
  9
$DIMTSZ
 40
0.0
  9
$DIMTOL
 70
     0
  9
$DIMLIM
 70
     0
  9
$DIMTIH
 70
     1
  9
$DIMTOH
 70
     1
  9
$DIMSE1
 70
     0
  9
$DIMSE2
 70
     0
  9
$DIMTAD
 70
     1
  9
$DIMZIN
 70
     0
  9
$DIMBLK
  1

  9
$DIMASO
 70
     1
  9
$DIMSHO
 70
     1
  9
$DIMPOST
  1

  9
$DIMAPOST
  1

  9
$DIMALT
 70
     0
  9
$DIMALTD
 70
     2
  9
$DIMALTF
 40
25.4
  9
$DIMLFAC
 40
1.0
  9
$DIMTOFL
 70
     0
  9
$DIMTVP
 40
0.0
  9
$DIMTIX
 70
     0
  9
$DIMSOXD
 70
     0
  9
$DIMSAH
 70
     0
  9
$DIMBLK1
  1

  9
$DIMBLK2
  1

  9
$LUNITS
 70
     2
  9
$LUPREC
 70
     4
  9
$SKETCHINC
 40
0.1
  9
$FILLETRAD
 40
0.5
  9
$AUNITS
 70
     0
  9
$AUPREC
 70
     0
  9
$MENU
  1
.
  9
$ELEVATION
 40
0.0
  9
$THICKNESS
 40
0.0
  9
$LIMCHECK
 70
     0
  9
$CHAMFERA
 40
0.0
  9
$CHAMFERB
 40
0.0
  9
$SKPOLY
 70
     0
  9
$TDCREATE
 40
2460668.778849491
  9
$TDUPDATE
 40
2460668.778849711
  9
$TDINDWG
 40
0.0000000116
  9
$TDUSRTIMER
 40
0.0000000116
  9
$USRTIMER
 70
     1
  9
$ANGBASE
 50
0.0
  9
$ANGDIR
 70
     0
  9
$PDMODE
 70
     0
  9
$PDSIZE
 40
0.0
  9
$PLINEWID
 40
0.0
  9
$COORDS
 70
     1
  9
$SPLFRAME
 70
     0
  9
$SPLINETYPE
 70
     6
  9
$SPLINESEGS
 70
     8
  9
$ATTDIA
 70
     0
  9
$ATTREQ
 70
     1
  9
$HANDLING
 70
     1
  9
$HANDSEED
  5
28E
  9
$SURFTAB1
 70
     6
  9
$SURFTAB2
 70
     6
  9
$SURFTYPE
 70
     6
  9
$SURFU
 70
     6
  9
$SURFV
 70
     6
  9
$UCSNAME
  2

  9
$UCSORG
 10
0.0
 20
0.0
 30
0.0
  9
$UCSXDIR
 10
1.0
 20
0.0
 30
0.0
  9
$UCSYDIR
 10
0.0
 20
1.0
 30
0.0
  9
$USERI1
 70
     0
  9
$USERI2
 70
     0
  9
$USERI3
 70
     0
  9
$USERI4
 70
     0
  9
$USERI5
 70
     0
  9
$USERR1
 40
0.0
  9
$USERR2
 40
0.0
  9
$USERR3
 40
0.0
  9
$USERR4
 40
0.0
  9
$USERR5
 40
0.0
  9
$WORLDVIEW
 70
     1
  0
ENDSEC
  0
SECTION
  2
TABLES
  0
TABLE
  2
VPORT
 70
     1
  0
VPORT
  2
*ACTIVE
 70
     0
 10
0.0
 20
0.0
 11
1.0
 21
1.0
 12
177.5
 22
364.5681927597849
 13
0.0
 23
0.0
 14
0.5
 24
0.5
 15
0.5
 25
0.5
 16
0.0
 26
0.0
 36
1.0
 17
0.0
 27
0.0
 37
0.0
 40
85.71361448043024
 41
1.6
 42
50.0
 43
0.0
 44
0.0
 50
0.0
 51
0.0
 71
     0
 72
   100
 73
     1
 74
     3
 75
     0
 76
     0
 77
     0
 78
     0
  0
ENDTAB
  0
TABLE
  2
LTYPE
 70
     2
  0
LTYPE
  2
CONTINUOUS
 70
     0
  3
Solid line
 72
    65
 73
     0
 40
0.0
  0
LTYPE
  2
CENTER
 70
     0
  3

 72
    65
 73
     0
 40
0.0
  0
ENDTAB
  0
TABLE
  2
LAYER
 70
     2
  0
LAYER
  2
0
 70
     0
 62
     7
  6
CONTINUOUS
  0
LAYER
  2
1
 70
     0
 62
     7
  6
CONTINUOUS
  0
ENDTAB
  0
TABLE
  2
STYLE
 70
     2
  0
STYLE
  2
STANDARD
 70
     0
 40
0.0
 41
1.0
 50
0.0
 71
     0
 42
0.2
  3
txt
  4

  0
STYLE
  2
ＭＳ_ゴシック
 70
     0
 40
0.0
 41
1.0
 50
0.0
 71
     0
 42
0.2
  3
ＭＳ ゴシック.shx
  4

  0
ENDTAB
  0
TABLE
  2
VIEW
 70
     0
  0
ENDTAB
  0
TABLE
  2
UCS
 70
     0
  0
ENDTAB
  0
ENDSEC
  0
SECTION
  2
BLOCKS
  0
ENDSEC
  0
SECTION
  2
ENTITIES
  0
LINE
  5
70
  8
1
  6
CONTINUOUS
 62
     7
 10
294.5
 20
342.425
 30
0.0
 11
302.0000000000001
 21
342.425
 31
0.0
  0
TEXT
  5
71
  8
1
  6
CONTINUOUS
 62
     7
 10
170.9089783668875
 20
321.0273164936851
 30
0.0
 40
6.0
  1
VECJ-28
  0
LINE
  5
72
  8
1
  6
CONTINUOUS
 62
     7
 10
257.2796647789656
 20
407.425
 30
0.0
 11
297.7203352210345
 21
407.425
 31
0.0
  0
LINE
  5
73
  8
1
  6
CONTINUOUS
 62
     7
 10
253.1840812309991
 20
401.3238426671647
 30
0.0
 11
255.4637460099648
 21
406.2631163549235
 31
0.0
  0
LINE
  5
74
  8
1
  6
CONTINUOUS
 62
     7
 10
299.5362539900352
 20
406.2631163549235
 30
0.0
 11
301.8159187690009
 21
401.3238426671647
 31
0.0
  0
ARC
  5
75
  8
1
  6
CONTINUOUS
 62
     7
 10
297.7203352210345
 20
405.425
 30
0.0
 40
2.000000000000002
 50
24.77514056883189
 51
90.0
  0
LINE
  5
76
  8
1
  6
CONTINUOUS
 62
     7
 10
253.0000000000001
 20
342.425
 30
0.0
 11
253.0000000000001
 21
400.4857263122412
 31
0.0
  0
LINE
  5
77
  8
1
  6
CONTINUOUS
 62
     7
 10
254.0000000000001
 20
342.425
 30
0.0
 11
253.0000000000001
 21
342.425
 31
0.0
  0
ARC
  5
78
  8
1
  6
CONTINUOUS
 62
     7
 10
255.0000000000001
 20
400.4857263122412
 30
0.0
 40
2.000000000000002
 50
155.2248594311684
 51
180.0
  0
ARC
  5
79
  8
1
  6
CONTINUOUS
 62
     7
 10
300.0000000000001
 20
400.4857263122412
 30
0.0
 40
2.000000000000002
 50
0.0
 51
24.77514056883166
  0
ARC
  5
7A
  8
1
  6
CONTINUOUS
 62
     7
 10
257.2796647789656
 20
405.425
 30
0.0
 40
2.000000000000057
 50
90.0
 51
155.2248594311682
  0
LINE
  5
7B
  8
1
  6
CONTINUOUS
 62
     7
 10
302.0000000000001
 20
400.4857263122412
 30
0.0
 11
302.0000000000001
 21
342.425
 31
0.0
  0
LINE
  5
7C
  8
1
  6
CONTINUOUS
 62
     7
 10
302.0000000000001
 20
342.425
 30
0.0
 11
301.0000000000001
 21
342.425
 31
0.0
  0
LINE
  5
7D
  8
1
  6
CONTINUOUS
 62
     7
 10
254.0601558926136
 20
342.425
 30
0.0
 11
254.0
 21
342.425
 31
0.0
  0
LINE
  5
7E
  8
1
  6
CONTINUOUS
 62
     7
 10
254.0601558926136
 20
342.425
 30
0.0
 11
254.5000000000001
 21
342.425
 31
0.0
  0
LINE
  5
7F
  8
1
  6
CONTINUOUS
 62
     7
 10
254.5000000000001
 20
342.425
 30
0.0
 11
255.0000000000001
 21
342.425
 31
0.0
  0
LINE
  5
80
  8
1
  6
CONTINUOUS
 62
   253
 10
277.5
 20
405.425
 30
0.0
 11
277.5
 21
376.425
 31
0.0
  0
LINE
  5
81
  8
1
  6
CONTINUOUS
 62
     7
 10
294.5000000000001
 20
342.425
 30
0.0
 11
294.5000000000001
 21
342.6273311923866
 31
0.0
  0
LINE
  5
82
  8
1
  6
CONTINUOUS
 62
     7
 10
294.5000000000001
 20
342.6273311923866
 30
0.0
 11
294.5000000000001
 21
342.8296623847733
 31
0.0
  0
LINE
  5
83
  8
1
  6
CONTINUOUS
 62
     7
 10
294.5000000000001
 20
342.8296623847733
 30
0.0
 11
294.5000000000001
 21
343.0319935771599
 31
0.0
  0
LINE
  5
84
  8
1
  6
CONTINUOUS
 62
     7
 10
294.5000000000001
 20
343.0319935771599
 30
0.0
 11
294.5
 21
343.2343247695465
 31
0.0
  0
LINE
  5
85
  8
1
  6
CONTINUOUS
 62
     7
 10
294.5
 20
343.2343247695465
 30
0.0
 11
294.5
 21
343.4366559619332
 31
0.0
  0
LINE
  5
86
  8
1
  6
CONTINUOUS
 62
     7
 10
294.5
 20
343.4366559619332
 30
0.0
 11
294.5000000000001
 21
343.6389871543198
 31
0.0
  0
LINE
  5
87
  8
1
  6
CONTINUOUS
 62
     7
 10
294.5000000000001
 20
343.6389871543198
 30
0.0
 11
294.5000000000001
 21
343.8413183467064
 31
0.0
  0
LINE
  5
88
  8
1
  6
CONTINUOUS
 62
     7
 10
294.5000000000001
 20
343.8413183467064
 30
0.0
 11
294.5000000000001
 21
344.0436495390931
 31
0.0
  0
LINE
  5
89
  8
1
  6
CONTINUOUS
 62
     7
 10
294.5000000000001
 20
344.0436495390932
 30
0.0
 11
294.5000000000001
 21
344.2459807314797
 31
0.0
  0
LINE
  5
8A
  8
1
  6
CONTINUOUS
 62
     7
 10
294.5000000000001
 20
344.2459807314797
 30
0.0
 11
294.5000000000001
 21
344.4483119238663
 31
0.0
  0
LINE
  5
8B
  8
1
  6
CONTINUOUS
 62
     7
 10
294.5000000000001
 20
344.4483119238663
 30
0.0
 11
294.5
 21
344.650643116253
 31
0.0
  0
LINE
  5
8C
  8
1
  6
CONTINUOUS
 62
     7
 10
294.5
 20
344.650643116253
 30
0.0
 11
294.5
 21
344.8529743086397
 31
0.0
  0
LINE
  5
8D
  8
1
  6
CONTINUOUS
 62
     7
 10
294.5
 20
344.8529743086396
 30
0.0
 11
294.5000000000001
 21
345.0553055010263
 31
0.0
  0
LINE
  5
8E
  8
1
  6
CONTINUOUS
 62
     7
 10
294.5000000000001
 20
345.0553055010263
 30
0.0
 11
294.5000000000001
 21
345.2576366934129
 31
0.0
  0
LINE
  5
8F
  8
1
  6
CONTINUOUS
 62
     7
 10
294.5000000000001
 20
345.2576366934129
 30
0.0
 11
294.5000000000001
 21
345.4599678857995
 31
0.0
  0
LINE
  5
90
  8
1
  6
CONTINUOUS
 62
     7
 10
294.5000000000001
 20
345.4599678857995
 30
0.0
 11
294.5000000000001
 21
345.6622990781862
 31
0.0
  0
LINE
  5
91
  8
1
  6
CONTINUOUS
 62
     7
 10
294.5000000000001
 20
345.6622990781862
 30
0.0
 11
294.5000000000001
 21
345.8646302705728
 31
0.0
  0
LINE
  5
92
  8
1
  6
CONTINUOUS
 62
     7
 10
294.5000000000001
 20
345.8646302705728
 30
0.0
 11
294.5000000000001
 21
346.0669614629595
 31
0.0
  0
LINE
  5
93
  8
1
  6
CONTINUOUS
 62
     7
 10
294.5000000000001
 20
346.0669614629596
 30
0.0
 11
294.5000000000001
 21
346.2692926553461
 31
0.0
  0
LINE
  5
94
  8
1
  6
CONTINUOUS
 62
     7
 10
294.5000000000001
 20
346.2692926553461
 30
0.0
 11
294.5
 21
346.4716238477327
 31
0.0
  0
LINE
  5
95
  8
1
  6
CONTINUOUS
 62
     7
 10
294.5
 20
346.4716238477327
 30
0.0
 11
294.5000000000001
 21
346.6739550401194
 31
0.0
  0
LINE
  5
96
  8
1
  6
CONTINUOUS
 62
     7
 10
294.5000000000001
 20
346.6739550401194
 30
0.0
 11
294.5000000000001
 21
346.8762862325059
 31
0.0
  0
LINE
  5
97
  8
1
  6
CONTINUOUS
 62
     7
 10
294.5000000000001
 20
346.8762862325059
 30
0.0
 11
294.5000000000001
 21
347.0786174248926
 31
0.0
  0
LINE
  5
98
  8
1
  6
CONTINUOUS
 62
     7
 10
294.5000000000001
 20
347.0786174248926
 30
0.0
 11
294.5000000000001
 21
347.2809486172793
 31
0.0
  0
LINE
  5
99
  8
1
  6
CONTINUOUS
 62
     7
 10
294.5000000000001
 20
347.2809486172793
 30
0.0
 11
294.5000000000001
 21
347.4832798096659
 31
0.0
  0
LINE
  5
9A
  8
1
  6
CONTINUOUS
 62
     7
 10
294.5000000000001
 20
347.4832798096659
 30
0.0
 11
294.5000000000001
 21
347.6856110020525
 31
0.0
  0
LINE
  5
9B
  8
1
  6
CONTINUOUS
 62
     7
 10
294.5000000000001
 20
347.6856110020525
 30
0.0
 11
294.5000000000001
 21
347.8879421944391
 31
0.0
  0
LINE
  5
9C
  8
1
  6
CONTINUOUS
 62
     7
 10
294.5000000000001
 20
347.8879421944391
 30
0.0
 11
294.5000000000001
 21
348.0902733868258
 31
0.0
  0
LINE
  5
9D
  8
1
  6
CONTINUOUS
 62
     7
 10
294.5000000000001
 20
348.0902733868259
 30
0.0
 11
294.5000000000001
 21
348.2926045792124
 31
0.0
  0
LINE
  5
9E
  8
1
  6
CONTINUOUS
 62
     7
 10
294.5000000000001
 20
348.2926045792124
 30
0.0
 11
294.5000000000001
 21
348.494935771599
 31
0.0
  0
LINE
  5
9F
  8
1
  6
CONTINUOUS
 62
     7
 10
294.5000000000001
 20
348.494935771599
 30
0.0
 11
294.5000000000001
 21
348.6972669639857
 31
0.0
  0
LINE
  5
A0
  8
1
  6
CONTINUOUS
 62
     7
 10
294.5000000000001
 20
348.6972669639857
 30
0.0
 11
294.5000000000001
 21
348.8995981563723
 31
0.0
  0
LINE
  5
A1
  8
1
  6
CONTINUOUS
 62
     7
 10
294.5000000000001
 20
348.8995981563723
 30
0.0
 11
294.5000000000001
 21
349.101929348759
 31
0.0
  0
LINE
  5
A2
  8
1
  6
CONTINUOUS
 62
     7
 10
294.5000000000001
 20
349.101929348759
 30
0.0
 11
294.5000000000001
 21
349.3042605411456
 31
0.0
  0
LINE
  5
A3
  8
1
  6
CONTINUOUS
 62
     7
 10
294.5000000000001
 20
349.3042605411456
 30
0.0
 11
294.5
 21
349.5065917335322
 31
0.0
  0
LINE
  5
A4
  8
1
  6
CONTINUOUS
 62
     7
 10
294.5
 20
349.5065917335322
 30
0.0
 11
294.5000000000001
 21
349.7089229259189
 31
0.0
  0
LINE
  5
A5
  8
1
  6
CONTINUOUS
 62
     7
 10
294.5000000000001
 20
349.7089229259189
 30
0.0
 11
294.5000000000001
 21
349.9112541183055
 31
0.0
  0
LINE
  5
A6
  8
1
  6
CONTINUOUS
 62
     7
 10
294.5000000000001
 20
349.9112541183055
 30
0.0
 11
294.5000000000001
 21
350.1135853106921
 31
0.0
  0
LINE
  5
A7
  8
1
  6
CONTINUOUS
 62
     7
 10
294.5000000000001
 20
350.1135853106921
 30
0.0
 11
294.5000000000001
 21
350.3159165030788
 31
0.0
  0
LINE
  5
A8
  8
1
  6
CONTINUOUS
 62
     7
 10
294.5000000000001
 20
350.3159165030788
 30
0.0
 11
294.5000000000001
 21
350.5182476954654
 31
0.0
  0
LINE
  5
A9
  8
1
  6
CONTINUOUS
 62
     7
 10
294.5000000000001
 20
350.5182476954654
 30
0.0
 11
294.5000000000001
 21
350.7205788878521
 31
0.0
  0
LINE
  5
AA
  8
1
  6
CONTINUOUS
 62
     7
 10
294.5000000000001
 20
350.7205788878521
 30
0.0
 11
294.5000000000001
 21
350.9229100802388
 31
0.0
  0
LINE
  5
AB
  8
1
  6
CONTINUOUS
 62
     7
 10
294.5000000000001
 20
350.9229100802387
 30
0.0
 11
294.5
 21
351.1252412726253
 31
0.0
  0
LINE
  5
AC
  8
1
  6
CONTINUOUS
 62
     7
 10
294.5
 20
351.1252412726253
 30
0.0
 11
294.5000000000001
 21
351.327572465012
 31
0.0
  0
LINE
  5
AD
  8
1
  6
CONTINUOUS
 62
     7
 10
294.5000000000001
 20
351.327572465012
 30
0.0
 11
294.5000000000001
 21
351.5299036573986
 31
0.0
  0
LINE
  5
AE
  8
1
  6
CONTINUOUS
 62
     7
 10
294.5000000000001
 20
351.5299036573986
 30
0.0
 11
294.5
 21
351.7322348497852
 31
0.0
  0
LINE
  5
AF
  8
1
  6
CONTINUOUS
 62
     7
 10
294.5
 20
351.7322348497852
 30
0.0
 11
294.5000000000001
 21
351.9345660421719
 31
0.0
  0
LINE
  5
B0
  8
1
  6
CONTINUOUS
 62
     7
 10
294.5000000000001
 20
351.9345660421719
 30
0.0
 11
294.5000000000001
 21
352.1368972345585
 31
0.0
  0
LINE
  5
B1
  8
1
  6
CONTINUOUS
 62
     7
 10
294.5000000000001
 20
352.1368972345585
 30
0.0
 11
294.5000000000001
 21
352.3392284269452
 31
0.0
  0
LINE
  5
B2
  8
1
  6
CONTINUOUS
 62
     7
 10
294.5000000000001
 20
352.3392284269451
 30
0.0
 11
294.5
 21
352.5415596193317
 31
0.0
  0
LINE
  5
B3
  8
1
  6
CONTINUOUS
 62
     7
 10
294.5
 20
352.5415596193317
 30
0.0
 11
294.5000000000001
 21
352.7438908117184
 31
0.0
  0
LINE
  5
B4
  8
1
  6
CONTINUOUS
 62
     7
 10
294.5000000000001
 20
352.7438908117184
 30
0.0
 11
294.5000000000001
 21
352.9462220041051
 31
0.0
  0
LINE
  5
B5
  8
1
  6
CONTINUOUS
 62
     7
 10
294.5000000000001
 20
352.946222004105
 30
0.0
 11
294.5
 21
353.1485531964916
 31
0.0
  0
LINE
  5
B6
  8
1
  6
CONTINUOUS
 62
     7
 10
294.5
 20
353.1485531964916
 30
0.0
 11
294.5000000000001
 21
353.3508843888783
 31
0.0
  0
LINE
  5
B7
  8
1
  6
CONTINUOUS
 62
     7
 10
294.5000000000001
 20
353.3508843888783
 30
0.0
 11
294.5000000000001
 21
353.5532155812649
 31
0.0
  0
LINE
  5
B8
  8
1
  6
CONTINUOUS
 62
     7
 10
294.5000000000001
 20
353.553215581265
 30
0.0
 11
294.5
 21
353.7555467736516
 31
0.0
  0
LINE
  5
B9
  8
1
  6
CONTINUOUS
 62
     7
 10
294.5
 20
353.7555467736516
 30
0.0
 11
294.5000000000001
 21
353.9578779660383
 31
0.0
  0
LINE
  5
BA
  8
1
  6
CONTINUOUS
 62
     7
 10
294.5000000000001
 20
353.9578779660382
 30
0.0
 11
294.5000000000001
 21
354.1602091584248
 31
0.0
  0
LINE
  5
BB
  8
1
  6
CONTINUOUS
 62
     7
 10
294.5000000000001
 20
354.1602091584248
 30
0.0
 11
294.5000000000001
 21
354.3625403508115
 31
0.0
  0
LINE
  5
BC
  8
1
  6
CONTINUOUS
 62
     7
 10
294.5000000000001
 20
354.3625403508115
 30
0.0
 11
294.5
 21
354.5648715431981
 31
0.0
  0
LINE
  5
BD
  8
1
  6
CONTINUOUS
 62
     7
 10
294.5
 20
354.5648715431981
 30
0.0
 11
294.5
 21
354.7672027355847
 31
0.0
  0
LINE
  5
BE
  8
1
  6
CONTINUOUS
 62
     7
 10
294.5
 20
354.7672027355847
 30
0.0
 11
294.5
 21
354.9695339279713
 31
0.0
  0
LINE
  5
BF
  8
1
  6
CONTINUOUS
 62
     7
 10
294.5
 20
354.9695339279713
 30
0.0
 11
294.5
 21
355.171865120358
 31
0.0
  0
LINE
  5
C0
  8
1
  6
CONTINUOUS
 62
     7
 10
294.5
 20
355.171865120358
 30
0.0
 11
294.5
 21
355.3741963127446
 31
0.0
  0
LINE
  5
C1
  8
1
  6
CONTINUOUS
 62
     7
 10
294.5
 20
355.3741963127446
 30
0.0
 11
294.5
 21
355.5765275051313
 31
0.0
  0
LINE
  5
C2
  8
1
  6
CONTINUOUS
 62
     7
 10
294.5
 20
355.5765275051314
 30
0.0
 11
294.5
 21
355.7788586975179
 31
0.0
  0
LINE
  5
C3
  8
1
  6
CONTINUOUS
 62
     7
 10
294.5
 20
355.7788586975179
 30
0.0
 11
294.5
 21
355.9811898899046
 31
0.0
  0
LINE
  5
C4
  8
1
  6
CONTINUOUS
 62
     7
 10
294.5
 20
355.9811898899046
 30
0.0
 11
294.5000000000001
 21
356.1835210822912
 31
0.0
  0
LINE
  5
C5
  8
1
  6
CONTINUOUS
 62
     7
 10
294.5000000000001
 20
356.1835210822912
 30
0.0
 11
294.5000000000001
 21
356.3858522746779
 31
0.0
  0
LINE
  5
C6
  8
1
  6
CONTINUOUS
 62
     7
 10
294.5000000000001
 20
356.3858522746779
 30
0.0
 11
294.5000000000001
 21
356.5881834670645
 31
0.0
  0
LINE
  5
C7
  8
1
  6
CONTINUOUS
 62
     7
 10
294.5000000000001
 20
356.5881834670645
 30
0.0
 11
294.5000000000001
 21
356.7905146594512
 31
0.0
  0
LINE
  5
C8
  8
1
  6
CONTINUOUS
 62
     7
 10
294.5000000000001
 20
356.7905146594512
 30
0.0
 11
294.5000000000001
 21
356.9928458518378
 31
0.0
  0
LINE
  5
C9
  8
1
  6
CONTINUOUS
 62
     7
 10
294.5000000000001
 20
356.9928458518378
 30
0.0
 11
294.5000000000001
 21
357.1951770442244
 31
0.0
  0
LINE
  5
CA
  8
1
  6
CONTINUOUS
 62
     7
 10
294.5000000000001
 20
357.1951770442244
 30
0.0
 11
294.5000000000001
 21
357.397508236611
 31
0.0
  0
LINE
  5
CB
  8
1
  6
CONTINUOUS
 62
     7
 10
294.5000000000001
 20
357.397508236611
 30
0.0
 11
294.5000000000001
 21
357.5998394289977
 31
0.0
  0
LINE
  5
CC
  8
1
  6
CONTINUOUS
 62
     7
 10
294.5000000000001
 20
357.5998394289978
 30
0.0
 11
294.5000000000001
 21
357.8021706213843
 31
0.0
  0
LINE
  5
CD
  8
1
  6
CONTINUOUS
 62
     7
 10
294.5000000000001
 20
357.8021706213843
 30
0.0
 11
294.5000000000001
 21
358.004501813771
 31
0.0
  0
LINE
  5
CE
  8
1
  6
CONTINUOUS
 62
     7
 10
294.5000000000001
 20
358.004501813771
 30
0.0
 11
294.5
 21
358.2068330061576
 31
0.0
  0
LINE
  5
CF
  8
1
  6
CONTINUOUS
 62
     7
 10
294.5
 20
358.2068330061576
 30
0.0
 11
294.5
 21
358.4091641985442
 31
0.0
  0
LINE
  5
D0
  8
1
  6
CONTINUOUS
 62
     7
 10
294.5
 20
358.4091641985442
 30
0.0
 11
294.5
 21
358.6114953909308
 31
0.0
  0
LINE
  5
D1
  8
1
  6
CONTINUOUS
 62
     7
 10
294.5
 20
358.6114953909308
 30
0.0
 11
294.5000000000001
 21
358.8138265833176
 31
0.0
  0
LINE
  5
D2
  8
1
  6
CONTINUOUS
 62
     7
 10
294.5000000000001
 20
358.8138265833175
 30
0.0
 11
294.5
 21
359.0161577757041
 31
0.0
  0
LINE
  5
D3
  8
1
  6
CONTINUOUS
 62
     7
 10
294.5
 20
359.0161577757041
 30
0.0
 11
294.5
 21
359.2184889680908
 31
0.0
  0
LINE
  5
D4
  8
1
  6
CONTINUOUS
 62
     7
 10
294.5
 20
359.2184889680908
 30
0.0
 11
294.5
 21
359.4208201604774
 31
0.0
  0
LINE
  5
D5
  8
1
  6
CONTINUOUS
 62
     7
 10
294.5
 20
359.4208201604774
 30
0.0
 11
294.4988311429117
 21
359.6231457504989
 31
0.0
  0
LINE
  5
D6
  8
1
  6
CONTINUOUS
 62
     7
 10
294.4988311429117
 20
359.6231457504989
 30
0.0
 11
294.4952291017188
 21
359.8254412448842
 31
0.0
  0
LINE
  5
D7
  8
1
  6
CONTINUOUS
 62
     7
 10
294.4952291017188
 20
359.8254412448842
 30
0.0
 11
294.4891989832946
 21
360.0276784399667
 31
0.0
  0
LINE
  5
D8
  8
1
  6
CONTINUOUS
 62
     7
 10
294.4891989832946
 20
360.0276784399667
 30
0.0
 11
294.4807464150114
 21
360.2298291325666
 31
0.0
  0
LINE
  5
D9
  8
1
  6
CONTINUOUS
 62
     7
 10
294.4807464150114
 20
360.2298291325666
 30
0.0
 11
294.4698770242424
 21
360.4318651195042
 31
0.0
  0
LINE
  5
DA
  8
1
  6
CONTINUOUS
 62
     7
 10
294.4698770242424
 20
360.4318651195042
 30
0.0
 11
294.4565964383603
 21
360.6337581975997
 31
0.0
  0
LINE
  5
DB
  8
1
  6
CONTINUOUS
 62
     7
 10
294.4565964383603
 20
360.6337581975997
 30
0.0
 11
294.4409102847381
 21
360.8354801636734
 31
0.0
  0
LINE
  5
DC
  8
1
  6
CONTINUOUS
 62
     7
 10
294.4409102847381
 20
360.8354801636734
 30
0.0
 11
294.4228241907488
 21
361.0370028145454
 31
0.0
  0
LINE
  5
DD
  8
1
  6
CONTINUOUS
 62
     7
 10
294.4228241907488
 20
361.0370028145454
 30
0.0
 11
294.4023437837649
 21
361.2382979470361
 31
0.0
  0
LINE
  5
DE
  8
1
  6
CONTINUOUS
 62
     7
 10
294.4023437837649
 20
361.2382979470361
 30
0.0
 11
294.3794746911594
 21
361.4393373579657
 31
0.0
  0
LINE
  5
DF
  8
1
  6
CONTINUOUS
 62
     7
 10
294.3794746911594
 20
361.4393373579657
 30
0.0
 11
294.3542225403053
 21
361.6400928441544
 31
0.0
  0
LINE
  5
E0
  8
1
  6
CONTINUOUS
 62
     7
 10
294.3542225403053
 20
361.6400928441544
 30
0.0
 11
294.3265929585754
 21
361.8405362024225
 31
0.0
  0
LINE
  5
E1
  8
1
  6
CONTINUOUS
 62
     7
 10
294.3265929585754
 20
361.8405362024224
 30
0.0
 11
294.2965915733424
 21
362.0406392295901
 31
0.0
  0
LINE
  5
E2
  8
1
  6
CONTINUOUS
 62
     7
 10
294.2965915733424
 20
362.0406392295901
 30
0.0
 11
294.2642240119793
 21
362.2403737224776
 31
0.0
  0
LINE
  5
E3
  8
1
  6
CONTINUOUS
 62
     7
 10
294.2642240119793
 20
362.2403737224776
 30
0.0
 11
294.229495901859
 21
362.4397114779052
 31
0.0
  0
LINE
  5
E4
  8
1
  6
CONTINUOUS
 62
     7
 10
294.229495901859
 20
362.4397114779052
 30
0.0
 11
294.1924128703543
 21
362.6386242926931
 31
0.0
  0
LINE
  5
E5
  8
1
  6
CONTINUOUS
 62
     7
 10
294.1924128703543
 20
362.6386242926931
 30
0.0
 11
294.1529805448379
 21
362.8370839636617
 31
0.0
  0
LINE
  5
E6
  8
1
  6
CONTINUOUS
 62
     7
 10
294.1529805448379
 20
362.8370839636617
 30
0.0
 11
294.1112045526831
 21
363.0350622876309
 31
0.0
  0
LINE
  5
E7
  8
1
  6
CONTINUOUS
 62
     7
 10
294.1112045526831
 20
363.0350622876309
 30
0.0
 11
294.0670905212625
 21
363.2325310614214
 31
0.0
  0
LINE
  5
E8
  8
1
  6
CONTINUOUS
 62
     7
 10
294.0670905212625
 20
363.2325310614213
 30
0.0
 11
294.0206440779488
 21
363.4294620818529
 31
0.0
  0
LINE
  5
E9
  8
1
  6
CONTINUOUS
 62
     7
 10
294.0206440779488
 20
363.429462081853
 30
0.0
 11
293.971870850115
 21
363.6258271457461
 31
0.0
  0
LINE
  5
EA
  8
1
  6
CONTINUOUS
 62
     7
 10
293.971870850115
 20
363.6258271457461
 30
0.0
 11
293.920776465134
 21
363.8215980499211
 31
0.0
  0
LINE
  5
EB
  8
1
  6
CONTINUOUS
 62
     7
 10
293.920776465134
 20
363.8215980499211
 30
0.0
 11
293.8673665503786
 21
364.0167465911981
 31
0.0
  0
LINE
  5
EC
  8
1
  6
CONTINUOUS
 62
     7
 10
293.8673665503786
 20
364.0167465911981
 30
0.0
 11
293.8116467332217
 21
364.2112445663973
 31
0.0
  0
LINE
  5
ED
  8
1
  6
CONTINUOUS
 62
     7
 10
293.8116467332217
 20
364.2112445663973
 30
0.0
 11
293.7536226410362
 21
364.405063772339
 31
0.0
  0
LINE
  5
EE
  8
1
  6
CONTINUOUS
 62
     7
 10
293.7536226410362
 20
364.405063772339
 30
0.0
 11
293.693299901195
 21
364.5981760058436
 31
0.0
  0
LINE
  5
EF
  8
1
  6
CONTINUOUS
 62
     7
 10
293.693299901195
 20
364.5981760058436
 30
0.0
 11
293.6306841410708
 21
364.7905530637311
 31
0.0
  0
LINE
  5
F0
  8
1
  6
CONTINUOUS
 62
     7
 10
293.6306841410708
 20
364.7905530637311
 30
0.0
 11
293.5657809880365
 21
364.9821667428218
 31
0.0
  0
LINE
  5
F1
  8
1
  6
CONTINUOUS
 62
     7
 10
293.5657809880365
 20
364.9821667428218
 30
0.0
 11
293.498596069465
 21
365.1729888399358
 31
0.0
  0
LINE
  5
F2
  8
1
  6
CONTINUOUS
 62
     7
 10
293.498596069465
 20
365.1729888399358
 30
0.0
 11
293.4291350127291
 21
365.3629911518938
 31
0.0
  0
LINE
  5
F3
  8
1
  6
CONTINUOUS
 62
     7
 10
293.4291350127291
 20
365.3629911518939
 30
0.0
 11
293.3574034452018
 21
365.5521454755157
 31
0.0
  0
LINE
  5
F4
  8
1
  6
CONTINUOUS
 62
     7
 10
293.3574034452018
 20
365.5521454755157
 30
0.0
 11
293.283406994256
 21
365.7404236076217
 31
0.0
  0
LINE
  5
F5
  8
1
  6
CONTINUOUS
 62
     7
 10
293.283406994256
 20
365.7404236076217
 30
0.0
 11
293.2071512872643
 21
365.9277973450322
 31
0.0
  0
LINE
  5
F6
  8
1
  6
CONTINUOUS
 62
     7
 10
293.2071512872643
 20
365.9277973450322
 30
0.0
 11
293.1286436052937
 21
366.1142391536397
 31
0.0
  0
LINE
  5
F7
  8
1
  6
CONTINUOUS
 62
     7
 10
293.1286436052937
 20
366.1142391536397
 30
0.0
 11
293.0478981589537
 21
366.2997243029786
 31
0.0
  0
LINE
  5
F8
  8
1
  6
CONTINUOUS
 62
     7
 10
293.0478981589537
 20
366.2997243029786
 30
0.0
 11
292.9649309736399
 21
366.4842287968324
 31
0.0
  0
LINE
  5
F9
  8
1
  6
CONTINUOUS
 62
     7
 10
292.9649309736399
 20
366.4842287968324
 30
0.0
 11
292.8797580747544
 21
366.6677286389871
 31
0.0
  0
LINE
  5
FA
  8
1
  6
CONTINUOUS
 62
     7
 10
292.8797580747544
 20
366.6677286389871
 30
0.0
 11
292.7923954876994
 21
366.8501998332286
 31
0.0
  0
LINE
  5
FB
  8
1
  6
CONTINUOUS
 62
     7
 10
292.7923954876994
 20
366.8501998332287
 30
0.0
 11
292.7028592378769
 21
367.0316183833432
 31
0.0
  0
LINE
  5
FC
  8
1
  6
CONTINUOUS
 62
     7
 10
292.7028592378769
 20
367.0316183833432
 30
0.0
 11
292.6111653506888
 21
367.2119602931168
 31
0.0
  0
LINE
  5
FD
  8
1
  6
CONTINUOUS
 62
     7
 10
292.6111653506888
 20
367.2119602931168
 30
0.0
 11
292.5173298515374
 21
367.3912015663353
 31
0.0
  0
LINE
  5
FE
  8
1
  6
CONTINUOUS
 62
     7
 10
292.5173298515374
 20
367.3912015663352
 30
0.0
 11
292.4213687658248
 21
367.5693182067849
 31
0.0
  0
LINE
  5
FF
  8
1
  6
CONTINUOUS
 62
     7
 10
292.4213687658248
 20
367.5693182067849
 30
0.0
 11
292.3232981189528
 21
367.7462862182517
 31
0.0
  0
LINE
  5
100
  8
1
  6
CONTINUOUS
 62
     7
 10
292.3232981189528
 20
367.7462862182517
 30
0.0
 11
292.2231339363236
 21
367.9220816045216
 31
0.0
  0
LINE
  5
101
  8
1
  6
CONTINUOUS
 62
     7
 10
292.2231339363236
 20
367.9220816045216
 30
0.0
 11
292.1208922433395
 21
368.0966803693806
 31
0.0
  0
LINE
  5
102
  8
1
  6
CONTINUOUS
 62
     7
 10
292.1208922433395
 20
368.0966803693806
 30
0.0
 11
292.0165890654025
 21
368.2700585166149
 31
0.0
  0
LINE
  5
103
  8
1
  6
CONTINUOUS
 62
     7
 10
292.0165890654025
 20
368.2700585166149
 30
0.0
 11
291.9102404279145
 21
368.4421920500104
 31
0.0
  0
LINE
  5
104
  8
1
  6
CONTINUOUS
 62
     7
 10
291.9102404279145
 20
368.4421920500104
 30
0.0
 11
291.8018623562776
 21
368.6130569733533
 31
0.0
  0
LINE
  5
105
  8
1
  6
CONTINUOUS
 62
     7
 10
291.8018623562776
 20
368.6130569733533
 30
0.0
 11
291.691470875894
 21
368.7826292904294
 31
0.0
  0
LINE
  5
106
  8
1
  6
CONTINUOUS
 62
     7
 10
291.691470875894
 20
368.7826292904294
 30
0.0
 11
291.5790820121656
 21
368.9508850050249
 31
0.0
  0
LINE
  5
107
  8
1
  6
CONTINUOUS
 62
     7
 10
291.5790820121656
 20
368.9508850050249
 30
0.0
 11
291.4647117904947
 21
369.1178001209258
 31
0.0
  0
LINE
  5
108
  8
1
  6
CONTINUOUS
 62
     7
 10
291.4647117904947
 20
369.1178001209258
 30
0.0
 11
291.3483762362832
 21
369.2833506419182
 31
0.0
  0
LINE
  5
109
  8
1
  6
CONTINUOUS
 62
     7
 10
291.3483762362832
 20
369.2833506419182
 30
0.0
 11
291.2300913749334
 21
369.447512571788
 31
0.0
  0
LINE
  5
10A
  8
1
  6
CONTINUOUS
 62
     7
 10
291.2300913749334
 20
369.447512571788
 30
0.0
 11
291.109873231847
 21
369.6102619143213
 31
0.0
  0
LINE
  5
10B
  8
1
  6
CONTINUOUS
 62
     7
 10
291.109873231847
 20
369.6102619143213
 30
0.0
 11
290.9877378324265
 21
369.7715746733043
 31
0.0
  0
LINE
  5
10C
  8
1
  6
CONTINUOUS
 62
     7
 10
290.9877378324265
 20
369.7715746733043
 30
0.0
 11
290.8637012020737
 21
369.9314268525227
 31
0.0
  0
LINE
  5
10D
  8
1
  6
CONTINUOUS
 62
     7
 10
290.8637012020737
 20
369.9314268525226
 30
0.0
 11
290.7377793661908
 21
370.0897944557627
 31
0.0
  0
LINE
  5
10E
  8
1
  6
CONTINUOUS
 62
     7
 10
290.7377793661908
 20
370.0897944557627
 30
0.0
 11
290.6099883501797
 21
370.2466534868104
 31
0.0
  0
LINE
  5
10F
  8
1
  6
CONTINUOUS
 62
     7
 10
290.6099883501797
 20
370.2466534868104
 30
0.0
 11
290.4803441794427
 21
370.4019799494518
 31
0.0
  0
LINE
  5
110
  8
1
  6
CONTINUOUS
 62
     7
 10
290.4803441794427
 20
370.4019799494518
 30
0.0
 11
290.3488628793818
 21
370.5557498474728
 31
0.0
  0
LINE
  5
111
  8
1
  6
CONTINUOUS
 62
     7
 10
290.3488628793818
 20
370.5557498474729
 30
0.0
 11
290.215560475399
 21
370.7079391846598
 31
0.0
  0
LINE
  5
112
  8
1
  6
CONTINUOUS
 62
     7
 10
290.215560475399
 20
370.7079391846598
 30
0.0
 11
290.0804529928967
 21
370.8585239647986
 31
0.0
  0
LINE
  5
113
  8
1
  6
CONTINUOUS
 62
     7
 10
290.0804529928967
 20
370.8585239647986
 30
0.0
 11
289.9435564572764
 21
371.0074801916751
 31
0.0
  0
LINE
  5
114
  8
1
  6
CONTINUOUS
 62
     7
 10
289.9435564572764
 20
371.0074801916751
 30
0.0
 11
289.8048868939406
 21
371.1547838690754
 31
0.0
  0
LINE
  5
115
  8
1
  6
CONTINUOUS
 62
     7
 10
289.8048868939406
 20
371.1547838690754
 30
0.0
 11
289.6644603282913
 21
371.3004110007858
 31
0.0
  0
LINE
  5
116
  8
1
  6
CONTINUOUS
 62
     7
 10
289.6644603282913
 20
371.3004110007858
 30
0.0
 11
289.5222927857305
 21
371.444337590592
 31
0.0
  0
LINE
  5
117
  8
1
  6
CONTINUOUS
 62
     7
 10
289.5222927857305
 20
371.444337590592
 30
0.0
 11
289.3784015793867
 21
371.5865409300067
 31
0.0
  0
LINE
  5
118
  8
1
  6
CONTINUOUS
 62
     7
 10
289.3784015793867
 20
371.5865409300067
 30
0.0
 11
289.2328093354168
 21
371.7270036235706
 31
0.0
  0
LINE
  5
119
  8
1
  6
CONTINUOUS
 62
     7
 10
289.2328093354168
 20
371.7270036235705
 30
0.0
 11
289.0855400500333
 21
371.8657096458799
 31
0.0
  0
LINE
  5
11A
  8
1
  6
CONTINUOUS
 62
     7
 10
289.0855400500333
 20
371.8657096458799
 30
0.0
 11
288.9366177194502
 21
372.0026429715331
 31
0.0
  0
LINE
  5
11B
  8
1
  6
CONTINUOUS
 62
     7
 10
288.9366177194502
 20
372.0026429715331
 30
0.0
 11
288.7860663398815
 21
372.1377875751278
 31
0.0
  0
LINE
  5
11C
  8
1
  6
CONTINUOUS
 62
     7
 10
288.7860663398815
 20
372.1377875751278
 30
0.0
 11
288.6339099075412
 21
372.271127431262
 31
0.0
  0
LINE
  5
11D
  8
1
  6
CONTINUOUS
 62
     7
 10
288.6339099075412
 20
372.271127431262
 30
0.0
 11
288.4801724186431
 21
372.4026465145336
 31
0.0
  0
LINE
  5
11E
  8
1
  6
CONTINUOUS
 62
     7
 10
288.4801724186431
 20
372.4026465145336
 30
0.0
 11
288.3248778694011
 21
372.5323287995404
 31
0.0
  0
LINE
  5
11F
  8
1
  6
CONTINUOUS
 62
     7
 10
288.3248778694011
 20
372.5323287995404
 30
0.0
 11
288.1680502560294
 21
372.6601582608806
 31
0.0
  0
LINE
  5
120
  8
1
  6
CONTINUOUS
 62
     7
 10
288.1680502560294
 20
372.6601582608806
 30
0.0
 11
288.0097135747419
 21
372.7861188731518
 31
0.0
  0
LINE
  5
121
  8
1
  6
CONTINUOUS
 62
     7
 10
288.0097135747419
 20
372.7861188731518
 30
0.0
 11
287.8498918217526
 21
372.9101946109522
 31
0.0
  0
LINE
  5
122
  8
1
  6
CONTINUOUS
 62
     7
 10
287.8498918217526
 20
372.9101946109522
 30
0.0
 11
287.6886089932753
 21
373.0323694488796
 31
0.0
  0
LINE
  5
123
  8
1
  6
CONTINUOUS
 62
     7
 10
287.6886089932753
 20
373.0323694488796
 30
0.0
 11
287.5258890855241
 21
373.1526273615321
 31
0.0
  0
LINE
  5
124
  8
1
  6
CONTINUOUS
 62
     7
 10
287.5258890855241
 20
373.152627361532
 30
0.0
 11
287.361756094713
 21
373.2709523235071
 31
0.0
  0
LINE
  5
125
  8
1
  6
CONTINUOUS
 62
     7
 10
287.361756094713
 20
373.2709523235071
 30
0.0
 11
287.1962340170557
 21
373.3873283094031
 31
0.0
  0
LINE
  5
126
  8
1
  6
CONTINUOUS
 62
     7
 10
287.1962340170557
 20
373.3873283094031
 30
0.0
 11
287.0293468487665
 21
373.5017392938178
 31
0.0
  0
LINE
  5
127
  8
1
  6
CONTINUOUS
 62
     7
 10
287.0293468487665
 20
373.5017392938177
 30
0.0
 11
286.8611185860592
 21
373.614169251349
 31
0.0
  0
LINE
  5
128
  8
1
  6
CONTINUOUS
 62
     7
 10
286.8611185860592
 20
373.6141692513491
 30
0.0
 11
286.6915732251477
 21
373.7246021565948
 31
0.0
  0
LINE
  5
129
  8
1
  6
CONTINUOUS
 62
     7
 10
286.6915732251477
 20
373.7246021565949
 30
0.0
 11
286.5207347622461
 21
373.8330219841532
 31
0.0
  0
LINE
  5
12A
  8
1
  6
CONTINUOUS
 62
     7
 10
286.5207347622461
 20
373.8330219841532
 30
0.0
 11
286.3486271935683
 21
373.9394127086218
 31
0.0
  0
LINE
  5
12B
  8
1
  6
CONTINUOUS
 62
     7
 10
286.3486271935683
 20
373.9394127086218
 30
0.0
 11
286.1752745153282
 21
374.0437583045989
 31
0.0
  0
LINE
  5
12C
  8
1
  6
CONTINUOUS
 62
     7
 10
286.1752745153282
 20
374.0437583045989
 30
0.0
 11
286.00070072374
 21
374.1460427466821
 31
0.0
  0
LINE
  5
12D
  8
1
  6
CONTINUOUS
 62
     7
 10
286.00070072374
 20
374.1460427466821
 30
0.0
 11
285.8249298150173
 21
374.2462500094696
 31
0.0
  0
LINE
  5
12E
  8
1
  6
CONTINUOUS
 62
     7
 10
285.8249298150173
 20
374.2462500094696
 30
0.0
 11
285.6479857853744
 21
374.3443640675591
 31
0.0
  0
LINE
  5
12F
  8
1
  6
CONTINUOUS
 62
     7
 10
285.6479857853744
 20
374.3443640675591
 30
0.0
 11
285.469892631025
 21
374.4403688955487
 31
0.0
  0
LINE
  5
130
  8
1
  6
CONTINUOUS
 62
     7
 10
285.469892631025
 20
374.4403688955487
 30
0.0
 11
285.2906743481833
 21
374.5342484680361
 31
0.0
  0
LINE
  5
131
  8
1
  6
CONTINUOUS
 62
     7
 10
285.2906743481833
 20
374.534248468036
 30
0.0
 11
285.1103549330631
 21
374.6259867596193
 31
0.0
  0
LINE
  5
132
  8
1
  6
CONTINUOUS
 62
     7
 10
285.1103549330631
 20
374.6259867596193
 30
0.0
 11
284.9289583818784
 21
374.7155677448964
 31
0.0
  0
LINE
  5
133
  8
1
  6
CONTINUOUS
 62
     7
 10
284.9289583818784
 20
374.7155677448964
 30
0.0
 11
284.746508690843
 21
374.8029753984652
 31
0.0
  0
LINE
  5
134
  8
1
  6
CONTINUOUS
 62
     7
 10
284.746508690843
 20
374.8029753984652
 30
0.0
 11
284.5630298561714
 21
374.8881936949235
 31
0.0
  0
LINE
  5
135
  8
1
  6
CONTINUOUS
 62
     7
 10
284.5630298561714
 20
374.8881936949236
 30
0.0
 11
284.3785458740771
 21
374.9712066088696
 31
0.0
  0
LINE
  5
136
  8
1
  6
CONTINUOUS
 62
     7
 10
284.3785458740771
 20
374.9712066088696
 30
0.0
 11
284.193080740774
 21
375.051998114901
 31
0.0
  0
LINE
  5
137
  8
1
  6
CONTINUOUS
 62
     7
 10
284.193080740774
 20
375.051998114901
 30
0.0
 11
284.0066584524764
 21
375.1305521876158
 31
0.0
  0
LINE
  5
138
  8
1
  6
CONTINUOUS
 62
     7
 10
284.0066584524764
 20
375.1305521876158
 30
0.0
 11
283.8193036957513
 21
375.2068545079044
 31
0.0
  0
LINE
  5
139
  8
1
  6
CONTINUOUS
 62
     7
 10
283.8193036957513
 20
375.2068545079044
 30
0.0
 11
283.6310439616981
 21
375.2808976884
 31
0.0
  0
LINE
  5
13A
  8
1
  6
CONTINUOUS
 62
     7
 10
283.6310439616981
 20
375.2808976884
 30
0.0
 11
283.4419074534964
 21
375.3526761017296
 31
0.0
  0
LINE
  5
13B
  8
1
  6
CONTINUOUS
 62
     7
 10
283.4419074534964
 20
375.3526761017296
 30
0.0
 11
283.2519223743259
 21
375.4221841205202
 31
0.0
  0
LINE
  5
13C
  8
1
  6
CONTINUOUS
 62
     7
 10
283.2519223743259
 20
375.4221841205202
 30
0.0
 11
283.0611169273666
 21
375.489416117399
 31
0.0
  0
LINE
  5
13D
  8
1
  6
CONTINUOUS
 62
     7
 10
283.0611169273666
 20
375.4894161173991
 30
0.0
 11
282.869519315798
 21
375.5543664649932
 31
0.0
  0
LINE
  5
13E
  8
1
  6
CONTINUOUS
 62
     7
 10
282.869519315798
 20
375.5543664649931
 30
0.0
 11
282.6771577427999
 21
375.6170295359298
 31
0.0
  0
LINE
  5
13F
  8
1
  6
CONTINUOUS
 62
     7
 10
282.6771577427999
 20
375.6170295359298
 30
0.0
 11
282.4840604115522
 21
375.6773997028361
 31
0.0
  0
LINE
  5
140
  8
1
  6
CONTINUOUS
 62
     7
 10
282.4840604115522
 20
375.6773997028361
 30
0.0
 11
282.2902555252344
 21
375.735471338339
 31
0.0
  0
LINE
  5
141
  8
1
  6
CONTINUOUS
 62
     7
 10
282.2902555252344
 20
375.735471338339
 30
0.0
 11
282.0957712870264
 21
375.791238815066
 31
0.0
  0
LINE
  5
142
  8
1
  6
CONTINUOUS
 62
     7
 10
282.0957712870264
 20
375.791238815066
 30
0.0
 11
281.9006359001082
 21
375.8446965056439
 31
0.0
  0
LINE
  5
143
  8
1
  6
CONTINUOUS
 62
     7
 10
281.9006359001082
 20
375.8446965056439
 30
0.0
 11
281.7048775676592
 21
375.8958387827
 31
0.0
  0
LINE
  5
144
  8
1
  6
CONTINUOUS
 62
     7
 10
281.7048775676592
 20
375.8958387827
 30
0.0
 11
281.5085244928595
 21
375.9446600188614
 31
0.0
  0
LINE
  5
145
  8
1
  6
CONTINUOUS
 62
     7
 10
281.5085244928595
 20
375.9446600188614
 30
0.0
 11
281.3116048788884
 21
375.9911545867552
 31
0.0
  0
LINE
  5
146
  8
1
  6
CONTINUOUS
 62
     7
 10
281.3116048788884
 20
375.9911545867553
 30
0.0
 11
281.1141469289259
 21
376.0353168590088
 31
0.0
  0
LINE
  5
147
  8
1
  6
CONTINUOUS
 62
     7
 10
281.1141469289259
 20
376.0353168590088
 30
0.0
 11
280.9161788461519
 21
376.077141208249
 31
0.0
  0
LINE
  5
148
  8
1
  6
CONTINUOUS
 62
     7
 10
280.9161788461519
 20
376.077141208249
 30
0.0
 11
280.717728833746
 21
376.116622007103
 31
0.0
  0
LINE
  5
149
  8
1
  6
CONTINUOUS
 62
     7
 10
280.717728833746
 20
376.116622007103
 30
0.0
 11
280.518825094888
 21
376.1537536281982
 31
0.0
  0
LINE
  5
14A
  8
1
  6
CONTINUOUS
 62
     7
 10
280.518825094888
 20
376.1537536281982
 30
0.0
 11
280.3194958327575
 21
376.1885304441614
 31
0.0
  0
LINE
  5
14B
  8
1
  6
CONTINUOUS
 62
     7
 10
280.3194958327575
 20
376.1885304441614
 30
0.0
 11
280.1197692505347
 21
376.2209468276199
 31
0.0
  0
LINE
  5
14C
  8
1
  6
CONTINUOUS
 62
     7
 10
280.1197692505347
 20
376.2209468276199
 30
0.0
 11
279.9196735513988
 21
376.2509971512008
 31
0.0
  0
LINE
  5
14D
  8
1
  6
CONTINUOUS
 62
     7
 10
279.9196735513988
 20
376.2509971512008
 30
0.0
 11
279.7192369385298
 21
376.2786757875313
 31
0.0
  0
LINE
  5
14E
  8
1
  6
CONTINUOUS
 62
     7
 10
279.7192369385298
 20
376.2786757875313
 30
0.0
 11
279.5184876151078
 21
376.3039771092386
 31
0.0
  0
LINE
  5
14F
  8
1
  6
CONTINUOUS
 62
     7
 10
279.5184876151078
 20
376.3039771092386
 30
0.0
 11
279.317453784312
 21
376.3268954889496
 31
0.0
  0
LINE
  5
150
  8
1
  6
CONTINUOUS
 62
     7
 10
279.317453784312
 20
376.3268954889496
 30
0.0
 11
279.1161636493223
 21
376.3474252992916
 31
0.0
  0
LINE
  5
151
  8
1
  6
CONTINUOUS
 62
     7
 10
279.1161636493223
 20
376.3474252992916
 30
0.0
 11
278.9146454133187
 21
376.3655609128918
 31
0.0
  0
LINE
  5
152
  8
1
  6
CONTINUOUS
 62
     7
 10
278.9146454133187
 20
376.3655609128918
 30
0.0
 11
278.7129272794809
 21
376.3812967023772
 31
0.0
  0
LINE
  5
153
  8
1
  6
CONTINUOUS
 62
     7
 10
278.7129272794809
 20
376.3812967023772
 30
0.0
 11
278.5110374509884
 21
376.3946270403749
 31
0.0
  0
LINE
  5
154
  8
1
  6
CONTINUOUS
 62
     7
 10
278.5110374509884
 20
376.394627040375
 30
0.0
 11
278.3090041310212
 21
376.4055462995124
 31
0.0
  0
LINE
  5
155
  8
1
  6
CONTINUOUS
 62
     7
 10
278.3090041310212
 20
376.4055462995124
 30
0.0
 11
278.106855522759
 21
376.4140488524164
 31
0.0
  0
LINE
  5
156
  8
1
  6
CONTINUOUS
 62
     7
 10
278.106855522759
 20
376.4140488524164
 30
0.0
 11
277.9046198293815
 21
376.4201290717143
 31
0.0
  0
LINE
  5
157
  8
1
  6
CONTINUOUS
 62
     7
 10
277.9046198293815
 20
376.4201290717143
 30
0.0
 11
277.7023252540685
 21
376.4237813300331
 31
0.0
  0
LINE
  5
158
  8
1
  6
CONTINUOUS
 62
     7
 10
277.7023252540685
 20
376.4237813300331
 30
0.0
 11
277.5
 21
376.4250000000001
 31
0.0
  0
LINE
  5
159
  8
1
  6
CONTINUOUS
 62
     7
 10
277.5
 20
376.425
 30
0.0
 11
277.2976747459313
 21
376.4237813300331
 31
0.0
  0
LINE
  5
15A
  8
1
  6
CONTINUOUS
 62
     7
 10
277.2976747459313
 20
376.4237813300331
 30
0.0
 11
277.0953801706184
 21
376.4201290717143
 31
0.0
  0
LINE
  5
15B
  8
1
  6
CONTINUOUS
 62
     7
 10
277.0953801706184
 20
376.4201290717143
 30
0.0
 11
276.8931444772409
 21
376.4140488524164
 31
0.0
  0
LINE
  5
15C
  8
1
  6
CONTINUOUS
 62
     7
 10
276.8931444772409
 20
376.4140488524164
 30
0.0
 11
276.6909958689786
 21
376.4055462995124
 31
0.0
  0
LINE
  5
15D
  8
1
  6
CONTINUOUS
 62
     7
 10
276.6909958689786
 20
376.4055462995124
 30
0.0
 11
276.4889625490115
 21
376.3946270403749
 31
0.0
  0
LINE
  5
15E
  8
1
  6
CONTINUOUS
 62
     7
 10
276.4889625490115
 20
376.394627040375
 30
0.0
 11
276.2870727205191
 21
376.3812967023773
 31
0.0
  0
LINE
  5
15F
  8
1
  6
CONTINUOUS
 62
     7
 10
276.2870727205191
 20
376.3812967023772
 30
0.0
 11
276.0853545866812
 21
376.3655609128917
 31
0.0
  0
LINE
  5
160
  8
1
  6
CONTINUOUS
 62
     7
 10
276.0853545866812
 20
376.3655609128918
 30
0.0
 11
275.8838363506776
 21
376.3474252992916
 31
0.0
  0
LINE
  5
161
  8
1
  6
CONTINUOUS
 62
     7
 10
275.8838363506776
 20
376.3474252992916
 30
0.0
 11
275.682546215688
 21
376.3268954889496
 31
0.0
  0
LINE
  5
162
  8
1
  6
CONTINUOUS
 62
     7
 10
275.682546215688
 20
376.3268954889496
 30
0.0
 11
275.4815123848923
 21
376.3039771092385
 31
0.0
  0
LINE
  5
163
  8
1
  6
CONTINUOUS
 62
     7
 10
275.4815123848923
 20
376.3039771092385
 30
0.0
 11
275.2807630614701
 21
376.2786757875313
 31
0.0
  0
LINE
  5
164
  8
1
  6
CONTINUOUS
 62
     7
 10
275.2807630614701
 20
376.2786757875313
 30
0.0
 11
275.0803264486012
 21
376.2509971512008
 31
0.0
  0
LINE
  5
165
  8
1
  6
CONTINUOUS
 62
     7
 10
275.0803264486012
 20
376.2509971512008
 30
0.0
 11
274.8802307494653
 21
376.2209468276199
 31
0.0
  0
LINE
  5
166
  8
1
  6
CONTINUOUS
 62
     7
 10
274.8802307494653
 20
376.2209468276199
 30
0.0
 11
274.6805041672424
 21
376.1885304441614
 31
0.0
  0
LINE
  5
167
  8
1
  6
CONTINUOUS
 62
     7
 10
274.6805041672424
 20
376.1885304441614
 30
0.0
 11
274.4811749051121
 21
376.1537536281982
 31
0.0
  0
LINE
  5
168
  8
1
  6
CONTINUOUS
 62
     7
 10
274.4811749051121
 20
376.1537536281982
 30
0.0
 11
274.282271166254
 21
376.116622007103
 31
0.0
  0
LINE
  5
169
  8
1
  6
CONTINUOUS
 62
     7
 10
274.282271166254
 20
376.116622007103
 30
0.0
 11
274.083821153848
 21
376.077141208249
 31
0.0
  0
LINE
  5
16A
  8
1
  6
CONTINUOUS
 62
     7
 10
274.083821153848
 20
376.077141208249
 30
0.0
 11
273.8858530710741
 21
376.0353168590087
 31
0.0
  0
LINE
  5
16B
  8
1
  6
CONTINUOUS
 62
     7
 10
273.8858530710741
 20
376.0353168590087
 30
0.0
 11
273.6883951211116
 21
375.9911545867553
 31
0.0
  0
LINE
  5
16C
  8
1
  6
CONTINUOUS
 62
     7
 10
273.6883951211116
 20
375.9911545867553
 30
0.0
 11
273.4914755071405
 21
375.9446600188614
 31
0.0
  0
LINE
  5
16D
  8
1
  6
CONTINUOUS
 62
     7
 10
273.4914755071405
 20
375.9446600188614
 30
0.0
 11
273.2951224323406
 21
375.8958387827
 31
0.0
  0
LINE
  5
16E
  8
1
  6
CONTINUOUS
 62
     7
 10
273.2951224323406
 20
375.8958387827
 30
0.0
 11
273.0993640998917
 21
375.8446965056439
 31
0.0
  0
LINE
  5
16F
  8
1
  6
CONTINUOUS
 62
     7
 10
273.0993640998917
 20
375.8446965056439
 30
0.0
 11
272.9042287129735
 21
375.7912388150659
 31
0.0
  0
LINE
  5
170
  8
1
  6
CONTINUOUS
 62
     7
 10
272.9042287129735
 20
375.7912388150659
 30
0.0
 11
272.7097444747656
 21
375.735471338339
 31
0.0
  0
LINE
  5
171
  8
1
  6
CONTINUOUS
 62
     7
 10
272.7097444747656
 20
375.735471338339
 30
0.0
 11
272.5159395884478
 21
375.677399702836
 31
0.0
  0
LINE
  5
172
  8
1
  6
CONTINUOUS
 62
     7
 10
272.5159395884478
 20
375.677399702836
 30
0.0
 11
272.3228422572001
 21
375.6170295359298
 31
0.0
  0
LINE
  5
173
  8
1
  6
CONTINUOUS
 62
     7
 10
272.3228422572001
 20
375.6170295359298
 30
0.0
 11
272.130480684202
 21
375.5543664649931
 31
0.0
  0
LINE
  5
174
  8
1
  6
CONTINUOUS
 62
     7
 10
272.130480684202
 20
375.5543664649931
 30
0.0
 11
271.9388830726334
 21
375.4894161173991
 31
0.0
  0
LINE
  5
175
  8
1
  6
CONTINUOUS
 62
     7
 10
271.9388830726334
 20
375.4894161173991
 30
0.0
 11
271.7480776256739
 21
375.4221841205201
 31
0.0
  0
LINE
  5
176
  8
1
  6
CONTINUOUS
 62
     7
 10
271.7480776256739
 20
375.4221841205201
 30
0.0
 11
271.5580925465035
 21
375.3526761017295
 31
0.0
  0
LINE
  5
177
  8
1
  6
CONTINUOUS
 62
     7
 10
271.5580925465035
 20
375.3526761017295
 30
0.0
 11
271.3689560383018
 21
375.2808976884
 31
0.0
  0
LINE
  5
178
  8
1
  6
CONTINUOUS
 62
     7
 10
271.3689560383018
 20
375.2808976884
 30
0.0
 11
271.1806963042486
 21
375.2068545079043
 31
0.0
  0
LINE
  5
179
  8
1
  6
CONTINUOUS
 62
     7
 10
271.1806963042486
 20
375.2068545079043
 30
0.0
 11
270.9933415475236
 21
375.1305521876158
 31
0.0
  0
LINE
  5
17A
  8
1
  6
CONTINUOUS
 62
     7
 10
270.9933415475236
 20
375.1305521876158
 30
0.0
 11
270.8069192592259
 21
375.0519981149009
 31
0.0
  0
LINE
  5
17B
  8
1
  6
CONTINUOUS
 62
     7
 10
270.8069192592259
 20
375.0519981149009
 30
0.0
 11
270.621454125923
 21
374.9712066088695
 31
0.0
  0
LINE
  5
17C
  8
1
  6
CONTINUOUS
 62
     7
 10
270.621454125923
 20
374.9712066088695
 30
0.0
 11
270.4369701438286
 21
374.8881936949235
 31
0.0
  0
LINE
  5
17D
  8
1
  6
CONTINUOUS
 62
     7
 10
270.4369701438286
 20
374.8881936949235
 30
0.0
 11
270.2534913091567
 21
374.8029753984652
 31
0.0
  0
LINE
  5
17E
  8
1
  6
CONTINUOUS
 62
     7
 10
270.2534913091567
 20
374.8029753984651
 30
0.0
 11
270.0710416181216
 21
374.7155677448963
 31
0.0
  0
LINE
  5
17F
  8
1
  6
CONTINUOUS
 62
     7
 10
270.0710416181216
 20
374.7155677448964
 30
0.0
 11
269.8896450669369
 21
374.6259867596193
 31
0.0
  0
LINE
  5
180
  8
1
  6
CONTINUOUS
 62
     7
 10
269.8896450669369
 20
374.6259867596193
 30
0.0
 11
269.7093256518167
 21
374.534248468036
 31
0.0
  0
LINE
  5
181
  8
1
  6
CONTINUOUS
 62
     7
 10
269.7093256518167
 20
374.534248468036
 30
0.0
 11
269.5301073689749
 21
374.4403688955485
 31
0.0
  0
LINE
  5
182
  8
1
  6
CONTINUOUS
 62
     7
 10
269.5301073689749
 20
374.4403688955485
 30
0.0
 11
269.3520142146256
 21
374.344364067559
 31
0.0
  0
LINE
  5
183
  8
1
  6
CONTINUOUS
 62
     7
 10
269.3520142146256
 20
374.344364067559
 30
0.0
 11
269.1750701849826
 21
374.2462500094695
 31
0.0
  0
LINE
  5
184
  8
1
  6
CONTINUOUS
 62
     7
 10
269.1750701849826
 20
374.2462500094695
 30
0.0
 11
268.99929927626
 21
374.1460427466822
 31
0.0
  0
LINE
  5
185
  8
1
  6
CONTINUOUS
 62
     7
 10
268.99929927626
 20
374.1460427466821
 30
0.0
 11
268.8247254846718
 21
374.0437583045988
 31
0.0
  0
LINE
  5
186
  8
1
  6
CONTINUOUS
 62
     7
 10
268.8247254846718
 20
374.0437583045988
 30
0.0
 11
268.6513728064318
 21
373.9394127086218
 31
0.0
  0
LINE
  5
187
  8
1
  6
CONTINUOUS
 62
     7
 10
268.6513728064318
 20
373.9394127086218
 30
0.0
 11
268.4792652377539
 21
373.8330219841531
 31
0.0
  0
LINE
  5
188
  8
1
  6
CONTINUOUS
 62
     7
 10
268.4792652377539
 20
373.8330219841531
 30
0.0
 11
268.3084267748523
 21
373.7246021565949
 31
0.0
  0
LINE
  5
189
  8
1
  6
CONTINUOUS
 62
     7
 10
268.3084267748523
 20
373.7246021565949
 30
0.0
 11
268.1388814139409
 21
373.614169251349
 31
0.0
  0
LINE
  5
18A
  8
1
  6
CONTINUOUS
 62
     7
 10
268.1388814139409
 20
373.614169251349
 30
0.0
 11
267.9706531512335
 21
373.5017392938178
 31
0.0
  0
LINE
  5
18B
  8
1
  6
CONTINUOUS
 62
     7
 10
267.9706531512335
 20
373.5017392938177
 30
0.0
 11
267.8037659829443
 21
373.387328309403
 31
0.0
  0
LINE
  5
18C
  8
1
  6
CONTINUOUS
 62
     7
 10
267.8037659829443
 20
373.387328309403
 30
0.0
 11
267.638243905287
 21
373.2709523235072
 31
0.0
  0
LINE
  5
18D
  8
1
  6
CONTINUOUS
 62
     7
 10
267.638243905287
 20
373.2709523235071
 30
0.0
 11
267.4741109144759
 21
373.1526273615319
 31
0.0
  0
LINE
  5
18E
  8
1
  6
CONTINUOUS
 62
     7
 10
267.4741109144759
 20
373.1526273615319
 30
0.0
 11
267.3113910067247
 21
373.0323694488796
 31
0.0
  0
LINE
  5
18F
  8
1
  6
CONTINUOUS
 62
     7
 10
267.3113910067247
 20
373.0323694488796
 30
0.0
 11
267.1501081782474
 21
372.9101946109522
 31
0.0
  0
LINE
  5
190
  8
1
  6
CONTINUOUS
 62
     7
 10
267.1501081782474
 20
372.9101946109522
 30
0.0
 11
266.990286425258
 21
372.7861188731518
 31
0.0
  0
LINE
  5
191
  8
1
  6
CONTINUOUS
 62
     7
 10
266.990286425258
 20
372.7861188731518
 30
0.0
 11
266.8319497439705
 21
372.6601582608806
 31
0.0
  0
LINE
  5
192
  8
1
  6
CONTINUOUS
 62
     7
 10
266.8319497439705
 20
372.6601582608805
 30
0.0
 11
266.6751221305988
 21
372.5323287995404
 31
0.0
  0
LINE
  5
193
  8
1
  6
CONTINUOUS
 62
     7
 10
266.6751221305988
 20
372.5323287995404
 30
0.0
 11
266.519827581357
 21
372.4026465145336
 31
0.0
  0
LINE
  5
194
  8
1
  6
CONTINUOUS
 62
     7
 10
266.519827581357
 20
372.4026465145335
 30
0.0
 11
266.3660900924589
 21
372.271127431262
 31
0.0
  0
LINE
  5
195
  8
1
  6
CONTINUOUS
 62
     7
 10
266.3660900924589
 20
372.271127431262
 30
0.0
 11
266.2139336601184
 21
372.1377875751278
 31
0.0
  0
LINE
  5
196
  8
1
  6
CONTINUOUS
 62
     7
 10
266.2139336601184
 20
372.1377875751278
 30
0.0
 11
266.0633822805498
 21
372.0026429715332
 31
0.0
  0
LINE
  5
197
  8
1
  6
CONTINUOUS
 62
     7
 10
266.0633822805498
 20
372.0026429715331
 30
0.0
 11
265.9144599499667
 21
371.8657096458799
 31
0.0
  0
LINE
  5
198
  8
1
  6
CONTINUOUS
 62
     7
 10
265.9144599499667
 20
371.8657096458799
 30
0.0
 11
265.7671906645832
 21
371.7270036235704
 31
0.0
  0
LINE
  5
199
  8
1
  6
CONTINUOUS
 62
     7
 10
265.7671906645832
 20
371.7270036235704
 30
0.0
 11
265.6215984206133
 21
371.5865409300065
 31
0.0
  0
LINE
  5
19A
  8
1
  6
CONTINUOUS
 62
     7
 10
265.6215984206133
 20
371.5865409300065
 30
0.0
 11
265.4777072142695
 21
371.444337590592
 31
0.0
  0
LINE
  5
19B
  8
1
  6
CONTINUOUS
 62
     7
 10
265.4777072142695
 20
371.444337590592
 30
0.0
 11
265.3355396717088
 21
371.3004110007857
 31
0.0
  0
LINE
  5
19C
  8
1
  6
CONTINUOUS
 62
     7
 10
265.3355396717088
 20
371.3004110007857
 30
0.0
 11
265.1951131060594
 21
371.1547838690754
 31
0.0
  0
LINE
  5
19D
  8
1
  6
CONTINUOUS
 62
     7
 10
265.1951131060594
 20
371.1547838690754
 30
0.0
 11
265.0564435427236
 21
371.007480191675
 31
0.0
  0
LINE
  5
19E
  8
1
  6
CONTINUOUS
 62
     7
 10
265.0564435427236
 20
371.007480191675
 30
0.0
 11
264.9195470071034
 21
370.8585239647985
 31
0.0
  0
LINE
  5
19F
  8
1
  6
CONTINUOUS
 62
     7
 10
264.9195470071034
 20
370.8585239647985
 30
0.0
 11
264.7844395246009
 21
370.7079391846597
 31
0.0
  0
LINE
  5
1A0
  8
1
  6
CONTINUOUS
 62
     7
 10
264.7844395246009
 20
370.7079391846597
 30
0.0
 11
264.6511371206182
 21
370.5557498474729
 31
0.0
  0
LINE
  5
1A1
  8
1
  6
CONTINUOUS
 62
     7
 10
264.6511371206182
 20
370.5557498474729
 30
0.0
 11
264.5196558205573
 21
370.4019799494517
 31
0.0
  0
LINE
  5
1A2
  8
1
  6
CONTINUOUS
 62
     7
 10
264.5196558205573
 20
370.4019799494517
 30
0.0
 11
264.3900116498203
 21
370.2466534868103
 31
0.0
  0
LINE
  5
1A3
  8
1
  6
CONTINUOUS
 62
     7
 10
264.3900116498203
 20
370.2466534868103
 30
0.0
 11
264.2622206338092
 21
370.0897944557626
 31
0.0
  0
LINE
  5
1A4
  8
1
  6
CONTINUOUS
 62
     7
 10
264.2622206338092
 20
370.0897944557626
 30
0.0
 11
264.1362987979263
 21
369.9314268525226
 31
0.0
  0
LINE
  5
1A5
  8
1
  6
CONTINUOUS
 62
     7
 10
264.1362987979263
 20
369.9314268525225
 30
0.0
 11
264.0122621675735
 21
369.771574673304
 31
0.0
  0
LINE
  5
1A6
  8
1
  6
CONTINUOUS
 62
     7
 10
264.0122621675735
 20
369.771574673304
 30
0.0
 11
263.890126768153
 21
369.6102619143212
 31
0.0
  0
LINE
  5
1A7
  8
1
  6
CONTINUOUS
 62
     7
 10
263.890126768153
 20
369.6102619143212
 30
0.0
 11
263.7699086250666
 21
369.4475125717879
 31
0.0
  0
LINE
  5
1A8
  8
1
  6
CONTINUOUS
 62
     7
 10
263.7699086250666
 20
369.4475125717879
 30
0.0
 11
263.6516237637168
 21
369.2833506419181
 31
0.0
  0
LINE
  5
1A9
  8
1
  6
CONTINUOUS
 62
     7
 10
263.6516237637168
 20
369.2833506419181
 30
0.0
 11
263.5352882095053
 21
369.1178001209258
 31
0.0
  0
LINE
  5
1AA
  8
1
  6
CONTINUOUS
 62
     7
 10
263.5352882095053
 20
369.1178001209258
 30
0.0
 11
263.4209179878345
 21
368.9508850050248
 31
0.0
  0
LINE
  5
1AB
  8
1
  6
CONTINUOUS
 62
     7
 10
263.4209179878345
 20
368.9508850050248
 30
0.0
 11
263.3085291241061
 21
368.7826292904295
 31
0.0
  0
LINE
  5
1AC
  8
1
  6
CONTINUOUS
 62
     7
 10
263.3085291241061
 20
368.7826292904294
 30
0.0
 11
263.1981376437225
 21
368.6130569733532
 31
0.0
  0
LINE
  5
1AD
  8
1
  6
CONTINUOUS
 62
     7
 10
263.1981376437225
 20
368.6130569733532
 30
0.0
 11
263.0897595720857
 21
368.4421920500104
 31
0.0
  0
LINE
  5
1AE
  8
1
  6
CONTINUOUS
 62
     7
 10
263.0897595720857
 20
368.4421920500104
 30
0.0
 11
262.9834109345975
 21
368.2700585166149
 31
0.0
  0
LINE
  5
1AF
  8
1
  6
CONTINUOUS
 62
     7
 10
262.9834109345975
 20
368.2700585166149
 30
0.0
 11
262.8791077566604
 21
368.0966803693805
 31
0.0
  0
LINE
  5
1B0
  8
1
  6
CONTINUOUS
 62
     7
 10
262.8791077566604
 20
368.0966803693805
 30
0.0
 11
262.7768660636763
 21
367.9220816045215
 31
0.0
  0
LINE
  5
1B1
  8
1
  6
CONTINUOUS
 62
     7
 10
262.7768660636763
 20
367.9220816045216
 30
0.0
 11
262.6767018810472
 21
367.7462862182517
 31
0.0
  0
LINE
  5
1B2
  8
1
  6
CONTINUOUS
 62
     7
 10
262.6767018810472
 20
367.7462862182516
 30
0.0
 11
262.5786312341753
 21
367.5693182067848
 31
0.0
  0
LINE
  5
1B3
  8
1
  6
CONTINUOUS
 62
     7
 10
262.5786312341753
 20
367.5693182067848
 30
0.0
 11
262.4826701484627
 21
367.3912015663353
 31
0.0
  0
LINE
  5
1B4
  8
1
  6
CONTINUOUS
 62
     7
 10
262.4826701484627
 20
367.3912015663352
 30
0.0
 11
262.3888346493112
 21
367.2119602931166
 31
0.0
  0
LINE
  5
1B5
  8
1
  6
CONTINUOUS
 62
     7
 10
262.3888346493112
 20
367.2119602931166
 30
0.0
 11
262.2971407621231
 21
367.0316183833431
 31
0.0
  0
LINE
  5
1B6
  8
1
  6
CONTINUOUS
 62
     7
 10
262.2971407621231
 20
367.0316183833431
 30
0.0
 11
262.2076045123006
 21
366.8501998332285
 31
0.0
  0
LINE
  5
1B7
  8
1
  6
CONTINUOUS
 62
     7
 10
262.2076045123006
 20
366.8501998332285
 30
0.0
 11
262.1202419252455
 21
366.6677286389869
 31
0.0
  0
LINE
  5
1B8
  8
1
  6
CONTINUOUS
 62
     7
 10
262.1202419252455
 20
366.6677286389869
 30
0.0
 11
262.0350690263601
 21
366.4842287968323
 31
0.0
  0
LINE
  5
1B9
  8
1
  6
CONTINUOUS
 62
     7
 10
262.0350690263601
 20
366.4842287968323
 30
0.0
 11
261.9521018410464
 21
366.2997243029785
 31
0.0
  0
LINE
  5
1BA
  8
1
  6
CONTINUOUS
 62
     7
 10
261.9521018410464
 20
366.2997243029785
 30
0.0
 11
261.8713563947064
 21
366.1142391536396
 31
0.0
  0
LINE
  5
1BB
  8
1
  6
CONTINUOUS
 62
     7
 10
261.8713563947064
 20
366.1142391536396
 30
0.0
 11
261.7928487127358
 21
365.9277973450321
 31
0.0
  0
LINE
  5
1BC
  8
1
  6
CONTINUOUS
 62
     7
 10
261.7928487127358
 20
365.9277973450321
 30
0.0
 11
261.7165930057441
 21
365.7404236076216
 31
0.0
  0
LINE
  5
1BD
  8
1
  6
CONTINUOUS
 62
     7
 10
261.7165930057441
 20
365.7404236076216
 30
0.0
 11
261.6425965547982
 21
365.5521454755156
 31
0.0
  0
LINE
  5
1BE
  8
1
  6
CONTINUOUS
 62
     7
 10
261.6425965547982
 20
365.5521454755156
 30
0.0
 11
261.5708649872709
 21
365.3629911518938
 31
0.0
  0
LINE
  5
1BF
  8
1
  6
CONTINUOUS
 62
     7
 10
261.5708649872709
 20
365.3629911518938
 30
0.0
 11
261.501403930535
 21
365.1729888399359
 31
0.0
  0
LINE
  5
1C0
  8
1
  6
CONTINUOUS
 62
     7
 10
261.501403930535
 20
365.1729888399358
 30
0.0
 11
261.4342190119635
 21
364.9821667428217
 31
0.0
  0
LINE
  5
1C1
  8
1
  6
CONTINUOUS
 62
     7
 10
261.4342190119635
 20
364.9821667428217
 30
0.0
 11
261.3693158589293
 21
364.790553063731
 31
0.0
  0
LINE
  5
1C2
  8
1
  6
CONTINUOUS
 62
     7
 10
261.3693158589293
 20
364.790553063731
 30
0.0
 11
261.306700098805
 21
364.5981760058435
 31
0.0
  0
LINE
  5
1C3
  8
1
  6
CONTINUOUS
 62
     7
 10
261.306700098805
 20
364.5981760058435
 30
0.0
 11
261.2463773589638
 21
364.405063772339
 31
0.0
  0
LINE
  5
1C4
  8
1
  6
CONTINUOUS
 62
     7
 10
261.2463773589638
 20
364.405063772339
 30
0.0
 11
261.1883532667782
 21
364.2112445663973
 31
0.0
  0
LINE
  5
1C5
  8
1
  6
CONTINUOUS
 62
     7
 10
261.1883532667782
 20
364.2112445663973
 30
0.0
 11
261.1326334496214
 21
364.0167465911981
 31
0.0
  0
LINE
  5
1C6
  8
1
  6
CONTINUOUS
 62
     7
 10
261.1326334496214
 20
364.0167465911981
 30
0.0
 11
261.0792235348661
 21
363.8215980499211
 31
0.0
  0
LINE
  5
1C7
  8
1
  6
CONTINUOUS
 62
     7
 10
261.0792235348661
 20
363.8215980499211
 30
0.0
 11
261.028129149885
 21
363.6258271457461
 31
0.0
  0
LINE
  5
1C8
  8
1
  6
CONTINUOUS
 62
     7
 10
261.028129149885
 20
363.6258271457461
 30
0.0
 11
260.9793559220512
 21
363.4294620818529
 31
0.0
  0
LINE
  5
1C9
  8
1
  6
CONTINUOUS
 62
     7
 10
260.9793559220512
 20
363.4294620818529
 30
0.0
 11
260.9329094787376
 21
363.2325310614212
 31
0.0
  0
LINE
  5
1CA
  8
1
  6
CONTINUOUS
 62
     7
 10
260.9329094787376
 20
363.2325310614212
 30
0.0
 11
260.8887954473169
 21
363.0350622876309
 31
0.0
  0
LINE
  5
1CB
  8
1
  6
CONTINUOUS
 62
     7
 10
260.8887954473169
 20
363.0350622876309
 30
0.0
 11
260.847019455162
 21
362.8370839636617
 31
0.0
  0
LINE
  5
1CC
  8
1
  6
CONTINUOUS
 62
     7
 10
260.847019455162
 20
362.8370839636617
 30
0.0
 11
260.8075871296458
 21
362.6386242926931
 31
0.0
  0
LINE
  5
1CD
  8
1
  6
CONTINUOUS
 62
     7
 10
260.8075871296458
 20
362.6386242926931
 30
0.0
 11
260.770504098141
 21
362.4397114779051
 31
0.0
  0
LINE
  5
1CE
  8
1
  6
CONTINUOUS
 62
     7
 10
260.770504098141
 20
362.4397114779051
 30
0.0
 11
260.7357759880206
 21
362.2403737224776
 31
0.0
  0
LINE
  5
1CF
  8
1
  6
CONTINUOUS
 62
     7
 10
260.7357759880206
 20
362.2403737224776
 30
0.0
 11
260.7034084266577
 21
362.0406392295901
 31
0.0
  0
LINE
  5
1D0
  8
1
  6
CONTINUOUS
 62
     7
 10
260.7034084266577
 20
362.0406392295901
 30
0.0
 11
260.6734070414248
 21
361.8405362024224
 31
0.0
  0
LINE
  5
1D1
  8
1
  6
CONTINUOUS
 62
     7
 10
260.6734070414248
 20
361.8405362024224
 30
0.0
 11
260.6457774596948
 21
361.6400928441543
 31
0.0
  0
LINE
  5
1D2
  8
1
  6
CONTINUOUS
 62
     7
 10
260.6457774596948
 20
361.6400928441543
 30
0.0
 11
260.6205253088406
 21
361.4393373579656
 31
0.0
  0
LINE
  5
1D3
  8
1
  6
CONTINUOUS
 62
     7
 10
260.6205253088406
 20
361.4393373579656
 30
0.0
 11
260.5976562162351
 21
361.238297947036
 31
0.0
  0
LINE
  5
1D4
  8
1
  6
CONTINUOUS
 62
     7
 10
260.5976562162351
 20
361.238297947036
 30
0.0
 11
260.5771758092513
 21
361.0370028145454
 31
0.0
  0
LINE
  5
1D5
  8
1
  6
CONTINUOUS
 62
     7
 10
260.5771758092513
 20
361.0370028145454
 30
0.0
 11
260.5590897152619
 21
360.8354801636734
 31
0.0
  0
LINE
  5
1D6
  8
1
  6
CONTINUOUS
 62
     7
 10
260.5590897152619
 20
360.8354801636733
 30
0.0
 11
260.5434035616397
 21
360.6337581975996
 31
0.0
  0
LINE
  5
1D7
  8
1
  6
CONTINUOUS
 62
     7
 10
260.5434035616397
 20
360.6337581975996
 30
0.0
 11
260.5301229757577
 21
360.4318651195042
 31
0.0
  0
LINE
  5
1D8
  8
1
  6
CONTINUOUS
 62
     7
 10
260.5301229757577
 20
360.4318651195042
 30
0.0
 11
260.5192535849887
 21
360.2298291325665
 31
0.0
  0
LINE
  5
1D9
  8
1
  6
CONTINUOUS
 62
     7
 10
260.5192535849887
 20
360.2298291325665
 30
0.0
 11
260.5108010167056
 21
360.0276784399667
 31
0.0
  0
LINE
  5
1DA
  8
1
  6
CONTINUOUS
 62
     7
 10
260.5108010167056
 20
360.0276784399667
 30
0.0
 11
260.5047708982811
 21
359.8254412448842
 31
0.0
  0
LINE
  5
1DB
  8
1
  6
CONTINUOUS
 62
     7
 10
260.5047708982811
 20
359.8254412448842
 30
0.0
 11
260.5011688570883
 21
359.6231457504989
 31
0.0
  0
LINE
  5
1DC
  8
1
  6
CONTINUOUS
 62
     7
 10
260.5011688570883
 20
359.6231457504989
 30
0.0
 11
260.5
 21
359.4208201604773
 31
0.0
  0
LINE
  5
1DD
  8
1
  6
CONTINUOUS
 62
     7
 10
260.5
 20
359.4208201604773
 30
0.0
 11
260.5
 21
359.2184889680907
 31
0.0
  0
LINE
  5
1DE
  8
1
  6
CONTINUOUS
 62
     7
 10
260.5
 20
359.2184889680907
 30
0.0
 11
260.5
 21
359.0161577757041
 31
0.0
  0
LINE
  5
1DF
  8
1
  6
CONTINUOUS
 62
     7
 10
260.5
 20
359.0161577757041
 30
0.0
 11
260.5
 21
358.8138265833175
 31
0.0
  0
LINE
  5
1E0
  8
1
  6
CONTINUOUS
 62
     7
 10
260.5
 20
358.8138265833175
 30
0.0
 11
260.5
 21
358.6114953909308
 31
0.0
  0
LINE
  5
1E1
  8
1
  6
CONTINUOUS
 62
     7
 10
260.5
 20
358.6114953909308
 30
0.0
 11
260.5
 21
358.4091641985441
 31
0.0
  0
LINE
  5
1E2
  8
1
  6
CONTINUOUS
 62
     7
 10
260.5
 20
358.4091641985441
 30
0.0
 11
260.5
 21
358.2068330061576
 31
0.0
  0
LINE
  5
1E3
  8
1
  6
CONTINUOUS
 62
     7
 10
260.5
 20
358.2068330061576
 30
0.0
 11
260.4999999999999
 21
358.0045018137709
 31
0.0
  0
LINE
  5
1E4
  8
1
  6
CONTINUOUS
 62
     7
 10
260.4999999999999
 20
358.0045018137709
 30
0.0
 11
260.5
 21
357.8021706213842
 31
0.0
  0
LINE
  5
1E5
  8
1
  6
CONTINUOUS
 62
     7
 10
260.5
 20
357.8021706213842
 30
0.0
 11
260.5
 21
357.5998394289977
 31
0.0
  0
LINE
  5
1E6
  8
1
  6
CONTINUOUS
 62
     7
 10
260.5
 20
357.5998394289977
 30
0.0
 11
260.4999999999999
 21
357.3975082366109
 31
0.0
  0
LINE
  5
1E7
  8
1
  6
CONTINUOUS
 62
     7
 10
260.4999999999999
 20
357.3975082366109
 30
0.0
 11
260.5
 21
357.1951770442243
 31
0.0
  0
LINE
  5
1E8
  8
1
  6
CONTINUOUS
 62
     7
 10
260.5
 20
357.1951770442243
 30
0.0
 11
260.5
 21
356.9928458518377
 31
0.0
  0
LINE
  5
1E9
  8
1
  6
CONTINUOUS
 62
     7
 10
260.5
 20
356.9928458518377
 30
0.0
 11
260.5
 21
356.790514659451
 31
0.0
  0
LINE
  5
1EA
  8
1
  6
CONTINUOUS
 62
     7
 10
260.5
 20
356.790514659451
 30
0.0
 11
260.5000000000001
 21
356.5881834670644
 31
0.0
  0
LINE
  5
1EB
  8
1
  6
CONTINUOUS
 62
     7
 10
260.5000000000001
 20
356.5881834670644
 30
0.0
 11
260.5000000000001
 21
356.3858522746779
 31
0.0
  0
LINE
  5
1EC
  8
1
  6
CONTINUOUS
 62
     7
 10
260.5000000000001
 20
356.3858522746778
 30
0.0
 11
260.5
 21
356.1835210822912
 31
0.0
  0
LINE
  5
1ED
  8
1
  6
CONTINUOUS
 62
     7
 10
260.5
 20
356.1835210822912
 30
0.0
 11
260.5
 21
355.9811898899045
 31
0.0
  0
LINE
  5
1EE
  8
1
  6
CONTINUOUS
 62
     7
 10
260.5
 20
355.9811898899045
 30
0.0
 11
260.5
 21
355.7788586975179
 31
0.0
  0
LINE
  5
1EF
  8
1
  6
CONTINUOUS
 62
     7
 10
260.5
 20
355.7788586975179
 30
0.0
 11
260.5
 21
355.5765275051313
 31
0.0
  0
LINE
  5
1F0
  8
1
  6
CONTINUOUS
 62
     7
 10
260.5
 20
355.5765275051313
 30
0.0
 11
260.5
 21
355.3741963127446
 31
0.0
  0
LINE
  5
1F1
  8
1
  6
CONTINUOUS
 62
     7
 10
260.5
 20
355.3741963127446
 30
0.0
 11
260.5
 21
355.1718651203579
 31
0.0
  0
LINE
  5
1F2
  8
1
  6
CONTINUOUS
 62
     7
 10
260.5
 20
355.1718651203579
 30
0.0
 11
260.5
 21
354.9695339279713
 31
0.0
  0
LINE
  5
1F3
  8
1
  6
CONTINUOUS
 62
     7
 10
260.5
 20
354.9695339279713
 30
0.0
 11
260.5
 21
354.7672027355847
 31
0.0
  0
LINE
  5
1F4
  8
1
  6
CONTINUOUS
 62
     7
 10
260.5
 20
354.7672027355847
 30
0.0
 11
260.5
 21
354.5648715431981
 31
0.0
  0
LINE
  5
1F5
  8
1
  6
CONTINUOUS
 62
     7
 10
260.5
 20
354.5648715431981
 30
0.0
 11
260.5
 21
354.3625403508115
 31
0.0
  0
LINE
  5
1F6
  8
1
  6
CONTINUOUS
 62
     7
 10
260.5
 20
354.3625403508114
 30
0.0
 11
260.5
 21
354.1602091584247
 31
0.0
  0
LINE
  5
1F7
  8
1
  6
CONTINUOUS
 62
     7
 10
260.5
 20
354.1602091584247
 30
0.0
 11
260.5
 21
353.9578779660382
 31
0.0
  0
LINE
  5
1F8
  8
1
  6
CONTINUOUS
 62
     7
 10
260.5
 20
353.9578779660382
 30
0.0
 11
260.5
 21
353.7555467736515
 31
0.0
  0
LINE
  5
1F9
  8
1
  6
CONTINUOUS
 62
     7
 10
260.5
 20
353.7555467736515
 30
0.0
 11
260.5
 21
353.553215581265
 31
0.0
  0
LINE
  5
1FA
  8
1
  6
CONTINUOUS
 62
     7
 10
260.5
 20
353.553215581265
 30
0.0
 11
260.5
 21
353.3508843888782
 31
0.0
  0
LINE
  5
1FB
  8
1
  6
CONTINUOUS
 62
     7
 10
260.5
 20
353.3508843888782
 30
0.0
 11
260.5
 21
353.1485531964916
 31
0.0
  0
LINE
  5
1FC
  8
1
  6
CONTINUOUS
 62
     7
 10
260.5
 20
353.1485531964916
 30
0.0
 11
260.5
 21
352.9462220041049
 31
0.0
  0
LINE
  5
1FD
  8
1
  6
CONTINUOUS
 62
     7
 10
260.5
 20
352.9462220041049
 30
0.0
 11
260.5
 21
352.7438908117183
 31
0.0
  0
LINE
  5
1FE
  8
1
  6
CONTINUOUS
 62
     7
 10
260.5
 20
352.7438908117183
 30
0.0
 11
260.5
 21
352.5415596193317
 31
0.0
  0
LINE
  5
1FF
  8
1
  6
CONTINUOUS
 62
     7
 10
260.5
 20
352.5415596193317
 30
0.0
 11
260.5
 21
352.3392284269452
 31
0.0
  0
LINE
  5
200
  8
1
  6
CONTINUOUS
 62
     7
 10
260.5
 20
352.3392284269451
 30
0.0
 11
260.5
 21
352.1368972345584
 31
0.0
  0
LINE
  5
201
  8
1
  6
CONTINUOUS
 62
     7
 10
260.5
 20
352.1368972345584
 30
0.0
 11
260.4999999999999
 21
351.9345660421718
 31
0.0
  0
LINE
  5
202
  8
1
  6
CONTINUOUS
 62
     7
 10
260.4999999999999
 20
351.9345660421718
 30
0.0
 11
260.5
 21
351.7322348497851
 31
0.0
  0
LINE
  5
203
  8
1
  6
CONTINUOUS
 62
     7
 10
260.5
 20
351.7322348497851
 30
0.0
 11
260.5
 21
351.5299036573986
 31
0.0
  0
LINE
  5
204
  8
1
  6
CONTINUOUS
 62
     7
 10
260.5
 20
351.5299036573986
 30
0.0
 11
260.5
 21
351.3275724650119
 31
0.0
  0
LINE
  5
205
  8
1
  6
CONTINUOUS
 62
     7
 10
260.5
 20
351.3275724650119
 30
0.0
 11
260.5
 21
351.1252412726252
 31
0.0
  0
LINE
  5
206
  8
1
  6
CONTINUOUS
 62
     7
 10
260.5
 20
351.1252412726252
 30
0.0
 11
260.5
 21
350.9229100802386
 31
0.0
  0
LINE
  5
207
  8
1
  6
CONTINUOUS
 62
     7
 10
260.5
 20
350.9229100802386
 30
0.0
 11
260.5
 21
350.7205788878519
 31
0.0
  0
LINE
  5
208
  8
1
  6
CONTINUOUS
 62
     7
 10
260.5
 20
350.7205788878519
 30
0.0
 11
260.5
 21
350.5182476954653
 31
0.0
  0
LINE
  5
209
  8
1
  6
CONTINUOUS
 62
     7
 10
260.5
 20
350.5182476954653
 30
0.0
 11
260.5
 21
350.3159165030788
 31
0.0
  0
LINE
  5
20A
  8
1
  6
CONTINUOUS
 62
     7
 10
260.5
 20
350.3159165030787
 30
0.0
 11
260.5
 21
350.113585310692
 31
0.0
  0
LINE
  5
20B
  8
1
  6
CONTINUOUS
 62
     7
 10
260.5
 20
350.113585310692
 30
0.0
 11
260.5
 21
349.9112541183055
 31
0.0
  0
LINE
  5
20C
  8
1
  6
CONTINUOUS
 62
     7
 10
260.5
 20
349.9112541183054
 30
0.0
 11
260.5
 21
349.7089229259187
 31
0.0
  0
LINE
  5
20D
  8
1
  6
CONTINUOUS
 62
     7
 10
260.5
 20
349.7089229259187
 30
0.0
 11
260.5
 21
349.5065917335322
 31
0.0
  0
LINE
  5
20E
  8
1
  6
CONTINUOUS
 62
     7
 10
260.5
 20
349.5065917335322
 30
0.0
 11
260.4999999999999
 21
349.3042605411455
 31
0.0
  0
LINE
  5
20F
  8
1
  6
CONTINUOUS
 62
     7
 10
260.4999999999999
 20
349.3042605411455
 30
0.0
 11
260.4999999999999
 21
349.1019293487587
 31
0.0
  0
LINE
  5
210
  8
1
  6
CONTINUOUS
 62
     7
 10
260.4999999999999
 20
349.1019293487588
 30
0.0
 11
260.5
 21
348.8995981563723
 31
0.0
  0
LINE
  5
211
  8
1
  6
CONTINUOUS
 62
     7
 10
260.5
 20
348.8995981563722
 30
0.0
 11
260.4999999999999
 21
348.6972669639856
 31
0.0
  0
LINE
  5
212
  8
1
  6
CONTINUOUS
 62
     7
 10
260.4999999999999
 20
348.6972669639856
 30
0.0
 11
260.4999999999999
 21
348.4949357715989
 31
0.0
  0
LINE
  5
213
  8
1
  6
CONTINUOUS
 62
     7
 10
260.4999999999999
 20
348.4949357715989
 30
0.0
 11
260.4999999999999
 21
348.2926045792124
 31
0.0
  0
LINE
  5
214
  8
1
  6
CONTINUOUS
 62
     7
 10
260.4999999999999
 20
348.2926045792123
 30
0.0
 11
260.4999999999999
 21
348.0902733868256
 31
0.0
  0
LINE
  5
215
  8
1
  6
CONTINUOUS
 62
     7
 10
260.4999999999999
 20
348.0902733868256
 30
0.0
 11
260.4999999999999
 21
347.8879421944391
 31
0.0
  0
LINE
  5
216
  8
1
  6
CONTINUOUS
 62
     7
 10
260.4999999999999
 20
347.887942194439
 30
0.0
 11
260.4999999999999
 21
347.6856110020524
 31
0.0
  0
LINE
  5
217
  8
1
  6
CONTINUOUS
 62
     7
 10
260.4999999999999
 20
347.6856110020524
 30
0.0
 11
260.5
 21
347.4832798096658
 31
0.0
  0
LINE
  5
218
  8
1
  6
CONTINUOUS
 62
     7
 10
260.5
 20
347.4832798096658
 30
0.0
 11
260.4999999999999
 21
347.2809486172791
 31
0.0
  0
LINE
  5
219
  8
1
  6
CONTINUOUS
 62
     7
 10
260.4999999999999
 20
347.2809486172791
 30
0.0
 11
260.5
 21
347.0786174248925
 31
0.0
  0
LINE
  5
21A
  8
1
  6
CONTINUOUS
 62
     7
 10
260.5
 20
347.0786174248925
 30
0.0
 11
260.5
 21
346.8762862325059
 31
0.0
  0
LINE
  5
21B
  8
1
  6
CONTINUOUS
 62
     7
 10
260.5
 20
346.8762862325058
 30
0.0
 11
260.5000000000001
 21
346.6739550401193
 31
0.0
  0
LINE
  5
21C
  8
1
  6
CONTINUOUS
 62
     7
 10
260.5000000000001
 20
346.6739550401193
 30
0.0
 11
260.5
 21
346.4716238477326
 31
0.0
  0
LINE
  5
21D
  8
1
  6
CONTINUOUS
 62
     7
 10
260.5
 20
346.4716238477326
 30
0.0
 11
260.5000000000001
 21
346.269292655346
 31
0.0
  0
LINE
  5
21E
  8
1
  6
CONTINUOUS
 62
     7
 10
260.5000000000001
 20
346.269292655346
 30
0.0
 11
260.5
 21
346.0669614629593
 31
0.0
  0
LINE
  5
21F
  8
1
  6
CONTINUOUS
 62
     7
 10
260.5
 20
346.0669614629593
 30
0.0
 11
260.5000000000001
 21
345.8646302705727
 31
0.0
  0
LINE
  5
220
  8
1
  6
CONTINUOUS
 62
     7
 10
260.5000000000001
 20
345.8646302705727
 30
0.0
 11
260.5
 21
345.662299078186
 31
0.0
  0
LINE
  5
221
  8
1
  6
CONTINUOUS
 62
     7
 10
260.5
 20
345.662299078186
 30
0.0
 11
260.5
 21
345.4599678857994
 31
0.0
  0
LINE
  5
222
  8
1
  6
CONTINUOUS
 62
     7
 10
260.5
 20
345.4599678857994
 30
0.0
 11
260.5
 21
345.2576366934128
 31
0.0
  0
LINE
  5
223
  8
1
  6
CONTINUOUS
 62
     7
 10
260.5
 20
345.2576366934128
 30
0.0
 11
260.5
 21
345.0553055010261
 31
0.0
  0
LINE
  5
224
  8
1
  6
CONTINUOUS
 62
     7
 10
260.5
 20
345.0553055010261
 30
0.0
 11
260.5
 21
344.8529743086395
 31
0.0
  0
LINE
  5
225
  8
1
  6
CONTINUOUS
 62
     7
 10
260.5
 20
344.8529743086395
 30
0.0
 11
260.5
 21
344.6506431162528
 31
0.0
  0
LINE
  5
226
  8
1
  6
CONTINUOUS
 62
     7
 10
260.5
 20
344.6506431162528
 30
0.0
 11
260.5
 21
344.4483119238662
 31
0.0
  0
LINE
  5
227
  8
1
  6
CONTINUOUS
 62
     7
 10
260.5
 20
344.4483119238662
 30
0.0
 11
260.5
 21
344.2459807314796
 31
0.0
  0
LINE
  5
228
  8
1
  6
CONTINUOUS
 62
     7
 10
260.5
 20
344.2459807314796
 30
0.0
 11
260.5
 21
344.0436495390929
 31
0.0
  0
LINE
  5
229
  8
1
  6
CONTINUOUS
 62
     7
 10
260.5
 20
344.0436495390929
 30
0.0
 11
260.5
 21
343.8413183467063
 31
0.0
  0
LINE
  5
22A
  8
1
  6
CONTINUOUS
 62
     7
 10
260.5
 20
343.8413183467063
 30
0.0
 11
260.5
 21
343.6389871543197
 31
0.0
  0
LINE
  5
22B
  8
1
  6
CONTINUOUS
 62
     7
 10
260.5
 20
343.6389871543198
 30
0.0
 11
260.4999999999999
 21
343.4366559619331
 31
0.0
  0
LINE
  5
22C
  8
1
  6
CONTINUOUS
 62
     7
 10
260.4999999999999
 20
343.4366559619331
 30
0.0
 11
260.5
 21
343.2343247695464
 31
0.0
  0
LINE
  5
22D
  8
1
  6
CONTINUOUS
 62
     7
 10
260.5
 20
343.2343247695464
 30
0.0
 11
260.5
 21
343.0319935771597
 31
0.0
  0
LINE
  5
22E
  8
1
  6
CONTINUOUS
 62
     7
 10
260.5
 20
343.0319935771597
 30
0.0
 11
260.4999999999999
 21
342.8296623847731
 31
0.0
  0
LINE
  5
22F
  8
1
  6
CONTINUOUS
 62
     7
 10
260.4999999999999
 20
342.8296623847731
 30
0.0
 11
260.5
 21
342.6273311923865
 31
0.0
  0
LINE
  5
230
  8
1
  6
CONTINUOUS
 62
     7
 10
260.5
 20
342.6273311923865
 30
0.0
 11
260.5
 21
342.4250000000001
 31
0.0
  0
LINE
  5
231
  8
1
  6
CONTINUOUS
 62
     7
 10
255.0000000000001
 20
342.425
 30
0.0
 11
260.5000000000001
 21
342.425
 31
0.0
  0
ARC
  5
232
  8
1
  6
CONTINUOUS
 62
     7
 10
263.0
 20
344.425
 30
0.0
 40
2.000000000000002
 50
270.0
 51
0.0
  0
ARC
  5
233
  8
1
  6
CONTINUOUS
 62
     7
 10
292.0000000000001
 20
344.425
 30
0.0
 40
2.000000000000002
 50
180.0
 51
270.0
  0
LINE
  5
234
  8
1
  6
CONTINUOUS
 62
     7
 10
290.0000000000001
 20
344.425
 30
0.0
 11
290.0000000000001
 21
347.1046915623025
 31
0.0
  0
ARC
  5
235
  8
1
  6
CONTINUOUS
 62
     7
 10
293.0000000000001
 20
347.1046915623025
 30
0.0
 40
3.000000000000003
 50
141.5202647351826
 51
180.0
  0
ARC
  5
236
  8
1
  6
CONTINUOUS
 62
     7
 10
277.5
 20
359.425
 30
0.0
 40
16.79999999999998
 50
321.5202647351826
 51
218.4797352648174
  0
ARC
  5
237
  8
1
  6
CONTINUOUS
 62
     7
 10
262.0
 20
347.1046915623025
 30
0.0
 40
3.000000000000003
 50
0.0
 51
38.47973526481746
  0
LINE
  5
238
  8
1
  6
CONTINUOUS
 62
     7
 10
265.0
 20
347.1046915623025
 30
0.0
 11
265.0
 21
344.425
 31
0.0
  0
LINE
  5
239
  8
1
  6
CONTINUOUS
 62
     7
 10
263.0
 20
342.425
 30
0.0
 11
260.5
 21
342.425
 31
0.0
  0
LINE
  5
23A
  8
1
  6
CONTINUOUS
 62
     7
 10
294.5000000000001
 20
342.425
 30
0.0
 11
292.0000000000001
 21
342.425
 31
0.0
  0
LINE
  5
23B
  8
1
  6
CONTINUOUS
 62
     7
 10
202.2499875
 20
342.425
 30
0.0
 11
166.2499875
 21
342.425
 31
0.0
  0
LINE
  5
23C
  8
1
  6
CONTINUOUS
 62
     7
 10
166.7992881395174
 20
378.8674921818334
 30
0.0
 11
198.8775536205123
 21
404.7083171526349
 31
0.0
  0
LINE
  5
23D
  8
1
  6
CONTINUOUS
 62
     7
 10
201.9615899859863
 20
407.1637901226503
 30
0.0
 11
201.9753371802413
 21
407.2037539090833
 31
0.0
  0
LINE
  5
23E
  8
1
  6
CONTINUOUS
 62
     7
 10
221.2499875
 20
342.425
 30
0.0
 11
202.2499875
 21
342.425
 31
0.0
  0
LINE
  5
23F
  8
1
  6
CONTINUOUS
 62
     7
 10
222.2499875
 20
400.9047844897029
 30
0.0
 11
222.2499875
 21
400.4857263122412
 31
0.0
  0
LINE
  5
240
  8
1
  6
CONTINUOUS
 62
     7
 10
222.2499875
 20
400.4857263122412
 30
0.0
 11
222.2499875
 21
347.425
 31
0.0
  0
LINE
  5
241
  8
1
  6
CONTINUOUS
 62
     7
 10
222.2499875
 20
342.425
 30
0.0
 11
222.2499875
 21
347.425
 31
0.0
  0
LINE
  5
242
  8
1
  6
CONTINUOUS
 62
     7
 10
222.2499875
 20
342.425
 30
0.0
 11
221.2499875
 21
342.425
 31
0.0
  0
LINE
  5
243
  8
1
  6
CONTINUOUS
 62
     7
 10
222.2499875
 20
405.8440581774618
 30
0.0
 11
222.2499875
 21
400.904784489703
 31
0.0
  0
LINE
  5
244
  8
1
  6
CONTINUOUS
 62
     7
 10
202.6336906864248
 20
407.425
 30
0.0
 11
221.2499875
 21
407.425
 31
0.0
  0
LINE
  5
245
  8
1
  6
CONTINUOUS
 62
     7
 10
201.9615899859863
 20
407.1637901226503
 30
0.0
 11
201.9956885782877
 21
407.1935881584917
 31
0.0
  0
LINE
  5
246
  8
1
  6
CONTINUOUS
 62
     7
 10
201.9956885782877
 20
407.1935881584917
 30
0.0
 11
202.0313690498616
 21
407.2220100766252
 31
0.0
  0
LINE
  5
247
  8
1
  6
CONTINUOUS
 62
     7
 10
202.0313690498616
 20
407.2220100766252
 30
0.0
 11
202.068549244311
 21
407.2489350060733
 31
0.0
  0
LINE
  5
248
  8
1
  6
CONTINUOUS
 62
     7
 10
202.068549244311
 20
407.2489350060733
 30
0.0
 11
202.1071351191542
 21
407.2742486646482
 31
0.0
  0
LINE
  5
249
  8
1
  6
CONTINUOUS
 62
     7
 10
202.1071351191542
 20
407.2742486646482
 30
0.0
 11
202.1470214131447
 21
407.2978447989805
 31
0.0
  0
LINE
  5
24A
  8
1
  6
CONTINUOUS
 62
     7
 10
202.1470214131447
 20
407.2978447989805
 30
0.0
 11
202.18809251895
 21
407.3196265403195
 31
0.0
  0
LINE
  5
24B
  8
1
  6
CONTINUOUS
 62
     7
 10
202.18809251895
 20
407.3196265403195
 30
0.0
 11
202.2302235482366
 21
407.339507642107
 31
0.0
  0
LINE
  5
24C
  8
1
  6
CONTINUOUS
 62
     7
 10
202.2302235482366
 20
407.339507642107
 30
0.0
 11
202.2732815698672
 21
407.3574135677505
 31
0.0
  0
LINE
  5
24D
  8
1
  6
CONTINUOUS
 62
     7
 10
202.2732815698672
 20
407.3574135677505
 30
0.0
 11
202.3171269961157
 21
407.3732824007809
 31
0.0
  0
LINE
  5
24E
  8
1
  6
CONTINUOUS
 62
     7
 10
202.3171269961157
 20
407.3732824007808
 30
0.0
 11
202.3616150868466
 21
407.387065554515
 31
0.0
  0
LINE
  5
24F
  8
1
  6
CONTINUOUS
 62
     7
 10
202.3616150868466
 20
407.3870655545149
 30
0.0
 11
202.4065975377526
 21
407.3987282642522
 31
0.0
  0
LINE
  5
250
  8
1
  6
CONTINUOUS
 62
     7
 10
202.4065975377526
 20
407.3987282642522
 30
0.0
 11
202.4519241161942
 21
407.4082498516277
 31
0.0
  0
LINE
  5
251
  8
1
  6
CONTINUOUS
 62
     7
 10
202.4519241161942
 20
407.4082498516276
 30
0.0
 11
202.4974443070611
 21
407.4156237577199
 31
0.0
  0
LINE
  5
252
  8
1
  6
CONTINUOUS
 62
     7
 10
202.4974443070611
 20
407.4156237577199
 30
0.0
 11
202.5430089314198
 21
407.4208573485026
 31
0.0
  0
LINE
  5
253
  8
1
  6
CONTINUOUS
 62
     7
 10
202.5430089314198
 20
407.4208573485026
 30
0.0
 11
202.5884717024755
 21
407.4239715029267
 31
0.0
  0
LINE
  5
254
  8
1
  6
CONTINUOUS
 62
     7
 10
202.5884717024755
 20
407.4239715029267
 30
0.0
 11
202.6336906864248
 21
407.425
 31
0.0
  0
ARC
  5
255
  8
1
  6
CONTINUOUS
 62
     7
 10
221.2499875
 20
406.425
 30
0.0
 40
1.000000000000001
 50
0.0
 51
90.0
  0
LINE
  5
256
  8
1
  6
CONTINUOUS
 62
     7
 10
222.2499875
 20
406.425
 30
0.0
 11
222.2499875
 21
405.8440581774617
 31
0.0
  0
LINE
  5
257
  8
1
  6
CONTINUOUS
 62
     7
 10
201.9753371802413
 20
407.2037539090833
 30
0.0
 11
202.5310498486624
 21
407.4224322152457
 31
0.0
  0
LINE
  5
258
  8
1
  6
CONTINUOUS
 62
     7
 10
202.5310498486624
 20
407.4224322152457
 30
0.0
 11
202.6026667181139
 21
407.425
 31
0.0
  0
LINE
  5
259
  8
1
  6
CONTINUOUS
 62
     7
 10
166.2499875
 20
342.425
 30
0.0
 11
138.7499875
 21
342.425
 31
0.0
  0
ARC
  5
25A
  8
1
  6
CONTINUOUS
 62
     7
 10
165.5446290637721
 20
380.4249999999999
 30
0.0
 40
1.999999999999919
 50
269.9999999999995
 51
308.8533743403543
  0
LINE
  5
25B
  8
1
  6
CONTINUOUS
 62
     7
 10
137.7499875
 20
342.425
 30
0.0
 11
137.7499875
 21
359.425
 31
0.0
  0
LINE
  5
25C
  8
1
  6
CONTINUOUS
 62
     7
 10
138.7499875
 20
342.425
 30
0.0
 11
137.7499875
 21
342.425
 31
0.0
  0
LINE
  5
25D
  8
1
  6
CONTINUOUS
 62
     7
 10
137.7499875
 20
359.425
 30
0.0
 11
137.7499875
 21
377.425
 31
0.0
  0
LINE
  5
25E
  8
1
  6
CONTINUOUS
 62
     7
 10
201.4060922563968
 20
406.7451954982085
 30
0.0
 11
201.9748020195925
 21
407.2033228074495
 31
0.0
  0
LINE
  5
25F
  8
1
  6
CONTINUOUS
 62
     7
 10
198.8775536205123
 20
404.7083171526349
 30
0.0
 11
201.4060922563968
 21
406.7451954982085
 31
0.0
  0
LINE
  5
260
  8
1
  6
CONTINUOUS
 62
     7
 10
165.5446290637721
 20
378.425
 30
0.0
 11
138.7499875
 21
378.425
 31
0.0
  0
ARC
  5
261
  8
1
  6
CONTINUOUS
 62
     7
 10
138.7499875
 20
377.425
 30
0.0
 40
1.000000000000001
 50
90.0
 51
180.0
  0
LINE
  5
262
  8
1
  6
CONTINUOUS
 62
     7
 10
201.9748932082735
 20
407.2033515408467
 30
0.0
 11
201.4061286564378
 21
406.7452248204638
 31
0.0
  0
ARC
  5
263
  8
1
  6
CONTINUOUS
 62
     7
 10
77.49999999999996
 20
359.425
 30
0.0
 40
18.0
 50
0.0
 51
180.0
  0
ARC
  5
264
  8
1
  6
CONTINUOUS
 62
     7
 10
91.99999999999997
 20
344.425
 30
0.0
 40
2.000000000000002
 50
180.0
 51
270.0
  0
LINE
  5
265
  8
1
  6
CONTINUOUS
 62
     7
 10
89.99999999999997
 20
347.1046915623025
 30
0.0
 11
89.99999999999997
 21
344.425
 31
0.0
  0
ARC
  5
266
  8
1
  6
CONTINUOUS
 62
     7
 10
93.0
 20
347.1046915623025
 30
0.0
 40
3.000000000000003
 50
141.5202647351825
 51
180.0
  0
ARC
  5
267
  8
1
  6
CONTINUOUS
 62
     7
 10
77.49999999999996
 20
359.425
 30
0.0
 40
16.80000000000001
 50
321.5202647351826
 51
218.4797352648174
  0
ARC
  5
268
  8
1
  6
CONTINUOUS
 62
     7
 10
61.99999999999994
 20
347.1046915623025
 30
0.0
 40
3.000000000000003
 50
0.0
 51
38.47973526481741
  0
LINE
  5
269
  8
1
  6
CONTINUOUS
 62
     7
 10
64.99999999999994
 20
344.425
 30
0.0
 11
64.99999999999994
 21
347.1046915623025
 31
0.0
  0
ARC
  5
26A
  8
1
  6
CONTINUOUS
 62
     7
 10
62.99999999999993
 20
344.425
 30
0.0
 40
2.000000000000002
 50
270.0
 51
0.0
  0
LINE
  5
26B
  8
1
  6
CONTINUOUS
 62
     7
 10
59.49999999999994
 20
342.425
 30
0.0
 11
62.99999999999993
 21
342.425
 31
0.0
  0
LINE
  5
26C
  8
1
  6
CONTINUOUS
 62
     7
 10
59.49999999999994
 20
359.425
 30
0.0
 11
59.49999999999994
 21
342.425
 31
0.0
  0
LINE
  5
26D
  8
1
  6
CONTINUOUS
 62
     7
 10
95.5
 20
342.425
 30
0.0
 11
95.5
 21
359.425
 31
0.0
  0
LINE
  5
26E
  8
1
  6
CONTINUOUS
 62
     7
 10
91.99999999999997
 20
342.425
 30
0.0
 11
95.5
 21
342.425
 31
0.0
  0
LINE
  5
26F
  8
1
  6
CONTINUOUS
 62
     7
 10
59.49999999999994
 20
342.425
 30
0.0
 11
58.49999999999994
 21
342.425
 31
0.0
  0
LINE
  5
270
  8
1
  6
CONTINUOUS
 62
     7
 10
96.5
 20
342.425
 30
0.0
 11
95.5
 21
342.425
 31
0.0
  0
LINE
  5
271
  8
1
  6
CONTINUOUS
 62
     7
 10
77.49999999999996
 20
378.8674921818334
 30
0.0
 11
77.49999999999996
 21
378.425
 31
0.0
  0
LINE
  5
272
  8
1
  6
CONTINUOUS
 62
     7
 10
102.0
 20
400.4857263122412
 30
0.0
 11
102.0
 21
342.425
 31
0.0
  0
LINE
  5
273
  8
1
  6
CONTINUOUS
 62
     7
 10
102.0
 20
342.425
 30
0.0
 11
96.5
 21
342.425
 31
0.0
  0
LINE
  5
274
  8
1
  6
CONTINUOUS
 62
     7
 10
52.99999999999994
 20
400.4856480785384
 30
0.0
 11
52.99999999999994
 21
342.425
 31
0.0
  0
LINE
  5
275
  8
1
  6
CONTINUOUS
 62
     7
 10
58.49999999999994
 20
342.425
 30
0.0
 11
52.99999999999994
 21
342.4250000000066
 31
0.0
  0
ARC
  5
276
  8
1
  6
CONTINUOUS
 62
     7
 10
57.27966477896557
 20
405.425
 30
0.0
 40
2.000000000000029
 50
90.00000000000097
 51
155.2248594311759
  0
ARC
  5
277
  8
1
  6
CONTINUOUS
 62
     7
 10
97.72033522103429
 20
405.425
 30
0.0
 40
2.000000000000029
 50
24.77514056883381
 51
89.9999999999979
  0
LINE
  5
278
  8
1
  6
CONTINUOUS
 62
     7
 10
57.27966477896545
 20
407.425
 30
0.0
 11
77.49999999999996
 21
407.425
 31
0.0
  0
LINE
  5
279
  8
1
  6
CONTINUOUS
 62
     7
 10
77.49999999999996
 20
407.2037539090833
 30
0.0
 11
77.49999999999996
 21
407.425
 31
0.0
  0
LINE
  5
27A
  8
1
  6
CONTINUOUS
 62
     7
 10
77.49999999999996
 20
407.425
 30
0.0
 11
97.7203352210344
 21
407.425
 31
0.0
  0
LINE
  5
27B
  8
1
  6
CONTINUOUS
 62
     7
 10
99.53625399003519
 20
406.2631163549237
 30
0.0
 11
101.8159187690009
 21
401.3238426671647
 31
0.0
  0
LINE
  5
27C
  8
1
  6
CONTINUOUS
 62
     7
 10
53.18408123099906
 20
401.3238426671647
 30
0.0
 11
55.46374600996461
 21
406.2631163549235
 31
0.0
  0
LINE
  5
27D
  8
1
  6
CONTINUOUS
 62
     7
 10
101.9534433203479
 20
400.9147475170645
 30
0.0
 11
101.9999999993079
 21
400.4856736972849
 31
0.0
  0
LINE
  5
27E
  8
1
  6
CONTINUOUS
 62
     7
 10
101.8159187690009
 20
401.3238426671647
 30
0.0
 11
101.9534433203479
 21
400.9147475170644
 31
0.0
  0
LINE
  5
27F
  8
1
  6
CONTINUOUS
 62
     7
 10
53.04655362609601
 20
400.9147336132065
 30
0.0
 11
53.08065004245972
 21
401.0479502360387
 31
0.0
  0
LINE
  5
280
  8
1
  6
CONTINUOUS
 62
     7
 10
53.08065004245972
 20
401.0479502360387
 30
0.0
 11
53.18408123099904
 21
401.3238426671647
 31
0.0
  0
LINE
  5
281
  8
1
  6
CONTINUOUS
 62
     7
 10
53.00000000000532
 20
400.4857216779247
 30
0.0
 11
53.04655362609601
 21
400.9147336132065
 31
0.0
  0
LINE
  5
282
  8
0
  6
CENTER
 62
     1
 10
77.49999999999996
 20
339.425
 30
0.0
 11
77.49999999999996
 21
379.425
 31
0.0
  0
LINE
  5
284
  8
0
  6
CENTER
 62
     1
 10
57.49999999999995
 20
359.425
 30
0.0
 11
97.49999999999996
 21
359.425
 31
0.0
  0
LINE
  5
285
  8
0
  6
CENTER
 62
     1
 10
277.5
 20
340.625
 30
0.0
 11
277.5
 21
378.225
 31
0.0
  0
LINE
  5
286
  8
0
  6
CENTER
 62
     1
 10
258.7
 20
359.425
 30
0.0
 11
296.3
 21
359.425
 31
0.0
  0
ENDSEC
  0
EOF
