  0
SECTION
  2
HEADER
  9
$ACADVER
  1
AC1004
  9
$INSBASE
 10
0.0
 20
0.0
  9
$EXTMIN
 10
-151.6222720450999
 20
26.48997906419929
  9
$EXTMAX
 10
193.3837304467001
 20
63.91154753780004
  9
$LIMMIN
 10
0.0
 20
0.0
  9
$LIMMAX
 10
12.0
 20
9.0
  9
$ORTHOMODE
 70
     0
  9
$REGENMODE
 70
     1
  9
$FILLMODE
 70
     1
  9
$QTEXTMODE
 70
     0
  9
$DRAGMODE
 70
     2
  9
$LTSCALE
 40
1.0
  9
$OSMODE
 70
    37
  9
$ATTMODE
 70
     1
  9
$TEXTSIZE
 40
0.2
  9
$TRACEWID
 40
0.05
  9
$TEXTSTYLE
  7
STANDARD
  9
$CLAYER
  8
0
  9
$CELTYPE
  6
BYLAYER
  9
$CECOLOR
 62
   256
  9
$DIMSCALE
 40
1.0
  9
$DIMASZ
 40
3.0
  9
$DIMEXO
 40
0.0625
  9
$DIMDLI
 40
0.38
  9
$DIMRND
 40
0.0
  9
$DIMDLE
 40
0.0
  9
$DIMEXE
 40
1.5
  9
$DIMTP
 40
0.0
  9
$DIMTM
 40
0.0
  9
$DIMTXT
 40
3.0
  9
$DIMCEN
 40
0.09
  9
$DIMTSZ
 40
0.0
  9
$DIMTOL
 70
     0
  9
$DIMLIM
 70
     0
  9
$DIMTIH
 70
     1
  9
$DIMTOH
 70
     1
  9
$DIMSE1
 70
     0
  9
$DIMSE2
 70
     0
  9
$DIMTAD
 70
     1
  9
$DIMZIN
 70
     0
  9
$DIMBLK
  1

  9
$DIMASO
 70
     1
  9
$DIMSHO
 70
     1
  9
$DIMPOST
  1

  9
$DIMAPOST
  1

  9
$DIMALT
 70
     0
  9
$DIMALTD
 70
     2
  9
$DIMALTF
 40
25.4
  9
$DIMLFAC
 40
1.0
  9
$DIMTOFL
 70
     0
  9
$DIMTVP
 40
0.0
  9
$DIMTIX
 70
     0
  9
$DIMSOXD
 70
     0
  9
$DIMSAH
 70
     0
  9
$DIMBLK1
  1

  9
$DIMBLK2
  1

  9
$LUNITS
 70
     2
  9
$LUPREC
 70
     4
  9
$SKETCHINC
 40
0.1
  9
$FILLETRAD
 40
0.5
  9
$AUNITS
 70
     0
  9
$AUPREC
 70
     0
  9
$MENU
  1
.
  9
$ELEVATION
 40
0.0
  9
$THICKNESS
 40
0.0
  9
$LIMCHECK
 70
     0
  9
$CHAMFERA
 40
0.0
  9
$CHAMFERB
 40
0.0
  9
$SKPOLY
 70
     0
  9
$TDCREATE
 40
2459528.73674441
  9
$TDUPDATE
 40
2459528.736745185
  9
$TDINDWG
 40
0.0000000116
  9
$TDUSRTIMER
 40
0.0000000116
  9
$USRTIMER
 70
     1
  9
$ANGBASE
 50
0.0
  9
$ANGDIR
 70
     0
  9
$PDMODE
 70
     0
  9
$PDSIZE
 40
0.0
  9
$PLINEWID
 40
0.0
  9
$COORDS
 70
     1
  9
$SPLFRAME
 70
     0
  9
$SPLINETYPE
 70
     6
  9
$SPLINESEGS
 70
     8
  9
$ATTDIA
 70
     0
  9
$ATTREQ
 70
     1
  9
$SURFTAB1
 70
     6
  9
$SURFTAB2
 70
     6
  9
$SURFTYPE
 70
     6
  9
$SURFU
 70
     6
  9
$SURFV
 70
     6
  9
$UCSNAME
  2

  9
$UCSORG
 10
0.0
 20
0.0
 30
0.0
  9
$UCSXDIR
 10
1.0
 20
0.0
 30
0.0
  9
$UCSYDIR
 10
0.0
 20
1.0
 30
0.0
  9
$USERI1
 70
     0
  9
$USERI2
 70
     0
  9
$USERI3
 70
     0
  9
$USERI4
 70
     0
  9
$USERI5
 70
     0
  9
$USERR1
 40
0.0
  9
$USERR2
 40
0.0
  9
$USERR3
 40
0.0
  9
$USERR4
 40
0.0
  9
$USERR5
 40
0.0
  9
$WORLDVIEW
 70
     1
  0
ENDSEC
  0
SECTION
  2
TABLES
  0
TABLE
  2
LTYPE
 70
     1
  0
LTYPE
  2
CONTINUOUS
 70
     0
  3
Solid line
 72
    65
 73
     0
 40
0.0
  0
ENDTAB
  0
TABLE
  2
LAYER
 70
     2
  0
LAYER
  2
0
 70
     0
 62
     7
  6
CONTINUOUS
  0
LAYER
  2
1
 70
     0
 62
     7
  6
CONTINUOUS
  0
ENDTAB
  0
TABLE
  2
STYLE
 70
     2
  0
STYLE
  2
STANDARD
 70
     0
 40
0.0
 41
1.0
 50
0.0
 71
     0
 42
0.2
  3
txt
  4

  0
STYLE
  2
ＭＳ_ゴシック
 70
     0
 40
0.0
 41
1.0
 50
0.0
 71
     0
 42
0.2
  3
ＭＳ ゴシック.shx
  4

  0
ENDTAB
  0
TABLE
  2
VIEW
 70
     0
  0
ENDTAB
  0
ENDSEC
  0
SECTION
  2
BLOCKS
  0
ENDSEC
  0
SECTION
  2
ENTITIES
  0
LINE
  8
1
  6
CONTINUOUS
 62
     7
 10
-114.5847025602
 20
40.86796966450002
 11
-114.7068813124
 21
42.26447919230003
  0
ARC
  8
1
  6
CONTINUOUS
 62
     7
 10
-83.64193638720002
 20
40.91154753589998
 40
0.4999999999999449
 50
270.0
 51
354.9999999999003
  0
ARC
  8
1
  6
CONTINUOUS
 62
     7
 10
-85.05460521299996
 20
40.9115475374
 40
0.4999999999999498
 50
184.9999999999998
 51
269.9999999999999
  0
ARC
  8
1
  6
CONTINUOUS
 62
     7
 10
-89.79177079999995
 20
42.22179439329998
 40
0.4897531444999505
 50
4.999999999999845
 51
175.0000000000002
  0
ARC
  8
1
  6
CONTINUOUS
 62
     7
 10
-87.27093638709998
 20
40.9115475374
 40
0.4999999999999449
 50
270.0
 51
355.0000000000002
  0
ARC
  8
1
  6
CONTINUOUS
 62
     7
 10
-90.8999363871999
 20
40.91154753589998
 40
0.4999999999999449
 50
270.0
 51
354.9999999999003
  0
ARC
  8
1
  6
CONTINUOUS
 62
     7
 10
-88.68360521289992
 20
40.91154753589998
 40
0.4999999999999424
 50
185.0000000000996
 51
269.9999999999999
  0
ARC
  8
1
  6
CONTINUOUS
 62
     7
 10
-82.53377079999996
 20
42.22179439329998
 40
0.4897531444999505
 50
4.999999999999845
 51
175.0000000000002
  0
ARC
  8
1
  6
CONTINUOUS
 62
     7
 10
147.1773947870001
 20
40.9115475374
 40
0.4999999999999498
 50
184.9999999999998
 51
269.9999999999999
  0
ARC
  8
1
  6
CONTINUOUS
 62
     7
 10
142.4402292
 20
42.22179439329998
 40
0.4897531444999367
 50
5.000000000000063
 51
175.0
  0
ARC
  8
1
  6
CONTINUOUS
 62
     7
 10
143.5483947871001
 20
40.91154753589998
 40
0.4999999999999424
 50
185.0000000000996
 51
269.9999999999999
  0
ARC
  8
1
  6
CONTINUOUS
 62
     7
 10
149.6982292000001
 20
42.22179439329998
 40
0.4897531444999367
 50
5.000000000000063
 51
175.0
  0
ARC
  8
1
  6
CONTINUOUS
 62
     7
 10
150.8063947871
 20
40.91154753589998
 40
0.4999999999999424
 50
185.0000000000996
 51
269.9999999999999
  0
ARC
  8
1
  6
CONTINUOUS
 62
     7
 10
144.9610636129001
 20
40.9115475374
 40
0.4999999999999449
 50
270.0
 51
355.0000000000002
  0
ARC
  8
1
  6
CONTINUOUS
 62
     7
 10
148.5900636128
 20
40.91154753589998
 40
0.4999999999999449
 50
270.0
 51
354.9999999999003
  0
ARC
  8
1
  6
CONTINUOUS
 62
     7
 10
146.0692292
 20
42.22179439329998
 40
0.4897531444999367
 50
5.000000000000063
 51
175.0
  0
ARC
  8
1
  6
CONTINUOUS
 62
     7
 10
152.2190636129002
 20
40.9115475374
 40
0.4999999999999449
 50
270.0
 51
355.0000000000002
  0
ARC
  8
1
  6
CONTINUOUS
 62
     7
 10
-112.6739363853999
 20
40.9115475374
 40
0.4999999999999449
 50
270.0
 51
355.0000000000002
  0
ARC
  8
1
  6
CONTINUOUS
 62
     7
 10
162.5260954613
 20
41.30136158499997
 40
0.9999999999999883
 50
200.5785485656002
 51
261.8152053735006
  0
ARC
  8
1
  6
CONTINUOUS
 62
     7
 10
105.0420636128
 20
40.91154753589998
 40
0.4999999999999449
 50
270.0
 51
354.9999999999003
  0
ARC
  8
1
  6
CONTINUOUS
 62
     7
 10
153.3272292000001
 20
42.22179439329998
 40
0.4897531444999367
 50
5.000000000000063
 51
175.0
  0
ARC
  8
1
  6
CONTINUOUS
 62
     7
 10
108.6710636129001
 20
40.9115475374
 40
0.4999999999999449
 50
270.0
 51
355.0000000000002
  0
ARC
  8
1
  6
CONTINUOUS
 62
     7
 10
-117.7156052111999
 20
40.91154753589998
 40
0.4999999999999424
 50
185.0000000000996
 51
269.9999999999999
  0
ARC
  8
1
  6
CONTINUOUS
 62
     7
 10
125.4033947871001
 20
40.91154753589998
 40
0.4999999999999424
 50
185.0000000000996
 51
269.9999999999999
  0
ARC
  8
1
  6
CONTINUOUS
 62
     7
 10
131.5532292000001
 20
42.22179439329998
 40
0.4897531444999367
 50
5.000000000000063
 51
175.0
  0
ARC
  8
1
  6
CONTINUOUS
 62
     7
 10
119.5580636128
 20
40.91154753589998
 40
0.4999999999999449
 50
270.0
 51
354.9999999999003
  0
ARC
  8
1
  6
CONTINUOUS
 62
     7
 10
106.1502292000001
 20
42.22179439329998
 40
0.4897531444999505
 50
4.999999999999845
 51
175.0000000000002
  0
ARC
  8
1
  6
CONTINUOUS
 62
     7
 10
130.4450636128001
 20
40.91154753589998
 40
0.4999999999999449
 50
270.0
 51
354.9999999999003
  0
ARC
  8
1
  6
CONTINUOUS
 62
     7
 10
155.8480636128001
 20
40.91154753589998
 40
0.4999999999999449
 50
270.0
 51
354.9999999999003
  0
ARC
  8
1
  6
CONTINUOUS
 62
     7
 10
95.26922919999998
 20
42.22179439329998
 40
0.4897531444999505
 50
4.999999999999845
 51
175.0000000000002
  0
ARC
  8
1
  6
CONTINUOUS
 62
     7
 10
160.5852292000001
 20
42.22179439329998
 40
0.4897531444999415
 50
20.57854856560014
 51
175.0
  0
ARC
  8
1
  6
CONTINUOUS
 62
     7
 10
127.9242292
 20
42.22179439329998
 40
0.4897531444999367
 50
5.000000000000063
 51
175.0
  0
ARC
  8
1
  6
CONTINUOUS
 62
     7
 10
126.8160636129001
 20
40.9115475374
 40
0.4999999999999449
 50
270.0
 51
355.0000000000002
  0
ARC
  8
1
  6
CONTINUOUS
 62
     7
 10
113.4082292
 20
42.22179439329998
 40
0.4897531444999505
 50
4.999999999999845
 51
175.0000000000002
  0
ARC
  8
1
  6
CONTINUOUS
 62
     7
 10
98.89222919999996
 20
42.22179439329998
 40
0.4897531444999505
 50
4.999999999999845
 51
175.0000000000002
  0
ARC
  8
1
  6
CONTINUOUS
 62
     7
 10
-109.0449363854999
 20
40.91154753589998
 40
0.4999999999999449
 50
270.0
 51
354.9999999999003
  0
ARC
  8
1
  6
CONTINUOUS
 62
     7
 10
-120.7646370595999
 20
41.30136158499997
 40
1.000000000000004
 50
278.1847946265002
 51
339.4214514344998
  0
ARC
  8
1
  6
CONTINUOUS
 62
     7
 10
114.5163947871001
 20
40.91154753589998
 40
0.4999999999999424
 50
185.0000000000996
 51
269.9999999999999
  0
ARC
  8
1
  6
CONTINUOUS
 62
     7
 10
100.0003947870001
 20
40.9115475374
 40
0.4999999999999498
 50
184.9999999999998
 51
269.9999999999999
  0
ARC
  8
1
  6
CONTINUOUS
 62
     7
 10
96.3773947870001
 20
40.9115475374
 40
0.4999999999999498
 50
184.9999999999998
 51
269.9999999999999
  0
ARC
  8
1
  6
CONTINUOUS
 62
     7
 10
-118.8237707983
 20
42.22179439329998
 40
0.4897531444999505
 50
4.999999999999845
 51
159.4214514344004
  0
ARC
  8
1
  6
CONTINUOUS
 62
     7
 10
91.6402292
 20
42.22179439329998
 40
0.4897531444999505
 50
4.999999999999845
 51
175.0000000000002
  0
ARC
  8
1
  6
CONTINUOUS
 62
     7
 10
92.74839478710012
 20
40.91154753589998
 40
0.4999999999999424
 50
185.0000000000996
 51
269.9999999999999
  0
ARC
  8
1
  6
CONTINUOUS
 62
     7
 10
94.16106361290007
 20
40.9115475374
 40
0.4999999999999449
 50
270.0
 51
355.0000000000002
  0
ARC
  8
1
  6
CONTINUOUS
 62
     7
 10
112.3000636128001
 20
40.91154753589998
 40
0.4999999999999449
 50
270.0
 51
354.9999999999003
  0
ARC
  8
1
  6
CONTINUOUS
 62
     7
 10
129.0323947870001
 20
40.9115475374
 40
0.4999999999999498
 50
184.9999999999998
 51
269.9999999999999
  0
ARC
  8
1
  6
CONTINUOUS
 62
     7
 10
110.887394787
 20
40.9115475374
 40
0.4999999999999498
 50
184.9999999999998
 51
269.9999999999999
  0
ARC
  8
1
  6
CONTINUOUS
 62
     7
 10
156.9562292000001
 20
42.22179439329998
 40
0.4897531444999367
 50
5.000000000000063
 51
175.0
  0
ARC
  8
1
  6
CONTINUOUS
 62
     7
 10
138.8112292000002
 20
42.22179439329998
 40
0.4897531444999367
 50
5.000000000000063
 51
175.0
  0
ARC
  8
1
  6
CONTINUOUS
 62
     7
 10
-116.3029363854
 20
40.9115475374
 40
0.4999999999999449
 50
270.0
 51
355.0000000000002
  0
ARC
  8
1
  6
CONTINUOUS
 62
     7
 10
139.9193947870001
 20
40.9115475374
 40
0.4999999999999498
 50
184.9999999999998
 51
269.9999999999999
  0
ARC
  8
1
  6
CONTINUOUS
 62
     7
 10
103.6293947870001
 20
40.9115475374
 40
0.4999999999999498
 50
184.9999999999998
 51
269.9999999999999
  0
ARC
  8
1
  6
CONTINUOUS
 62
     7
 10
135.1822292000001
 20
42.22179439329998
 40
0.4897531444999367
 50
5.000000000000063
 51
175.0
  0
ARC
  8
1
  6
CONTINUOUS
 62
     7
 10
102.5212292000001
 20
42.22179439329998
 40
0.4897531444999505
 50
4.999999999999845
 51
175.0000000000002
  0
ARC
  8
1
  6
CONTINUOUS
 62
     7
 10
159.4770636128001
 20
40.91154753589998
 40
0.4999999999999449
 50
270.0
 51
354.9999999999003
  0
ARC
  8
1
  6
CONTINUOUS
 62
     7
 10
132.6613947871001
 20
40.91154753589998
 40
0.4999999999999424
 50
185.0000000000996
 51
269.9999999999999
  0
ARC
  8
1
  6
CONTINUOUS
 62
     7
 10
136.290394787
 20
40.9115475374
 40
0.4999999999999498
 50
184.9999999999998
 51
269.9999999999999
  0
ARC
  8
1
  6
CONTINUOUS
 62
     7
 10
117.0372292000001
 20
42.22179439329998
 40
0.4897531444999505
 50
4.999999999999845
 51
175.0000000000002
  0
ARC
  8
1
  6
CONTINUOUS
 62
     7
 10
115.9290636129
 20
40.9115475374
 40
0.4999999999999449
 50
270.0
 51
355.0000000000002
  0
ARC
  8
1
  6
CONTINUOUS
 62
     7
 10
109.7792292
 20
42.22179439329998
 40
0.4897531444999505
 50
4.999999999999845
 51
175.0000000000002
  0
ARC
  8
1
  6
CONTINUOUS
 62
     7
 10
-106.8286052111999
 20
40.91154753589998
 40
0.4999999999999424
 50
185.0000000000996
 51
269.9999999999999
  0
ARC
  8
1
  6
CONTINUOUS
 62
     7
 10
-110.4576052112999
 20
40.9115475374
 40
0.4999999999999498
 50
184.9999999999998
 51
269.9999999999999
  0
ARC
  8
1
  6
CONTINUOUS
 62
     7
 10
101.4130636128
 20
40.91154753589998
 40
0.4999999999999449
 50
270.0
 51
354.9999999999003
  0
ARC
  8
1
  6
CONTINUOUS
 62
     7
 10
107.2583947871
 20
40.91154753589998
 40
0.4999999999999424
 50
185.0000000000996
 51
269.9999999999999
  0
ARC
  8
1
  6
CONTINUOUS
 62
     7
 10
123.1870636128001
 20
40.91154753589998
 40
0.4999999999999449
 50
270.0
 51
354.9999999999003
  0
ARC
  8
1
  6
CONTINUOUS
 62
     7
 10
120.6662292
 20
42.22179439329998
 40
0.4897531444999505
 50
4.999999999999845
 51
175.0000000000002
  0
ARC
  8
1
  6
CONTINUOUS
 62
     7
 10
158.064394787
 20
40.9115475374
 40
0.4999999999999498
 50
184.9999999999998
 51
269.9999999999999
  0
ARC
  8
1
  6
CONTINUOUS
 62
     7
 10
134.0740636129
 20
40.9115475374
 40
0.4999999999999449
 50
270.0
 51
355.0000000000002
  0
ARC
  8
1
  6
CONTINUOUS
 62
     7
 10
-115.1947707982999
 20
42.22179439329998
 40
0.4897531444999505
 50
4.999999999999845
 51
175.0000000000002
  0
ARC
  8
1
  6
CONTINUOUS
 62
     7
 10
124.2952292
 20
42.22179439329998
 40
0.4897531444999505
 50
4.999999999999845
 51
175.0000000000002
  0
ARC
  8
1
  6
CONTINUOUS
 62
     7
 10
154.4353947870001
 20
40.9115475374
 40
0.4999999999999498
 50
184.9999999999998
 51
269.9999999999999
  0
ARC
  8
1
  6
CONTINUOUS
 62
     7
 10
118.145394787
 20
40.9115475374
 40
0.4999999999999498
 50
184.9999999999998
 51
269.9999999999999
  0
ARC
  8
1
  6
CONTINUOUS
 62
     7
 10
-114.0866052111999
 20
40.91154753589998
 40
0.4999999999999424
 50
185.0000000000996
 51
269.9999999999999
  0
ARC
  8
1
  6
CONTINUOUS
 62
     7
 10
137.7030636129001
 20
40.9115475374
 40
0.4999999999999449
 50
270.0
 51
355.0000000000002
  0
ARC
  8
1
  6
CONTINUOUS
 62
     7
 10
121.774394787
 20
40.9115475374
 40
0.4999999999999498
 50
184.9999999999998
 51
269.9999999999999
  0
ARC
  8
1
  6
CONTINUOUS
 62
     7
 10
-107.9367707982999
 20
42.22179439329998
 40
0.4897531444999505
 50
4.999999999999845
 51
175.0000000000002
  0
ARC
  8
1
  6
CONTINUOUS
 62
     7
 10
-111.5657707982999
 20
42.22179439329998
 40
0.4897531444999505
 50
4.999999999999845
 51
175.0000000000002
  0
ARC
  8
1
  6
CONTINUOUS
 62
     7
 10
80.75322920000012
 20
42.22179439329998
 40
0.4897531444999505
 50
4.999999999999845
 51
175.0000000000002
  0
ARC
  8
1
  6
CONTINUOUS
 62
     7
 10
54.2420636128
 20
40.91154753589998
 40
0.4999999999999449
 50
270.0
 51
354.9999999999003
  0
ARC
  8
1
  6
CONTINUOUS
 62
     7
 10
56.45839478709998
 20
40.91154753589998
 40
0.4999999999999424
 50
185.0000000000996
 51
269.9999999999999
  0
ARC
  8
1
  6
CONTINUOUS
 62
     7
 10
34.690394787
 20
40.9115475374
 40
0.4999999999999429
 50
184.9999999999998
 51
269.9999999999999
  0
ARC
  8
1
  6
CONTINUOUS
 62
     7
 10
74.60339478710006
 20
40.91154753589998
 40
0.4999999999999424
 50
185.0000000000996
 51
269.9999999999999
  0
ARC
  8
1
  6
CONTINUOUS
 62
     7
 10
26.32422920000002
 20
42.22179439329998
 40
0.4897531444999505
 50
4.999999999999845
 51
175.0000000000002
  0
ARC
  8
1
  6
CONTINUOUS
 62
     7
 10
85.490394787
 20
40.9115475374
 40
0.4999999999999498
 50
184.9999999999998
 51
269.9999999999999
  0
ARC
  8
1
  6
CONTINUOUS
 62
     7
 10
78.23239478700013
 20
40.9115475374
 40
0.4999999999999498
 50
184.9999999999998
 51
269.9999999999999
  0
ARC
  8
1
  6
CONTINUOUS
 62
     7
 10
45.5773947870001
 20
40.9115475374
 40
0.4999999999999429
 50
184.9999999999998
 51
269.9999999999999
  0
ARC
  8
1
  6
CONTINUOUS
 62
     7
 10
66.23722920000014
 20
42.22179439329998
 40
0.4897531444999505
 50
4.999999999999845
 51
175.0000000000002
  0
ARC
  8
1
  6
CONTINUOUS
 62
     7
 10
52.82939478700006
 20
40.9115475374
 40
0.4999999999999429
 50
184.9999999999998
 51
269.9999999999999
  0
ARC
  8
1
  6
CONTINUOUS
 62
     7
 10
46.98406361290004
 20
40.9115475374
 40
0.4999999999999449
 50
270.0
 51
355.0000000000002
  0
ARC
  8
1
  6
CONTINUOUS
 62
     7
 10
88.01122920000022
 20
42.22179439329998
 40
0.4897531444999505
 50
4.999999999999845
 51
175.0000000000002
  0
ARC
  8
1
  6
CONTINUOUS
 62
     7
 10
79.64506361280006
 20
40.91154753589998
 40
0.4999999999999449
 50
270.0
 51
354.9999999999003
  0
ARC
  8
1
  6
CONTINUOUS
 62
     7
 10
58.97922920000005
 20
42.22179439329998
 40
0.4897531444999505
 50
4.999999999999845
 51
175.0000000000002
  0
ARC
  8
1
  6
CONTINUOUS
 62
     7
 10
33.58222920000012
 20
42.22179439329998
 40
0.4897531444999505
 50
4.999999999999845
 51
175.0000000000002
  0
ARC
  8
1
  6
CONTINUOUS
 62
     7
 10
63.71639478710007
 20
40.91154753589998
 40
0.4999999999999424
 50
185.0000000000996
 51
269.9999999999999
  0
ARC
  8
1
  6
CONTINUOUS
 62
     7
 10
61.5000636128001
 20
40.91154753589998
 40
0.4999999999999449
 50
270.0
 51
354.9999999999003
  0
ARC
  8
1
  6
CONTINUOUS
 62
     7
 10
40.8402292
 20
42.22179439329998
 40
0.4897531444999505
 50
4.999999999999845
 51
175.0000000000002
  0
ARC
  8
1
  6
CONTINUOUS
 62
     7
 10
69.86622920000003
 20
42.22179439329998
 40
0.4897531444999505
 50
4.999999999999845
 51
175.0000000000002
  0
ARC
  8
1
  6
CONTINUOUS
 62
     7
 10
84.38222920000011
 20
42.22179439329998
 40
0.4897531444999505
 50
4.999999999999845
 51
175.0000000000002
  0
ARC
  8
1
  6
CONTINUOUS
 62
     7
 10
44.46922919999999
 20
42.22179439329998
 40
0.4897531444999505
 50
4.999999999999845
 51
175.0000000000002
  0
ARC
  8
1
  6
CONTINUOUS
 62
     7
 10
32.47406361289998
 20
40.9115475374
 40
0.4999999999999449
 50
270.0
 51
355.0000000000002
  0
ARC
  8
1
  6
CONTINUOUS
 62
     7
 10
77.12422920000002
 20
42.22179439329998
 40
0.4897531444999505
 50
4.999999999999845
 51
175.0000000000002
  0
ARC
  8
1
  6
CONTINUOUS
 62
     7
 10
70.97439478700002
 20
40.9115475374
 40
0.4999999999999498
 50
184.9999999999998
 51
269.9999999999999
  0
ARC
  8
1
  6
CONTINUOUS
 62
     7
 10
60.08739478700005
 20
40.9115475374
 40
0.4999999999999429
 50
184.9999999999998
 51
269.9999999999999
  0
ARC
  8
1
  6
CONTINUOUS
 62
     7
 10
31.06139478710004
 20
40.91154753589998
 40
0.4999999999999459
 50
185.0000000000995
 51
269.9999999999999
  0
ARC
  8
1
  6
CONTINUOUS
 62
     7
 10
81.86139478710004
 20
40.91154753589998
 40
0.4999999999999424
 50
185.0000000000996
 51
269.9999999999999
  0
ARC
  8
1
  6
CONTINUOUS
 62
     7
 10
72.38706361280008
 20
40.91154753589998
 40
0.4999999999999449
 50
270.0
 51
354.9999999999003
  0
ARC
  8
1
  6
CONTINUOUS
 62
     7
 10
67.34539478700003
 20
40.9115475374
 40
0.4999999999999498
 50
184.9999999999998
 51
269.9999999999999
  0
ARC
  8
1
  6
CONTINUOUS
 62
     7
 10
57.87106361290013
 20
40.9115475374
 40
0.4999999999999449
 50
270.0
 51
355.0000000000002
  0
ARC
  8
1
  6
CONTINUOUS
 62
     7
 10
48.09222919999996
 20
42.22179439329998
 40
0.4897531444999505
 50
4.999999999999845
 51
175.0000000000002
  0
ARC
  8
1
  6
CONTINUOUS
 62
     7
 10
29.95322920000012
 20
42.22179439329998
 40
0.4897531444999505
 50
4.999999999999845
 51
175.0000000000002
  0
ARC
  8
1
  6
CONTINUOUS
 62
     7
 10
28.84506361280006
 20
40.91154753589998
 40
0.4999999999999449
 50
270.0
 51
354.9999999999003
  0
ARC
  8
1
  6
CONTINUOUS
 62
     7
 10
76.0160636129001
 20
40.9115475374
 40
0.4999999999999449
 50
270.0
 51
355.0000000000002
  0
ARC
  8
1
  6
CONTINUOUS
 62
     7
 10
49.20039478700007
 20
40.9115475374
 40
0.4999999999999429
 50
184.9999999999998
 51
269.9999999999999
  0
ARC
  8
1
  6
CONTINUOUS
 62
     7
 10
83.27406361289998
 20
40.9115475374
 40
0.4999999999999449
 50
270.0
 51
355.0000000000002
  0
ARC
  8
1
  6
CONTINUOUS
 62
     7
 10
68.75806361279997
 20
40.91154753589998
 40
0.4999999999999449
 50
270.0
 51
354.9999999999003
  0
ARC
  8
1
  6
CONTINUOUS
 62
     7
 10
51.72122920000007
 20
42.22179439329998
 40
0.4897531444999505
 50
4.999999999999845
 51
175.0000000000002
  0
ARC
  8
1
  6
CONTINUOUS
 62
     7
 10
50.6130636128
 20
40.91154753589998
 40
0.4999999999999449
 50
270.0
 51
354.9999999999003
  0
ARC
  8
1
  6
CONTINUOUS
 62
     7
 10
86.90306361290008
 20
40.9115475374
 40
0.4999999999999449
 50
270.0
 51
355.0000000000002
  0
ARC
  8
1
  6
CONTINUOUS
 62
     7
 10
27.43239478700013
 20
40.9115475374
 40
0.4999999999999463
 50
184.9999999999998
 51
269.9999999999999
  0
ARC
  8
1
  6
CONTINUOUS
 62
     7
 10
89.1193947870001
 20
40.9115475374
 40
0.4999999999999498
 50
184.9999999999998
 51
269.9999999999999
  0
ARC
  8
1
  6
CONTINUOUS
 62
     7
 10
41.94839478710013
 20
40.91154753589998
 40
0.4999999999999424
 50
185.0000000000996
 51
269.9999999999999
  0
ARC
  8
1
  6
CONTINUOUS
 62
     7
 10
55.35022920000006
 20
42.22179439329998
 40
0.4897531444999505
 50
4.999999999999845
 51
175.0000000000002
  0
ARC
  8
1
  6
CONTINUOUS
 62
     7
 10
73.49522920000003
 20
42.22179439329998
 40
0.4897531444999505
 50
4.999999999999845
 51
175.0000000000002
  0
ARC
  8
1
  6
CONTINUOUS
 62
     7
 10
43.36106361290007
 20
40.9115475374
 40
0.4999999999999449
 50
270.0
 51
355.0000000000002
  0
ARC
  8
1
  6
CONTINUOUS
 62
     7
 10
62.60822920000005
 20
42.22179439329998
 40
0.4897531444999505
 50
4.999999999999845
 51
175.0000000000002
  0
ARC
  8
1
  6
CONTINUOUS
 62
     7
 10
65.12906361290001
 20
40.9115475374
 40
0.4999999999999449
 50
270.0
 51
355.0000000000002
  0
TEXT
  8
1
  6
CONTINUOUS
 62
     7
 10
18.12660229972799
 20
26.14794455125693
 40
3.0
  1
VEU-16S
  0
ARC
  8
1
  6
CONTINUOUS
 62
     7
 10
4.550229200000061
 20
42.22179439329998
 40
0.4897531444999488
 50
4.999999999999845
 51
175.0000000000001
  0
ARC
  8
1
  6
CONTINUOUS
 62
     7
 10
-2.707770800000036
 20
42.22179439329998
 40
0.4897531444999492
 50
4.999999999999845
 51
175.0000000000001
  0
ARC
  8
1
  6
CONTINUOUS
 62
     7
 10
22.69522920000003
 20
42.22179439329998
 40
0.4897531444999505
 50
4.999999999999845
 51
175.0000000000002
  0
ARC
  8
1
  6
CONTINUOUS
 62
     7
 10
-57.13077080000001
 20
42.22179439329998
 40
0.4897531444999505
 50
4.999999999999845
 51
175.0000000000002
  0
ARC
  8
1
  6
CONTINUOUS
 62
     7
 10
-56.0226052129999
 20
40.9115475374
 40
0.4999999999999429
 50
184.9999999999998
 51
269.9999999999999
  0
ARC
  8
1
  6
CONTINUOUS
 62
     7
 10
-59.65160521289986
 20
40.91154753589998
 40
0.4999999999999424
 50
185.0000000000996
 51
269.9999999999999
  0
ARC
  8
1
  6
CONTINUOUS
 62
     7
 10
-3.815936387099955
 20
40.9115475374
 40
0.4999999999999449
 50
270.0
 51
355.0000000000002
  0
ARC
  8
1
  6
CONTINUOUS
 62
     7
 10
10.7000636128001
 20
40.91154753589998
 40
0.4999999999999449
 50
270.0
 51
354.9999999999003
  0
ARC
  8
1
  6
CONTINUOUS
 62
     7
 10
-58.23893638709993
 20
40.9115475374
 40
0.4999999999999449
 50
270.0
 51
355.0000000000002
  0
ARC
  8
1
  6
CONTINUOUS
 62
     7
 10
-66.90960521299999
 20
40.9115475374
 40
0.4999999999999498
 50
184.9999999999998
 51
269.9999999999999
  0
ARC
  8
1
  6
CONTINUOUS
 62
     7
 10
-70.53860521289995
 20
40.91154753589998
 40
0.4999999999999424
 50
185.0000000000996
 51
269.9999999999999
  0
ARC
  8
1
  6
CONTINUOUS
 62
     7
 10
-75.27577079999998
 20
42.22179439329998
 40
0.4897531444999505
 50
4.999999999999845
 51
175.0000000000002
  0
ARC
  8
1
  6
CONTINUOUS
 62
     7
 10
-71.64677079999987
 20
42.22179439329998
 40
0.4897531444999505
 50
4.999999999999845
 51
175.0000000000002
  0
ARC
  8
1
  6
CONTINUOUS
 62
     7
 10
8.179229200000055
 20
42.22179439329998
 40
0.4897531444999488
 50
4.999999999999845
 51
175.0000000000001
  0
ARC
  8
1
  6
CONTINUOUS
 62
     7
 10
-78.90477079999997
 20
42.22179439329998
 40
0.4897531444999505
 50
4.999999999999845
 51
175.0000000000002
  0
ARC
  8
1
  6
CONTINUOUS
 62
     7
 10
36.10306361290008
 20
40.9115475374
 40
0.4999999999999449
 50
270.0
 51
355.0000000000002
  0
ARC
  8
1
  6
CONTINUOUS
 62
     7
 10
-76.3839363870999
 20
40.9115475374
 40
0.4999999999999449
 50
270.0
 51
355.0000000000002
  0
ARC
  8
1
  6
CONTINUOUS
 62
     7
 10
37.21122920000023
 20
42.22179439329998
 40
0.4897531444999505
 50
4.999999999999845
 51
175.0000000000002
  0
ARC
  8
1
  6
CONTINUOUS
 62
     7
 10
5.658394787099979
 20
40.91154753589998
 40
0.4999999999999442
 50
185.0000000000996
 51
269.9999999999999
  0
ARC
  8
1
  6
CONTINUOUS
 62
     7
 10
-60.7597708
 20
42.22179439329998
 40
0.4897531444999505
 50
4.999999999999845
 51
175.0000000000002
  0
ARC
  8
1
  6
CONTINUOUS
 62
     7
 10
-1.599605212999927
 20
40.9115475374
 40
0.4999999999999446
 50
184.9999999999998
 51
269.9999999999999
  0
ARC
  8
1
  6
CONTINUOUS
 62
     7
 10
-74.16760521299986
 20
40.9115475374
 40
0.4999999999999498
 50
184.9999999999998
 51
269.9999999999999
  0
ARC
  8
1
  6
CONTINUOUS
 62
     7
 10
16.54539478700004
 20
40.9115475374
 40
0.4999999999999463
 50
184.9999999999998
 51
269.9999999999999
  0
ARC
  8
1
  6
CONTINUOUS
 62
     7
 10
11.80822920000005
 20
42.22179439329998
 40
0.4897531444999488
 50
4.999999999999845
 51
175.0000000000001
  0
ARC
  8
1
  6
CONTINUOUS
 62
     7
 10
-77.79660521289993
 20
40.91154753589998
 40
0.4999999999999424
 50
185.0000000000996
 51
269.9999999999999
  0
ARC
  8
1
  6
CONTINUOUS
 62
     7
 10
0.9212292000000677
 20
42.22179439329998
 40
0.4897531444999492
 50
4.999999999999845
 51
175.0000000000001
  0
ARC
  8
1
  6
CONTINUOUS
 62
     7
 10
15.43722920000015
 20
42.22179439329998
 40
0.4897531444999505
 50
4.999999999999845
 51
175.0000000000001
  0
ARC
  8
1
  6
CONTINUOUS
 62
     7
 10
-80.01293638719991
 20
40.91154753589998
 40
0.4999999999999449
 50
270.0
 51
354.9999999999003
  0
ARC
  8
1
  6
CONTINUOUS
 62
     7
 10
-81.42560521299995
 20
40.9115475374
 40
0.4999999999999498
 50
184.9999999999998
 51
269.9999999999999
  0
ARC
  8
1
  6
CONTINUOUS
 62
     7
 10
9.287394787000053
 20
40.9115475374
 40
0.4999999999999446
 50
184.9999999999998
 51
269.9999999999999
  0
ARC
  8
1
  6
CONTINUOUS
 62
     7
 10
-68.01777079999988
 20
42.22179439329998
 40
0.4897531444999505
 50
4.999999999999845
 51
175.0000000000002
  0
ARC
  8
1
  6
CONTINUOUS
 62
     7
 10
3.4420636128
 20
40.91154753589998
 40
0.4999999999999449
 50
270.0
 51
354.9999999999003
  0
ARC
  8
1
  6
CONTINUOUS
 62
     7
 10
-72.75493638719993
 20
40.91154753589998
 40
0.4999999999999449
 50
270.0
 51
354.9999999999003
  0
ARC
  8
1
  6
CONTINUOUS
 62
     7
 10
-86.16277079999985
 20
42.22179439329998
 40
0.4897531444999505
 50
4.999999999999845
 51
175.0000000000002
  0
ARC
  8
1
  6
CONTINUOUS
 62
     7
 10
-69.12593638710001
 20
40.9115475374
 40
0.4999999999999449
 50
270.0
 51
355.0000000000002
  0
ARC
  8
1
  6
CONTINUOUS
 62
     7
 10
23.80339478710006
 20
40.91154753589998
 40
0.4999999999999459
 50
185.0000000000995
 51
269.9999999999999
  0
ARC
  8
1
  6
CONTINUOUS
 62
     7
 10
19.06622920000003
 20
42.22179439329998
 40
0.4897531444999505
 50
4.999999999999845
 51
175.0000000000002
  0
ARC
  8
1
  6
CONTINUOUS
 62
     7
 10
21.58706361280008
 20
40.91154753589998
 40
0.4999999999999449
 50
270.0
 51
354.9999999999003
  0
ARC
  8
1
  6
CONTINUOUS
 62
     7
 10
12.91639478710008
 20
40.91154753589998
 40
0.4999999999999442
 50
185.0000000000996
 51
269.9999999999999
  0
ARC
  8
1
  6
CONTINUOUS
 62
     7
 10
14.32906361290001
 20
40.9115475374
 40
0.4999999999999449
 50
270.0
 51
355.0000000000002
  0
ARC
  8
1
  6
CONTINUOUS
 62
     7
 10
2.029394787000066
 20
40.9115475374
 40
0.4999999999999448
 50
184.9999999999998
 51
269.9999999999999
  0
ARC
  8
1
  6
CONTINUOUS
 62
     7
 10
7.071063612900136
 20
40.9115475374
 40
0.4999999999999449
 50
270.0
 51
355.0000000000002
  0
ARC
  8
1
  6
CONTINUOUS
 62
     7
 10
25.2160636129001
 20
40.9115475374
 40
0.4999999999999449
 50
270.0
 51
355.0000000000002
  0
ARC
  8
1
  6
CONTINUOUS
 62
     7
 10
-0.1869363871999929
 20
40.91154753589998
 40
0.4999999999999449
 50
270.0
 51
354.9999999999003
  0
ARC
  8
1
  6
CONTINUOUS
 62
     7
 10
20.17439478700003
 20
40.9115475374
 40
0.4999999999999463
 50
184.9999999999998
 51
269.9999999999999
  0
ARC
  8
1
  6
CONTINUOUS
 62
     7
 10
38.31939478700011
 20
40.9115475374
 40
0.4999999999999429
 50
184.9999999999998
 51
269.9999999999999
  0
ARC
  8
1
  6
CONTINUOUS
 62
     7
 10
17.95806361279997
 20
40.91154753589998
 40
0.4999999999999449
 50
270.0
 51
354.9999999999003
  0
LINE
  8
1
  6
CONTINUOUS
 62
     7
 10
106.7602974381
 20
40.86796966450002
 11
106.6381186859001
 21
42.26447919230003
  0
LINE
  8
1
  6
CONTINUOUS
 62
     7
 10
121.774394787
 20
40.41154753779996
 11
123.1870636128001
 21
40.41154753779996
  0
LINE
  8
1
  6
CONTINUOUS
 62
     7
 10
118.145394787
 20
40.41154753779996
 11
119.5580636128
 21
40.41154753779996
  0
LINE
  8
1
  6
CONTINUOUS
 62
     7
 10
126.8160636129001
 20
40.41154753779996
 11
125.4033947871001
 21
40.41154753779996
  0
LINE
  8
1
  6
CONTINUOUS
 62
     7
 10
112.7981609618001
 20
40.86796966450002
 11
112.920339714
 21
42.26447919230003
  0
LINE
  8
1
  6
CONTINUOUS
 62
     7
 10
109.169160962
 20
40.86796966600004
 11
109.2913397140001
 21
42.26447919230003
  0
LINE
  8
1
  6
CONTINUOUS
 62
     7
 10
114.0182974381001
 20
40.86796966450002
 11
113.8961186859
 21
42.26447919230003
  0
LINE
  8
1
  6
CONTINUOUS
 62
     7
 10
115.9290636129
 20
40.41154753779996
 11
114.5163947871001
 21
40.41154753779996
  0
LINE
  8
1
  6
CONTINUOUS
 62
     7
 10
105.5401609618
 20
40.86796966450002
 11
105.6623397140001
 21
42.26447919230003
  0
LINE
  8
1
  6
CONTINUOUS
 62
     7
 10
103.6293947870001
 20
40.41154753779996
 11
105.0420636128
 21
40.41154753779996
  0
LINE
  8
1
  6
CONTINUOUS
 62
     7
 10
127.3141609620001
 20
40.86796966600004
 11
127.436339714
 21
42.26447919230003
  0
LINE
  8
1
  6
CONTINUOUS
 62
     7
 10
134.0740636129
 20
40.41154753779996
 11
132.6613947871001
 21
40.41154753779996
  0
LINE
  8
1
  6
CONTINUOUS
 62
     7
 10
130.9431609618
 20
40.86796966450002
 11
131.0653397140001
 21
42.26447919230003
  0
LINE
  8
1
  6
CONTINUOUS
 62
     7
 10
110.887394787
 20
40.41154753779996
 11
112.3000636128001
 21
40.41154753779996
  0
LINE
  8
1
  6
CONTINUOUS
 62
     7
 10
117.6472974380001
 20
40.86796966600004
 11
117.5251186859
 21
42.26447919230003
  0
LINE
  8
1
  6
CONTINUOUS
 62
     7
 10
108.6710636129001
 20
40.41154753779996
 11
107.2583947871
 21
40.41154753779996
  0
LINE
  8
1
  6
CONTINUOUS
 62
     7
 10
110.389297438
 20
40.86796966600004
 11
110.2671186859001
 21
42.26447919230003
  0
LINE
  8
1
  6
CONTINUOUS
 62
     7
 10
99.5022974380001
 20
40.86796966600004
 11
99.38011868590002
 21
42.26447919230003
  0
LINE
  8
1
  6
CONTINUOUS
 62
     7
 10
121.2762974380001
 20
40.86796966600004
 11
121.1541186859001
 21
42.26447919230003
  0
LINE
  8
1
  6
CONTINUOUS
 62
     7
 10
132.1632974381001
 20
40.86796966450002
 11
132.0411186859001
 21
42.26447919230003
  0
LINE
  8
1
  6
CONTINUOUS
 62
     7
 10
124.9052974381
 20
40.86796966450002
 11
124.7831186859001
 21
42.26447919230003
  0
LINE
  8
1
  6
CONTINUOUS
 62
     7
 10
101.9111609618001
 20
40.86796966450002
 11
102.0333397140001
 21
42.26447919230003
  0
LINE
  8
1
  6
CONTINUOUS
 62
     7
 10
103.1312974380001
 20
40.86796966600004
 11
103.0091186859001
 21
42.26447919230003
  0
LINE
  8
1
  6
CONTINUOUS
 62
     7
 10
129.0323947870001
 20
40.41154753779996
 11
130.4450636128001
 21
40.41154753779996
  0
LINE
  8
1
  6
CONTINUOUS
 62
     7
 10
123.6851609618
 20
40.86796966450002
 11
123.807339714
 21
42.26447919230003
  0
LINE
  8
1
  6
CONTINUOUS
 62
     7
 10
100.0003947870001
 20
40.41154753779996
 11
101.4130636128
 21
40.41154753779996
  0
LINE
  8
1
  6
CONTINUOUS
 62
     7
 10
116.427160962
 20
40.86796966600004
 11
116.5493397140001
 21
42.26447919230003
  0
LINE
  8
1
  6
CONTINUOUS
 62
     7
 10
162.3837292015001
 20
40.31154753780009
 11
193.3837292015002
 21
39.91154753780002
  0
LINE
  8
1
  6
CONTINUOUS
 62
     7
 10
128.5342974380002
 20
40.86796966600004
 11
128.4121186859001
 21
42.26447919230003
  0
LINE
  8
1
  6
CONTINUOUS
 62
     7
 10
120.0561609618
 20
40.86796966450002
 11
120.178339714
 21
42.26447919230003
  0
LINE
  8
1
  6
CONTINUOUS
 62
     7
 10
157.566297438
 20
40.86796966600004
 11
157.4441186859
 21
42.26447919230003
  0
LINE
  8
1
  6
CONTINUOUS
 62
     7
 10
-107.3267025602
 20
40.86796966450002
 11
-107.4488813123999
 21
42.26447919230003
  0
LINE
  8
1
  6
CONTINUOUS
 62
     7
 10
158.064394787
 20
40.41154753779996
 11
159.4770636128001
 21
40.41154753779996
  0
LINE
  8
1
  6
CONTINUOUS
 62
     7
 10
153.937297438
 20
40.86796966600004
 11
153.8151186859001
 21
42.26447919230003
  0
LINE
  8
1
  6
CONTINUOUS
 62
     7
 10
161.5899042623
 20
40.94987042020004
 11
161.0437317835
 21
42.39393829649995
  0
LINE
  8
1
  6
CONTINUOUS
 62
     7
 10
159.9751609618001
 20
40.86796966450002
 11
160.097339714
 21
42.26447919230003
  0
LINE
  8
1
  6
CONTINUOUS
 62
     7
 10
193.3837304467001
 20
39.91154752170001
 11
193.3837279563
 21
63.91154752169997
  0
LINE
  8
1
  6
CONTINUOUS
 62
     7
 10
-151.6222720450999
 20
39.91154752170001
 11
-151.6222695546999
 21
63.91154752169997
  0
LINE
  8
1
  6
CONTINUOUS
 62
     7
 10
-108.5468390363999
 20
40.86796966450002
 11
-108.4246602842999
 21
42.26447919230003
  0
LINE
  8
1
  6
CONTINUOUS
 62
     7
 10
-110.4576052112999
 20
40.41154753779996
 11
-109.0449363854999
 21
40.41154753779996
  0
LINE
  8
1
  6
CONTINUOUS
 62
     7
 10
156.3461609618001
 20
40.86796966450002
 11
156.468339714
 21
42.26447919230003
  0
LINE
  8
1
  6
CONTINUOUS
 62
     7
 10
-115.8048390363
 20
40.86796966600004
 11
-115.6826602842999
 21
42.26447919230003
  0
LINE
  8
1
  6
CONTINUOUS
 62
     7
 10
-120.6222707998999
 20
40.31154753780009
 11
-151.6222707998999
 21
39.91154753780002
  0
LINE
  8
1
  6
CONTINUOUS
 62
     7
 10
-118.2137025601999
 20
40.86796966450002
 11
-118.3358813124
 21
42.26447919230003
  0
LINE
  8
1
  6
CONTINUOUS
 62
     7
 10
-116.3029363854
 20
40.41154753779996
 11
-117.7156052111999
 21
40.41154753779996
  0
LINE
  8
1
  6
CONTINUOUS
 62
     7
 10
-110.9557025602999
 20
40.86796966600004
 11
-111.0778813123999
 21
42.26447919230003
  0
LINE
  8
1
  6
CONTINUOUS
 62
     7
 10
-112.1758390362998
 20
40.86796966600004
 11
-112.0536602842999
 21
42.26447919230003
  0
LINE
  8
1
  6
CONTINUOUS
 62
     7
 10
154.4353947870001
 20
40.41154753779996
 11
155.8480636128001
 21
40.41154753779996
  0
LINE
  8
1
  6
CONTINUOUS
 62
     7
 10
134.5721609620001
 20
40.86796966600004
 11
134.694339714
 21
42.26447919230003
  0
LINE
  8
1
  6
CONTINUOUS
 62
     7
 10
149.0881609618
 20
40.86796966450002
 11
149.2103397140001
 21
42.26447919230003
  0
LINE
  8
1
  6
CONTINUOUS
 62
     7
 10
141.8301609618001
 20
40.86796966450002
 11
141.952339714
 21
42.26447919230003
  0
LINE
  8
1
  6
CONTINUOUS
 62
     7
 10
144.9610636129001
 20
40.41154753779996
 11
143.5483947871001
 21
40.41154753779996
  0
LINE
  8
1
  6
CONTINUOUS
 62
     7
 10
152.2190636129002
 20
40.41154753779996
 11
150.8063947871
 21
40.41154753779996
  0
LINE
  8
1
  6
CONTINUOUS
 62
     7
 10
135.792297438
 20
40.86796966600004
 11
135.6701186859001
 21
42.26447919230003
  0
LINE
  8
1
  6
CONTINUOUS
 62
     7
 10
146.6792974380001
 20
40.86796966600004
 11
146.5571186859
 21
42.26447919230003
  0
LINE
  8
1
  6
CONTINUOUS
 62
     7
 10
152.717160962
 20
40.86796966600004
 11
152.8393397140001
 21
42.26447919230003
  0
LINE
  8
1
  6
CONTINUOUS
 62
     7
 10
147.1773947870001
 20
40.41154753779996
 11
148.5900636128
 21
40.41154753779996
  0
LINE
  8
1
  6
CONTINUOUS
 62
     7
 10
150.3082974381
 20
40.86796966450002
 11
150.1861186859
 21
42.26447919230003
  0
LINE
  8
1
  6
CONTINUOUS
 62
     7
 10
145.4591609620001
 20
40.86796966600004
 11
145.5813397140001
 21
42.26447919230003
  0
LINE
  8
1
  6
CONTINUOUS
 62
     7
 10
143.0502974381002
 20
40.86796966450002
 11
142.9281186859
 21
42.26447919230003
  0
LINE
  8
1
  6
CONTINUOUS
 62
     7
 10
37.86122920030024
 20
63.11175816570014
 11
37.86122920030024
 21
40.71133690989992
  0
LINE
  8
1
  6
CONTINUOUS
 62
     7
 10
45.11922920030001
 20
63.11175816570014
 11
45.11922920030001
 21
40.71133690989992
  0
LINE
  8
1
  6
CONTINUOUS
 62
     7
 10
36.10306361290008
 20
63.4115475378001
 11
34.690394787
 21
63.4115475378001
  0
LINE
  8
1
  6
CONTINUOUS
 62
     7
 10
40.19022920112705
 20
40.71133691119999
 11
40.19022920030005
 21
63.11175816440007
  0
LINE
  8
1
  6
CONTINUOUS
 62
     7
 10
36.56122920060962
 20
40.71133691119999
 11
36.56122920030017
 21
63.11175816440007
  0
LINE
  8
1
  6
CONTINUOUS
 62
     7
 10
43.81922920030004
 20
40.71133691119999
 11
43.81922920030004
 21
63.11175816440007
  0
LINE
  8
1
  6
CONTINUOUS
 62
     7
 10
38.31939478700011
 20
63.4115475378001
 11
39.73206361280005
 21
63.4115475378001
  0
LINE
  8
1
  6
CONTINUOUS
 62
     7
 10
41.49022920051582
 20
63.11175816570014
 11
41.49022920008421
 21
40.71133690989992
  0
LINE
  8
1
  6
CONTINUOUS
 62
     7
 10
-104.9577708
 20
40.71133691119999
 11
-104.9577708
 21
63.11175816440007
  0
LINE
  8
1
  6
CONTINUOUS
 62
     7
 10
32.93222920060952
 20
40.71133691119999
 11
32.93222920030006
 21
63.11175816440007
  0
LINE
  8
1
  6
CONTINUOUS
 62
     7
 10
34.23222920030014
 20
63.11175816570014
 11
34.23222920030014
 21
40.71133690989992
  0
LINE
  8
1
  6
CONTINUOUS
 62
     7
 10
29.30322920030007
 20
40.71133691119999
 11
29.30322920030007
 21
63.11175816440007
  0
LINE
  8
1
  6
CONTINUOUS
 62
     7
 10
25.67422920030008
 20
40.71133691119999
 11
25.67422920030008
 21
63.11175816440007
  0
LINE
  8
1
  6
CONTINUOUS
 62
     7
 10
19.71622920030006
 20
63.11175816570014
 11
19.71622920030006
 21
40.71133690989992
  0
LINE
  8
1
  6
CONTINUOUS
 62
     7
 10
22.04522920030008
 20
40.71133691119999
 11
22.04522920030008
 21
63.11175816440007
  0
LINE
  8
1
  6
CONTINUOUS
 62
     7
 10
16.08722920030006
 20
63.11175816570014
 11
16.08722920030006
 21
40.71133690989992
  0
LINE
  8
1
  6
CONTINUOUS
 62
     7
 10
18.41622920030009
 20
40.71133691119999
 11
18.41622920030009
 21
63.11175816440007
  0
LINE
  8
1
  6
CONTINUOUS
 62
     7
 10
26.97422920030004
 20
63.11175816570014
 11
26.97422920030004
 21
40.71133690989992
  0
LINE
  8
1
  6
CONTINUOUS
 62
     7
 10
12.45822920030007
 20
63.11175816570014
 11
12.45822920030007
 21
40.71133690989992
  0
LINE
  8
1
  6
CONTINUOUS
 62
     7
 10
23.34522920030005
 20
63.11175816570014
 11
23.34522920030005
 21
40.71133690989992
  0
LINE
  8
1
  6
CONTINUOUS
 62
     7
 10
30.60322920030004
 20
63.11175816570014
 11
30.60322920030004
 21
40.71133690989992
  0
LINE
  8
1
  6
CONTINUOUS
 62
     7
 10
14.78722920030009
 20
40.71133691119999
 11
14.78722920030009
 21
63.11175816440007
  0
LINE
  8
1
  6
CONTINUOUS
 62
     7
 10
8.829229200300077
 20
63.11175816570014
 11
8.829229200300077
 21
40.71133690989992
  0
LINE
  8
1
  6
CONTINUOUS
 62
     7
 10
11.15822920029999
 20
40.71133691119999
 11
11.15822920029999
 21
63.11175816440007
  0
LINE
  8
1
  6
CONTINUOUS
 62
     7
 10
5.200229200300083
 20
63.11175816570014
 11
5.200229200300083
 21
40.71133690989992
  0
LINE
  8
1
  6
CONTINUOUS
 62
     7
 10
7.529229200300108
 20
40.71133691119999
 11
7.529229200300108
 21
63.11175816440007
  0
LINE
  8
1
  6
CONTINUOUS
 62
     7
 10
92.29022920051581
 20
63.11175816570014
 11
92.29022920008421
 21
40.71133690989992
  0
LINE
  8
1
  6
CONTINUOUS
 62
     7
 10
94.61922920030004
 20
40.71133691119999
 11
94.61922920030004
 21
63.11175816440007
  0
LINE
  8
1
  6
CONTINUOUS
 62
     7
 10
-3.357770799999965
 20
40.71133691119999
 11
-3.357770799999965
 21
63.11175816440007
  0
LINE
  8
1
  6
CONTINUOUS
 62
     7
 10
88.66122920030024
 20
63.11175816570014
 11
88.66122920030024
 21
40.71133690989992
  0
LINE
  8
1
  6
CONTINUOUS
 62
     7
 10
-2.057770799700015
 20
63.11175816570014
 11
-2.057770799700015
 21
40.71133690989992
  0
LINE
  8
1
  6
CONTINUOUS
 62
     7
 10
87.36122920060964
 20
40.71133691119999
 11
87.36122920030016
 21
63.11175816440007
  0
LINE
  8
1
  6
CONTINUOUS
 62
     7
 10
98.24822920030014
 20
40.71133691119999
 11
98.24822920030014
 21
63.11175816440007
  0
LINE
  8
1
  6
CONTINUOUS
 62
     7
 10
3.900229200300115
 20
40.71133691119999
 11
3.900229200300115
 21
63.11175816440007
  0
LINE
  8
1
  6
CONTINUOUS
 62
     7
 10
0.2712292003001215
 20
40.71133691119999
 11
0.2712292003001215
 21
63.11175816440007
  0
LINE
  8
1
  6
CONTINUOUS
 62
     7
 10
89.1193947870001
 20
63.4115475378001
 11
90.53206361280004
 21
63.4115475378001
  0
LINE
  8
1
  6
CONTINUOUS
 62
     7
 10
86.90306361290008
 20
63.4115475378001
 11
85.490394787
 21
63.4115475378001
  0
LINE
  8
1
  6
CONTINUOUS
 62
     7
 10
1.571229200299978
 20
63.11175816570014
 11
1.571229200299978
 21
40.71133690989992
  0
LINE
  8
1
  6
CONTINUOUS
 62
     7
 10
95.91922920030001
 20
63.11175816570014
 11
95.91922920030001
 21
40.71133690989992
  0
LINE
  8
1
  6
CONTINUOUS
 62
     7
 10
80.10322920030006
 20
40.71133691119999
 11
80.10322920030006
 21
63.11175816440007
  0
LINE
  8
1
  6
CONTINUOUS
 62
     7
 10
74.14522920030005
 20
63.11175816570014
 11
74.14522920030005
 21
40.71133690989992
  0
LINE
  8
1
  6
CONTINUOUS
 62
     7
 10
69.21622920030009
 20
40.71133691119999
 11
69.21622920030009
 21
63.11175816440007
  0
LINE
  8
1
  6
CONTINUOUS
 62
     7
 10
63.25822920030006
 20
63.11175816570014
 11
63.25822920030006
 21
40.71133690989992
  0
LINE
  8
1
  6
CONTINUOUS
 62
     7
 10
65.58722920030009
 20
40.71133691119999
 11
65.58722920030009
 21
63.11175816440007
  0
LINE
  8
1
  6
CONTINUOUS
 62
     7
 10
59.62922920030007
 20
63.11175816570014
 11
59.62922920030007
 21
40.71133690989992
  0
LINE
  8
1
  6
CONTINUOUS
 62
     7
 10
77.77422920030004
 20
63.11175816570014
 11
77.77422920030004
 21
40.71133690989992
  0
LINE
  8
1
  6
CONTINUOUS
 62
     7
 10
61.95822920029999
 20
40.71133691119999
 11
61.95822920029999
 21
63.11175816440007
  0
LINE
  8
1
  6
CONTINUOUS
 62
     7
 10
83.73222920060954
 20
40.71133691119999
 11
83.73222920030005
 21
63.11175816440007
  0
LINE
  8
1
  6
CONTINUOUS
 62
     7
 10
81.40322920030003
 20
63.11175816570014
 11
81.40322920030003
 21
40.71133690989992
  0
LINE
  8
1
  6
CONTINUOUS
 62
     7
 10
76.47422920030007
 20
40.71133691119999
 11
76.47422920030007
 21
63.11175816440007
  0
LINE
  8
1
  6
CONTINUOUS
 62
     7
 10
66.88722920030006
 20
63.11175816570014
 11
66.88722920030006
 21
40.71133690989992
  0
LINE
  8
1
  6
CONTINUOUS
 62
     7
 10
90.99022920112708
 20
40.71133691119999
 11
90.99022920030005
 21
63.11175816440007
  0
LINE
  8
1
  6
CONTINUOUS
 62
     7
 10
70.51622920030005
 20
63.11175816570014
 11
70.51622920030005
 21
40.71133690989992
  0
LINE
  8
1
  6
CONTINUOUS
 62
     7
 10
85.03222920030014
 20
63.11175816570014
 11
85.03222920030014
 21
40.71133690989992
  0
LINE
  8
1
  6
CONTINUOUS
 62
     7
 10
72.84522920030008
 20
40.71133691119999
 11
72.84522920030008
 21
63.11175816440007
  0
LINE
  8
1
  6
CONTINUOUS
 62
     7
 10
52.37122920029997
 20
63.11175816570014
 11
52.37122920029997
 21
40.71133690989992
  0
LINE
  8
1
  6
CONTINUOUS
 62
     7
 10
51.07122920030012
 20
40.71133691119999
 11
51.07122920030012
 21
63.11175816440007
  0
LINE
  8
1
  6
CONTINUOUS
 62
     7
 10
54.70022920030011
 20
40.71133691119999
 11
54.70022920030011
 21
63.11175816440007
  0
LINE
  8
1
  6
CONTINUOUS
 62
     7
 10
139.9193947870001
 20
63.4115475378001
 11
141.3320636128
 21
63.4115475378001
  0
LINE
  8
1
  6
CONTINUOUS
 62
     7
 10
137.7030636129001
 20
63.4115475378001
 11
136.290394787
 21
63.4115475378001
  0
LINE
  8
1
  6
CONTINUOUS
 62
     7
 10
98.28811538519079
 20
62.95564635412709
 11
98.4103397140001
 21
61.55861588330003
  0
LINE
  8
1
  6
CONTINUOUS
 62
     7
 10
47.44222920000004
 20
40.71133691119999
 11
47.44222920000004
 21
63.11175816440007
  0
LINE
  8
1
  6
CONTINUOUS
 62
     7
 10
96.3713947871001
 20
63.4115475378001
 11
97.79006361280003
 21
63.4115475378001
  0
LINE
  8
1
  6
CONTINUOUS
 62
     7
 10
139.4612292003002
 20
63.11175816570014
 11
139.4612292003002
 21
40.71133690989992
  0
LINE
  8
1
  6
CONTINUOUS
 62
     7
 10
48.74222920029998
 20
63.11175816570014
 11
48.74222920029998
 21
40.71133690989992
  0
LINE
  8
1
  6
CONTINUOUS
 62
     7
 10
58.32922920030011
 20
40.71133691119999
 11
58.32922920030011
 21
63.11175816440007
  0
LINE
  8
1
  6
CONTINUOUS
 62
     7
 10
56.00022920030008
 20
63.11175816570014
 11
56.00022920030008
 21
40.71133690989992
  0
LINE
  8
1
  6
CONTINUOUS
 62
     7
 10
138.1612292006096
 20
40.71133691119999
 11
138.1612292003002
 21
63.11175816440007
  0
LINE
  8
1
  6
CONTINUOUS
 62
     7
 10
-120.0654052149999
 20
40.58646660850007
 11
-120.0654052149999
 21
63.23662846709998
  0
LINE
  8
1
  6
CONTINUOUS
 62
     7
 10
153.9772292003001
 20
63.11175816570014
 11
153.9772292003001
 21
40.71133690989992
  0
LINE
  8
1
  6
CONTINUOUS
 62
     7
 10
156.3062292003
 20
40.71133691119999
 11
156.3062292003
 21
63.11175816440007
  0
LINE
  8
1
  6
CONTINUOUS
 62
     7
 10
150.3482292003
 20
63.11175816570014
 11
150.3482292003
 21
40.71133690989992
  0
LINE
  8
1
  6
CONTINUOUS
 62
     7
 10
-112.2157707985999
 20
63.11175816570014
 11
-112.2157707985999
 21
40.71133690989992
  0
LINE
  8
1
  6
CONTINUOUS
 62
     7
 10
146.7192292003
 20
63.11175816570014
 11
146.7192292003
 21
40.71133690989992
  0
LINE
  8
1
  6
CONTINUOUS
 62
     7
 10
149.0482292003001
 20
40.71133691119999
 11
149.0482292003001
 21
63.11175816440007
  0
LINE
  8
1
  6
CONTINUOUS
 62
     7
 10
-108.5867707986
 20
63.11175816570014
 11
-108.5867707986
 21
40.71133690989992
  0
LINE
  8
1
  6
CONTINUOUS
 62
     7
 10
143.0902292005158
 20
63.11175816570014
 11
143.0902292000842
 21
40.71133690989992
  0
LINE
  8
1
  6
CONTINUOUS
 62
     7
 10
-118.1737707985999
 20
40.71133691119999
 11
-118.1737707985999
 21
63.11175816440007
  0
LINE
  8
1
  6
CONTINUOUS
 62
     7
 10
152.6772292003001
 20
40.71133691119999
 11
152.6772292003001
 21
63.11175816440007
  0
LINE
  8
1
  6
CONTINUOUS
 62
     7
 10
-114.5447707985999
 20
40.71133691119999
 11
-114.5447707985999
 21
63.11175816440007
  0
LINE
  8
1
  6
CONTINUOUS
 62
     7
 10
161.8268636166
 20
40.58646660850007
 11
161.8268636166
 21
63.23662846709998
  0
LINE
  8
1
  6
CONTINUOUS
 62
     7
 10
157.6062292003001
 20
63.11175816570014
 11
157.6062292003001
 21
40.71133690989992
  0
LINE
  8
1
  6
CONTINUOUS
 62
     7
 10
-107.2867707986
 20
40.71133691119999
 11
-107.2867707986
 21
63.11175816440007
  0
LINE
  8
1
  6
CONTINUOUS
 62
     7
 10
159.9352292003
 20
40.71133691119999
 11
159.9352292003
 21
63.11175816440007
  0
LINE
  8
1
  6
CONTINUOUS
 62
     7
 10
-115.8447707986
 20
63.11175816570014
 11
-115.8447707986
 21
40.71133690989992
  0
LINE
  8
1
  6
CONTINUOUS
 62
     7
 10
-110.9157707986
 20
40.71133691119999
 11
-110.9157707986
 21
63.11175816440007
  0
LINE
  8
1
  6
CONTINUOUS
 62
     7
 10
145.4192292003
 20
40.71133691119999
 11
145.4192292003
 21
63.11175816440007
  0
LINE
  8
1
  6
CONTINUOUS
 62
     7
 10
141.7902292011271
 20
40.71133691119999
 11
141.7902292003
 21
63.11175816440007
  0
LINE
  8
1
  6
CONTINUOUS
 62
     7
 10
132.2032292003
 20
63.11175816570014
 11
132.2032292003
 21
40.71133690989992
  0
LINE
  8
1
  6
CONTINUOUS
 62
     7
 10
134.5322292006095
 20
40.71133691119999
 11
134.5322292003001
 21
63.11175816440007
  0
LINE
  8
1
  6
CONTINUOUS
 62
     7
 10
135.8322292003001
 20
63.11175816570014
 11
135.8322292003001
 21
40.71133690989992
  0
LINE
  8
1
  6
CONTINUOUS
 62
     7
 10
128.5742292003
 20
63.11175816570014
 11
128.5742292003
 21
40.71133690989992
  0
LINE
  8
1
  6
CONTINUOUS
 62
     7
 10
130.9032292003001
 20
40.71133691119999
 11
130.9032292003001
 21
63.11175816440007
  0
LINE
  8
1
  6
CONTINUOUS
 62
     7
 10
124.9452292003
 20
63.11175816570014
 11
124.9452292003
 21
40.71133690989992
  0
LINE
  8
1
  6
CONTINUOUS
 62
     7
 10
127.2742292003001
 20
40.71133691119999
 11
127.2742292003001
 21
63.11175816440007
  0
LINE
  8
1
  6
CONTINUOUS
 62
     7
 10
121.3162292003
 20
63.11175816570014
 11
121.3162292003
 21
40.71133690989992
  0
LINE
  8
1
  6
CONTINUOUS
 62
     7
 10
123.6452292003001
 20
40.71133691119999
 11
123.6452292003001
 21
63.11175816440007
  0
LINE
  8
1
  6
CONTINUOUS
 62
     7
 10
116.3872292003001
 20
40.71133691119999
 11
116.3872292003001
 21
63.11175816440007
  0
LINE
  8
1
  6
CONTINUOUS
 62
     7
 10
109.1292292003001
 20
40.71133691119999
 11
109.1292292003001
 21
63.11175816440007
  0
LINE
  8
1
  6
CONTINUOUS
 62
     7
 10
110.4292292003001
 20
63.11175816570014
 11
110.4292292003001
 21
40.71133690989992
  0
LINE
  8
1
  6
CONTINUOUS
 62
     7
 10
103.1712292003
 20
63.11175816570014
 11
103.1712292003
 21
40.71133690989992
  0
LINE
  8
1
  6
CONTINUOUS
 62
     7
 10
105.5002292003001
 20
40.71133691119999
 11
105.5002292003001
 21
63.11175816440007
  0
LINE
  8
1
  6
CONTINUOUS
 62
     7
 10
99.54222920029999
 20
63.11175816570014
 11
99.54222920029999
 21
40.71133690989992
  0
LINE
  8
1
  6
CONTINUOUS
 62
     7
 10
117.6872292003001
 20
63.11175816570014
 11
117.6872292003001
 21
40.71133690989992
  0
LINE
  8
1
  6
CONTINUOUS
 62
     7
 10
101.8712292003001
 20
40.71133691119999
 11
101.8712292003001
 21
63.11175816440007
  0
LINE
  8
1
  6
CONTINUOUS
 62
     7
 10
106.8002292003001
 20
63.11175816570014
 11
106.8002292003001
 21
40.71133690989992
  0
LINE
  8
1
  6
CONTINUOUS
 62
     7
 10
-12.48060521299989
 20
40.41154753779996
 11
-11.06793638719995
 21
40.41154753779996
  0
LINE
  8
1
  6
CONTINUOUS
 62
     7
 10
-14.69693638709992
 20
40.41154753779996
 11
-16.10960521299999
 21
40.41154753779996
  0
LINE
  8
1
  6
CONTINUOUS
 62
     7
 10
-63.28060521299989
 20
40.41154753779996
 11
-61.86793638719995
 21
40.41154753779996
  0
LINE
  8
1
  6
CONTINUOUS
 62
     7
 10
-65.49693638709991
 20
40.41154753779996
 11
-66.90960521299999
 21
40.41154753779996
  0
LINE
  8
1
  6
CONTINUOUS
 62
     7
 10
120.0162292003001
 20
40.71133691119999
 11
120.0162292003001
 21
63.11175816440007
  0
LINE
  8
1
  6
CONTINUOUS
 62
     7
 10
114.0582292003001
 20
63.11175816570014
 11
114.0582292003001
 21
40.71133690989992
  0
LINE
  8
1
  6
CONTINUOUS
 62
     7
 10
112.7582292003
 20
40.71133691119999
 11
112.7582292003
 21
63.11175816440007
  0
ARC
  8
1
  6
CONTINUOUS
 62
     7
 10
141.3320636129002
 20
62.91154753820005
 40
0.4999999999999498
 50
4.999999999999773
 51
90.00000001147538
  0
ARC
  8
1
  6
CONTINUOUS
 62
     7
 10
90.53206361290019
 20
62.91154753820005
 40
0.4999999999999498
 50
4.999999999999773
 51
90.00000001147538
  0
ARC
  8
1
  6
CONTINUOUS
 62
     7
 10
-11.06793638709981
 20
40.9115475374
 40
0.4999999999999449
 50
269.9999999885246
 51
355.0000000000002
  0
ARC
  8
1
  6
CONTINUOUS
 62
     7
 10
-61.86793638709981
 20
40.9115475374
 40
0.4999999999999449
 50
269.9999999885246
 51
355.0000000000002
  0
LINE
  8
1
  6
CONTINUOUS
 62
     7
 10
38.31939478700011
 20
40.41154753779996
 11
39.73206361280005
 21
40.41154753779996
  0
LINE
  8
1
  6
CONTINUOUS
 62
     7
 10
36.10306361290008
 20
40.41154753779996
 11
34.690394787
 21
40.41154753779996
  0
LINE
  8
1
  6
CONTINUOUS
 62
     7
 10
86.90306361290008
 20
40.41154753779996
 11
85.490394787
 21
40.41154753779996
  0
LINE
  8
1
  6
CONTINUOUS
 62
     7
 10
96.3713947871001
 20
40.41154753779996
 11
97.79006361280003
 21
40.41154753779996
  0
ARC
  8
1
  6
CONTINUOUS
 62
     7
 10
-61.86793638709981
 20
62.91154753820005
 40
0.4999999999999429
 50
4.999999999999845
 51
90.00000001147538
  0
LINE
  8
1
  6
CONTINUOUS
 62
     7
 10
89.1193947870001
 20
40.41154753779996
 11
90.53206361280004
 21
40.41154753779996
  0
LINE
  8
1
  6
CONTINUOUS
 62
     7
 10
139.9193947870001
 20
40.41154753779996
 11
141.3320636128
 21
40.41154753779996
  0
LINE
  8
1
  6
CONTINUOUS
 62
     7
 10
98.28811538519079
 20
40.86744872147296
 11
98.4103397140001
 21
42.26447919230003
  0
LINE
  8
1
  6
CONTINUOUS
 62
     7
 10
137.7030636129001
 20
40.41154753779996
 11
136.290394787
 21
40.41154753779996
  0
ARC
  8
1
  6
CONTINUOUS
 62
     7
 10
-11.06793638709981
 20
62.91154753820005
 40
0.4999999999999446
 50
4.999999999999845
 51
90.00000001147542
  0
ARC
  8
1
  6
CONTINUOUS
 62
     7
 10
39.73206361290018
 20
62.91154753820005
 40
0.4999999999999429
 50
4.999999999999845
 51
90.00000001147538
  0
ARC
  8
1
  6
CONTINUOUS
 62
     7
 10
97.79006361280003
 20
62.91154753970007
 40
0.4999999999999431
 50
5.000000000100492
 51
90.68751634524278
  0
ARC
  8
1
  6
CONTINUOUS
 62
     7
 10
90.53206361290019
 20
40.9115475374
 40
0.4999999999999449
 50
269.9999999885246
 51
355.0000000000002
  0
ARC
  8
1
  6
CONTINUOUS
 62
     7
 10
39.73206361290018
 20
40.9115475374
 40
0.4999999999999449
 50
269.9999999885246
 51
355.0000000000002
  0
ARC
  8
1
  6
CONTINUOUS
 62
     7
 10
97.79006361280003
 20
40.91154753589998
 40
0.4999999999999449
 50
269.3124836547572
 51
354.9999999999003
  0
ARC
  8
1
  6
CONTINUOUS
 62
     7
 10
141.3320636129002
 20
40.9115475374
 40
0.4999999999999449
 50
269.9999999885246
 51
355.0000000000002
  0
LINE
  8
1
  6
CONTINUOUS
 62
     7
 10
-35.97283903799998
 20
40.86796966600004
 11
-35.85066028599994
 21
42.26447919230003
  0
LINE
  8
1
  6
CONTINUOUS
 62
     7
 10
-43.23083903799997
 20
40.86796966600004
 11
-43.10866028599992
 21
42.26447919230003
  0
LINE
  8
1
  6
CONTINUOUS
 62
     7
 10
-25.5839363870999
 20
40.41154753779996
 11
-26.99660521289994
 21
40.41154753779996
  0
LINE
  8
1
  6
CONTINUOUS
 62
     7
 10
-34.75270256199993
 20
40.86796966600004
 11
-34.87488131410001
 21
42.26447919230003
  0
LINE
  8
1
  6
CONTINUOUS
 62
     7
 10
-5.720702561999871
 20
40.86796966600004
 11
-5.842881314099948
 21
42.26447919230003
  0
LINE
  8
1
  6
CONTINUOUS
 62
     7
 10
-10.56983903819987
 20
40.86796966450002
 11
-10.44766028599999
 21
42.26447919230003
  0
LINE
  8
1
  6
CONTINUOUS
 62
     7
 10
-9.349702561899834
 20
40.86796966450002
 11
-9.471881314099942
 21
42.26447919230003
  0
LINE
  8
1
  6
CONTINUOUS
 62
     7
 10
-25.08583903799989
 20
40.86796966600004
 11
-24.96366028599996
 21
42.26447919230003
  0
LINE
  8
1
  6
CONTINUOUS
 62
     7
 10
-6.940839037999926
 20
40.86796966600004
 11
-6.81866028599988
 21
42.26447919230003
  0
LINE
  8
1
  6
CONTINUOUS
 62
     7
 10
-17.82783903799991
 20
40.86796966600004
 11
-17.70566028599997
 21
42.26447919230003
  0
LINE
  8
1
  6
CONTINUOUS
 62
     7
 10
-16.60770256199996
 20
40.86796966600004
 11
-16.72988131409993
 21
42.26447919230003
  0
LINE
  8
1
  6
CONTINUOUS
 62
     7
 10
-7.438936387099928
 20
40.41154753779996
 11
-8.851605212899862
 21
40.41154753779996
  0
LINE
  8
1
  6
CONTINUOUS
 62
     7
 10
-18.32593638710002
 20
40.41154753779996
 11
-19.73860521289996
 21
40.41154753779996
  0
LINE
  8
1
  6
CONTINUOUS
 62
     7
 10
-27.49470256190002
 20
40.86796966450002
 11
-27.61688131409991
 21
42.26447919230003
  0
LINE
  8
1
  6
CONTINUOUS
 62
     7
 10
-64.9988390379998
 20
40.86796966600004
 11
-64.87666028599986
 21
42.26447919230003
  0
LINE
  8
1
  6
CONTINUOUS
 62
     7
 10
-63.77870256199986
 20
40.86796966600004
 11
-63.90088131409982
 21
42.26447919230003
  0
LINE
  8
1
  6
CONTINUOUS
 62
     7
 10
-23.86570256199984
 20
40.86796966600004
 11
-23.98788131409992
 21
42.26447919230003
  0
LINE
  8
1
  6
CONTINUOUS
 62
     7
 10
-31.12370256199993
 20
40.86796966600004
 11
-31.2458813140999
 21
42.26447919230003
  0
LINE
  8
1
  6
CONTINUOUS
 62
     7
 10
-28.71483903819995
 20
40.86796966450002
 11
-28.59266028599995
 21
42.26447919230003
  0
LINE
  8
1
  6
CONTINUOUS
 62
     7
 10
-30.62560521299996
 20
40.41154753779996
 11
-29.21293638719992
 21
40.41154753779996
  0
LINE
  8
1
  6
CONTINUOUS
 62
     7
 10
-32.34383903819994
 20
40.86796966450002
 11
-32.22166028599995
 21
42.26447919230003
  0
LINE
  8
1
  6
CONTINUOUS
 62
     7
 10
-23.36760521299987
 20
40.41154753779996
 11
-21.95493638719993
 21
40.41154753779996
  0
LINE
  8
1
  6
CONTINUOUS
 62
     7
 10
-21.45683903819996
 20
40.86796966450002
 11
-21.33466028599985
 21
42.26447919230003
  0
LINE
  8
1
  6
CONTINUOUS
 62
     7
 10
-34.25460521299996
 20
40.41154753779996
 11
-32.84193638720002
 21
40.41154753779996
  0
LINE
  8
1
  6
CONTINUOUS
 62
     7
 10
-38.38170256189989
 20
40.86796966450002
 11
-38.5038813141
 21
42.26447919230003
  0
LINE
  8
1
  6
CONTINUOUS
 62
     7
 10
-36.47093638709998
 20
40.41154753779996
 11
-37.88360521289992
 21
40.41154753779996
  0
LINE
  8
1
  6
CONTINUOUS
 62
     7
 10
-39.60183903819993
 20
40.86796966450002
 11
-39.47966028600004
 21
42.26447919230003
  0
LINE
  8
1
  6
CONTINUOUS
 62
     7
 10
-41.51260521299994
 20
40.41154753779996
 11
-40.0999363871999
 21
40.41154753779996
  0
LINE
  8
1
  6
CONTINUOUS
 62
     7
 10
-20.23670256189993
 20
40.86796966450002
 11
-20.35888131409992
 21
42.26447919230003
  0
LINE
  8
1
  6
CONTINUOUS
 62
     7
 10
-42.01070256200003
 20
40.86796966600004
 11
-42.13288131409988
 21
42.26447919230003
  0
LINE
  8
1
  6
CONTINUOUS
 62
     7
 10
76.0160636129001
 20
40.41154753779996
 11
74.60339478710006
 21
40.41154753779996
  0
LINE
  8
1
  6
CONTINUOUS
 62
     7
 10
67.34539478700003
 20
40.41154753779996
 11
68.75806361279997
 21
40.41154753779996
  0
LINE
  8
1
  6
CONTINUOUS
 62
     7
 10
65.12906361290001
 20
40.41154753779996
 11
63.71639478710007
 21
40.41154753779996
  0
LINE
  8
1
  6
CONTINUOUS
 62
     7
 10
84.99229743800004
 20
40.86796966600004
 11
84.87011868590007
 21
42.26447919230003
  0
LINE
  8
1
  6
CONTINUOUS
 62
     7
 10
57.87106361290013
 20
40.41154753779996
 11
56.45839478709998
 21
40.41154753779996
  0
LINE
  8
1
  6
CONTINUOUS
 62
     7
 10
81.36329743810008
 20
40.86796966450002
 11
81.24111868590008
 21
42.26447919230003
  0
LINE
  8
1
  6
CONTINUOUS
 62
     7
 10
70.97439478700002
 20
40.41154753779996
 11
72.38706361280008
 21
40.41154753779996
  0
LINE
  8
1
  6
CONTINUOUS
 62
     7
 10
52.82939478700006
 20
40.41154753779996
 11
54.2420636128
 21
40.41154753779996
  0
LINE
  8
1
  6
CONTINUOUS
 62
     7
 10
139.4212974380001
 20
40.86796966600004
 11
139.2991186859002
 21
42.26447919230003
  0
LINE
  8
1
  6
CONTINUOUS
 62
     7
 10
94.16106361290007
 20
40.41154753779996
 11
92.74839478710012
 21
40.41154753779996
  0
LINE
  8
1
  6
CONTINUOUS
 62
     7
 10
77.73429743800016
 20
40.86796966600004
 11
77.61211868590009
 21
42.26447919230003
  0
LINE
  8
1
  6
CONTINUOUS
 62
     7
 10
51.11116096180009
 20
40.86796966450002
 11
51.23333971400008
 21
42.26447919230003
  0
LINE
  8
1
  6
CONTINUOUS
 62
     7
 10
52.33129743800009
 20
40.86796966600004
 11
52.20911868590012
 21
42.26447919230003
  0
LINE
  8
1
  6
CONTINUOUS
 62
     7
 10
58.36916096200002
 20
40.86796966600004
 11
58.49133971400007
 21
42.26447919230003
  0
LINE
  8
1
  6
CONTINUOUS
 62
     7
 10
46.98406361290004
 20
40.41154753779996
 11
45.57139478710011
 21
40.41154753779996
  0
LINE
  8
1
  6
CONTINUOUS
 62
     7
 10
66.84729743800007
 20
40.86796966600004
 11
66.72511868589999
 21
42.26447919230003
  0
LINE
  8
1
  6
CONTINUOUS
 62
     7
 10
-112.6739363853999
 20
40.41154753779996
 11
-114.0866052111999
 21
40.41154753779996
  0
LINE
  8
1
  6
CONTINUOUS
 62
     7
 10
59.58929743799997
 20
40.86796966600004
 11
59.46711868590011
 21
42.26447919230003
  0
LINE
  8
1
  6
CONTINUOUS
 62
     7
 10
138.2011609620002
 20
40.86796966600004
 11
138.3233397140001
 21
42.26447919230003
  0
LINE
  8
1
  6
CONTINUOUS
 62
     7
 10
48.7022974380001
 20
40.86796966600004
 11
48.58011868590002
 21
42.26447919230003
  0
LINE
  8
1
  6
CONTINUOUS
 62
     7
 10
80.14316096180004
 20
40.86796966450002
 11
80.26533971400013
 21
42.26447919230003
  0
LINE
  8
1
  6
CONTINUOUS
 62
     7
 10
78.23239478700013
 20
40.41154753779996
 11
79.64506361280006
 21
40.41154753779996
  0
LINE
  8
1
  6
CONTINUOUS
 62
     7
 10
76.5141609620001
 20
40.86796966600004
 11
76.63633971400003
 21
42.26447919230003
  0
LINE
  8
1
  6
CONTINUOUS
 62
     7
 10
61.99816096180007
 20
40.86796966450002
 11
62.12033971399995
 21
42.26447919230003
  0
LINE
  8
1
  6
CONTINUOUS
 62
     7
 10
65.627160962
 20
40.86796966600004
 11
65.74933971400006
 21
42.26447919230003
  0
LINE
  8
1
  6
CONTINUOUS
 62
     7
 10
83.77216096200009
 20
40.86796966600004
 11
83.89433971400003
 21
42.26447919230003
  0
LINE
  8
1
  6
CONTINUOUS
 62
     7
 10
95.87929743800012
 20
40.86796966600004
 11
95.75711868590004
 21
42.26447919230003
  0
LINE
  8
1
  6
CONTINUOUS
 62
     7
 10
94.65916096200007
 20
40.86796966600004
 11
94.78133971400011
 21
42.26447919230003
  0
LINE
  8
1
  6
CONTINUOUS
 62
     7
 10
49.20039478700007
 20
40.41154753779996
 11
50.6130636128
 21
40.41154753779996
  0
LINE
  8
1
  6
CONTINUOUS
 62
     7
 10
47.48216096200004
 20
40.86796966600004
 11
47.60433971400009
 21
42.26447919230003
  0
LINE
  8
1
  6
CONTINUOUS
 62
     7
 10
63.2182974381001
 20
40.86796966450002
 11
63.0961186859
 21
42.26447919230003
  0
LINE
  8
1
  6
CONTINUOUS
 62
     7
 10
-119.8284458606
 20
40.94987042020004
 11
-119.2822733818999
 21
42.39393829649995
  0
LINE
  8
1
  6
CONTINUOUS
 62
     7
 10
74.10529743809997
 20
40.86796966450002
 11
73.98311868590008
 21
42.26447919230003
  0
LINE
  8
1
  6
CONTINUOUS
 62
     7
 10
60.08739478700005
 20
40.41154753779996
 11
61.5000636128001
 21
40.41154753779996
  0
LINE
  8
1
  6
CONTINUOUS
 62
     7
 10
55.96029743810001
 20
40.86796966450002
 11
55.83811868590012
 21
42.26447919230003
  0
LINE
  8
1
  6
CONTINUOUS
 62
     7
 10
54.74016096179997
 20
40.86796966450002
 11
54.86233971400008
 21
42.26447919230003
  0
LINE
  8
1
  6
CONTINUOUS
 62
     7
 10
83.27406361289998
 20
40.41154753779996
 11
81.86139478710004
 21
40.41154753779996
  0
LINE
  8
1
  6
CONTINUOUS
 62
     7
 10
92.25029743810016
 20
40.86796966450002
 11
92.12811868590005
 21
42.26447919230003
  0
LINE
  8
1
  6
CONTINUOUS
 62
     7
 10
91.03016096180012
 20
40.86796966450002
 11
91.15233971400001
 21
42.26447919230003
  0
LINE
  8
1
  6
CONTINUOUS
 62
     7
 10
70.47629743800006
 20
40.86796966600004
 11
70.35411868590009
 21
42.26447919230003
  0
LINE
  8
1
  6
CONTINUOUS
 62
     7
 10
72.88516096180004
 20
40.86796966450002
 11
73.00733971400004
 21
42.26447919230003
  0
LINE
  8
1
  6
CONTINUOUS
 62
     7
 10
69.25616096180005
 20
40.86796966450002
 11
69.37833971400005
 21
42.26447919230003
  0
LINE
  8
1
  6
CONTINUOUS
 62
     7
 10
19.67629743800006
 20
40.86796966600004
 11
19.5541186859001
 21
42.26447919230003
  0
LINE
  8
1
  6
CONTINUOUS
 62
     7
 10
20.17439478700003
 20
40.41154753779996
 11
21.58706361280008
 21
40.41154753779996
  0
LINE
  8
1
  6
CONTINUOUS
 62
     7
 10
45.07929743800013
 20
40.86796966600004
 11
44.95711868590005
 21
42.26447919230003
  0
LINE
  8
1
  6
CONTINUOUS
 62
     7
 10
16.04729743800007
 20
40.86796966600004
 11
15.92511868589999
 21
42.26447919230003
  0
LINE
  8
1
  6
CONTINUOUS
 62
     7
 10
16.54539478700004
 20
40.41154753779996
 11
17.95806361279997
 21
40.41154753779996
  0
LINE
  8
1
  6
CONTINUOUS
 62
     7
 10
14.82716096200001
 20
40.86796966600004
 11
14.94933971400006
 21
42.26447919230003
  0
LINE
  8
1
  6
CONTINUOUS
 62
     7
 10
30.56329743810007
 20
40.86796966450002
 11
30.44111868590008
 21
42.26447919230003
  0
LINE
  8
1
  6
CONTINUOUS
 62
     7
 10
14.32906361290001
 20
40.41154753779996
 11
12.91639478710008
 21
40.41154753779996
  0
LINE
  8
1
  6
CONTINUOUS
 62
     7
 10
9.287394787000053
 20
40.41154753779996
 11
10.7000636128001
 21
40.41154753779996
  0
LINE
  8
1
  6
CONTINUOUS
 62
     7
 10
26.93429743800016
 20
40.86796966600004
 11
26.81211868590008
 21
42.26447919230003
  0
LINE
  8
1
  6
CONTINUOUS
 62
     7
 10
11.19816096180007
 20
40.86796966450002
 11
11.32033971399995
 21
42.26447919230003
  0
LINE
  8
1
  6
CONTINUOUS
 62
     7
 10
25.2160636129001
 20
40.41154753779996
 11
23.80339478710006
 21
40.41154753779996
  0
LINE
  8
1
  6
CONTINUOUS
 62
     7
 10
22.08516096180005
 20
40.86796966450002
 11
22.20733971400005
 21
42.26447919230003
  0
LINE
  8
1
  6
CONTINUOUS
 62
     7
 10
12.41829743810011
 20
40.86796966450002
 11
12.2961186859
 21
42.26447919230003
  0
LINE
  8
1
  6
CONTINUOUS
 62
     7
 10
8.789297437999972
 20
40.86796966600004
 11
8.667118685900116
 21
42.26447919230003
  0
LINE
  8
1
  6
CONTINUOUS
 62
     7
 10
18.45616096180006
 20
40.86796966450002
 11
18.57833971400005
 21
42.26447919230003
  0
LINE
  8
1
  6
CONTINUOUS
 62
     7
 10
7.569160962000026
 20
40.86796966600004
 11
7.691339714000073
 21
42.26447919230003
  0
LINE
  8
1
  6
CONTINUOUS
 62
     7
 10
5.160297438100009
 20
40.86796966450002
 11
5.038118685900122
 21
42.26447919230003
  0
LINE
  8
1
  6
CONTINUOUS
 62
     7
 10
87.40116096200019
 20
40.86796966600004
 11
87.52333971400013
 21
42.26447919230003
  0
LINE
  8
1
  6
CONTINUOUS
 62
     7
 10
43.36106361290007
 20
40.41154753779996
 11
41.94839478710013
 21
40.41154753779996
  0
LINE
  8
1
  6
CONTINUOUS
 62
     7
 10
40.23016096180012
 20
40.86796966450002
 11
40.35233971400001
 21
42.26447919230003
  0
LINE
  8
1
  6
CONTINUOUS
 62
     7
 10
7.071063612900136
 20
40.41154753779996
 11
5.658394787099979
 21
40.41154753779996
  0
LINE
  8
1
  6
CONTINUOUS
 62
     7
 10
32.47406361289998
 20
40.41154753779996
 11
31.06139478710004
 21
40.41154753779996
  0
LINE
  8
1
  6
CONTINUOUS
 62
     7
 10
27.43239478700013
 20
40.41154753779996
 11
28.84506361280006
 21
40.41154753779996
  0
LINE
  8
1
  6
CONTINUOUS
 62
     7
 10
29.34316096180003
 20
40.86796966450002
 11
29.46533971400014
 21
42.26447919230003
  0
LINE
  8
1
  6
CONTINUOUS
 62
     7
 10
25.7141609620001
 20
40.86796966600004
 11
25.83633971400004
 21
42.26447919230003
  0
LINE
  8
1
  6
CONTINUOUS
 62
     7
 10
41.45029743810016
 20
40.86796966450002
 11
41.32811868590006
 21
42.26447919230003
  0
LINE
  8
1
  6
CONTINUOUS
 62
     7
 10
34.19229743800003
 20
40.86796966600004
 11
34.07011868590007
 21
42.26447919230003
  0
LINE
  8
1
  6
CONTINUOUS
 62
     7
 10
88.62129743800014
 20
40.86796966600004
 11
88.49911868590017
 21
42.26447919230003
  0
LINE
  8
1
  6
CONTINUOUS
 62
     7
 10
43.85916096200007
 20
40.86796966600004
 11
43.98133971400011
 21
42.26447919230003
  0
LINE
  8
1
  6
CONTINUOUS
 62
     7
 10
32.97216096200009
 20
40.86796966600004
 11
33.09433971400003
 21
42.26447919230003
  0
LINE
  8
1
  6
CONTINUOUS
 62
     7
 10
23.30529743809997
 20
40.86796966450002
 11
23.18311868590009
 21
42.26447919230003
  0
LINE
  8
1
  6
CONTINUOUS
 62
     7
 10
-71.03670256189992
 20
40.86796966450002
 11
-71.15888131409992
 21
42.26447919230003
  0
LINE
  8
1
  6
CONTINUOUS
 62
     7
 10
-72.25683903819996
 20
40.86796966450002
 11
-72.13466028599986
 21
42.26447919230003
  0
LINE
  8
1
  6
CONTINUOUS
 62
     7
 10
36.60116096200019
 20
40.86796966600004
 11
36.72333971400013
 21
42.26447919230003
  0
LINE
  8
1
  6
CONTINUOUS
 62
     7
 10
37.82129743800014
 20
40.86796966600004
 11
37.69911868590017
 21
42.26447919230003
  0
LINE
  8
1
  6
CONTINUOUS
 62
     7
 10
-1.599605212999927
 20
40.41154753779996
 11
-0.1869363871999934
 21
40.41154753779996
  0
LINE
  8
1
  6
CONTINUOUS
 62
     7
 10
-56.52070256199987
 20
40.86796966600004
 11
-56.64288131409995
 21
42.26447919230003
  0
LINE
  8
1
  6
CONTINUOUS
 62
     7
 10
-69.12593638710001
 20
40.41154753779996
 11
-70.53860521289995
 21
40.41154753779996
  0
LINE
  8
1
  6
CONTINUOUS
 62
     7
 10
-74.16760521299986
 20
40.41154753779996
 11
-72.75493638719993
 21
40.41154753779996
  0
LINE
  8
1
  6
CONTINUOUS
 62
     7
 10
0.3111609618000888
 20
40.86796966450002
 11
0.4333397140000861
 21
42.26447919230003
  0
LINE
  8
1
  6
CONTINUOUS
 62
     7
 10
-74.66570256199984
 20
40.86796966600004
 11
-74.7878813140999
 21
42.26447919230003
  0
LINE
  8
1
  6
CONTINUOUS
 62
     7
 10
-75.88583903799989
 20
40.86796966600004
 11
-75.76366028599996
 21
42.26447919230003
  0
LINE
  8
1
  6
CONTINUOUS
 62
     7
 10
-2.097702561999898
 20
40.86796966600004
 11
-2.219881314099975
 21
42.26447919230003
  0
LINE
  8
1
  6
CONTINUOUS
 62
     7
 10
-78.29470256190002
 20
40.86796966450002
 11
-78.41688131409991
 21
42.26447919230003
  0
LINE
  8
1
  6
CONTINUOUS
 62
     7
 10
3.940160961799971
 20
40.86796966450002
 11
4.062339714000079
 21
42.26447919230003
  0
LINE
  8
1
  6
CONTINUOUS
 62
     7
 10
-57.74083903799993
 20
40.86796966600004
 11
-57.61866028599988
 21
42.26447919230003
  0
LINE
  8
1
  6
CONTINUOUS
 62
     7
 10
-76.3839363870999
 20
40.41154753779996
 11
-77.79660521289993
 21
40.41154753779996
  0
LINE
  8
1
  6
CONTINUOUS
 62
     7
 10
-81.92370256199993
 20
40.86796966600004
 11
-82.0458813140999
 21
42.26447919230003
  0
LINE
  8
1
  6
CONTINUOUS
 62
     7
 10
1.531297438000095
 20
40.86796966600004
 11
1.409118685900129
 21
42.26447919230003
  0
LINE
  8
1
  6
CONTINUOUS
 62
     7
 10
-3.815936387099955
 20
40.41154753779996
 11
-5.22860521289989
 21
40.41154753779996
  0
LINE
  8
1
  6
CONTINUOUS
 62
     7
 10
2.029394787000066
 20
40.41154753779996
 11
3.4420636128
 21
40.41154753779996
  0
LINE
  8
1
  6
CONTINUOUS
 62
     7
 10
-58.23893638709993
 20
40.41154753779996
 11
-59.65160521289986
 21
40.41154753779996
  0
LINE
  8
1
  6
CONTINUOUS
 62
     7
 10
-3.317839037999953
 20
40.86796966600004
 11
-3.195660285999907
 21
42.26447919230003
  0
LINE
  8
1
  6
CONTINUOUS
 62
     7
 10
-61.36983903819987
 20
40.86796966450002
 11
-61.24766028599998
 21
42.26447919230003
  0
LINE
  8
1
  6
CONTINUOUS
 62
     7
 10
-60.14970256189983
 20
40.86796966450002
 11
-60.27188131409994
 21
42.26447919230003
  0
LINE
  8
1
  6
CONTINUOUS
 62
     7
 10
-67.40770256199995
 20
40.86796966600004
 11
-67.52988131409992
 21
42.26447919230003
  0
LINE
  8
1
  6
CONTINUOUS
 62
     7
 10
-68.6278390379999
 20
40.86796966600004
 11
-68.50566028599997
 21
42.26447919230003
  0
LINE
  8
1
  6
CONTINUOUS
 62
     7
 10
-89.18170256189988
 20
40.86796966450002
 11
-89.3038813141
 21
42.26447919230003
  0
LINE
  8
1
  6
CONTINUOUS
 62
     7
 10
-86.77283903799999
 20
40.86796966600004
 11
-86.65066028599993
 21
42.26447919230003
  0
LINE
  8
1
  6
CONTINUOUS
 62
     7
 10
-94.52893638709986
 20
40.41154753779996
 11
-95.94160521290001
 21
40.41154753779996
  0
LINE
  8
1
  6
CONTINUOUS
 62
     7
 10
-81.42560521299995
 20
40.41154753779996
 11
-80.01293638719991
 21
40.41154753779996
  0
LINE
  8
1
  6
CONTINUOUS
 62
     7
 10
-85.55270256199992
 20
40.86796966600004
 11
-85.6748813141
 21
42.26447919230003
  0
LINE
  8
1
  6
CONTINUOUS
 62
     7
 10
-90.40183903819992
 20
40.86796966450002
 11
-90.27966028600004
 21
42.26447919230003
  0
LINE
  8
1
  6
CONTINUOUS
 62
     7
 10
-99.57060521299992
 20
40.41154753779996
 11
-98.1579363872
 21
40.41154753779996
  0
LINE
  8
1
  6
CONTINUOUS
 62
     7
 10
-103.6977025619999
 20
40.86796966600004
 11
-103.8198813141
 21
42.26447919230003
  0
LINE
  8
1
  6
CONTINUOUS
 62
     7
 10
-101.2888390381999
 20
40.86796966450002
 11
-101.1666602859999
 21
42.26447919230003
  0
LINE
  8
1
  6
CONTINUOUS
 62
     7
 10
-79.51483903819995
 20
40.86796966450002
 11
-79.39266028599995
 21
42.26447919230003
  0
LINE
  8
1
  6
CONTINUOUS
 62
     7
 10
-100.0687025619999
 20
40.86796966600004
 11
-100.1908813140999
 21
42.26447919230003
  0
LINE
  8
1
  6
CONTINUOUS
 62
     7
 10
-103.1996052129999
 20
40.41154753779996
 11
-101.7869363872
 21
40.41154753779996
  0
LINE
  8
1
  6
CONTINUOUS
 62
     7
 10
-97.65983903820002
 20
40.86796966450002
 11
-97.53766028599992
 21
42.26447919230003
  0
LINE
  8
1
  6
CONTINUOUS
 62
     7
 10
-83.14383903819994
 20
40.86796966450002
 11
-83.02166028599994
 21
42.26447919230003
  0
LINE
  8
1
  6
CONTINUOUS
 62
     7
 10
-92.81070256200002
 20
40.86796966600004
 11
-92.93288131409987
 21
42.26447919230003
  0
LINE
  8
1
  6
CONTINUOUS
 62
     7
 10
-87.27093638709998
 20
40.41154753779996
 11
-88.68360521289992
 21
40.41154753779996
  0
LINE
  8
1
  6
CONTINUOUS
 62
     7
 10
-96.43970256189999
 20
40.86796966450002
 11
-96.56188131409988
 21
42.26447919230003
  0
LINE
  8
1
  6
CONTINUOUS
 62
     7
 10
-92.31260521299994
 20
40.41154753779996
 11
-90.8999363871999
 21
40.41154753779996
  0
LINE
  8
1
  6
CONTINUOUS
 62
     7
 10
-105.4159363870999
 20
40.41154753779996
 11
-106.8286052128999
 21
40.41154753779996
  0
LINE
  8
1
  6
CONTINUOUS
 62
     7
 10
-94.03083903799997
 20
40.86796966600004
 11
-93.90866028599991
 21
42.26447919230003
  0
LINE
  8
1
  6
CONTINUOUS
 62
     7
 10
-85.05460521299996
 20
40.41154753779996
 11
-83.64193638720002
 21
40.41154753779996
  0
LINE
  8
1
  6
CONTINUOUS
 62
     7
 10
-104.917839038
 20
40.86796966600004
 11
-104.7956602859999
 21
42.26447919230003
  0
LINE
  8
1
  6
CONTINUOUS
 62
     7
 10
145.4591609620001
 20
62.95512540960002
 11
145.5813397140001
 21
61.55861588330003
  0
LINE
  8
1
  6
CONTINUOUS
 62
     7
 10
147.1773947870001
 20
63.4115475378001
 11
148.5900636128
 21
63.4115475378001
  0
LINE
  8
1
  6
CONTINUOUS
 62
     7
 10
150.3082974381
 20
62.95512541110004
 11
150.1861186859
 21
61.55861588330003
  0
LINE
  8
1
  6
CONTINUOUS
 62
     7
 10
134.5721609620001
 20
62.95512540960002
 11
134.694339714
 21
61.55861588330003
  0
LINE
  8
1
  6
CONTINUOUS
 62
     7
 10
-43.72893638709986
 20
40.41154753779996
 11
-45.14160521290002
 21
40.41154753779996
  0
LINE
  8
1
  6
CONTINUOUS
 62
     7
 10
-52.39960521299992
 20
40.41154753779996
 11
-50.98693638719999
 21
40.41154753779996
  0
LINE
  8
1
  6
CONTINUOUS
 62
     7
 10
149.0881609618
 20
62.95512541110004
 11
149.2103397140001
 21
61.55861588330003
  0
LINE
  8
1
  6
CONTINUOUS
 62
     7
 10
144.9610636129001
 20
63.4115475378001
 11
143.5483947871001
 21
63.4115475378001
  0
LINE
  8
1
  6
CONTINUOUS
 62
     7
 10
-54.11783903799995
 20
40.86796966600004
 11
-53.9956602859999
 21
42.26447919230003
  0
LINE
  8
1
  6
CONTINUOUS
 62
     7
 10
141.8301609618001
 20
62.95512541110004
 11
141.952339714
 21
61.55861588330003
  0
LINE
  8
1
  6
CONTINUOUS
 62
     7
 10
-50.48883903819991
 20
40.86796966450002
 11
-50.36666028599991
 21
42.26447919230003
  0
LINE
  8
1
  6
CONTINUOUS
 62
     7
 10
-52.89770256199989
 20
40.86796966600004
 11
-53.01988131409997
 21
42.26447919230003
  0
LINE
  8
1
  6
CONTINUOUS
 62
     7
 10
-14.1988390379998
 20
40.86796966600004
 11
-14.07666028599987
 21
42.26447919230003
  0
LINE
  8
1
  6
CONTINUOUS
 62
     7
 10
-46.85983903820003
 20
40.86796966450002
 11
-46.73766028599992
 21
42.26447919230003
  0
LINE
  8
1
  6
CONTINUOUS
 62
     7
 10
-54.61593638709995
 20
40.41154753779996
 11
-56.02860521289988
 21
40.41154753779996
  0
LINE
  8
1
  6
CONTINUOUS
 62
     7
 10
135.792297438
 20
62.95512540960002
 11
135.6701186859001
 21
61.55861588330003
  0
LINE
  8
1
  6
CONTINUOUS
 62
     7
 10
-12.97870256199986
 20
40.86796966600004
 11
-13.10088131409982
 21
42.26447919230003
  0
LINE
  8
1
  6
CONTINUOUS
 62
     7
 10
152.2190636129002
 20
63.4115475378001
 11
150.8063947871
 21
63.4115475378001
  0
LINE
  8
1
  6
CONTINUOUS
 62
     7
 10
146.6792974380001
 20
62.95512540960002
 11
146.5571186859
 21
61.55861588330003
  0
LINE
  8
1
  6
CONTINUOUS
 62
     7
 10
132.1632974381001
 20
62.95512541110004
 11
132.0411186859001
 21
61.55861588330003
  0
LINE
  8
1
  6
CONTINUOUS
 62
     7
 10
143.0502974381002
 20
62.95512541110004
 11
142.9281186859
 21
61.55861588330003
  0
LINE
  8
1
  6
CONTINUOUS
 62
     7
 10
-49.2687025619999
 20
40.86796966600004
 11
-49.39088131409986
 21
42.26447919230003
  0
LINE
  8
1
  6
CONTINUOUS
 62
     7
 10
-48.77060521299993
 20
40.41154753779996
 11
-47.3579363872
 21
40.41154753779996
  0
LINE
  8
1
  6
CONTINUOUS
 62
     7
 10
152.717160962
 20
62.95512540960002
 11
152.8393397140001
 21
61.55861588330003
  0
LINE
  8
1
  6
CONTINUOUS
 62
     7
 10
-45.63970256189999
 20
40.86796966450002
 11
-45.76188131409987
 21
42.26447919230003
  0
LINE
  8
1
  6
CONTINUOUS
 62
     7
 10
134.0740636129
 20
63.4115475378001
 11
132.6613947871001
 21
63.4115475378001
  0
LINE
  8
1
  6
CONTINUOUS
 62
     7
 10
157.566297438
 20
62.95512540960002
 11
157.4441186859
 21
61.55861588330003
  0
LINE
  8
1
  6
CONTINUOUS
 62
     7
 10
101.9111609618001
 20
62.95512541110004
 11
102.0333397140001
 21
61.55861588330003
  0
LINE
  8
1
  6
CONTINUOUS
 62
     7
 10
127.3141609620001
 20
62.95512540960002
 11
127.436339714
 21
61.55861588330003
  0
LINE
  8
1
  6
CONTINUOUS
 62
     7
 10
120.0561609618
 20
62.95512541110004
 11
120.178339714
 21
61.55861588330003
  0
LINE
  8
1
  6
CONTINUOUS
 62
     7
 10
114.0182974381001
 20
62.95512541110004
 11
113.8961186859
 21
61.55861588330003
  0
LINE
  8
1
  6
CONTINUOUS
 62
     7
 10
99.5022974380001
 20
62.95512540960002
 11
99.38011868590002
 21
61.55861588330003
  0
LINE
  8
1
  6
CONTINUOUS
 62
     7
 10
124.9052974381
 20
62.95512541110004
 11
124.7831186859001
 21
61.55861588330003
  0
LINE
  8
1
  6
CONTINUOUS
 62
     7
 10
105.5401609618
 20
62.95512541110004
 11
105.6623397140001
 21
61.55861588330003
  0
LINE
  8
1
  6
CONTINUOUS
 62
     7
 10
112.7981609618001
 20
62.95512541110004
 11
112.920339714
 21
61.55861588330003
  0
LINE
  8
1
  6
CONTINUOUS
 62
     7
 10
108.6710636129001
 20
63.4115475378001
 11
107.2583947871
 21
63.4115475378001
  0
LINE
  8
1
  6
CONTINUOUS
 62
     7
 10
121.774394787
 20
63.4115475378001
 11
123.1870636128001
 21
63.4115475378001
  0
LINE
  8
1
  6
CONTINUOUS
 62
     7
 10
115.9290636129
 20
63.4115475378001
 11
114.5163947871001
 21
63.4115475378001
  0
LINE
  8
1
  6
CONTINUOUS
 62
     7
 10
103.6293947870001
 20
63.4115475378001
 11
105.0420636128
 21
63.4115475378001
  0
LINE
  8
1
  6
CONTINUOUS
 62
     7
 10
110.389297438
 20
62.95512540960002
 11
110.2671186859001
 21
61.55861588330003
  0
LINE
  8
1
  6
CONTINUOUS
 62
     7
 10
123.6851609618
 20
62.95512541110004
 11
123.807339714
 21
61.55861588330003
  0
LINE
  8
1
  6
CONTINUOUS
 62
     7
 10
130.9431609618
 20
62.95512541110004
 11
131.0653397140001
 21
61.55861588330003
  0
LINE
  8
1
  6
CONTINUOUS
 62
     7
 10
106.7602974381
 20
62.95512541110004
 11
106.6381186859001
 21
61.55861588330003
  0
LINE
  8
1
  6
CONTINUOUS
 62
     7
 10
110.887394787
 20
63.4115475378001
 11
112.3000636128001
 21
63.4115475378001
  0
LINE
  8
1
  6
CONTINUOUS
 62
     7
 10
126.8160636129001
 20
63.4115475378001
 11
125.4033947871001
 21
63.4115475378001
  0
LINE
  8
1
  6
CONTINUOUS
 62
     7
 10
100.0003947870001
 20
63.4115475378001
 11
101.4130636128
 21
63.4115475378001
  0
LINE
  8
1
  6
CONTINUOUS
 62
     7
 10
128.5342974380002
 20
62.95512540960002
 11
128.4121186859001
 21
61.55861588330003
  0
LINE
  8
1
  6
CONTINUOUS
 62
     7
 10
121.2762974380001
 20
62.95512540960002
 11
121.1541186859001
 21
61.55861588330003
  0
LINE
  8
1
  6
CONTINUOUS
 62
     7
 10
109.169160962
 20
62.95512540960002
 11
109.2913397140001
 21
61.55861588330003
  0
LINE
  8
1
  6
CONTINUOUS
 62
     7
 10
117.6472974380001
 20
62.95512540960002
 11
117.5251186859
 21
61.55861588330003
  0
LINE
  8
1
  6
CONTINUOUS
 62
     7
 10
103.1312974380001
 20
62.95512540960002
 11
103.0091186859001
 21
61.55861588330003
  0
LINE
  8
1
  6
CONTINUOUS
 62
     7
 10
118.145394787
 20
63.4115475378001
 11
119.5580636128
 21
63.4115475378001
  0
LINE
  8
1
  6
CONTINUOUS
 62
     7
 10
129.0323947870001
 20
63.4115475378001
 11
130.4450636128001
 21
63.4115475378001
  0
LINE
  8
1
  6
CONTINUOUS
 62
     7
 10
116.427160962
 20
62.95512540960002
 11
116.5493397140001
 21
61.55861588330003
  0
LINE
  8
1
  6
CONTINUOUS
 62
     7
 10
162.3837292015001
 20
63.51154753779997
 11
193.3837292015002
 21
63.91154753780004
  0
LINE
  8
1
  6
CONTINUOUS
 62
     7
 10
-114.5847025602
 20
62.95512541110004
 11
-114.7068813124
 21
61.55861588330003
  0
LINE
  8
1
  6
CONTINUOUS
 62
     7
 10
-112.6739363853999
 20
63.4115475378001
 11
-114.0866052111999
 21
63.4115475378001
  0
LINE
  8
1
  6
CONTINUOUS
 62
     7
 10
-118.2137025601999
 20
62.95512541110004
 11
-118.3358813124
 21
61.55861588330003
  0
LINE
  8
1
  6
CONTINUOUS
 62
     7
 10
84.99229743800004
 20
62.95512540960002
 11
84.87011868590007
 21
61.55861588330003
  0
LINE
  8
1
  6
CONTINUOUS
 62
     7
 10
76.5141609620001
 20
62.95512540960002
 11
76.63633971400003
 21
61.55861588330003
  0
LINE
  8
1
  6
CONTINUOUS
 62
     7
 10
158.064394787
 20
63.4115475378001
 11
159.4770636128001
 21
63.4115475378001
  0
LINE
  8
1
  6
CONTINUOUS
 62
     7
 10
76.0160636129001
 20
63.4115475378001
 11
74.60339478710006
 21
63.4115475378001
  0
LINE
  8
1
  6
CONTINUOUS
 62
     7
 10
70.47629743800006
 20
62.95512540960002
 11
70.35411868590009
 21
61.55861588330003
  0
LINE
  8
1
  6
CONTINUOUS
 62
     7
 10
72.88516096180004
 20
62.95512541110004
 11
73.00733971400004
 21
61.55861588330003
  0
LINE
  8
1
  6
CONTINUOUS
 62
     7
 10
153.937297438
 20
62.95512540960002
 11
153.8151186859001
 21
61.55861588330003
  0
LINE
  8
1
  6
CONTINUOUS
 62
     7
 10
77.73429743800016
 20
62.95512540960002
 11
77.61211868590009
 21
61.55861588330003
  0
LINE
  8
1
  6
CONTINUOUS
 62
     7
 10
83.77216096200009
 20
62.95512540960002
 11
83.89433971400003
 21
61.55861588330003
  0
LINE
  8
1
  6
CONTINUOUS
 62
     7
 10
-110.4576052112999
 20
63.4115475378001
 11
-109.0449363854999
 21
63.4115475378001
  0
LINE
  8
1
  6
CONTINUOUS
 62
     7
 10
-112.1758390362998
 20
62.95512540960002
 11
-112.0536602842999
 21
61.55861588330003
  0
LINE
  8
1
  6
CONTINUOUS
 62
     7
 10
83.27406361289998
 20
63.4115475378001
 11
81.86139478710004
 21
63.4115475378001
  0
LINE
  8
1
  6
CONTINUOUS
 62
     7
 10
78.23239478700013
 20
63.4115475378001
 11
79.64506361280006
 21
63.4115475378001
  0
LINE
  8
1
  6
CONTINUOUS
 62
     7
 10
66.84729743800007
 20
62.95512540960002
 11
66.72511868589999
 21
61.55861588330003
  0
LINE
  8
1
  6
CONTINUOUS
 62
     7
 10
92.25029743810016
 20
62.95512541110004
 11
92.12811868590005
 21
61.55861588330003
  0
LINE
  8
1
  6
CONTINUOUS
 62
     7
 10
-116.3029363854
 20
63.4115475378001
 11
-117.7156052111999
 21
63.4115475378001
  0
LINE
  8
1
  6
CONTINUOUS
 62
     7
 10
-115.8048390363
 20
62.95512540960002
 11
-115.6826602842999
 21
61.55861588330003
  0
LINE
  8
1
  6
CONTINUOUS
 62
     7
 10
94.65916096200007
 20
62.95512540960002
 11
94.78133971400011
 21
61.55861588330003
  0
LINE
  8
1
  6
CONTINUOUS
 62
     7
 10
-119.8284458606
 20
62.87322465540002
 11
-119.2822733818999
 21
61.4291567791001
  0
LINE
  8
1
  6
CONTINUOUS
 62
     7
 10
138.2011609620002
 20
62.95512540960002
 11
138.3233397140001
 21
61.55861588330003
  0
LINE
  8
1
  6
CONTINUOUS
 62
     7
 10
91.03016096180012
 20
62.95512541110004
 11
91.15233971400001
 21
61.55861588330003
  0
LINE
  8
1
  6
CONTINUOUS
 62
     7
 10
81.36329743810008
 20
62.95512541110004
 11
81.24111868590008
 21
61.55861588330003
  0
LINE
  8
1
  6
CONTINUOUS
 62
     7
 10
70.97439478700002
 20
63.4115475378001
 11
72.38706361280008
 21
63.4115475378001
  0
LINE
  8
1
  6
CONTINUOUS
 62
     7
 10
69.25616096180005
 20
62.95512541110004
 11
69.37833971400005
 21
61.55861588330003
  0
LINE
  8
1
  6
CONTINUOUS
 62
     7
 10
154.4353947870001
 20
63.4115475378001
 11
155.8480636128001
 21
63.4115475378001
  0
LINE
  8
1
  6
CONTINUOUS
 62
     7
 10
-107.3267025602
 20
62.95512541110004
 11
-107.4488813123999
 21
61.55861588330003
  0
LINE
  8
1
  6
CONTINUOUS
 62
     7
 10
156.3461609618001
 20
62.95512541110004
 11
156.468339714
 21
61.55861588330003
  0
LINE
  8
1
  6
CONTINUOUS
 62
     7
 10
80.14316096180004
 20
62.95512541110004
 11
80.26533971400013
 21
61.55861588330003
  0
LINE
  8
1
  6
CONTINUOUS
 62
     7
 10
-110.9557025602999
 20
62.95512540960002
 11
-111.0778813123999
 21
61.55861588330003
  0
LINE
  8
1
  6
CONTINUOUS
 62
     7
 10
139.4212974380001
 20
62.95512540960002
 11
139.2991186859002
 21
61.55861588330003
  0
LINE
  8
1
  6
CONTINUOUS
 62
     7
 10
-108.5468390363999
 20
62.95512541110004
 11
-108.4246602842999
 21
61.55861588330003
  0
LINE
  8
1
  6
CONTINUOUS
 62
     7
 10
161.5899042623
 20
62.87322465540002
 11
161.0437317835
 21
61.4291567791001
  0
LINE
  8
1
  6
CONTINUOUS
 62
     7
 10
94.16106361290007
 20
63.4115475378001
 11
92.74839478710012
 21
63.4115475378001
  0
LINE
  8
1
  6
CONTINUOUS
 62
     7
 10
67.34539478700003
 20
63.4115475378001
 11
68.75806361279997
 21
63.4115475378001
  0
LINE
  8
1
  6
CONTINUOUS
 62
     7
 10
95.87929743800012
 20
62.95512540960002
 11
95.75711868590004
 21
61.55861588330003
  0
LINE
  8
1
  6
CONTINUOUS
 62
     7
 10
159.9751609618001
 20
62.95512541110004
 11
160.097339714
 21
61.55861588330003
  0
LINE
  8
1
  6
CONTINUOUS
 62
     7
 10
-120.6222707998999
 20
63.51154753779997
 11
-151.6222707998999
 21
63.91154753780004
  0
LINE
  8
1
  6
CONTINUOUS
 62
     7
 10
74.10529743809997
 20
62.95512541110004
 11
73.98311868590008
 21
61.55861588330003
  0
LINE
  8
1
  6
CONTINUOUS
 62
     7
 10
46.98406361290004
 20
63.4115475378001
 11
45.57139478710011
 21
63.4115475378001
  0
LINE
  8
1
  6
CONTINUOUS
 62
     7
 10
87.40116096200019
 20
62.95512540960002
 11
87.52333971400013
 21
61.55861588330003
  0
LINE
  8
1
  6
CONTINUOUS
 62
     7
 10
43.36106361290007
 20
63.4115475378001
 11
41.94839478710013
 21
63.4115475378001
  0
LINE
  8
1
  6
CONTINUOUS
 62
     7
 10
40.23016096180012
 20
62.95512541110004
 11
40.35233971400001
 21
61.55861588330003
  0
LINE
  8
1
  6
CONTINUOUS
 62
     7
 10
49.20039478700007
 20
63.4115475378001
 11
50.6130636128
 21
63.4115475378001
  0
LINE
  8
1
  6
CONTINUOUS
 62
     7
 10
65.627160962
 20
62.95512540960002
 11
65.74933971400006
 21
61.55861588330003
  0
LINE
  8
1
  6
CONTINUOUS
 62
     7
 10
55.96029743810001
 20
62.95512541110004
 11
55.83811868590012
 21
61.55861588330003
  0
LINE
  8
1
  6
CONTINUOUS
 62
     7
 10
57.87106361290013
 20
63.4115475378001
 11
56.45839478709998
 21
63.4115475378001
  0
LINE
  8
1
  6
CONTINUOUS
 62
     7
 10
52.33129743800009
 20
62.95512540960002
 11
52.20911868590012
 21
61.55861588330003
  0
LINE
  8
1
  6
CONTINUOUS
 62
     7
 10
45.07929743800013
 20
62.95512540960002
 11
44.95711868590005
 21
61.55861588330003
  0
LINE
  8
1
  6
CONTINUOUS
 62
     7
 10
65.12906361290001
 20
63.4115475378001
 11
63.71639478710007
 21
63.4115475378001
  0
LINE
  8
1
  6
CONTINUOUS
 62
     7
 10
43.85916096200007
 20
62.95512540960002
 11
43.98133971400011
 21
61.55861588330003
  0
LINE
  8
1
  6
CONTINUOUS
 62
     7
 10
34.19229743800003
 20
62.95512540960002
 11
34.07011868590007
 21
61.55861588330003
  0
LINE
  8
1
  6
CONTINUOUS
 62
     7
 10
41.45029743810016
 20
62.95512541110004
 11
41.32811868590006
 21
61.55861588330003
  0
LINE
  8
1
  6
CONTINUOUS
 62
     7
 10
59.58929743799997
 20
62.95512540960002
 11
59.46711868590011
 21
61.55861588330003
  0
LINE
  8
1
  6
CONTINUOUS
 62
     7
 10
63.2182974381001
 20
62.95512541110004
 11
63.0961186859
 21
61.55861588330003
  0
LINE
  8
1
  6
CONTINUOUS
 62
     7
 10
54.74016096179997
 20
62.95512541110004
 11
54.86233971400008
 21
61.55861588330003
  0
LINE
  8
1
  6
CONTINUOUS
 62
     7
 10
48.7022974380001
 20
62.95512540960002
 11
48.58011868590002
 21
61.55861588330003
  0
LINE
  8
1
  6
CONTINUOUS
 62
     7
 10
52.82939478700006
 20
63.4115475378001
 11
54.2420636128
 21
63.4115475378001
  0
LINE
  8
1
  6
CONTINUOUS
 62
     7
 10
47.48216096200004
 20
62.95512540960002
 11
47.60433971400009
 21
61.55861588330003
  0
LINE
  8
1
  6
CONTINUOUS
 62
     7
 10
58.36916096200002
 20
62.95512540960002
 11
58.49133971400007
 21
61.55861588330003
  0
LINE
  8
1
  6
CONTINUOUS
 62
     7
 10
61.99816096180007
 20
62.95512541110004
 11
62.12033971399995
 21
61.55861588330003
  0
LINE
  8
1
  6
CONTINUOUS
 62
     7
 10
60.08739478700005
 20
63.4115475378001
 11
61.5000636128001
 21
63.4115475378001
  0
LINE
  8
1
  6
CONTINUOUS
 62
     7
 10
51.11116096180009
 20
62.95512541110004
 11
51.23333971400008
 21
61.55861588330003
  0
LINE
  8
1
  6
CONTINUOUS
 62
     7
 10
88.62129743800014
 20
62.95512540960002
 11
88.49911868590017
 21
61.55861588330003
  0
LINE
  8
1
  6
CONTINUOUS
 62
     7
 10
22.08516096180005
 20
62.95512541110004
 11
22.20733971400005
 21
61.55861588330003
  0
LINE
  8
1
  6
CONTINUOUS
 62
     7
 10
7.569160962000026
 20
62.95512540960002
 11
7.691339714000073
 21
61.55861588330003
  0
LINE
  8
1
  6
CONTINUOUS
 62
     7
 10
0.3111609618000888
 20
62.95512541110004
 11
0.4333397140000861
 21
61.55861588330003
  0
LINE
  8
1
  6
CONTINUOUS
 62
     7
 10
25.2160636129001
 20
63.4115475378001
 11
23.80339478710006
 21
63.4115475378001
  0
LINE
  8
1
  6
CONTINUOUS
 62
     7
 10
26.93429743800016
 20
62.95512540960002
 11
26.81211868590008
 21
61.55861588330003
  0
LINE
  8
1
  6
CONTINUOUS
 62
     7
 10
14.32906361290001
 20
63.4115475378001
 11
12.91639478710008
 21
63.4115475378001
  0
LINE
  8
1
  6
CONTINUOUS
 62
     7
 10
14.82716096200001
 20
62.95512540960002
 11
14.94933971400006
 21
61.55861588330003
  0
LINE
  8
1
  6
CONTINUOUS
 62
     7
 10
18.45616096180006
 20
62.95512541110004
 11
18.57833971400005
 21
61.55861588330003
  0
LINE
  8
1
  6
CONTINUOUS
 62
     7
 10
7.071063612900136
 20
63.4115475378001
 11
5.658394787099979
 21
63.4115475378001
  0
LINE
  8
1
  6
CONTINUOUS
 62
     7
 10
3.940160961799971
 20
62.95512541110004
 11
4.062339714000079
 21
61.55861588330003
  0
LINE
  8
1
  6
CONTINUOUS
 62
     7
 10
5.160297438100009
 20
62.95512541110004
 11
5.038118685900122
 21
61.55861588330003
  0
LINE
  8
1
  6
CONTINUOUS
 62
     7
 10
-1.599605212999927
 20
63.4115475378001
 11
-0.1869363871999934
 21
63.4115475378001
  0
LINE
  8
1
  6
CONTINUOUS
 62
     7
 10
23.30529743809997
 20
62.95512541110004
 11
23.18311868590009
 21
61.55861588330003
  0
LINE
  8
1
  6
CONTINUOUS
 62
     7
 10
-3.815936387099955
 20
63.4115475378001
 11
-5.22860521289989
 21
63.4115475378001
  0
LINE
  8
1
  6
CONTINUOUS
 62
     7
 10
8.789297437999972
 20
62.95512540960002
 11
8.667118685900116
 21
61.55861588330003
  0
LINE
  8
1
  6
CONTINUOUS
 62
     7
 10
19.67629743800006
 20
62.95512540960002
 11
19.5541186859001
 21
61.55861588330003
  0
LINE
  8
1
  6
CONTINUOUS
 62
     7
 10
11.19816096180007
 20
62.95512541110004
 11
11.32033971399995
 21
61.55861588330003
  0
LINE
  8
1
  6
CONTINUOUS
 62
     7
 10
16.04729743800007
 20
62.95512540960002
 11
15.92511868589999
 21
61.55861588330003
  0
LINE
  8
1
  6
CONTINUOUS
 62
     7
 10
16.54539478700004
 20
63.4115475378001
 11
17.95806361279997
 21
63.4115475378001
  0
LINE
  8
1
  6
CONTINUOUS
 62
     7
 10
25.7141609620001
 20
62.95512540960002
 11
25.83633971400004
 21
61.55861588330003
  0
LINE
  8
1
  6
CONTINUOUS
 62
     7
 10
9.287394787000053
 20
63.4115475378001
 11
10.7000636128001
 21
63.4115475378001
  0
LINE
  8
1
  6
CONTINUOUS
 62
     7
 10
12.41829743810011
 20
62.95512541110004
 11
12.2961186859
 21
61.55861588330003
  0
LINE
  8
1
  6
CONTINUOUS
 62
     7
 10
2.029394787000066
 20
63.4115475378001
 11
3.4420636128
 21
63.4115475378001
  0
LINE
  8
1
  6
CONTINUOUS
 62
     7
 10
29.34316096180003
 20
62.95512541110004
 11
29.46533971400014
 21
61.55861588330003
  0
LINE
  8
1
  6
CONTINUOUS
 62
     7
 10
1.531297438000095
 20
62.95512540960002
 11
1.409118685900129
 21
61.55861588330003
  0
LINE
  8
1
  6
CONTINUOUS
 62
     7
 10
32.97216096200009
 20
62.95512540960002
 11
33.09433971400003
 21
61.55861588330003
  0
LINE
  8
1
  6
CONTINUOUS
 62
     7
 10
32.47406361289998
 20
63.4115475378001
 11
31.06139478710004
 21
63.4115475378001
  0
LINE
  8
1
  6
CONTINUOUS
 62
     7
 10
27.43239478700013
 20
63.4115475378001
 11
28.84506361280006
 21
63.4115475378001
  0
LINE
  8
1
  6
CONTINUOUS
 62
     7
 10
20.17439478700003
 20
63.4115475378001
 11
21.58706361280008
 21
63.4115475378001
  0
LINE
  8
1
  6
CONTINUOUS
 62
     7
 10
-2.097702561999898
 20
62.95512540960002
 11
-2.219881314099975
 21
61.55861588330003
  0
LINE
  8
1
  6
CONTINUOUS
 62
     7
 10
30.56329743810007
 20
62.95512541110004
 11
30.44111868590008
 21
61.55861588330003
  0
LINE
  8
1
  6
CONTINUOUS
 62
     7
 10
-3.317839037999953
 20
62.95512540960002
 11
-3.195660285999907
 21
61.55861588330003
  0
LINE
  8
1
  6
CONTINUOUS
 62
     7
 10
-90.40183903819992
 20
62.95512541110004
 11
-90.27966028600004
 21
61.55861588330003
  0
LINE
  8
1
  6
CONTINUOUS
 62
     7
 10
-81.92370256199993
 20
62.95512540960002
 11
-82.0458813140999
 21
61.55861588330003
  0
LINE
  8
1
  6
CONTINUOUS
 62
     7
 10
-78.29470256190002
 20
62.95512541110004
 11
-78.41688131409991
 21
61.55861588330003
  0
LINE
  8
1
  6
CONTINUOUS
 62
     7
 10
-103.6977025619999
 20
62.95512540960002
 11
-103.8198813141
 21
61.55861588330003
  0
LINE
  8
1
  6
CONTINUOUS
 62
     7
 10
-75.88583903799989
 20
62.95512540960002
 11
-75.76366028599996
 21
61.55861588330003
  0
LINE
  8
1
  6
CONTINUOUS
 62
     7
 10
-96.43970256189999
 20
62.95512541110004
 11
-96.56188131409988
 21
61.55861588330003
  0
LINE
  8
1
  6
CONTINUOUS
 62
     7
 10
-72.25683903819996
 20
62.95512541110004
 11
-72.13466028599986
 21
61.55861588330003
  0
LINE
  8
1
  6
CONTINUOUS
 62
     7
 10
37.82129743800014
 20
62.95512540960002
 11
37.69911868590017
 21
61.55861588330003
  0
LINE
  8
1
  6
CONTINUOUS
 62
     7
 10
-60.14970256189983
 20
62.95512541110004
 11
-60.27188131409994
 21
61.55861588330003
  0
LINE
  8
1
  6
CONTINUOUS
 62
     7
 10
-94.03083903799997
 20
62.95512540960002
 11
-93.90866028599991
 21
61.55861588330003
  0
LINE
  8
1
  6
CONTINUOUS
 62
     7
 10
-94.52893638709986
 20
63.4115475378001
 11
-95.94160521290001
 21
63.4115475378001
  0
LINE
  8
1
  6
CONTINUOUS
 62
     7
 10
-58.23893638709993
 20
63.4115475378001
 11
-59.65160521289986
 21
63.4115475378001
  0
LINE
  8
1
  6
CONTINUOUS
 62
     7
 10
-99.57060521299992
 20
63.4115475378001
 11
-98.1579363872
 21
63.4115475378001
  0
LINE
  8
1
  6
CONTINUOUS
 62
     7
 10
-74.66570256199984
 20
62.95512540960002
 11
-74.7878813140999
 21
61.55861588330003
  0
LINE
  8
1
  6
CONTINUOUS
 62
     7
 10
36.60116096200019
 20
62.95512540960002
 11
36.72333971400013
 21
61.55861588330003
  0
LINE
  8
1
  6
CONTINUOUS
 62
     7
 10
-81.42560521299995
 20
63.4115475378001
 11
-80.01293638719991
 21
63.4115475378001
  0
LINE
  8
1
  6
CONTINUOUS
 62
     7
 10
-57.74083903799993
 20
62.95512540960002
 11
-57.61866028599988
 21
61.55861588330003
  0
LINE
  8
1
  6
CONTINUOUS
 62
     7
 10
-79.51483903819995
 20
62.95512541110004
 11
-79.39266028599995
 21
61.55861588330003
  0
LINE
  8
1
  6
CONTINUOUS
 62
     7
 10
-85.55270256199992
 20
62.95512540960002
 11
-85.6748813141
 21
61.55861588330003
  0
LINE
  8
1
  6
CONTINUOUS
 62
     7
 10
-67.40770256199995
 20
62.95512540960002
 11
-67.52988131409992
 21
61.55861588330003
  0
LINE
  8
1
  6
CONTINUOUS
 62
     7
 10
-83.14383903819994
 20
62.95512541110004
 11
-83.02166028599994
 21
61.55861588330003
  0
LINE
  8
1
  6
CONTINUOUS
 62
     7
 10
-87.27093638709998
 20
63.4115475378001
 11
-88.68360521289992
 21
63.4115475378001
  0
LINE
  8
1
  6
CONTINUOUS
 62
     7
 10
-92.81070256200002
 20
62.95512540960002
 11
-92.93288131409987
 21
61.55861588330003
  0
LINE
  8
1
  6
CONTINUOUS
 62
     7
 10
-103.1996052129999
 20
63.4115475378001
 11
-101.7869363872
 21
63.4115475378001
  0
LINE
  8
1
  6
CONTINUOUS
 62
     7
 10
-101.2888390381999
 20
62.95512541110004
 11
-101.1666602859999
 21
61.55861588330003
  0
LINE
  8
1
  6
CONTINUOUS
 62
     7
 10
-104.917839038
 20
62.95512540960002
 11
-104.7956602859999
 21
61.55861588330003
  0
LINE
  8
1
  6
CONTINUOUS
 62
     7
 10
-97.65983903820002
 20
62.95512541110004
 11
-97.53766028599992
 21
61.55861588330003
  0
LINE
  8
1
  6
CONTINUOUS
 62
     7
 10
-56.52070256199987
 20
62.95512540960002
 11
-56.64288131409995
 21
61.55861588330003
  0
LINE
  8
1
  6
CONTINUOUS
 62
     7
 10
-69.12593638710001
 20
63.4115475378001
 11
-70.53860521289995
 21
63.4115475378001
  0
LINE
  8
1
  6
CONTINUOUS
 62
     7
 10
-89.18170256189988
 20
62.95512541110004
 11
-89.3038813141
 21
61.55861588330003
  0
LINE
  8
1
  6
CONTINUOUS
 62
     7
 10
-76.3839363870999
 20
63.4115475378001
 11
-77.79660521289993
 21
63.4115475378001
  0
LINE
  8
1
  6
CONTINUOUS
 62
     7
 10
-68.6278390379999
 20
62.95512540960002
 11
-68.50566028599997
 21
61.55861588330003
  0
LINE
  8
1
  6
CONTINUOUS
 62
     7
 10
-71.03670256189992
 20
62.95512541110004
 11
-71.15888131409992
 21
61.55861588330003
  0
LINE
  8
1
  6
CONTINUOUS
 62
     7
 10
-85.05460521299996
 20
63.4115475378001
 11
-83.64193638720002
 21
63.4115475378001
  0
LINE
  8
1
  6
CONTINUOUS
 62
     7
 10
-74.16760521299986
 20
63.4115475378001
 11
-72.75493638719993
 21
63.4115475378001
  0
LINE
  8
1
  6
CONTINUOUS
 62
     7
 10
-86.77283903799999
 20
62.95512540960002
 11
-86.65066028599993
 21
61.55861588330003
  0
LINE
  8
1
  6
CONTINUOUS
 62
     7
 10
-92.31260521299994
 20
63.4115475378001
 11
-90.8999363871999
 21
63.4115475378001
  0
LINE
  8
1
  6
CONTINUOUS
 62
     7
 10
-100.0687025619999
 20
62.95512540960002
 11
-100.1908813140999
 21
61.55861588330003
  0
LINE
  8
1
  6
CONTINUOUS
 62
     7
 10
-105.4159363870999
 20
63.4115475378001
 11
-106.8286052128999
 21
63.4115475378001
  0
LINE
  8
1
  6
CONTINUOUS
 62
     7
 10
-61.36983903819987
 20
62.95512541110004
 11
-61.24766028599998
 21
61.55861588330003
  0
LINE
  8
1
  6
CONTINUOUS
 62
     7
 10
-63.77870256199986
 20
62.95512540960002
 11
-63.90088131409982
 21
61.55861588330003
  0
LINE
  8
1
  6
CONTINUOUS
 62
     7
 10
-9.349702561899834
 20
62.95512541110004
 11
-9.471881314099942
 21
61.55861588330003
  0
LINE
  8
1
  6
CONTINUOUS
 62
     7
 10
-20.23670256189993
 20
62.95512541110004
 11
-20.35888131409992
 21
61.55861588330003
  0
LINE
  8
1
  6
CONTINUOUS
 62
     7
 10
-23.36760521299987
 20
63.4115475378001
 11
-21.95493638719993
 21
63.4115475378001
  0
LINE
  8
1
  6
CONTINUOUS
 62
     7
 10
-43.23083903799997
 20
62.95512540960002
 11
-43.10866028599992
 21
61.55861588330003
  0
LINE
  8
1
  6
CONTINUOUS
 62
     7
 10
-45.63970256189999
 20
62.95512541110004
 11
-45.76188131409987
 21
61.55861588330003
  0
LINE
  8
1
  6
CONTINUOUS
 62
     7
 10
-38.38170256189989
 20
62.95512541110004
 11
-38.5038813141
 21
61.55861588330003
  0
LINE
  8
1
  6
CONTINUOUS
 62
     7
 10
-39.60183903819993
 20
62.95512541110004
 11
-39.47966028600004
 21
61.55861588330003
  0
LINE
  8
1
  6
CONTINUOUS
 62
     7
 10
-54.61593638709995
 20
63.4115475378001
 11
-56.02860521289988
 21
63.4115475378001
  0
LINE
  8
1
  6
CONTINUOUS
 62
     7
 10
-34.25460521299996
 20
63.4115475378001
 11
-32.84193638720002
 21
63.4115475378001
  0
LINE
  8
1
  6
CONTINUOUS
 62
     7
 10
-25.5839363870999
 20
63.4115475378001
 11
-26.99660521289994
 21
63.4115475378001
  0
LINE
  8
1
  6
CONTINUOUS
 62
     7
 10
-6.940839037999926
 20
62.95512540960002
 11
-6.81866028599988
 21
61.55861588330003
  0
LINE
  8
1
  6
CONTINUOUS
 62
     7
 10
-25.08583903799989
 20
62.95512540960002
 11
-24.96366028599996
 21
61.55861588330003
  0
LINE
  8
1
  6
CONTINUOUS
 62
     7
 10
-28.71483903819995
 20
62.95512541110004
 11
-28.59266028599995
 21
61.55861588330003
  0
LINE
  8
1
  6
CONTINUOUS
 62
     7
 10
-30.62560521299996
 20
63.4115475378001
 11
-29.21293638719992
 21
63.4115475378001
  0
LINE
  8
1
  6
CONTINUOUS
 62
     7
 10
-32.34383903819994
 20
62.95512541110004
 11
-32.22166028599995
 21
61.55861588330003
  0
LINE
  8
1
  6
CONTINUOUS
 62
     7
 10
-43.72893638709986
 20
63.4115475378001
 11
-45.14160521290002
 21
63.4115475378001
  0
LINE
  8
1
  6
CONTINUOUS
 62
     7
 10
-16.60770256199996
 20
62.95512540960002
 11
-16.72988131409993
 21
61.55861588330003
  0
LINE
  8
1
  6
CONTINUOUS
 62
     7
 10
-27.49470256190002
 20
62.95512541110004
 11
-27.61688131409991
 21
61.55861588330003
  0
LINE
  8
1
  6
CONTINUOUS
 62
     7
 10
-34.75270256199993
 20
62.95512540960002
 11
-34.87488131410001
 21
61.55861588330003
  0
LINE
  8
1
  6
CONTINUOUS
 62
     7
 10
-36.47093638709998
 20
63.4115475378001
 11
-37.88360521289992
 21
63.4115475378001
  0
LINE
  8
1
  6
CONTINUOUS
 62
     7
 10
-64.9988390379998
 20
62.95512540960002
 11
-64.87666028599986
 21
61.55861588330003
  0
LINE
  8
1
  6
CONTINUOUS
 62
     7
 10
-49.2687025619999
 20
62.95512540960002
 11
-49.39088131409986
 21
61.55861588330003
  0
LINE
  8
1
  6
CONTINUOUS
 62
     7
 10
-46.85983903820003
 20
62.95512541110004
 11
-46.73766028599992
 21
61.55861588330003
  0
LINE
  8
1
  6
CONTINUOUS
 62
     7
 10
-52.89770256199989
 20
62.95512540960002
 11
-53.01988131409997
 21
61.55861588330003
  0
LINE
  8
1
  6
CONTINUOUS
 62
     7
 10
-50.48883903819991
 20
62.95512541110004
 11
-50.36666028599991
 21
61.55861588330003
  0
LINE
  8
1
  6
CONTINUOUS
 62
     7
 10
-41.51260521299994
 20
63.4115475378001
 11
-40.0999363871999
 21
63.4115475378001
  0
LINE
  8
1
  6
CONTINUOUS
 62
     7
 10
-52.39960521299992
 20
63.4115475378001
 11
-50.98693638719999
 21
63.4115475378001
  0
LINE
  8
1
  6
CONTINUOUS
 62
     7
 10
-18.32593638710002
 20
63.4115475378001
 11
-19.73860521289996
 21
63.4115475378001
  0
LINE
  8
1
  6
CONTINUOUS
 62
     7
 10
-23.86570256199984
 20
62.95512540960002
 11
-23.98788131409992
 21
61.55861588330003
  0
LINE
  8
1
  6
CONTINUOUS
 62
     7
 10
-31.12370256199993
 20
62.95512540960002
 11
-31.2458813140999
 21
61.55861588330003
  0
LINE
  8
1
  6
CONTINUOUS
 62
     7
 10
-48.77060521299993
 20
63.4115475378001
 11
-47.3579363872
 21
63.4115475378001
  0
LINE
  8
1
  6
CONTINUOUS
 62
     7
 10
-7.438936387099928
 20
63.4115475378001
 11
-8.851605212899862
 21
63.4115475378001
  0
LINE
  8
1
  6
CONTINUOUS
 62
     7
 10
-5.720702561999871
 20
62.95512540960002
 11
-5.842881314099948
 21
61.55861588330003
  0
LINE
  8
1
  6
CONTINUOUS
 62
     7
 10
-10.56983903819987
 20
62.95512541110004
 11
-10.44766028599999
 21
61.55861588330003
  0
LINE
  8
1
  6
CONTINUOUS
 62
     7
 10
-17.82783903799991
 20
62.95512540960002
 11
-17.70566028599997
 21
61.55861588330003
  0
LINE
  8
1
  6
CONTINUOUS
 62
     7
 10
-21.45683903819996
 20
62.95512541110004
 11
-21.33466028599985
 21
61.55861588330003
  0
LINE
  8
1
  6
CONTINUOUS
 62
     7
 10
-42.01070256200003
 20
62.95512540960002
 11
-42.13288131409988
 21
61.55861588330003
  0
LINE
  8
1
  6
CONTINUOUS
 62
     7
 10
-35.97283903799998
 20
62.95512540960002
 11
-35.85066028599994
 21
61.55861588330003
  0
LINE
  8
1
  6
CONTINUOUS
 62
     7
 10
-54.11783903799995
 20
62.95512540960002
 11
-53.9956602859999
 21
61.55861588330003
  0
LINE
  8
1
  6
CONTINUOUS
 62
     7
 10
-14.1988390379998
 20
62.95512540960002
 11
-14.07666028599987
 21
61.55861588330003
  0
LINE
  8
1
  6
CONTINUOUS
 62
     7
 10
-12.97870256199986
 20
62.95512540960002
 11
-13.10088131409982
 21
61.55861588330003
  0
LINE
  8
1
  6
CONTINUOUS
 62
     7
 10
-57.78077079969995
 20
40.71133691119999
 11
-57.78077079969995
 21
63.11175816440007
  0
LINE
  8
1
  6
CONTINUOUS
 62
     7
 10
-67.36777079969985
 20
63.11175816570014
 11
-67.36777079969985
 21
40.71133690989992
  0
LINE
  8
1
  6
CONTINUOUS
 62
     7
 10
-61.40977079887294
 20
40.71133691119999
 11
-61.40977079969995
 21
63.11175816440007
  0
LINE
  8
1
  6
CONTINUOUS
 62
     7
 10
-70.99677079969996
 20
63.11175816570014
 11
-70.99677079969996
 21
40.71133690989992
  0
LINE
  8
1
  6
CONTINUOUS
 62
     7
 10
-68.66777079939045
 20
40.71133691119999
 11
-68.66777079969994
 21
63.11175816440007
  0
LINE
  8
1
  6
CONTINUOUS
 62
     7
 10
-72.29677079969993
 20
40.71133691119999
 11
-72.29677079969993
 21
63.11175816440007
  0
LINE
  8
1
  6
CONTINUOUS
 62
     7
 10
-78.25477079969994
 20
63.11175816570014
 11
-78.25477079969994
 21
40.71133690989992
  0
LINE
  8
1
  6
CONTINUOUS
 62
     7
 10
-74.62577079969995
 20
63.11175816570014
 11
-74.62577079969995
 21
40.71133690989992
  0
LINE
  8
1
  6
CONTINUOUS
 62
     7
 10
-79.55477079969991
 20
40.71133691119999
 11
-79.55477079969991
 21
63.11175816440007
  0
LINE
  8
1
  6
CONTINUOUS
 62
     7
 10
-85.51277079969994
 20
63.11175816570014
 11
-85.51277079969994
 21
40.71133690989992
  0
LINE
  8
1
  6
CONTINUOUS
 62
     7
 10
-83.1837707996999
 20
40.71133691119999
 11
-83.1837707996999
 21
63.11175816440007
  0
LINE
  8
1
  6
CONTINUOUS
 62
     7
 10
-81.88377079969993
 20
63.11175816570014
 11
-81.88377079969993
 21
40.71133690989992
  0
LINE
  8
1
  6
CONTINUOUS
 62
     7
 10
-89.14177079969993
 20
63.11175816570014
 11
-89.14177079969993
 21
40.71133690989992
  0
LINE
  8
1
  6
CONTINUOUS
 62
     7
 10
-75.92577079969992
 20
40.71133691119999
 11
-75.92577079969992
 21
63.11175816440007
  0
LINE
  8
1
  6
CONTINUOUS
 62
     7
 10
-94.07077079969989
 20
40.71133691119999
 11
-94.07077079969989
 21
63.11175816440007
  0
LINE
  8
1
  6
CONTINUOUS
 62
     7
 10
-97.69977079969988
 20
40.71133691119999
 11
-97.69977079969988
 21
63.11175816440007
  0
LINE
  8
1
  6
CONTINUOUS
 62
     7
 10
-86.8127707996999
 20
40.71133691119999
 11
-86.8127707996999
 21
63.11175816440007
  0
LINE
  8
1
  6
CONTINUOUS
 62
     7
 10
-90.44177079970001
 20
40.71133691119999
 11
-90.44177079970001
 21
63.11175816440007
  0
LINE
  8
1
  6
CONTINUOUS
 62
     7
 10
-96.39977079969991
 20
63.11175816570014
 11
-96.39977079969991
 21
40.71133690989992
  0
LINE
  8
1
  6
CONTINUOUS
 62
     7
 10
-100.0287707997
 20
63.11175816570014
 11
-100.0287707997
 21
40.71133690989992
  0
LINE
  8
1
  6
CONTINUOUS
 62
     7
 10
-103.6577707997
 20
63.11175816570014
 11
-103.6577707997
 21
40.71133690989992
  0
LINE
  8
1
  6
CONTINUOUS
 62
     7
 10
-92.77077079969992
 20
63.11175816570014
 11
-92.77077079969992
 21
40.71133690989992
  0
LINE
  8
1
  6
CONTINUOUS
 62
     7
 10
-101.3287707996999
 20
40.71133691119999
 11
-101.3287707996999
 21
63.11175816440007
  0
LINE
  8
1
  6
CONTINUOUS
 62
     7
 10
-9.309770799484177
 20
63.11175816570014
 11
-9.309770799915787
 21
40.71133690989992
  0
LINE
  8
1
  6
CONTINUOUS
 62
     7
 10
-6.980770799699956
 20
40.71133691119999
 11
-6.980770799699956
 21
63.11175816440007
  0
LINE
  8
1
  6
CONTINUOUS
 62
     7
 10
-5.680770799699988
 20
63.11175816570014
 11
-5.680770799699988
 21
40.71133690989992
  0
LINE
  8
1
  6
CONTINUOUS
 62
     7
 10
-10.60977079887294
 20
40.71133691119999
 11
-10.60977079969995
 21
63.11175816440007
  0
LINE
  8
1
  6
CONTINUOUS
 62
     7
 10
-14.69693638709992
 20
63.4115475378001
 11
-16.10960521299999
 21
63.4115475378001
  0
LINE
  8
1
  6
CONTINUOUS
 62
     7
 10
-12.93877079969975
 20
63.11175816570014
 11
-12.93877079969975
 21
40.71133690989992
  0
LINE
  8
1
  6
CONTINUOUS
 62
     7
 10
-14.23877079939038
 20
40.71133691119999
 11
-14.23877079969983
 21
63.11175816440007
  0
LINE
  8
1
  6
CONTINUOUS
 62
     7
 10
-12.48060521299989
 20
63.4115475378001
 11
-11.06793638719995
 21
63.4115475378001
  0
LINE
  8
1
  6
CONTINUOUS
 62
     7
 10
-20.19677079969996
 20
63.11175816570014
 11
-20.19677079969996
 21
40.71133690989992
  0
LINE
  8
1
  6
CONTINUOUS
 62
     7
 10
-17.86777079939048
 20
40.71133691119999
 11
-17.86777079969994
 21
63.11175816440007
  0
LINE
  8
1
  6
CONTINUOUS
 62
     7
 10
-16.56777079969986
 20
63.11175816570014
 11
-16.56777079969986
 21
40.71133690989992
  0
LINE
  8
1
  6
CONTINUOUS
 62
     7
 10
-23.82577079969996
 20
63.11175816570014
 11
-23.82577079969996
 21
40.71133690989992
  0
LINE
  8
1
  6
CONTINUOUS
 62
     7
 10
-21.49677079969993
 20
40.71133691119999
 11
-21.49677079969993
 21
63.11175816440007
  0
LINE
  8
1
  6
CONTINUOUS
 62
     7
 10
-27.45477079969995
 20
63.11175816570014
 11
-27.45477079969995
 21
40.71133690989992
  0
LINE
  8
1
  6
CONTINUOUS
 62
     7
 10
-32.38377079969991
 20
40.71133691119999
 11
-32.38377079969991
 21
63.11175816440007
  0
LINE
  8
1
  6
CONTINUOUS
 62
     7
 10
-38.34177079969993
 20
63.11175816570014
 11
-38.34177079969993
 21
40.71133690989992
  0
LINE
  8
1
  6
CONTINUOUS
 62
     7
 10
-36.0127707996999
 20
40.71133691119999
 11
-36.0127707996999
 21
63.11175816440007
  0
LINE
  8
1
  6
CONTINUOUS
 62
     7
 10
-39.64177079970001
 20
40.71133691119999
 11
-39.64177079970001
 21
63.11175816440007
  0
LINE
  8
1
  6
CONTINUOUS
 62
     7
 10
-43.27077079969989
 20
40.71133691119999
 11
-43.27077079969989
 21
63.11175816440007
  0
LINE
  8
1
  6
CONTINUOUS
 62
     7
 10
-34.71277079969993
 20
63.11175816570014
 11
-34.71277079969993
 21
40.71133690989992
  0
LINE
  8
1
  6
CONTINUOUS
 62
     7
 10
-45.59977079969991
 20
63.11175816570014
 11
-45.59977079969991
 21
40.71133690989992
  0
LINE
  8
1
  6
CONTINUOUS
 62
     7
 10
-41.97077079969992
 20
63.11175816570014
 11
-41.97077079969992
 21
40.71133690989992
  0
LINE
  8
1
  6
CONTINUOUS
 62
     7
 10
-25.12577079969992
 20
40.71133691119999
 11
-25.12577079969992
 21
63.11175816440007
  0
LINE
  8
1
  6
CONTINUOUS
 62
     7
 10
-31.08377079969994
 20
63.11175816570014
 11
-31.08377079969994
 21
40.71133690989992
  0
LINE
  8
1
  6
CONTINUOUS
 62
     7
 10
-28.75477079969992
 20
40.71133691119999
 11
-28.75477079969992
 21
63.11175816440007
  0
LINE
  8
1
  6
CONTINUOUS
 62
     7
 10
-65.49693638709991
 20
63.4115475378001
 11
-66.90960521299999
 21
63.4115475378001
  0
LINE
  8
1
  6
CONTINUOUS
 62
     7
 10
-54.15777079999996
 20
40.71133691119999
 11
-54.15777079999996
 21
63.11175816440007
  0
LINE
  8
1
  6
CONTINUOUS
 62
     7
 10
-46.89977079969988
 20
40.71133691119999
 11
-46.89977079969988
 21
63.11175816440007
  0
LINE
  8
1
  6
CONTINUOUS
 62
     7
 10
-50.52877079969988
 20
40.71133691119999
 11
-50.52877079969988
 21
63.11175816440007
  0
LINE
  8
1
  6
CONTINUOUS
 62
     7
 10
-63.73877079969975
 20
63.11175816570014
 11
-63.73877079969975
 21
40.71133690989992
  0
LINE
  8
1
  6
CONTINUOUS
 62
     7
 10
-49.22877079970002
 20
63.11175816570014
 11
-49.22877079970002
 21
40.71133690989992
  0
LINE
  8
1
  6
CONTINUOUS
 62
     7
 10
-52.85777079970001
 20
63.11175816570014
 11
-52.85777079970001
 21
40.71133690989992
  0
LINE
  8
1
  6
CONTINUOUS
 62
     7
 10
-65.03877079939035
 20
40.71133691119999
 11
-65.03877079969983
 21
63.11175816440007
  0
LINE
  8
1
  6
CONTINUOUS
 62
     7
 10
-56.48077079969998
 20
63.11175816570014
 11
-56.48077079969998
 21
40.71133690989992
  0
LINE
  8
1
  6
CONTINUOUS
 62
     7
 10
-63.28060521299989
 20
63.4115475378001
 11
-61.86793638719995
 21
63.4115475378001
  0
LINE
  8
1
  6
CONTINUOUS
 62
     7
 10
-60.10977079948417
 20
63.11175816570014
 11
-60.10977079991579
 21
40.71133690989992
  0
ARC
  8
1
  6
CONTINUOUS
 62
     7
 10
-46.24977079999994
 20
61.60130068230007
 40
0.4897531444999505
 50
184.9999999999998
 51
355.0000000000002
  0
ARC
  8
1
  6
CONTINUOUS
 62
     7
 10
-36.47093638709998
 20
62.91154753820005
 40
0.4999999999999429
 50
4.999999999999845
 51
89.99999999999994
  0
ARC
  8
1
  6
CONTINUOUS
 62
     7
 10
-41.51260521299994
 20
62.91154753820005
 40
0.4999999999999449
 50
90.0
 51
175.0000000000001
  0
ARC
  8
1
  6
CONTINUOUS
 62
     7
 10
-52.39960521299992
 20
62.91154753820005
 40
0.4999999999999449
 50
90.0
 51
175.0000000000001
  0
ARC
  8
1
  6
CONTINUOUS
 62
     7
 10
-34.25460521299996
 20
62.91154753820005
 40
0.4999999999999449
 50
90.0
 51
175.0000000000001
  0
ARC
  8
1
  6
CONTINUOUS
 62
     7
 10
-43.72893638709986
 20
62.91154753820005
 40
0.4999999999999429
 50
4.999999999999845
 51
89.99999999999994
  0
ARC
  8
1
  6
CONTINUOUS
 62
     7
 10
-53.50777080000003
 20
61.60130068230007
 40
0.4897531444999505
 50
184.9999999999998
 51
355.0000000000002
  0
ARC
  8
1
  6
CONTINUOUS
 62
     7
 10
-45.14160521290002
 20
62.91154753970007
 40
0.4999999999999449
 50
90.0
 51
174.9999999998995
  0
ARC
  8
1
  6
CONTINUOUS
 62
     7
 10
-47.3579363872
 20
62.91154753970007
 40
0.4999999999999431
 50
5.000000000100492
 51
90.00000000000001
  0
ARC
  8
1
  6
CONTINUOUS
 62
     7
 10
-49.87877079999993
 20
61.60130068230007
 40
0.4897531444999505
 50
184.9999999999998
 51
355.0000000000002
  0
ARC
  8
1
  6
CONTINUOUS
 62
     7
 10
-14.69693638709992
 20
62.91154753820005
 40
0.4999999999999446
 50
4.999999999999845
 51
89.99999999999996
  0
ARC
  8
1
  6
CONTINUOUS
 62
     7
 10
-12.48060521299989
 20
62.91154753820005
 40
0.4999999999999449
 50
90.0
 51
175.0000000000001
  0
ARC
  8
1
  6
CONTINUOUS
 62
     7
 10
-48.77060521299993
 20
62.91154753820005
 40
0.4999999999999449
 50
90.0
 51
175.0000000000001
  0
ARC
  8
1
  6
CONTINUOUS
 62
     7
 10
-37.88360521289992
 20
62.91154753970007
 40
0.4999999999999449
 50
90.0
 51
174.9999999998995
  0
ARC
  8
1
  6
CONTINUOUS
 62
     7
 10
-32.84193638720002
 20
62.91154753970007
 40
0.4999999999999431
 50
5.000000000100492
 51
90.00000000000001
  0
ARC
  8
1
  6
CONTINUOUS
 62
     7
 10
-50.98693638719999
 20
62.91154753970007
 40
0.4999999999999431
 50
5.000000000100492
 51
90.00000000000001
  0
ARC
  8
1
  6
CONTINUOUS
 62
     7
 10
-42.62077079999995
 20
61.60130068230007
 40
0.4897531444999505
 50
184.9999999999998
 51
355.0000000000002
  0
ARC
  8
1
  6
CONTINUOUS
 62
     7
 10
-40.0999363871999
 20
62.91154753970007
 40
0.4999999999999431
 50
5.000000000100492
 51
90.00000000000001
  0
ARC
  8
1
  6
CONTINUOUS
 62
     7
 10
-54.61593638709995
 20
62.91154753820005
 40
0.4999999999999429
 50
4.999999999999845
 51
89.99999999999994
  0
ARC
  8
1
  6
CONTINUOUS
 62
     7
 10
-38.99177079999995
 20
61.60130068230007
 40
0.4897531444999505
 50
184.9999999999998
 51
355.0000000000002
  0
ARC
  8
1
  6
CONTINUOUS
 62
     7
 10
-13.58877079999978
 20
61.60130068230007
 40
0.4897531444999488
 50
184.9999999999998
 51
355.0000000000002
  0
ARC
  8
1
  6
CONTINUOUS
 62
     7
 10
-28.10477079999997
 20
42.22179439329998
 40
0.4897531444999505
 50
4.999999999999845
 51
175.0000000000002
  0
ARC
  8
1
  6
CONTINUOUS
 62
     7
 10
149.6982292000001
 20
61.60130068230007
 40
0.4897531444999367
 50
185.0000000000001
 51
355.0
  0
ARC
  8
1
  6
CONTINUOUS
 62
     7
 10
148.5900636128
 20
62.91154753970007
 40
0.4999999999999431
 50
5.000000000100492
 51
90.00000000000001
  0
ARC
  8
1
  6
CONTINUOUS
 62
     7
 10
-94.52893638709986
 20
40.9115475374
 40
0.4999999999999449
 50
270.0
 51
355.0000000000002
  0
ARC
  8
1
  6
CONTINUOUS
 62
     7
 10
147.1773947870001
 20
62.91154753820005
 40
0.4999999999999449
 50
90.0
 51
175.0000000000002
  0
ARC
  8
1
  6
CONTINUOUS
 62
     7
 10
-101.7869363872
 20
40.91154753589998
 40
0.4999999999999449
 50
270.0
 51
354.9999999999003
  0
ARC
  8
1
  6
CONTINUOUS
 62
     7
 10
-9.959770800000003
 20
42.22179439329998
 40
0.4897531444999488
 50
4.999999999999845
 51
175.0000000000001
  0
ARC
  8
1
  6
CONTINUOUS
 62
     7
 10
-47.3579363872
 20
40.91154753589998
 40
0.4999999999999449
 50
270.0
 51
354.9999999999003
  0
ARC
  8
1
  6
CONTINUOUS
 62
     7
 10
-103.1996052129999
 20
40.9115475374
 40
0.4999999999999498
 50
184.9999999999998
 51
269.9999999999999
  0
ARC
  8
1
  6
CONTINUOUS
 62
     7
 10
-42.62077079999995
 20
42.22179439329998
 40
0.4897531444999505
 50
4.999999999999845
 51
175.0000000000002
  0
ARC
  8
1
  6
CONTINUOUS
 62
     7
 10
-12.48060521299989
 20
40.9115475374
 40
0.4999999999999446
 50
184.9999999999998
 51
269.9999999999999
  0
ARC
  8
1
  6
CONTINUOUS
 62
     7
 10
150.8063947871
 20
62.91154753970007
 40
0.4999999999999449
 50
90.0
 51
174.9999999998995
  0
ARC
  8
1
  6
CONTINUOUS
 62
     7
 10
-29.21293638719992
 20
40.91154753589998
 40
0.4999999999999449
 50
270.0
 51
354.9999999999003
  0
ARC
  8
1
  6
CONTINUOUS
 62
     7
 10
146.0692292
 20
61.60130068230007
 40
0.4897531444999367
 50
185.0000000000001
 51
355.0
  0
ARC
  8
1
  6
CONTINUOUS
 62
     7
 10
-26.99660521289994
 20
40.91154753589998
 40
0.4999999999999459
 50
185.0000000000995
 51
269.9999999999999
  0
ARC
  8
1
  6
CONTINUOUS
 62
     7
 10
-30.62560521299996
 20
40.9115475374
 40
0.4999999999999463
 50
184.9999999999998
 51
269.9999999999999
  0
ARC
  8
1
  6
CONTINUOUS
 62
     7
 10
-92.31260521299994
 20
40.9115475374
 40
0.4999999999999498
 50
184.9999999999998
 51
269.9999999999999
  0
ARC
  8
1
  6
CONTINUOUS
 62
     7
 10
-64.38877079999978
 20
42.22179439329998
 40
0.4897531444999505
 50
4.999999999999845
 51
175.0000000000002
  0
ARC
  8
1
  6
CONTINUOUS
 62
     7
 10
-63.28060521299989
 20
40.9115475374
 40
0.4999999999999498
 50
184.9999999999998
 51
269.9999999999999
  0
ARC
  8
1
  6
CONTINUOUS
 62
     7
 10
-19.73860521289996
 20
40.91154753589998
 40
0.4999999999999459
 50
185.0000000000995
 51
269.9999999999999
  0
ARC
  8
1
  6
CONTINUOUS
 62
     7
 10
-18.32593638710002
 20
40.9115475374
 40
0.4999999999999449
 50
270.0
 51
355.0000000000002
  0
ARC
  8
1
  6
CONTINUOUS
 62
     7
 10
-31.73377079999996
 20
42.22179439329998
 40
0.4897531444999505
 50
4.999999999999845
 51
175.0000000000002
  0
ARC
  8
1
  6
CONTINUOUS
 62
     7
 10
-105.4159363870999
 20
40.9115475374
 40
0.4999999999999449
 50
270.0
 51
355.0000000000002
  0
ARC
  8
1
  6
CONTINUOUS
 62
     7
 10
-99.57060521299992
 20
40.9115475374
 40
0.4999999999999498
 50
184.9999999999998
 51
269.9999999999999
  0
ARC
  8
1
  6
CONTINUOUS
 62
     7
 10
-104.3077708
 20
42.22179439329998
 40
0.4897531444999505
 50
4.999999999999845
 51
175.0000000000002
  0
ARC
  8
1
  6
CONTINUOUS
 62
     7
 10
-7.438936387099928
 20
40.9115475374
 40
0.4999999999999449
 50
270.0
 51
355.0000000000002
  0
ARC
  8
1
  6
CONTINUOUS
 62
     7
 10
-17.21777079999988
 20
42.22179439329998
 40
0.4897531444999505
 50
4.999999999999845
 51
175.0000000000002
  0
ARC
  8
1
  6
CONTINUOUS
 62
     7
 10
-20.84677079999987
 20
42.22179439329998
 40
0.4897531444999505
 50
4.999999999999845
 51
175.0000000000002
  0
ARC
  8
1
  6
CONTINUOUS
 62
     7
 10
-34.25460521299996
 20
40.9115475374
 40
0.4999999999999429
 50
184.9999999999998
 51
269.9999999999999
  0
ARC
  8
1
  6
CONTINUOUS
 62
     7
 10
-38.99177079999995
 20
42.22179439329998
 40
0.4897531444999505
 50
4.999999999999845
 51
175.0000000000002
  0
ARC
  8
1
  6
CONTINUOUS
 62
     7
 10
-41.51260521299994
 20
40.9115475374
 40
0.4999999999999429
 50
184.9999999999998
 51
269.9999999999999
  0
ARC
  8
1
  6
CONTINUOUS
 62
     7
 10
-65.49693638709991
 20
40.9115475374
 40
0.4999999999999449
 50
270.0
 51
355.0000000000002
  0
ARC
  8
1
  6
CONTINUOUS
 62
     7
 10
-46.24977079999994
 20
42.22179439329998
 40
0.4897531444999505
 50
4.999999999999845
 51
175.0000000000002
  0
ARC
  8
1
  6
CONTINUOUS
 62
     7
 10
-45.14160521290002
 20
40.91154753589998
 40
0.4999999999999424
 50
185.0000000000996
 51
269.9999999999999
  0
ARC
  8
1
  6
CONTINUOUS
 62
     7
 10
-100.6787707999999
 20
42.22179439329998
 40
0.4897531444999505
 50
4.999999999999845
 51
175.0000000000002
  0
ARC
  8
1
  6
CONTINUOUS
 62
     7
 10
-23.36760521299987
 20
40.9115475374
 40
0.4999999999999463
 50
184.9999999999998
 51
269.9999999999999
  0
ARC
  8
1
  6
CONTINUOUS
 62
     7
 10
-24.47577079999998
 20
42.22179439329998
 40
0.4897531444999505
 50
4.999999999999845
 51
175.0000000000002
  0
ARC
  8
1
  6
CONTINUOUS
 62
     7
 10
-36.47093638709998
 20
40.9115475374
 40
0.4999999999999449
 50
270.0
 51
355.0000000000002
  0
ARC
  8
1
  6
CONTINUOUS
 62
     7
 10
-49.87877079999993
 20
42.22179439329998
 40
0.4897531444999505
 50
4.999999999999845
 51
175.0000000000002
  0
ARC
  8
1
  6
CONTINUOUS
 62
     7
 10
-97.04977079999993
 20
42.22179439329998
 40
0.4897531444999505
 50
4.999999999999845
 51
175.0000000000002
  0
ARC
  8
1
  6
CONTINUOUS
 62
     7
 10
-21.95493638719993
 20
40.91154753589998
 40
0.4999999999999449
 50
270.0
 51
354.9999999999003
  0
ARC
  8
1
  6
CONTINUOUS
 62
     7
 10
-25.5839363870999
 20
40.9115475374
 40
0.4999999999999449
 50
270.0
 51
355.0000000000002
  0
ARC
  8
1
  6
CONTINUOUS
 62
     7
 10
-95.94160521290001
 20
40.91154753589998
 40
0.4999999999999424
 50
185.0000000000996
 51
269.9999999999999
  0
ARC
  8
1
  6
CONTINUOUS
 62
     7
 10
-37.88360521289992
 20
40.91154753589998
 40
0.4999999999999424
 50
185.0000000000996
 51
269.9999999999999
  0
ARC
  8
1
  6
CONTINUOUS
 62
     7
 10
-16.10960521299999
 20
40.9115475374
 40
0.4999999999999463
 50
184.9999999999998
 51
269.9999999999999
  0
ARC
  8
1
  6
CONTINUOUS
 62
     7
 10
-8.851605212899862
 20
40.91154753589998
 40
0.4999999999999442
 50
185.0000000000996
 51
269.9999999999999
  0
ARC
  8
1
  6
CONTINUOUS
 62
     7
 10
-5.222605212999901
 20
40.9115475374
 40
0.4999999999999446
 50
184.9999999999998
 51
269.9999999999999
  0
ARC
  8
1
  6
CONTINUOUS
 62
     7
 10
-40.0999363871999
 20
40.91154753589998
 40
0.4999999999999449
 50
270.0
 51
354.9999999999003
  0
ARC
  8
1
  6
CONTINUOUS
 62
     7
 10
-93.42077079999994
 20
42.22179439329998
 40
0.4897531444999505
 50
4.999999999999845
 51
175.0000000000002
  0
ARC
  8
1
  6
CONTINUOUS
 62
     7
 10
-43.72893638709986
 20
40.9115475374
 40
0.4999999999999449
 50
270.0
 51
355.0000000000002
  0
ARC
  8
1
  6
CONTINUOUS
 62
     7
 10
-32.84193638720002
 20
40.91154753589998
 40
0.4999999999999449
 50
270.0
 51
354.9999999999003
  0
ARC
  8
1
  6
CONTINUOUS
 62
     7
 10
-98.1579363872
 20
40.91154753589998
 40
0.4999999999999449
 50
270.0
 51
354.9999999999003
  0
ARC
  8
1
  6
CONTINUOUS
 62
     7
 10
-48.77060521299993
 20
40.9115475374
 40
0.4999999999999429
 50
184.9999999999998
 51
269.9999999999999
  0
ARC
  8
1
  6
CONTINUOUS
 62
     7
 10
-35.36277079999984
 20
42.22179439329998
 40
0.4897531444999505
 50
4.999999999999845
 51
175.0000000000002
  0
ARC
  8
1
  6
CONTINUOUS
 62
     7
 10
-6.33077080000001
 20
42.22179439329998
 40
0.4897531444999488
 50
4.999999999999845
 51
175.0000000000001
  0
ARC
  8
1
  6
CONTINUOUS
 62
     7
 10
-50.98693638719999
 20
40.91154753589998
 40
0.4999999999999449
 50
270.0
 51
354.9999999999003
  0
ARC
  8
1
  6
CONTINUOUS
 62
     7
 10
-52.39960521299992
 20
40.9115475374
 40
0.4999999999999429
 50
184.9999999999998
 51
269.9999999999999
  0
ARC
  8
1
  6
CONTINUOUS
 62
     7
 10
-54.61593638709995
 20
40.9115475374
 40
0.4999999999999449
 50
270.0
 51
355.0000000000002
  0
ARC
  8
1
  6
CONTINUOUS
 62
     7
 10
-53.50777080000003
 20
42.22179439329998
 40
0.4897531444999505
 50
4.999999999999845
 51
175.0000000000002
  0
ARC
  8
1
  6
CONTINUOUS
 62
     7
 10
-14.69693638709992
 20
40.9115475374
 40
0.4999999999999449
 50
270.0
 51
355.0000000000002
  0
ARC
  8
1
  6
CONTINUOUS
 62
     7
 10
-13.58877079999978
 20
42.22179439329998
 40
0.4897531444999488
 50
4.999999999999845
 51
175.0000000000001
  0
ARC
  8
1
  6
CONTINUOUS
 62
     7
 10
159.4770636128001
 20
62.91154753970007
 40
0.4999999999999431
 50
5.000000000100492
 51
90.00000000000001
  0
ARC
  8
1
  6
CONTINUOUS
 62
     7
 10
-107.9367707982999
 20
61.60130068230007
 40
0.4897531444999505
 50
184.9999999999998
 51
355.0000000000002
  0
ARC
  8
1
  6
CONTINUOUS
 62
     7
 10
115.9290636129
 20
62.91154753820005
 40
0.4999999999999498
 50
4.999999999999773
 51
89.99999999999994
  0
ARC
  8
1
  6
CONTINUOUS
 62
     7
 10
101.4130636128
 20
62.91154753970007
 40
0.4999999999999431
 50
5.000000000100492
 51
90.00000000000001
  0
ARC
  8
1
  6
CONTINUOUS
 62
     7
 10
129.0323947870001
 20
62.91154753820005
 40
0.4999999999999449
 50
90.0
 51
175.0000000000002
  0
ARC
  8
1
  6
CONTINUOUS
 62
     7
 10
119.5580636128
 20
62.91154753970007
 40
0.4999999999999431
 50
5.000000000100492
 51
90.00000000000001
  0
ARC
  8
1
  6
CONTINUOUS
 62
     7
 10
110.887394787
 20
62.91154753820005
 40
0.4999999999999449
 50
90.0
 51
175.0000000000002
  0
ARC
  8
1
  6
CONTINUOUS
 62
     7
 10
-116.3029363854
 20
62.91154753820005
 40
0.4999999999999498
 50
4.999999999999773
 51
89.99999999999994
  0
ARC
  8
1
  6
CONTINUOUS
 62
     7
 10
-117.7156052111999
 20
62.91154753970007
 40
0.4999999999999449
 50
90.0
 51
174.9999999998995
  0
ARC
  8
1
  6
CONTINUOUS
 62
     7
 10
108.6710636129001
 20
62.91154753820005
 40
0.4999999999999498
 50
4.999999999999773
 51
89.99999999999994
  0
ARC
  8
1
  6
CONTINUOUS
 62
     7
 10
136.290394787
 20
62.91154753820005
 40
0.4999999999999449
 50
90.0
 51
175.0000000000002
  0
ARC
  8
1
  6
CONTINUOUS
 62
     7
 10
154.4353947870001
 20
62.91154753820005
 40
0.4999999999999449
 50
90.0
 51
175.0000000000002
  0
ARC
  8
1
  6
CONTINUOUS
 62
     7
 10
-120.7646370595999
 20
62.52173349060008
 40
0.9999999999999998
 50
20.57854856550014
 51
81.81520537349972
  0
ARC
  8
1
  6
CONTINUOUS
 62
     7
 10
127.9242292
 20
61.60130068230007
 40
0.4897531444999367
 50
185.0000000000001
 51
355.0
  0
ARC
  8
1
  6
CONTINUOUS
 62
     7
 10
144.9610636129001
 20
62.91154753820005
 40
0.4999999999999498
 50
4.999999999999773
 51
89.99999999999994
  0
ARC
  8
1
  6
CONTINUOUS
 62
     7
 10
124.2952292
 20
61.60130068230007
 40
0.4897531444999505
 50
184.9999999999998
 51
355.0000000000002
  0
ARC
  8
1
  6
CONTINUOUS
 62
     7
 10
112.3000636128001
 20
62.91154753970007
 40
0.4999999999999431
 50
5.000000000100492
 51
90.00000000000001
  0
ARC
  8
1
  6
CONTINUOUS
 62
     7
 10
109.7792292
 20
61.60130068230007
 40
0.4897531444999505
 50
184.9999999999998
 51
355.0000000000002
  0
ARC
  8
1
  6
CONTINUOUS
 62
     7
 10
117.0372292000001
 20
61.60130068230007
 40
0.4897531444999505
 50
184.9999999999998
 51
355.0000000000002
  0
ARC
  8
1
  6
CONTINUOUS
 62
     7
 10
158.064394787
 20
62.91154753820005
 40
0.4999999999999449
 50
90.0
 51
175.0000000000002
  0
ARC
  8
1
  6
CONTINUOUS
 62
     7
 10
-109.0449363854999
 20
62.91154753970007
 40
0.4999999999999431
 50
5.000000000100492
 51
90.00000000000001
  0
ARC
  8
1
  6
CONTINUOUS
 62
     7
 10
-110.4576052112999
 20
62.91154753820005
 40
0.4999999999999449
 50
90.0
 51
175.0000000000002
  0
ARC
  8
1
  6
CONTINUOUS
 62
     7
 10
130.4450636128001
 20
62.91154753970007
 40
0.4999999999999431
 50
5.000000000100492
 51
90.00000000000001
  0
ARC
  8
1
  6
CONTINUOUS
 62
     7
 10
132.6613947871001
 20
62.91154753970007
 40
0.4999999999999449
 50
90.0
 51
174.9999999998995
  0
ARC
  8
1
  6
CONTINUOUS
 62
     7
 10
156.9562292000001
 20
61.60130068230007
 40
0.4897531444999367
 50
185.0000000000001
 51
355.0
  0
ARC
  8
1
  6
CONTINUOUS
 62
     7
 10
155.8480636128001
 20
62.91154753970007
 40
0.4999999999999431
 50
5.000000000100492
 51
90.00000000000001
  0
ARC
  8
1
  6
CONTINUOUS
 62
     7
 10
-111.5657707982999
 20
61.60130068230007
 40
0.4897531444999505
 50
184.9999999999998
 51
355.0000000000002
  0
ARC
  8
1
  6
CONTINUOUS
 62
     7
 10
102.5212292000001
 20
61.60130068230007
 40
0.4897531444999505
 50
184.9999999999998
 51
355.0000000000002
  0
ARC
  8
1
  6
CONTINUOUS
 62
     7
 10
100.0003947870001
 20
62.91154753820005
 40
0.4999999999999449
 50
90.0
 51
175.0000000000002
  0
ARC
  8
1
  6
CONTINUOUS
 62
     7
 10
120.6662292
 20
61.60130068230007
 40
0.4897531444999505
 50
184.9999999999998
 51
355.0000000000002
  0
ARC
  8
1
  6
CONTINUOUS
 62
     7
 10
162.5260954613
 20
62.52173349060008
 40
0.9999999999999954
 50
98.1847946264995
 51
159.4214514343994
  0
ARC
  8
1
  6
CONTINUOUS
 62
     7
 10
114.5163947871001
 20
62.91154753970007
 40
0.4999999999999449
 50
90.0
 51
174.9999999998995
  0
ARC
  8
1
  6
CONTINUOUS
 62
     7
 10
125.4033947871001
 20
62.91154753970007
 40
0.4999999999999449
 50
90.0
 51
174.9999999998995
  0
ARC
  8
1
  6
CONTINUOUS
 62
     7
 10
105.0420636128
 20
62.91154753970007
 40
0.4999999999999431
 50
5.000000000100492
 51
90.00000000000001
  0
ARC
  8
1
  6
CONTINUOUS
 62
     7
 10
-106.8286052111999
 20
62.91154753970007
 40
0.4999999999999449
 50
90.0
 51
174.9999999998995
  0
ARC
  8
1
  6
CONTINUOUS
 62
     7
 10
135.1822292000001
 20
61.60130068230007
 40
0.4897531444999367
 50
185.0000000000001
 51
355.0
  0
ARC
  8
1
  6
CONTINUOUS
 62
     7
 10
121.774394787
 20
62.91154753820005
 40
0.4999999999999449
 50
90.0
 51
175.0000000000002
  0
ARC
  8
1
  6
CONTINUOUS
 62
     7
 10
-115.1947707982999
 20
61.60130068230007
 40
0.4897531444999505
 50
184.9999999999998
 51
355.0000000000002
  0
ARC
  8
1
  6
CONTINUOUS
 62
     7
 10
107.2583947871
 20
62.91154753970007
 40
0.4999999999999449
 50
90.0
 51
174.9999999998995
  0
ARC
  8
1
  6
CONTINUOUS
 62
     7
 10
126.8160636129001
 20
62.91154753820005
 40
0.4999999999999498
 50
4.999999999999773
 51
89.99999999999994
  0
ARC
  8
1
  6
CONTINUOUS
 62
     7
 10
137.7030636129001
 20
62.91154753820005
 40
0.4999999999999498
 50
4.999999999999773
 51
89.99999999999994
  0
ARC
  8
1
  6
CONTINUOUS
 62
     7
 10
123.1870636128001
 20
62.91154753970007
 40
0.4999999999999431
 50
5.000000000100492
 51
90.00000000000001
  0
ARC
  8
1
  6
CONTINUOUS
 62
     7
 10
139.9193947870001
 20
62.91154753820005
 40
0.4999999999999449
 50
90.0
 51
175.0000000000002
  0
ARC
  8
1
  6
CONTINUOUS
 62
     7
 10
153.3272292000001
 20
61.60130068230007
 40
0.4897531444999367
 50
185.0000000000001
 51
355.0
  0
ARC
  8
1
  6
CONTINUOUS
 62
     7
 10
134.0740636129
 20
62.91154753820005
 40
0.4999999999999498
 50
4.999999999999773
 51
89.99999999999994
  0
ARC
  8
1
  6
CONTINUOUS
 62
     7
 10
152.2190636129002
 20
62.91154753820005
 40
0.4999999999999498
 50
4.999999999999773
 51
89.99999999999994
  0
ARC
  8
1
  6
CONTINUOUS
 62
     7
 10
142.4402292
 20
61.60130068230007
 40
0.4897531444999367
 50
185.0000000000001
 51
355.0
  0
ARC
  8
1
  6
CONTINUOUS
 62
     7
 10
106.1502292000001
 20
61.60130068230007
 40
0.4897531444999505
 50
184.9999999999998
 51
355.0000000000002
  0
ARC
  8
1
  6
CONTINUOUS
 62
     7
 10
143.5483947871001
 20
62.91154753970007
 40
0.4999999999999449
 50
90.0
 51
174.9999999998995
  0
ARC
  8
1
  6
CONTINUOUS
 62
     7
 10
-118.8237707983
 20
61.60130068230007
 40
0.4897531444999544
 50
200.5785485655995
 51
355.0000000000002
  0
ARC
  8
1
  6
CONTINUOUS
 62
     7
 10
113.4082292
 20
61.60130068230007
 40
0.4897531444999505
 50
184.9999999999998
 51
355.0000000000002
  0
ARC
  8
1
  6
CONTINUOUS
 62
     7
 10
-112.6739363853999
 20
62.91154753820005
 40
0.4999999999999498
 50
4.999999999999773
 51
89.99999999999994
  0
ARC
  8
1
  6
CONTINUOUS
 62
     7
 10
98.89222919999996
 20
61.60130068230007
 40
0.4897531444999505
 50
184.9999999999998
 51
355.0000000000002
  0
ARC
  8
1
  6
CONTINUOUS
 62
     7
 10
160.5852292000001
 20
61.60130068230007
 40
0.4897531444999367
 50
185.0000000000001
 51
339.4214514344
  0
ARC
  8
1
  6
CONTINUOUS
 62
     7
 10
138.8112292000002
 20
61.60130068230007
 40
0.4897531444999367
 50
185.0000000000001
 51
355.0
  0
ARC
  8
1
  6
CONTINUOUS
 62
     7
 10
95.26922919999998
 20
61.60130068230007
 40
0.4897531444999505
 50
184.9999999999998
 51
355.0000000000002
  0
ARC
  8
1
  6
CONTINUOUS
 62
     7
 10
-114.0866052111999
 20
62.91154753970007
 40
0.4999999999999449
 50
90.0
 51
174.9999999998995
  0
ARC
  8
1
  6
CONTINUOUS
 62
     7
 10
131.5532292000001
 20
61.60130068230007
 40
0.4897531444999367
 50
185.0000000000001
 51
355.0
  0
ARC
  8
1
  6
CONTINUOUS
 62
     7
 10
118.145394787
 20
62.91154753820005
 40
0.4999999999999449
 50
90.0
 51
175.0000000000002
  0
ARC
  8
1
  6
CONTINUOUS
 62
     7
 10
103.6293947870001
 20
62.91154753820005
 40
0.4999999999999449
 50
90.0
 51
175.0000000000002
  0
ARC
  8
1
  6
CONTINUOUS
 62
     7
 10
94.16106361290007
 20
62.91154753820005
 40
0.4999999999999498
 50
4.999999999999773
 51
89.99999999999994
  0
ARC
  8
1
  6
CONTINUOUS
 62
     7
 10
86.90306361290008
 20
62.91154753820005
 40
0.4999999999999498
 50
4.999999999999773
 51
89.99999999999994
  0
ARC
  8
1
  6
CONTINUOUS
 62
     7
 10
66.23722920000014
 20
61.60130068230007
 40
0.4897531444999505
 50
184.9999999999998
 51
355.0000000000002
  0
ARC
  8
1
  6
CONTINUOUS
 62
     7
 10
74.60339478710006
 20
62.91154753970007
 40
0.4999999999999449
 50
90.0
 51
174.9999999998995
  0
ARC
  8
1
  6
CONTINUOUS
 62
     7
 10
77.12422920000002
 20
61.60130068230007
 40
0.4897531444999505
 50
184.9999999999998
 51
355.0000000000002
  0
ARC
  8
1
  6
CONTINUOUS
 62
     7
 10
76.0160636129001
 20
62.91154753820005
 40
0.4999999999999498
 50
4.999999999999773
 51
89.99999999999994
  0
ARC
  8
1
  6
CONTINUOUS
 62
     7
 10
50.6130636128
 20
62.91154753970007
 40
0.4999999999999431
 50
5.000000000100492
 51
90.00000000000001
  0
ARC
  8
1
  6
CONTINUOUS
 62
     7
 10
84.38222920000011
 20
61.60130068230007
 40
0.4897531444999505
 50
184.9999999999998
 51
355.0000000000002
  0
ARC
  8
1
  6
CONTINUOUS
 62
     7
 10
73.49522920000003
 20
61.60130068230007
 40
0.4897531444999505
 50
184.9999999999998
 51
355.0000000000002
  0
ARC
  8
1
  6
CONTINUOUS
 62
     7
 10
72.38706361280008
 20
62.91154753970007
 40
0.4999999999999431
 50
5.000000000100492
 51
90.00000000000001
  0
ARC
  8
1
  6
CONTINUOUS
 62
     7
 10
81.86139478710004
 20
62.91154753970007
 40
0.4999999999999449
 50
90.0
 51
174.9999999998995
  0
ARC
  8
1
  6
CONTINUOUS
 62
     7
 10
92.74839478710012
 20
62.91154753970007
 40
0.4999999999999449
 50
90.0
 51
174.9999999998995
  0
ARC
  8
1
  6
CONTINUOUS
 62
     7
 10
33.58222920000012
 20
61.60130068230007
 40
0.4897531444999505
 50
184.9999999999998
 51
355.0000000000002
  0
ARC
  8
1
  6
CONTINUOUS
 62
     7
 10
29.95322920000012
 20
61.60130068230007
 40
0.4897531444999505
 50
184.9999999999998
 51
355.0000000000002
  0
ARC
  8
1
  6
CONTINUOUS
 62
     7
 10
56.45839478709998
 20
62.91154753970007
 40
0.4999999999999449
 50
90.0
 51
174.9999999998995
  0
ARC
  8
1
  6
CONTINUOUS
 62
     7
 10
43.36106361290007
 20
62.91154753820005
 40
0.4999999999999429
 50
4.999999999999845
 51
89.99999999999994
  0
ARC
  8
1
  6
CONTINUOUS
 62
     7
 10
91.6402292
 20
61.60130068230007
 40
0.4897531444999505
 50
184.9999999999998
 51
355.0000000000002
  0
ARC
  8
1
  6
CONTINUOUS
 62
     7
 10
52.82939478700006
 20
62.91154753820005
 40
0.4999999999999449
 50
90.0
 51
175.0000000000001
  0
ARC
  8
1
  6
CONTINUOUS
 62
     7
 10
41.94839478710013
 20
62.91154753970007
 40
0.4999999999999449
 50
90.0
 51
174.9999999998995
  0
ARC
  8
1
  6
CONTINUOUS
 62
     7
 10
45.5773947870001
 20
62.91154753820005
 40
0.4999999999999449
 50
90.0
 51
175.0000000000001
  0
ARC
  8
1
  6
CONTINUOUS
 62
     7
 10
70.97439478700002
 20
62.91154753820005
 40
0.4999999999999449
 50
90.0
 51
175.0000000000002
  0
ARC
  8
1
  6
CONTINUOUS
 62
     7
 10
31.06139478710004
 20
62.91154753970007
 40
0.4999999999999449
 50
90.0
 51
174.9999999998996
  0
ARC
  8
1
  6
CONTINUOUS
 62
     7
 10
63.71639478710007
 20
62.91154753970007
 40
0.4999999999999449
 50
90.0
 51
174.9999999998995
  0
ARC
  8
1
  6
CONTINUOUS
 62
     7
 10
49.20039478700007
 20
62.91154753820005
 40
0.4999999999999449
 50
90.0
 51
175.0000000000001
  0
ARC
  8
1
  6
CONTINUOUS
 62
     7
 10
55.35022920000006
 20
61.60130068230007
 40
0.4897531444999505
 50
184.9999999999998
 51
355.0000000000002
  0
ARC
  8
1
  6
CONTINUOUS
 62
     7
 10
32.47406361289998
 20
62.91154753820005
 40
0.4999999999999429
 50
4.999999999999845
 51
89.99999999999994
  0
ARC
  8
1
  6
CONTINUOUS
 62
     7
 10
26.32422920000002
 20
61.60130068230007
 40
0.4897531444999505
 50
184.9999999999998
 51
355.0000000000002
  0
ARC
  8
1
  6
CONTINUOUS
 62
     7
 10
23.80339478710006
 20
62.91154753970007
 40
0.4999999999999449
 50
90.0
 51
174.9999999998996
  0
ARC
  8
1
  6
CONTINUOUS
 62
     7
 10
25.2160636129001
 20
62.91154753820005
 40
0.4999999999999463
 50
4.999999999999845
 51
89.99999999999996
  0
ARC
  8
1
  6
CONTINUOUS
 62
     7
 10
21.58706361280008
 20
62.91154753970007
 40
0.4999999999999465
 50
5.000000000100492
 51
90.00000000000006
  0
ARC
  8
1
  6
CONTINUOUS
 62
     7
 10
44.46922919999999
 20
61.60130068230007
 40
0.4897531444999505
 50
184.9999999999998
 51
355.0000000000002
  0
ARC
  8
1
  6
CONTINUOUS
 62
     7
 10
20.17439478700003
 20
62.91154753820005
 40
0.4999999999999449
 50
90.0
 51
175.0000000000001
  0
ARC
  8
1
  6
CONTINUOUS
 62
     7
 10
65.12906361290001
 20
62.91154753820005
 40
0.4999999999999498
 50
4.999999999999773
 51
89.99999999999994
  0
ARC
  8
1
  6
CONTINUOUS
 62
     7
 10
78.23239478700013
 20
62.91154753820005
 40
0.4999999999999449
 50
90.0
 51
175.0000000000002
  0
ARC
  8
1
  6
CONTINUOUS
 62
     7
 10
54.2420636128
 20
62.91154753970007
 40
0.4999999999999431
 50
5.000000000100492
 51
90.00000000000001
  0
ARC
  8
1
  6
CONTINUOUS
 62
     7
 10
28.84506361280006
 20
62.91154753970007
 40
0.4999999999999465
 50
5.000000000100492
 51
90.00000000000006
  0
ARC
  8
1
  6
CONTINUOUS
 62
     7
 10
15.43722920000015
 20
61.60130068230007
 40
0.4897531444999488
 50
184.9999999999998
 51
355.0000000000002
  0
ARC
  8
1
  6
CONTINUOUS
 62
     7
 10
79.64506361280006
 20
62.91154753970007
 40
0.4999999999999431
 50
5.000000000100492
 51
90.00000000000001
  0
ARC
  8
1
  6
CONTINUOUS
 62
     7
 10
22.69522920000003
 20
61.60130068230007
 40
0.4897531444999505
 50
184.9999999999998
 51
355.0000000000002
  0
ARC
  8
1
  6
CONTINUOUS
 62
     7
 10
19.06622920000003
 20
61.60130068230007
 40
0.4897531444999505
 50
184.9999999999998
 51
355.0000000000002
  0
ARC
  8
1
  6
CONTINUOUS
 62
     7
 10
17.95806361279997
 20
62.91154753970007
 40
0.4999999999999465
 50
5.000000000100492
 51
90.00000000000006
  0
ARC
  8
1
  6
CONTINUOUS
 62
     7
 10
83.27406361289998
 20
62.91154753820005
 40
0.4999999999999498
 50
4.999999999999773
 51
89.99999999999994
  0
ARC
  8
1
  6
CONTINUOUS
 62
     7
 10
96.3773947870001
 20
62.91154753820005
 40
0.4999999999999449
 50
90.0
 51
175.0000000000002
  0
ARC
  8
1
  6
CONTINUOUS
 62
     7
 10
69.86622920000003
 20
61.60130068230007
 40
0.4897531444999505
 50
184.9999999999998
 51
355.0000000000002
  0
ARC
  8
1
  6
CONTINUOUS
 62
     7
 10
60.08739478700005
 20
62.91154753820005
 40
0.4999999999999449
 50
90.0
 51
175.0000000000001
  0
ARC
  8
1
  6
CONTINUOUS
 62
     7
 10
88.01122920000022
 20
61.60130068230007
 40
0.4897531444999505
 50
184.9999999999998
 51
355.0000000000002
  0
ARC
  8
1
  6
CONTINUOUS
 62
     7
 10
62.60822920000005
 20
61.60130068230007
 40
0.4897531444999505
 50
184.9999999999998
 51
355.0000000000002
  0
ARC
  8
1
  6
CONTINUOUS
 62
     7
 10
48.09222919999996
 20
61.60130068230007
 40
0.4897531444999505
 50
184.9999999999998
 51
355.0000000000002
  0
ARC
  8
1
  6
CONTINUOUS
 62
     7
 10
51.72122920000007
 20
61.60130068230007
 40
0.4897531444999505
 50
184.9999999999998
 51
355.0000000000002
  0
ARC
  8
1
  6
CONTINUOUS
 62
     7
 10
61.5000636128001
 20
62.91154753970007
 40
0.4999999999999431
 50
5.000000000100492
 51
90.00000000000001
  0
ARC
  8
1
  6
CONTINUOUS
 62
     7
 10
46.98406361290004
 20
62.91154753820005
 40
0.4999999999999429
 50
4.999999999999845
 51
89.99999999999994
  0
ARC
  8
1
  6
CONTINUOUS
 62
     7
 10
68.75806361279997
 20
62.91154753970007
 40
0.4999999999999431
 50
5.000000000100492
 51
90.00000000000001
  0
ARC
  8
1
  6
CONTINUOUS
 62
     7
 10
89.1193947870001
 20
62.91154753820005
 40
0.4999999999999449
 50
90.0
 51
175.0000000000002
  0
ARC
  8
1
  6
CONTINUOUS
 62
     7
 10
58.97922920000005
 20
61.60130068230007
 40
0.4897531444999505
 50
184.9999999999998
 51
355.0000000000002
  0
ARC
  8
1
  6
CONTINUOUS
 62
     7
 10
40.8402292
 20
61.60130068230007
 40
0.4897531444999505
 50
184.9999999999998
 51
355.0000000000002
  0
ARC
  8
1
  6
CONTINUOUS
 62
     7
 10
34.690394787
 20
62.91154753820005
 40
0.4999999999999449
 50
90.0
 51
175.0000000000001
  0
ARC
  8
1
  6
CONTINUOUS
 62
     7
 10
80.75322920000012
 20
61.60130068230007
 40
0.4897531444999505
 50
184.9999999999998
 51
355.0000000000002
  0
ARC
  8
1
  6
CONTINUOUS
 62
     7
 10
67.34539478700003
 20
62.91154753820005
 40
0.4999999999999449
 50
90.0
 51
175.0000000000002
  0
ARC
  8
1
  6
CONTINUOUS
 62
     7
 10
27.43239478700013
 20
62.91154753820005
 40
0.4999999999999449
 50
90.0
 51
175.0000000000001
  0
ARC
  8
1
  6
CONTINUOUS
 62
     7
 10
85.490394787
 20
62.91154753820005
 40
0.4999999999999449
 50
90.0
 51
175.0000000000002
  0
ARC
  8
1
  6
CONTINUOUS
 62
     7
 10
57.87106361290013
 20
62.91154753820005
 40
0.4999999999999429
 50
4.999999999999845
 51
89.99999999999994
  0
ARC
  8
1
  6
CONTINUOUS
 62
     7
 10
-60.7597708
 20
61.60130068230007
 40
0.4897531444999505
 50
184.9999999999998
 51
355.0000000000002
  0
ARC
  8
1
  6
CONTINUOUS
 62
     7
 10
-94.52893638709986
 20
62.91154753820005
 40
0.4999999999999498
 50
4.999999999999773
 51
89.99999999999994
  0
ARC
  8
1
  6
CONTINUOUS
 62
     7
 10
-97.04977079999993
 20
61.60130068230007
 40
0.4897531444999505
 50
184.9999999999998
 51
355.0000000000002
  0
ARC
  8
1
  6
CONTINUOUS
 62
     7
 10
-98.1579363872
 20
62.91154753970007
 40
0.4999999999999431
 50
5.000000000100492
 51
90.00000000000001
  0
ARC
  8
1
  6
CONTINUOUS
 62
     7
 10
-93.42077079999994
 20
61.60130068230007
 40
0.4897531444999505
 50
184.9999999999998
 51
355.0000000000002
  0
ARC
  8
1
  6
CONTINUOUS
 62
     7
 10
10.7000636128001
 20
62.91154753970007
 40
0.4999999999999448
 50
5.000000000100418
 51
89.99999999999996
  0
ARC
  8
1
  6
CONTINUOUS
 62
     7
 10
0.9212292000000677
 20
61.60130068230007
 40
0.4897531444999491
 50
184.9999999999998
 51
355.0000000000002
  0
ARC
  8
1
  6
CONTINUOUS
 62
     7
 10
-99.57060521299992
 20
62.91154753820005
 40
0.4999999999999449
 50
90.0
 51
175.0000000000002
  0
ARC
  8
1
  6
CONTINUOUS
 62
     7
 10
-104.3077708
 20
61.60130068230007
 40
0.4897531444999505
 50
184.9999999999998
 51
355.0000000000002
  0
ARC
  8
1
  6
CONTINUOUS
 62
     7
 10
9.287394787000053
 20
62.91154753820005
 40
0.4999999999999449
 50
90.0
 51
175.0000000000001
  0
ARC
  8
1
  6
CONTINUOUS
 62
     7
 10
-82.53377079999996
 20
61.60130068230007
 40
0.4897531444999505
 50
184.9999999999998
 51
355.0000000000002
  0
ARC
  8
1
  6
CONTINUOUS
 62
     7
 10
-100.6787707999999
 20
61.60130068230007
 40
0.4897531444999505
 50
184.9999999999998
 51
355.0000000000002
  0
ARC
  8
1
  6
CONTINUOUS
 62
     7
 10
-80.01293638719991
 20
62.91154753970007
 40
0.4999999999999431
 50
5.000000000100492
 51
90.00000000000001
  0
ARC
  8
1
  6
CONTINUOUS
 62
     7
 10
-0.1869363871999929
 20
62.91154753970007
 40
0.4999999999999453
 50
5.000000000100492
 51
90.00000000000006
  0
ARC
  8
1
  6
CONTINUOUS
 62
     7
 10
-86.16277079999985
 20
61.60130068230007
 40
0.4897531444999505
 50
184.9999999999998
 51
355.0000000000002
  0
ARC
  8
1
  6
CONTINUOUS
 62
     7
 10
16.54539478700004
 20
62.91154753820005
 40
0.4999999999999449
 50
90.0
 51
175.0000000000001
  0
ARC
  8
1
  6
CONTINUOUS
 62
     7
 10
-101.7869363872
 20
62.91154753970007
 40
0.4999999999999431
 50
5.000000000100492
 51
90.00000000000001
  0
ARC
  8
1
  6
CONTINUOUS
 62
     7
 10
-68.01777079999988
 20
61.60130068230007
 40
0.4897531444999505
 50
184.9999999999998
 51
355.0000000000002
  0
ARC
  8
1
  6
CONTINUOUS
 62
     7
 10
-103.1996052129999
 20
62.91154753820005
 40
0.4999999999999449
 50
90.0
 51
175.0000000000002
  0
ARC
  8
1
  6
CONTINUOUS
 62
     7
 10
-105.4159363870999
 20
62.91154753820005
 40
0.4999999999999498
 50
4.999999999999773
 51
89.99999999999994
  0
ARC
  8
1
  6
CONTINUOUS
 62
     7
 10
-65.49693638709991
 20
62.91154753820005
 40
0.4999999999999498
 50
4.999999999999773
 51
89.99999999999994
  0
ARC
  8
1
  6
CONTINUOUS
 62
     7
 10
-64.38877079999978
 20
61.60130068230007
 40
0.4897531444999505
 50
184.9999999999998
 51
355.0000000000002
  0
ARC
  8
1
  6
CONTINUOUS
 62
     7
 10
-72.75493638719993
 20
62.91154753970007
 40
0.4999999999999431
 50
5.000000000100492
 51
90.00000000000001
  0
ARC
  8
1
  6
CONTINUOUS
 62
     7
 10
-63.28060521299989
 20
62.91154753820005
 40
0.4999999999999449
 50
90.0
 51
175.0000000000002
  0
ARC
  8
1
  6
CONTINUOUS
 62
     7
 10
-58.23893638709993
 20
62.91154753820005
 40
0.4999999999999429
 50
4.999999999999845
 51
89.99999999999994
  0
ARC
  8
1
  6
CONTINUOUS
 62
     7
 10
-66.90960521299999
 20
62.91154753820005
 40
0.4999999999999449
 50
90.0
 51
175.0000000000002
  0
ARC
  8
1
  6
CONTINUOUS
 62
     7
 10
14.32906361290001
 20
62.91154753820005
 40
0.4999999999999446
 50
4.999999999999845
 51
89.99999999999996
  0
ARC
  8
1
  6
CONTINUOUS
 62
     7
 10
5.658394787099979
 20
62.91154753970007
 40
0.4999999999999449
 50
90.0
 51
174.9999999998996
  0
ARC
  8
1
  6
CONTINUOUS
 62
     7
 10
-71.64677079999987
 20
61.60130068230007
 40
0.4897531444999505
 50
184.9999999999998
 51
355.0000000000002
  0
ARC
  8
1
  6
CONTINUOUS
 62
     7
 10
-2.707770800000036
 20
61.60130068230007
 40
0.4897531444999492
 50
184.9999999999998
 51
355.0000000000002
  0
ARC
  8
1
  6
CONTINUOUS
 62
     7
 10
38.31939478700011
 20
62.91154753820005
 40
0.4999999999999449
 50
90.0
 51
175.0000000000001
  0
ARC
  8
1
  6
CONTINUOUS
 62
     7
 10
-69.12593638710001
 20
62.91154753820005
 40
0.4999999999999498
 50
4.999999999999773
 51
89.99999999999994
  0
ARC
  8
1
  6
CONTINUOUS
 62
     7
 10
-83.64193638720002
 20
62.91154753970007
 40
0.4999999999999431
 50
5.000000000100492
 51
90.00000000000001
  0
ARC
  8
1
  6
CONTINUOUS
 62
     7
 10
-1.599605212999927
 20
62.91154753820005
 40
0.4999999999999449
 50
90.0
 51
175.0000000000001
  0
ARC
  8
1
  6
CONTINUOUS
 62
     7
 10
-78.90477079999997
 20
61.60130068230007
 40
0.4897531444999505
 50
184.9999999999998
 51
355.0000000000002
  0
ARC
  8
1
  6
CONTINUOUS
 62
     7
 10
-59.65160521289986
 20
62.91154753970007
 40
0.4999999999999449
 50
90.0
 51
174.9999999998995
  0
ARC
  8
1
  6
CONTINUOUS
 62
     7
 10
-3.815936387099955
 20
62.91154753820005
 40
0.4999999999999446
 50
4.999999999999845
 51
89.99999999999996
  0
ARC
  8
1
  6
CONTINUOUS
 62
     7
 10
37.21122920000023
 20
61.60130068230007
 40
0.4897531444999505
 50
184.9999999999998
 51
355.0000000000002
  0
ARC
  8
1
  6
CONTINUOUS
 62
     7
 10
4.550229200000061
 20
61.60130068230007
 40
0.4897531444999488
 50
184.9999999999998
 51
355.0000000000002
  0
ARC
  8
1
  6
CONTINUOUS
 62
     7
 10
12.91639478710008
 20
62.91154753970007
 40
0.4999999999999449
 50
90.0
 51
174.9999999998996
  0
ARC
  8
1
  6
CONTINUOUS
 62
     7
 10
-57.13077080000001
 20
61.60130068230007
 40
0.4897531444999505
 50
184.9999999999998
 51
355.0000000000002
  0
ARC
  8
1
  6
CONTINUOUS
 62
     7
 10
-56.0226052129999
 20
62.91154753820005
 40
0.4999999999999449
 50
90.0
 51
175.0000000000001
  0
ARC
  8
1
  6
CONTINUOUS
 62
     7
 10
-85.05460521299996
 20
62.91154753820005
 40
0.4999999999999449
 50
90.0
 51
175.0000000000002
  0
ARC
  8
1
  6
CONTINUOUS
 62
     7
 10
2.029394787000066
 20
62.91154753820005
 40
0.4999999999999449
 50
90.0
 51
175.0000000000001
  0
ARC
  8
1
  6
CONTINUOUS
 62
     7
 10
-89.79177079999995
 20
61.60130068230007
 40
0.4897531444999505
 50
184.9999999999998
 51
355.0000000000002
  0
ARC
  8
1
  6
CONTINUOUS
 62
     7
 10
-74.16760521299986
 20
62.91154753820005
 40
0.4999999999999449
 50
90.0
 51
175.0000000000002
  0
ARC
  8
1
  6
CONTINUOUS
 62
     7
 10
-88.68360521289992
 20
62.91154753970007
 40
0.4999999999999449
 50
90.0
 51
174.9999999998995
  0
ARC
  8
1
  6
CONTINUOUS
 62
     7
 10
-87.27093638709998
 20
62.91154753820005
 40
0.4999999999999498
 50
4.999999999999773
 51
89.99999999999994
  0
ARC
  8
1
  6
CONTINUOUS
 62
     7
 10
-90.8999363871999
 20
62.91154753970007
 40
0.4999999999999431
 50
5.000000000100492
 51
90.00000000000001
  0
ARC
  8
1
  6
CONTINUOUS
 62
     7
 10
-92.31260521299994
 20
62.91154753820005
 40
0.4999999999999449
 50
90.0
 51
175.0000000000002
  0
ARC
  8
1
  6
CONTINUOUS
 62
     7
 10
-81.42560521299995
 20
62.91154753820005
 40
0.4999999999999449
 50
90.0
 51
175.0000000000002
  0
ARC
  8
1
  6
CONTINUOUS
 62
     7
 10
-70.53860521289995
 20
62.91154753970007
 40
0.4999999999999449
 50
90.0
 51
174.9999999998995
  0
ARC
  8
1
  6
CONTINUOUS
 62
     7
 10
-95.94160521290001
 20
62.91154753970007
 40
0.4999999999999449
 50
90.0
 51
174.9999999998995
  0
ARC
  8
1
  6
CONTINUOUS
 62
     7
 10
8.179229200000055
 20
61.60130068230007
 40
0.4897531444999488
 50
184.9999999999998
 51
355.0000000000002
  0
ARC
  8
1
  6
CONTINUOUS
 62
     7
 10
7.071063612900136
 20
62.91154753820005
 40
0.4999999999999446
 50
4.999999999999845
 51
89.99999999999996
  0
ARC
  8
1
  6
CONTINUOUS
 62
     7
 10
-76.3839363870999
 20
62.91154753820005
 40
0.4999999999999498
 50
4.999999999999773
 51
89.99999999999994
  0
ARC
  8
1
  6
CONTINUOUS
 62
     7
 10
3.4420636128
 20
62.91154753970007
 40
0.4999999999999448
 50
5.000000000100418
 51
89.99999999999996
  0
ARC
  8
1
  6
CONTINUOUS
 62
     7
 10
36.10306361290008
 20
62.91154753820005
 40
0.4999999999999429
 50
4.999999999999845
 51
89.99999999999994
  0
ARC
  8
1
  6
CONTINUOUS
 62
     7
 10
-75.27577079999998
 20
61.60130068230007
 40
0.4897531444999505
 50
184.9999999999998
 51
355.0000000000002
  0
ARC
  8
1
  6
CONTINUOUS
 62
     7
 10
-77.79660521289993
 20
62.91154753970007
 40
0.4999999999999449
 50
90.0
 51
174.9999999998995
  0
ARC
  8
1
  6
CONTINUOUS
 62
     7
 10
11.80822920000005
 20
61.60130068230007
 40
0.4897531444999488
 50
184.9999999999998
 51
355.0000000000002
  0
ARC
  8
1
  6
CONTINUOUS
 62
     7
 10
-9.959770800000003
 20
61.60130068230007
 40
0.4897531444999488
 50
184.9999999999998
 51
355.0000000000002
  0
ARC
  8
1
  6
CONTINUOUS
 62
     7
 10
-8.851605212899862
 20
62.91154753970007
 40
0.4999999999999449
 50
90.0
 51
174.9999999998996
  0
ARC
  8
1
  6
CONTINUOUS
 62
     7
 10
-16.10960521299999
 20
62.91154753820005
 40
0.4999999999999449
 50
90.0
 51
175.0000000000001
  0
ARC
  8
1
  6
CONTINUOUS
 62
     7
 10
-5.222605212999901
 20
62.91154753820005
 40
0.4999999999999449
 50
90.0
 51
175.0000000000001
  0
ARC
  8
1
  6
CONTINUOUS
 62
     7
 10
-20.84677079999987
 20
61.60130068230007
 40
0.4897531444999505
 50
184.9999999999998
 51
355.0000000000002
  0
ARC
  8
1
  6
CONTINUOUS
 62
     7
 10
-6.33077080000001
 20
61.60130068230007
 40
0.4897531444999488
 50
184.9999999999998
 51
355.0000000000002
  0
ARC
  8
1
  6
CONTINUOUS
 62
     7
 10
-19.73860521289996
 20
62.91154753970007
 40
0.4999999999999449
 50
90.0
 51
174.9999999998996
  0
ARC
  8
1
  6
CONTINUOUS
 62
     7
 10
-18.32593638710002
 20
62.91154753820005
 40
0.4999999999999463
 50
4.999999999999845
 51
89.99999999999996
  0
ARC
  8
1
  6
CONTINUOUS
 62
     7
 10
-23.36760521299987
 20
62.91154753820005
 40
0.4999999999999449
 50
90.0
 51
175.0000000000001
  0
ARC
  8
1
  6
CONTINUOUS
 62
     7
 10
-26.99660521289994
 20
62.91154753970007
 40
0.4999999999999449
 50
90.0
 51
174.9999999998996
  0
ARC
  8
1
  6
CONTINUOUS
 62
     7
 10
-25.5839363870999
 20
62.91154753820005
 40
0.4999999999999463
 50
4.999999999999845
 51
89.99999999999996
  0
ARC
  8
1
  6
CONTINUOUS
 62
     7
 10
-7.438936387099928
 20
62.91154753820005
 40
0.4999999999999446
 50
4.999999999999845
 51
89.99999999999996
  0
ARC
  8
1
  6
CONTINUOUS
 62
     7
 10
-30.62560521299996
 20
62.91154753820005
 40
0.4999999999999449
 50
90.0
 51
175.0000000000001
  0
ARC
  8
1
  6
CONTINUOUS
 62
     7
 10
-35.36277079999984
 20
61.60130068230007
 40
0.4897531444999505
 50
184.9999999999998
 51
355.0000000000002
  0
ARC
  8
1
  6
CONTINUOUS
 62
     7
 10
-31.73377079999996
 20
61.60130068230007
 40
0.4897531444999505
 50
184.9999999999998
 51
355.0000000000002
  0
ARC
  8
1
  6
CONTINUOUS
 62
     7
 10
-24.47577079999998
 20
61.60130068230007
 40
0.4897531444999505
 50
184.9999999999998
 51
355.0000000000002
  0
ARC
  8
1
  6
CONTINUOUS
 62
     7
 10
-17.21777079999988
 20
61.60130068230007
 40
0.4897531444999505
 50
184.9999999999998
 51
355.0000000000002
  0
ARC
  8
1
  6
CONTINUOUS
 62
     7
 10
-29.21293638719992
 20
62.91154753970007
 40
0.4999999999999465
 50
5.000000000100492
 51
90.00000000000006
  0
ARC
  8
1
  6
CONTINUOUS
 62
     7
 10
-28.10477079999997
 20
61.60130068230007
 40
0.4897531444999505
 50
184.9999999999998
 51
355.0000000000002
  0
ARC
  8
1
  6
CONTINUOUS
 62
     7
 10
-21.95493638719993
 20
62.91154753970007
 40
0.4999999999999465
 50
5.000000000100492
 51
90.00000000000006
  0
ENDSEC
  0
EOF
