  0
SECTION
  2
HEADER
  9
$ACADVER
  1
AC1004
  9
$INSBASE
 10
0.0
 20
0.0
  9
$EXTMIN
 10
-163.0479363673
 20
14.80347421553243
  9
$EXTMAX
 10
181.9560654579
 20
61.44852141010001
  9
$LIMMIN
 10
0.0
 20
0.0
  9
$LIMMAX
 10
12.0
 20
9.0
  9
$ORTHOMODE
 70
     0
  9
$REGENMODE
 70
     1
  9
$FILLMODE
 70
     1
  9
$QTEXTMODE
 70
     0
  9
$DRAGMODE
 70
     2
  9
$LTSCALE
 40
1.0
  9
$OSMODE
 70
    37
  9
$ATTMODE
 70
     1
  9
$TEXTSIZE
 40
0.2
  9
$TRACEWID
 40
0.05
  9
$TEXTSTYLE
  7
STANDARD
  9
$CLAYER
  8
0
  9
$CELTYPE
  6
BYLAYER
  9
$CECOLOR
 62
   256
  9
$DIMSCALE
 40
1.0
  9
$DIMASZ
 40
3.0
  9
$DIMEXO
 40
0.0625
  9
$DIMDLI
 40
0.38
  9
$DIMRND
 40
0.0
  9
$DIMDLE
 40
0.0
  9
$DIMEXE
 40
1.5
  9
$DIMTP
 40
0.0
  9
$DIMTM
 40
0.0
  9
$DIMTXT
 40
3.0
  9
$DIMCEN
 40
0.09
  9
$DIMTSZ
 40
0.0
  9
$DIMTOL
 70
     0
  9
$DIMLIM
 70
     0
  9
$DIMTIH
 70
     1
  9
$DIMTOH
 70
     1
  9
$DIMSE1
 70
     0
  9
$DIMSE2
 70
     0
  9
$DIMTAD
 70
     1
  9
$DIMZIN
 70
     0
  9
$DIMBLK
  1

  9
$DIMASO
 70
     1
  9
$DIMSHO
 70
     1
  9
$DIMPOST
  1

  9
$DIMAPOST
  1

  9
$DIMALT
 70
     0
  9
$DIMALTD
 70
     2
  9
$DIMALTF
 40
25.4
  9
$DIMLFAC
 40
1.0
  9
$DIMTOFL
 70
     0
  9
$DIMTVP
 40
0.0
  9
$DIMTIX
 70
     0
  9
$DIMSOXD
 70
     0
  9
$DIMSAH
 70
     0
  9
$DIMBLK1
  1

  9
$DIMBLK2
  1

  9
$LUNITS
 70
     2
  9
$LUPREC
 70
     4
  9
$SKETCHINC
 40
0.1
  9
$FILLETRAD
 40
0.5
  9
$AUNITS
 70
     0
  9
$AUPREC
 70
     0
  9
$MENU
  1
.
  9
$ELEVATION
 40
0.0
  9
$THICKNESS
 40
0.0
  9
$LIMCHECK
 70
     0
  9
$CHAMFERA
 40
0.0
  9
$CHAMFERB
 40
0.0
  9
$SKPOLY
 70
     0
  9
$TDCREATE
 40
2459528.735948079
  9
$TDUPDATE
 40
2459528.73594882
  9
$TDINDWG
 40
0.0000000116
  9
$TDUSRTIMER
 40
0.0000000116
  9
$USRTIMER
 70
     1
  9
$ANGBASE
 50
0.0
  9
$ANGDIR
 70
     0
  9
$PDMODE
 70
     0
  9
$PDSIZE
 40
0.0
  9
$PLINEWID
 40
0.0
  9
$COORDS
 70
     1
  9
$SPLFRAME
 70
     0
  9
$SPLINETYPE
 70
     6
  9
$SPLINESEGS
 70
     8
  9
$ATTDIA
 70
     0
  9
$ATTREQ
 70
     1
  9
$SURFTAB1
 70
     6
  9
$SURFTAB2
 70
     6
  9
$SURFTYPE
 70
     6
  9
$SURFU
 70
     6
  9
$SURFV
 70
     6
  9
$UCSNAME
  2

  9
$UCSORG
 10
0.0
 20
0.0
 30
0.0
  9
$UCSXDIR
 10
1.0
 20
0.0
 30
0.0
  9
$UCSYDIR
 10
0.0
 20
1.0
 30
0.0
  9
$USERI1
 70
     0
  9
$USERI2
 70
     0
  9
$USERI3
 70
     0
  9
$USERI4
 70
     0
  9
$USERI5
 70
     0
  9
$USERR1
 40
0.0
  9
$USERR2
 40
0.0
  9
$USERR3
 40
0.0
  9
$USERR4
 40
0.0
  9
$USERR5
 40
0.0
  9
$WORLDVIEW
 70
     1
  0
ENDSEC
  0
SECTION
  2
TABLES
  0
TABLE
  2
LTYPE
 70
     1
  0
LTYPE
  2
CONTINUOUS
 70
     0
  3
Solid line
 72
    65
 73
     0
 40
0.0
  0
ENDTAB
  0
TABLE
  2
LAYER
 70
     1
  0
LAYER
  2
0
 70
     0
 62
     7
  6
CONTINUOUS
  0
ENDTAB
  0
TABLE
  2
STYLE
 70
     2
  0
STYLE
  2
STANDARD
 70
     0
 40
0.0
 41
1.0
 50
0.0
 71
     0
 42
0.2
  3
txt
  4

  0
STYLE
  2
ＭＳ_ゴシック
 70
     0
 40
0.0
 41
1.0
 50
0.0
 71
     0
 42
0.2
  3
ＭＳ ゴシック.shx
  4

  0
ENDTAB
  0
TABLE
  2
VIEW
 70
     0
  0
ENDTAB
  0
ENDSEC
  0
SECTION
  2
BLOCKS
  0
ENDSEC
  0
SECTION
  2
ENTITIES
  0
TEXT
  8
0
  6
CONTINUOUS
 62
     7
 10
-0.5970549817354776
 20
14.46143970259007
 40
3.0
  1
VEU-22S
  0
LINE
  8
0
  6
CONTINUOUS
 62
     7
 10
139.020139607
 20
60.94645706860003
 11
138.8737685133
 21
59.27342781150002
  0
LINE
  8
0
  6
CONTINUOUS
 62
     7
 10
139.568046691
 20
61.44852141010001
 11
141.1600823996
 21
61.44852141010001
  0
LINE
  8
0
  6
CONTINUOUS
 62
     7
 10
142.928139607
 20
60.94645706860003
 11
142.7817685133
 21
59.27342781150002
  0
LINE
  8
0
  6
CONTINUOUS
 62
     7
 10
143.476046691
 20
61.44852141010001
 11
145.0680823996
 21
61.44852141010001
  0
LINE
  8
0
  6
CONTINUOUS
 62
     7
 10
141.7079894835
 20
60.94645706860003
 11
141.8543605773
 21
59.27342781150002
  0
LINE
  8
0
  6
CONTINUOUS
 62
     7
 10
-69.30801051649998
 20
60.94645706860003
 11
-69.16163942269996
 21
59.27342781150002
  0
LINE
  8
0
  6
CONTINUOUS
 62
     7
 10
-71.99586039299997
 20
60.94645706860003
 11
-72.14223148669994
 21
59.27342781150002
  0
LINE
  8
0
  6
CONTINUOUS
 62
     7
 10
145.6159894834999
 20
60.94645706860003
 11
145.7179780189
 21
59.78072277500002
  0
LINE
  8
0
  6
CONTINUOUS
 62
     7
 10
-96.66401051649994
 20
60.94645706860003
 11
-96.5176394227
 21
59.27342781150002
  0
LINE
  8
0
  6
CONTINUOUS
 62
     7
 10
-95.44386039299998
 20
60.94645706860003
 11
-95.59023148669995
 21
59.27342781150002
  0
LINE
  8
0
  6
CONTINUOUS
 62
     7
 10
-69.85591760039998
 20
61.44852141010001
 11
-71.44795330899998
 21
61.44852141010001
  0
LINE
  8
0
  6
CONTINUOUS
 62
     7
 10
-98.80395330899997
 20
61.44852141010001
 11
-97.21191760039996
 21
61.44852141010001
  0
LINE
  8
0
  6
CONTINUOUS
 62
     7
 10
-93.30391760039996
 20
61.44852141010001
 11
-94.89595330899995
 21
61.44852141010001
  0
LINE
  8
0
  6
CONTINUOUS
 62
     7
 10
-100.5720105165
 20
60.94645706860003
 11
-100.4256394226999
 21
59.27342781150002
  0
LINE
  8
0
  6
CONTINUOUS
 62
     7
 10
-126.7078603929999
 20
60.94645706860003
 11
-126.8098489283
 21
59.78072277500002
  0
LINE
  8
0
  6
CONTINUOUS
 62
     7
 10
-99.35186039299995
 20
60.94645706860003
 11
-99.49823148669992
 21
59.27342781150002
  0
LINE
  8
0
  6
CONTINUOUS
 62
     7
 10
-91.53586039299998
 20
60.94645706860003
 11
-91.68223148669995
 21
59.27342781150002
  0
LINE
  8
0
  6
CONTINUOUS
 62
     7
 10
-75.90386039299995
 20
60.94645706860003
 11
-76.05023148669997
 21
59.27342781150002
  0
LINE
  8
0
  6
CONTINUOUS
 62
     7
 10
137.7999894835
 20
60.94645706860003
 11
137.9463605772999
 21
59.27342781150002
  0
LINE
  8
0
  6
CONTINUOUS
 62
     7
 10
-92.75601051649994
 20
60.94645706860003
 11
-92.60963942269998
 21
59.27342781150002
  0
LINE
  8
0
  6
CONTINUOUS
 62
     7
 10
-89.39591760039998
 20
61.44852141010001
 11
-90.98795330899993
 21
61.44852141010001
  0
LINE
  8
0
  6
CONTINUOUS
 62
     7
 10
-77.12401051649996
 20
60.94645706860003
 11
-76.97763942269995
 21
59.27342781150002
  0
LINE
  8
0
  6
CONTINUOUS
 62
     7
 10
-87.62786039299995
 20
60.94645706860003
 11
-87.77423148669997
 21
59.27342781150002
  0
LINE
  8
0
  6
CONTINUOUS
 62
     7
 10
-68.087860393
 20
60.94645706860003
 11
-68.23423148669998
 21
59.27342781150002
  0
LINE
  8
0
  6
CONTINUOUS
 62
     7
 10
-81.03201051649998
 20
60.94645706860003
 11
-80.88563942269998
 21
59.27342781150002
  0
LINE
  8
0
  6
CONTINUOUS
 62
     7
 10
-107.1678603929999
 20
60.94645706860003
 11
-107.3142314867
 21
59.27342781150002
  0
LINE
  8
0
  6
CONTINUOUS
 62
     7
 10
-114.4359533089999
 20
61.44852141010001
 11
-112.8439176003999
 21
61.44852141010001
  0
LINE
  8
0
  6
CONTINUOUS
 62
     7
 10
-111.075860393
 20
60.94645706860003
 11
-111.2222314867
 21
59.27342781150002
  0
LINE
  8
0
  6
CONTINUOUS
 62
     7
 10
-108.3880105165
 20
60.94645706860003
 11
-108.2416394227
 21
59.27342781150002
  0
LINE
  8
0
  6
CONTINUOUS
 62
     7
 10
-114.9838603929999
 20
60.94645706860003
 11
-115.1302314867
 21
59.27342781150002
  0
LINE
  8
0
  6
CONTINUOUS
 62
     7
 10
-77.67191760039996
 20
61.44852141010001
 11
-79.26395330899997
 21
61.44852141010001
  0
LINE
  8
0
  6
CONTINUOUS
 62
     7
 10
-84.94001051650001
 20
60.94645706860003
 11
-84.79363942269994
 21
59.27342781150002
  0
LINE
  8
0
  6
CONTINUOUS
 62
     7
 10
-110.527953309
 20
61.44852141010001
 11
-108.9359176003999
 21
61.44852141010001
  0
LINE
  8
0
  6
CONTINUOUS
 62
     7
 10
-116.2040105164999
 20
60.94645706860003
 11
-116.0576394226999
 21
59.27342781150002
  0
LINE
  8
0
  6
CONTINUOUS
 62
     7
 10
-83.17195330899995
 20
61.44852141010001
 11
-81.57991760039994
 21
61.44852141010001
  0
LINE
  8
0
  6
CONTINUOUS
 62
     7
 10
-85.48791760039997
 20
61.44852141010001
 11
-87.07995330899996
 21
61.44852141010001
  0
LINE
  8
0
  6
CONTINUOUS
 62
     7
 10
-79.81186039299996
 20
60.94645706860003
 11
-79.95823148669999
 21
59.27342781150002
  0
LINE
  8
0
  6
CONTINUOUS
 62
     7
 10
-83.71986039299993
 20
60.94645706860003
 11
-83.86623148670002
 21
59.27342781150002
  0
LINE
  8
0
  6
CONTINUOUS
 62
     7
 10
-103.259860393
 20
60.94645706860003
 11
-103.4062314866999
 21
59.27342781150002
  0
LINE
  8
0
  6
CONTINUOUS
 62
     7
 10
-104.4800105164999
 20
60.94645706860003
 11
-104.3336394226999
 21
59.27342781150002
  0
LINE
  8
0
  6
CONTINUOUS
 62
     7
 10
-88.84801051649997
 20
60.94645706860003
 11
-88.70163942269997
 21
59.27342781150002
  0
LINE
  8
0
  6
CONTINUOUS
 62
     7
 10
-101.1199176004
 20
61.44852141010001
 11
-102.711953309
 21
61.44852141010001
  0
LINE
  8
0
  6
CONTINUOUS
 62
     7
 10
-106.619953309
 20
61.44852141010001
 11
-105.0279176004
 21
61.44852141010001
  0
LINE
  8
0
  6
CONTINUOUS
 62
     7
 10
-112.2960105165
 20
60.94645706860003
 11
-112.1496394226999
 21
59.27342781150002
  0
LINE
  8
0
  6
CONTINUOUS
 62
     7
 10
-45.86401051649995
 20
60.94645706860003
 11
-45.7176394227
 21
59.27342781150002
  0
LINE
  8
0
  6
CONTINUOUS
 62
     7
 10
-41.95601051649993
 20
60.94645706860003
 11
-41.80963942269998
 21
59.27342781150002
  0
LINE
  8
0
  6
CONTINUOUS
 62
     7
 10
-17.287860393
 20
60.94645706860003
 11
-17.43423148669997
 21
59.27342781150002
  0
LINE
  8
0
  6
CONTINUOUS
 62
     7
 10
-38.59591760039997
 20
61.44852141010001
 11
-40.18795330899992
 21
61.44852141010001
  0
LINE
  8
0
  6
CONTINUOUS
 62
     7
 10
-34.68791760039995
 20
61.44852141010001
 11
-36.27995330899996
 21
61.44852141010001
  0
LINE
  8
0
  6
CONTINUOUS
 62
     7
 10
-75.35595330900001
 20
61.44852141010001
 11
-73.7639176004
 21
61.44852141010001
  0
LINE
  8
0
  6
CONTINUOUS
 62
     7
 10
-21.19586039299997
 20
60.94645706860003
 11
-21.34223148669994
 21
59.27342781150002
  0
LINE
  8
0
  6
CONTINUOUS
 62
     7
 10
-26.32401051649995
 20
60.94645706860003
 11
-26.17763942269995
 21
59.27342781150002
  0
LINE
  8
0
  6
CONTINUOUS
 62
     7
 10
-44.64386039299998
 20
60.94645706860003
 11
-44.79023148669996
 21
59.27342781150002
  0
LINE
  8
0
  6
CONTINUOUS
 62
     7
 10
-18.50801051649997
 20
60.94645706860003
 11
-18.36163942269996
 21
59.27342781150002
  0
LINE
  8
0
  6
CONTINUOUS
 62
     7
 10
-48.00395330899997
 20
61.44852141010001
 11
-46.41191760039996
 21
61.44852141010001
  0
LINE
  8
0
  6
CONTINUOUS
 62
     7
 10
-19.05591760039998
 20
61.44852141010001
 11
-20.64795330899998
 21
61.44852141010001
  0
LINE
  8
0
  6
CONTINUOUS
 62
     7
 10
-42.50391760039994
 20
61.44852141010001
 11
-44.09595330899995
 21
61.44852141010001
  0
LINE
  8
0
  6
CONTINUOUS
 62
     7
 10
-49.77201051649998
 20
60.94645706860003
 11
-49.62563942269991
 21
59.27342781150002
  0
LINE
  8
0
  6
CONTINUOUS
 62
     7
 10
-48.55186039299996
 20
60.94645706860003
 11
-48.69823148669992
 21
59.27342781150002
  0
LINE
  8
0
  6
CONTINUOUS
 62
     7
 10
-40.73586039299996
 20
60.94645706860003
 11
-40.88223148669994
 21
59.27342781150002
  0
LINE
  8
0
  6
CONTINUOUS
 62
     7
 10
-36.82786039299994
 20
60.94645706860003
 11
-36.97423148669997
 21
59.27342781150002
  0
LINE
  8
0
  6
CONTINUOUS
 62
     7
 10
-29.01186039299996
 20
60.94645706860003
 11
-29.15823148669998
 21
59.27342781150002
  0
LINE
  8
0
  6
CONTINUOUS
 62
     7
 10
-30.23201051649998
 20
60.94645706860003
 11
-30.08563942269997
 21
59.27342781150002
  0
LINE
  8
0
  6
CONTINUOUS
 62
     7
 10
-25.10386039299993
 20
60.94645706860003
 11
-25.25023148669996
 21
59.27342781150002
  0
LINE
  8
0
  6
CONTINUOUS
 62
     7
 10
-38.04801051649996
 20
60.94645706860003
 11
-37.90163942269996
 21
59.27342781150002
  0
LINE
  8
0
  6
CONTINUOUS
 62
     7
 10
-73.21601051649994
 20
60.94645706860003
 11
-73.06963942269994
 21
59.27342781150002
  0
LINE
  8
0
  6
CONTINUOUS
 62
     7
 10
-65.40401051649995
 20
60.94645706860003
 11
-65.25763942269995
 21
59.27342781150002
  0
LINE
  8
0
  6
CONTINUOUS
 62
     7
 10
-53.68001051649994
 20
60.94645706860003
 11
-53.53363942269993
 21
59.27342781150002
  0
LINE
  8
0
  6
CONTINUOUS
 62
     7
 10
-24.555953309
 20
61.44852141010001
 11
-22.9639176004
 21
61.44852141010001
  0
LINE
  8
0
  6
CONTINUOUS
 62
     7
 10
-22.41601051649993
 20
60.94645706860003
 11
-22.26963942269993
 21
59.27342781150002
  0
LINE
  8
0
  6
CONTINUOUS
 62
     7
 10
-55.81995330899996
 20
61.44852141010001
 11
-54.2279176004
 21
61.44852141010001
  0
LINE
  8
0
  6
CONTINUOUS
 62
     7
 10
-67.54395330899996
 20
61.44852141010001
 11
-65.94791760039996
 21
61.44852141010001
  0
LINE
  8
0
  6
CONTINUOUS
 62
     7
 10
-63.63595330899994
 20
61.44852141010001
 11
-62.04391760039994
 21
61.44852141010001
  0
LINE
  8
0
  6
CONTINUOUS
 62
     7
 10
29.604139607
 20
60.94645706860003
 11
29.45776851330003
 21
59.27342781150002
  0
LINE
  8
0
  6
CONTINUOUS
 62
     7
 10
-32.37195330899993
 20
61.44852141010001
 11
-30.77991760039993
 21
61.44852141010001
  0
LINE
  8
0
  6
CONTINUOUS
 62
     7
 10
-32.91986039299992
 20
60.94645706860003
 11
-33.0662314867
 21
59.27342781150002
  0
LINE
  8
0
  6
CONTINUOUS
 62
     7
 10
-52.45986039299998
 20
60.94645706860003
 11
-52.60623148669995
 21
59.27342781150002
  0
LINE
  8
0
  6
CONTINUOUS
 62
     7
 10
-57.58801051649996
 20
60.94645706860003
 11
-57.44163942269996
 21
59.27342781150002
  0
LINE
  8
0
  6
CONTINUOUS
 62
     7
 10
-56.36786039299994
 20
60.94645706860003
 11
-56.51423148669997
 21
59.27342781150002
  0
LINE
  8
0
  6
CONTINUOUS
 62
     7
 10
-59.72795330899998
 20
61.44852141010001
 11
-58.13591760039992
 21
61.44852141010001
  0
LINE
  8
0
  6
CONTINUOUS
 62
     7
 10
-26.87191760039996
 20
61.44852141010001
 11
-28.46395330899997
 21
61.44852141010001
  0
LINE
  8
0
  6
CONTINUOUS
 62
     7
 10
-34.14001051649999
 20
60.94645706860003
 11
-33.99363942269994
 21
59.27342781150002
  0
LINE
  8
0
  6
CONTINUOUS
 62
     7
 10
-50.31991760039998
 20
61.44852141010001
 11
-51.91195330899999
 21
61.44852141010001
  0
LINE
  8
0
  6
CONTINUOUS
 62
     7
 10
-61.49601051649999
 20
60.94645706860003
 11
-61.34963942269993
 21
59.27342781150002
  0
LINE
  8
0
  6
CONTINUOUS
 62
     7
 10
-60.27586039299997
 20
60.94645706860003
 11
-60.42223148669999
 21
59.27342781150002
  0
LINE
  8
0
  6
CONTINUOUS
 62
     7
 10
-64.18386039299993
 20
60.94645706860003
 11
-64.33023148669996
 21
59.27342781150002
  0
LINE
  8
0
  6
CONTINUOUS
 62
     7
 10
6.156139606999985
 20
60.94645706860003
 11
6.009768513300014
 21
59.27342781150002
  0
LINE
  8
0
  6
CONTINUOUS
 62
     7
 10
1.0279894835
 20
60.94645706860003
 11
1.174360577300058
 21
59.27342781150002
  0
LINE
  8
0
  6
CONTINUOUS
 62
     7
 10
2.248139607000019
 20
60.94645706860003
 11
2.101768513300048
 21
59.27342781150002
  0
LINE
  8
0
  6
CONTINUOUS
 62
     7
 10
23.9280823996
 20
61.44852141010001
 11
22.336046691
 21
61.44852141010001
  0
LINE
  8
0
  6
CONTINUOUS
 62
     7
 10
4.935989483500022
 20
60.94645706860003
 11
5.082360577299968
 21
59.27342781150002
  0
LINE
  8
0
  6
CONTINUOUS
 62
     7
 10
13.97213960700003
 20
60.94645706860003
 11
13.8257685133
 21
59.27342781150002
  0
LINE
  8
0
  6
CONTINUOUS
 62
     7
 10
24.47598948350002
 20
60.94645706860003
 11
24.62236057730002
 21
59.27342781150002
  0
LINE
  8
0
  6
CONTINUOUS
 62
     7
 10
33.51213960699997
 20
60.94645706860003
 11
33.3657685133
 21
59.27342781150002
  0
LINE
  8
0
  6
CONTINUOUS
 62
     7
 10
12.2040823996
 20
61.44852141010001
 11
10.61204669100005
 21
61.44852141010001
  0
LINE
  8
0
  6
CONTINUOUS
 62
     7
 10
16.11208239960002
 20
61.44852141010001
 11
14.52004669100002
 21
61.44852141010001
  0
LINE
  8
0
  6
CONTINUOUS
 62
     7
 10
16.65998948349998
 20
60.94645706860003
 11
16.80636057730003
 21
59.27342781150002
  0
LINE
  8
0
  6
CONTINUOUS
 62
     7
 10
8.296082399600031
 20
61.44852141010001
 11
6.704046691000028
 21
61.44852141010001
  0
LINE
  8
0
  6
CONTINUOUS
 62
     7
 10
8.843989483500044
 20
60.94645706860003
 11
8.99036057729999
 21
59.27342781150002
  0
LINE
  8
0
  6
CONTINUOUS
 62
     7
 10
25.69613960700003
 20
60.94645706860003
 11
25.54976851330001
 21
59.27342781150002
  0
LINE
  8
0
  6
CONTINUOUS
 62
     7
 10
12.75198948350001
 20
60.94645706860003
 11
12.89836057730001
 21
59.27342781150002
  0
LINE
  8
0
  6
CONTINUOUS
 62
     7
 10
18.42804669100004
 20
61.44852141010001
 11
20.02008239960004
 21
61.44852141010001
  0
LINE
  8
0
  6
CONTINUOUS
 62
     7
 10
31.7440823996
 20
61.44852141010001
 11
30.152046691
 21
61.44852141010001
  0
LINE
  8
0
  6
CONTINUOUS
 62
     7
 10
32.29198948350001
 20
60.94645706860003
 11
32.43836057730001
 21
59.27342781150002
  0
LINE
  8
0
  6
CONTINUOUS
 62
     7
 10
2.796046691000007
 20
61.44852141010001
 11
4.38808239960001
 21
61.44852141010001
  0
LINE
  8
0
  6
CONTINUOUS
 62
     7
 10
21.78813960700002
 20
60.94645706860003
 11
21.64176851329999
 21
59.27342781150002
  0
LINE
  8
0
  6
CONTINUOUS
 62
     7
 10
20.5679894835
 20
60.94645706860003
 11
20.7143605773
 21
59.27342781150002
  0
LINE
  8
0
  6
CONTINUOUS
 62
     7
 10
10.06413960700001
 20
60.94645706860003
 11
9.917768513300036
 21
59.27342781150002
  0
LINE
  8
0
  6
CONTINUOUS
 62
     7
 10
82.54408239959999
 20
61.44852141010001
 11
80.95204669099998
 21
61.44852141010001
  0
LINE
  8
0
  6
CONTINUOUS
 62
     7
 10
-13.38386039299996
 20
60.94645706860003
 11
-13.53023148669998
 21
59.27342781150002
  0
LINE
  8
0
  6
CONTINUOUS
 62
     7
 10
75.2759894835
 20
60.94645706860003
 11
75.42236057730001
 21
59.27342781150002
  0
LINE
  8
0
  6
CONTINUOUS
 62
     7
 10
76.49613960700002
 20
60.94645706860003
 11
76.34976851329999
 21
59.27342781150002
  0
LINE
  8
0
  6
CONTINUOUS
 62
     7
 10
0.4800823995999881
 20
61.44852141010001
 11
-1.111953309000015
 21
61.44852141010001
  0
LINE
  8
0
  6
CONTINUOUS
 62
     7
 10
-5.019953308999981
 20
61.44852141010001
 11
-3.427917600400034
 21
61.44852141010001
  0
LINE
  8
0
  6
CONTINUOUS
 62
     7
 10
-6.788010516499988
 20
60.94645706860003
 11
-6.641639422699986
 21
59.27342781150002
  0
LINE
  8
0
  6
CONTINUOUS
 62
     7
 10
-5.567860392999969
 20
60.94645706860003
 11
-5.714231486699996
 21
59.27342781150002
  0
LINE
  8
0
  6
CONTINUOUS
 62
     7
 10
-8.927953309000003
 20
61.44852141010001
 11
-7.335917600399944
 21
61.44852141010001
  0
LINE
  8
0
  6
CONTINUOUS
 62
     7
 10
-12.83595330899997
 20
61.44852141010001
 11
-11.24391760039996
 21
61.44852141010001
  0
LINE
  8
0
  6
CONTINUOUS
 62
     7
 10
-9.47586039299999
 20
60.94645706860003
 11
-9.622231486700016
 21
59.27342781150002
  0
LINE
  8
0
  6
CONTINUOUS
 62
     7
 10
-16.74395330899999
 20
61.44852141010001
 11
-15.14791760039996
 21
61.44852141010001
  0
LINE
  8
0
  6
CONTINUOUS
 62
     7
 10
-2.880010516499966
 20
60.94645706860003
 11
-2.733639422699965
 21
59.27342781150002
  0
LINE
  8
0
  6
CONTINUOUS
 62
     7
 10
-10.69601051650001
 20
60.94645706860003
 11
-10.54963942269995
 21
59.27342781150002
  0
LINE
  8
0
  6
CONTINUOUS
 62
     7
 10
26.24404669099997
 20
61.44852141010001
 11
27.83608239959997
 21
61.44852141010001
  0
LINE
  8
0
  6
CONTINUOUS
 62
     7
 10
-14.60401051649998
 20
60.94645706860003
 11
-14.45763942269997
 21
59.27342781150002
  0
LINE
  8
0
  6
CONTINUOUS
 62
     7
 10
-1.659860393000003
 20
60.94645706860003
 11
-1.806231486699974
 21
59.27342781150002
  0
LINE
  8
0
  6
CONTINUOUS
 62
     7
 10
17.88013960700005
 20
60.94645706860003
 11
17.73376851329997
 21
59.27342781150002
  0
LINE
  8
0
  6
CONTINUOUS
 62
     7
 10
28.38398948350004
 20
60.94645706860003
 11
28.53036057730004
 21
59.27342781150002
  0
LINE
  8
0
  6
CONTINUOUS
 62
     7
 10
80.40413960699999
 20
60.94645706860003
 11
80.25776851330002
 21
59.27342781150002
  0
LINE
  8
0
  6
CONTINUOUS
 62
     7
 10
74.7280823996
 20
61.44852141010001
 11
73.13604669099999
 21
61.44852141010001
  0
LINE
  8
0
  6
CONTINUOUS
 62
     7
 10
69.22804669100002
 20
61.44852141010001
 11
70.82008239960003
 21
61.44852141010001
  0
LINE
  8
0
  6
CONTINUOUS
 62
     7
 10
67.45998948349995
 20
60.94645706860003
 11
67.60636057730001
 21
59.27342781150002
  0
LINE
  8
0
  6
CONTINUOUS
 62
     7
 10
68.68013960700003
 20
60.94645706860003
 11
68.53376851329995
 21
59.27342781150002
  0
LINE
  8
0
  6
CONTINUOUS
 62
     7
 10
49.14013960699997
 20
60.94645706860003
 11
48.9937685133
 21
59.27342781150002
  0
LINE
  8
0
  6
CONTINUOUS
 62
     7
 10
55.7359894835
 20
60.94645706860003
 11
55.88236057729995
 21
59.27342781150002
  0
LINE
  8
0
  6
CONTINUOUS
 62
     7
 10
59.64398948350002
 20
60.94645706860003
 11
59.79036057729997
 21
59.27342781150002
  0
LINE
  8
0
  6
CONTINUOUS
 62
     7
 10
47.91998948350001
 20
60.94645706860003
 11
48.06636057730002
 21
59.27342781150002
  0
LINE
  8
0
  6
CONTINUOUS
 62
     7
 10
84.31213960699996
 20
60.94645706860003
 11
84.16576851329998
 21
59.27342781150002
  0
LINE
  8
0
  6
CONTINUOUS
 62
     7
 10
59.09608239960001
 20
61.44852141010001
 11
57.50404669100001
 21
61.44852141010001
  0
LINE
  8
0
  6
CONTINUOUS
 62
     7
 10
51.82798948349998
 20
60.94645706860003
 11
51.97436057730004
 21
59.27342781150002
  0
LINE
  8
0
  6
CONTINUOUS
 62
     7
 10
53.048139607
 20
60.94645706860003
 11
52.90176851330003
 21
59.27342781150002
  0
LINE
  8
0
  6
CONTINUOUS
 62
     7
 10
60.86413960699999
 20
60.94645706860003
 11
60.71776851330002
 21
59.27342781150002
  0
LINE
  8
0
  6
CONTINUOUS
 62
     7
 10
83.09198948349999
 20
60.94645706860003
 11
83.2383605773
 21
59.27342781150002
  0
LINE
  8
0
  6
CONTINUOUS
 62
     7
 10
63.00408239959998
 20
61.44852141010001
 11
61.41204669100003
 21
61.44852141010001
  0
LINE
  8
0
  6
CONTINUOUS
 62
     7
 10
64.77213960700001
 20
60.94645706860003
 11
64.62576851329999
 21
59.27342781150002
  0
LINE
  8
0
  6
CONTINUOUS
 62
     7
 10
66.9120823996
 20
61.44852141010001
 11
65.320046691
 21
61.44852141010001
  0
LINE
  8
0
  6
CONTINUOUS
 62
     7
 10
56.95613960699997
 20
60.94645706860003
 11
56.80976851329999
 21
59.27342781150002
  0
LINE
  8
0
  6
CONTINUOUS
 62
     7
 10
63.55198948349999
 20
60.94645706860003
 11
63.69836057729999
 21
59.27342781150002
  0
LINE
  8
0
  6
CONTINUOUS
 62
     7
 10
72.588139607
 20
60.94645706860003
 11
72.44176851329998
 21
59.27342781150002
  0
LINE
  8
0
  6
CONTINUOUS
 62
     7
 10
53.59604669099998
 20
61.44852141010001
 11
55.18808239959999
 21
61.44852141010001
  0
LINE
  8
0
  6
CONTINUOUS
 62
     7
 10
71.36798948349998
 20
60.94645706860003
 11
71.51436057729998
 21
59.27342781150002
  0
ARC
  8
0
  6
CONTINUOUS
 62
     7
 10
135.660046691
 20
60.89852141010002
 40
0.5499999999999838
 50
90.0
 51
175.0000000000001
  0
LINE
  8
0
  6
CONTINUOUS
 62
     7
 10
45.23213960700002
 20
60.94645706860003
 11
45.0857685133
 21
59.27342781150002
  0
ARC
  8
0
  6
CONTINUOUS
 62
     7
 10
130.5940645453
 20
59.31399665200001
 40
0.4654752418000216
 50
184.9999999999997
 51
355.0000000000004
  0
LINE
  8
0
  6
CONTINUOUS
 62
     7
 10
37.96404669100002
 20
61.44852141010001
 11
39.55608239960002
 21
61.44852141010001
  0
ARC
  8
0
  6
CONTINUOUS
 62
     7
 10
131.7520466909999
 20
60.89852141010002
 40
0.5499999999999838
 50
90.0
 51
175.0000000000001
  0
ARC
  8
0
  6
CONTINUOUS
 62
     7
 10
127.8440466909999
 20
60.89852141010002
 40
0.5499999999999838
 50
90.0
 51
175.0000000000001
  0
ARC
  8
0
  6
CONTINUOUS
 62
     7
 10
126.6860645453
 20
59.31399665200001
 40
0.4654752418000216
 50
184.9999999999997
 51
355.0000000000004
  0
ARC
  8
0
  6
CONTINUOUS
 62
     7
 10
125.5280823996
 20
60.89852141010002
 40
0.5499999999999949
 50
4.999999999999886
 51
90.0
  0
LINE
  8
0
  6
CONTINUOUS
 62
     7
 10
45.78004669100001
 20
61.44852141010001
 11
47.37208239959996
 21
61.44852141010001
  0
LINE
  8
0
  6
CONTINUOUS
 62
     7
 10
36.19598948350001
 20
60.94645706860003
 11
36.34236057730001
 21
59.27342781150002
  0
LINE
  8
0
  6
CONTINUOUS
 62
     7
 10
77.04404669099995
 20
61.44852141010001
 11
78.63608239959996
 21
61.44852141010001
  0
LINE
  8
0
  6
CONTINUOUS
 62
     7
 10
44.0119894835
 20
60.94645706860003
 11
44.15836057730001
 21
59.27342781150002
  0
LINE
  8
0
  6
CONTINUOUS
 62
     7
 10
41.324139607
 20
60.94645706860003
 11
41.17776851329997
 21
59.27342781150002
  0
LINE
  8
0
  6
CONTINUOUS
 62
     7
 10
51.28008239959997
 20
61.44852141010001
 11
49.68804669099996
 21
61.44852141010001
  0
LINE
  8
0
  6
CONTINUOUS
 62
     7
 10
40.10398948349998
 20
60.94645706860003
 11
40.25036057730004
 21
59.27342781150002
  0
LINE
  8
0
  6
CONTINUOUS
 62
     7
 10
37.41613960700003
 20
60.94645706860003
 11
37.26976851330001
 21
59.27342781150002
  0
LINE
  8
0
  6
CONTINUOUS
 62
     7
 10
79.18398948350003
 20
60.94645706860003
 11
79.33036057730003
 21
59.27342781150002
  0
LINE
  8
0
  6
CONTINUOUS
 62
     7
 10
41.87204669099999
 20
61.44852141010001
 11
43.46408239960004
 21
61.44852141010001
  0
LINE
  8
0
  6
CONTINUOUS
 62
     7
 10
34.056046691
 20
61.44852141010001
 11
35.65208239960002
 21
61.44852141010001
  0
LINE
  8
0
  6
CONTINUOUS
 62
     7
 10
84.85604669099999
 20
61.44852141010001
 11
86.4520823996
 21
61.44852141010001
  0
ARC
  8
0
  6
CONTINUOUS
 62
     7
 10
134.5020645453
 20
59.31399665200001
 40
0.4654752418000216
 50
184.9999999999997
 51
355.0000000000004
  0
ARC
  8
0
  6
CONTINUOUS
 62
     7
 10
108.304046691
 20
60.89852141010002
 40
0.5499999999999977
 50
89.99999999999994
 51
175.0000000000002
  0
ARC
  8
0
  6
CONTINUOUS
 62
     7
 10
114.9620645453
 20
59.31399665200001
 40
0.4654752418000216
 50
184.9999999999997
 51
355.0000000000004
  0
ARC
  8
0
  6
CONTINUOUS
 62
     7
 10
122.7780645453
 20
59.31399665200001
 40
0.4654752418000216
 50
184.9999999999997
 51
355.0000000000004
  0
ARC
  8
0
  6
CONTINUOUS
 62
     7
 10
123.936046691
 20
60.89852141010002
 40
0.5499999999999977
 50
89.99999999999994
 51
175.0000000000002
  0
ARC
  8
0
  6
CONTINUOUS
 62
     7
 10
121.6200823996
 20
60.89852141010002
 40
0.5499999999999949
 50
4.999999999999773
 51
90.0
  0
ARC
  8
0
  6
CONTINUOUS
 62
     7
 10
103.2380645453
 20
59.31399665200001
 40
0.4654752418000216
 50
184.9999999999997
 51
355.0000000000004
  0
ARC
  8
0
  6
CONTINUOUS
 62
     7
 10
133.3440823996
 20
60.89852141010002
 40
0.5499999999999949
 50
4.999999999999886
 51
90.0
  0
ARC
  8
0
  6
CONTINUOUS
 62
     7
 10
112.212046691
 20
60.89852141010002
 40
0.5499999999999977
 50
89.99999999999994
 51
175.0000000000002
  0
ARC
  8
0
  6
CONTINUOUS
 62
     7
 10
109.8960823996
 20
60.89852141010002
 40
0.5499999999999949
 50
4.999999999999773
 51
90.0
  0
ARC
  8
0
  6
CONTINUOUS
 62
     7
 10
105.9880823996
 20
60.89852141010002
 40
0.5499999999999949
 50
4.999999999999773
 51
90.0
  0
ARC
  8
0
  6
CONTINUOUS
 62
     7
 10
111.0540645453
 20
59.31399665200001
 40
0.4654752418000216
 50
184.9999999999997
 51
355.0000000000004
  0
ARC
  8
0
  6
CONTINUOUS
 62
     7
 10
113.8040823996
 20
60.89852141010002
 40
0.5499999999999949
 50
4.999999999999773
 51
90.0
  0
ARC
  8
0
  6
CONTINUOUS
 62
     7
 10
102.0800823995999
 20
60.89852141010002
 40
0.5499999999999949
 50
4.999999999999773
 51
90.0
  0
ARC
  8
0
  6
CONTINUOUS
 62
     7
 10
116.120046691
 20
60.89852141010002
 40
0.5499999999999977
 50
89.99999999999994
 51
175.0000000000002
  0
ARC
  8
0
  6
CONTINUOUS
 62
     7
 10
117.7120823996
 20
60.89852141010002
 40
0.5499999999999949
 50
4.999999999999773
 51
90.0
  0
ARC
  8
0
  6
CONTINUOUS
 62
     7
 10
118.8700645453
 20
59.31399665200001
 40
0.4654752418000216
 50
184.9999999999997
 51
355.0000000000004
  0
ARC
  8
0
  6
CONTINUOUS
 62
     7
 10
120.028046691
 20
60.89852141010002
 40
0.5499999999999977
 50
89.99999999999994
 51
175.0000000000002
  0
ARC
  8
0
  6
CONTINUOUS
 62
     7
 10
99.33006454529999
 20
59.31399665200001
 40
0.4654752418000216
 50
184.9999999999997
 51
355.0000000000004
  0
ARC
  8
0
  6
CONTINUOUS
 62
     7
 10
100.488046691
 20
60.89852141010002
 40
0.5499999999999977
 50
89.99999999999994
 51
175.0000000000002
  0
ARC
  8
0
  6
CONTINUOUS
 62
     7
 10
107.1460645453
 20
59.31399665200001
 40
0.4654752418000216
 50
184.9999999999997
 51
355.0000000000004
  0
ARC
  8
0
  6
CONTINUOUS
 62
     7
 10
104.396046691
 20
60.89852141010002
 40
0.5499999999999977
 50
89.99999999999994
 51
175.0000000000002
  0
ARC
  8
0
  6
CONTINUOUS
 62
     7
 10
90.35608239960001
 20
60.89852141010002
 40
0.5499999999999949
 50
4.999999999999773
 51
90.0
  0
ARC
  8
0
  6
CONTINUOUS
 62
     7
 10
87.6060645453
 20
59.31399665200001
 40
0.4654752418000216
 50
184.9999999999997
 51
355.0000000000004
  0
ARC
  8
0
  6
CONTINUOUS
 62
     7
 10
-123.4099354547
 20
59.31399665200001
 40
0.4654752418000216
 50
184.9999999999997
 51
355.0000000000004
  0
ARC
  8
0
  6
CONTINUOUS
 62
     7
 10
91.51406454529996
 20
59.31399665200001
 40
0.4654752418000216
 50
184.9999999999997
 51
355.0000000000004
  0
ARC
  8
0
  6
CONTINUOUS
 62
     7
 10
-122.2519533089999
 20
60.89852141010002
 40
0.5499999999999977
 50
89.99999999999994
 51
175.0000000000002
  0
ARC
  8
0
  6
CONTINUOUS
 62
     7
 10
92.67204669099998
 20
60.89852141010002
 40
0.5499999999999977
 50
89.99999999999994
 51
175.0000000000002
  0
ARC
  8
0
  6
CONTINUOUS
 62
     7
 10
129.4360823995999
 20
60.89852141010002
 40
0.5499999999999949
 50
4.999999999999886
 51
90.0
  0
ARC
  8
0
  6
CONTINUOUS
 62
     7
 10
143.476046691
 20
60.89852141010002
 40
0.5499999999999838
 50
90.0
 51
175.0000000000001
  0
ARC
  8
0
  6
CONTINUOUS
 62
     7
 10
-120.6599176003999
 20
60.89852141010002
 40
0.5499999999999949
 50
4.999999999999773
 51
90.0
  0
ARC
  8
0
  6
CONTINUOUS
 62
     7
 10
88.764046691
 20
60.89852141010002
 40
0.5499999999999977
 50
89.99999999999994
 51
175.0000000000002
  0
ARC
  8
0
  6
CONTINUOUS
 62
     7
 10
86.44808239959998
 20
60.89852141010002
 40
0.5499999999999949
 50
4.999999999999773
 51
90.0
  0
ARC
  8
0
  6
CONTINUOUS
 62
     7
 10
-126.159953309
 20
60.89852141010002
 40
0.5499999999999838
 50
90.0
 51
175.0000000000001
  0
ARC
  8
0
  6
CONTINUOUS
 62
     7
 10
-124.5679176004
 20
60.89852141010002
 40
0.5499999999999949
 50
4.999999999999773
 51
90.0
  0
ARC
  8
0
  6
CONTINUOUS
 62
     7
 10
-118.343953309
 20
60.89852141010002
 40
0.5499999999999977
 50
89.99999999999994
 51
175.0000000000002
  0
ARC
  8
0
  6
CONTINUOUS
 62
     7
 10
142.3180645453
 20
59.31399665200001
 40
0.4654752418000216
 50
184.9999999999997
 51
355.0000000000004
  0
ARC
  8
0
  6
CONTINUOUS
 62
     7
 10
-119.5019354547
 20
59.31399665200001
 40
0.4654752418000216
 50
184.9999999999997
 51
355.0000000000004
  0
ARC
  8
0
  6
CONTINUOUS
 62
     7
 10
96.58004669099998
 20
60.89852141010002
 40
0.5499999999999977
 50
89.99999999999994
 51
175.0000000000002
  0
ARC
  8
0
  6
CONTINUOUS
 62
     7
 10
94.26408239960001
 20
60.89852141010002
 40
0.5499999999999949
 50
4.999999999999773
 51
90.0
  0
ARC
  8
0
  6
CONTINUOUS
 62
     7
 10
95.42206454529997
 20
59.31399665200001
 40
0.4654752418000216
 50
184.9999999999997
 51
355.0000000000004
  0
ARC
  8
0
  6
CONTINUOUS
 62
     7
 10
98.17208239959993
 20
60.89852141010002
 40
0.5499999999999949
 50
4.999999999999773
 51
90.0
  0
LINE
  8
0
  6
CONTINUOUS
 62
     7
 10
-118.8918603929999
 20
60.94645706860003
 11
-119.0382314867
 21
59.27342781150002
  0
ARC
  8
0
  6
CONTINUOUS
 62
     7
 10
145.0680823996
 20
31.49852141010001
 40
0.5499999999999949
 50
270.0
 51
355.0000000000002
  0
ARC
  8
0
  6
CONTINUOUS
 62
     7
 10
100.488046691
 20
31.49852141010001
 40
0.5499999999999977
 50
184.9999999999998
 51
270.0000000000001
  0
ARC
  8
0
  6
CONTINUOUS
 62
     7
 10
96.580046691
 20
31.49852141010001
 40
0.5499999999999977
 50
184.9999999999998
 51
270.0000000000001
  0
ARC
  8
0
  6
CONTINUOUS
 62
     7
 10
90.35608239960003
 20
31.49852141010001
 40
0.5499999999999949
 50
270.0
 51
355.0000000000002
  0
ARC
  8
0
  6
CONTINUOUS
 62
     7
 10
-124.5679176004
 20
31.49852141010001
 40
0.5499999999999949
 50
270.0
 51
355.0000000000002
  0
ARC
  8
0
  6
CONTINUOUS
 62
     7
 10
-123.4099354547
 20
33.08304616820001
 40
0.4654752418000216
 50
4.999999999999628
 51
175.0000000000004
  0
ARC
  8
0
  6
CONTINUOUS
 62
     7
 10
-122.251953309
 20
31.49852141010001
 40
0.5499999999999977
 50
184.9999999999998
 51
270.0000000000001
  0
ARC
  8
0
  6
CONTINUOUS
 62
     7
 10
129.4360823996
 20
31.49852141010001
 40
0.5499999999999949
 50
270.0
 51
355.0000000000002
  0
ARC
  8
0
  6
CONTINUOUS
 62
     7
 10
95.4220645453
 20
33.08304616820001
 40
0.4654752418000216
 50
4.999999999999628
 51
175.0000000000004
  0
ARC
  8
0
  6
CONTINUOUS
 62
     7
 10
139.568046691
 20
31.49852141010001
 40
0.5499999999999838
 50
184.9999999999999
 51
270.0
  0
ARC
  8
0
  6
CONTINUOUS
 62
     7
 10
-120.6599176004
 20
31.49852141010001
 40
0.5499999999999949
 50
270.0
 51
355.0000000000002
  0
ARC
  8
0
  6
CONTINUOUS
 62
     7
 10
137.2520823996
 20
31.49852141010001
 40
0.5499999999999949
 50
270.0
 51
355.0000000000002
  0
ARC
  8
0
  6
CONTINUOUS
 62
     7
 10
-67.53995330899998
 20
31.49852141010001
 40
0.5499999999999977
 50
184.9999999999998
 51
270.0000000000001
  0
ARC
  8
0
  6
CONTINUOUS
 62
     7
 10
-72.60593545469996
 20
33.08304616820001
 40
0.4654752418000216
 50
4.999999999999628
 51
175.0000000000004
  0
ARC
  8
0
  6
CONTINUOUS
 62
     7
 10
88.76404669100002
 20
31.49852141010001
 40
0.5499999999999977
 50
184.9999999999998
 51
270.0000000000001
  0
ARC
  8
0
  6
CONTINUOUS
 62
     7
 10
87.60606454530001
 20
33.08304616820001
 40
0.4654752418000216
 50
4.999999999999628
 51
175.0000000000004
  0
ARC
  8
0
  6
CONTINUOUS
 62
     7
 10
143.476046691
 20
31.49852141010001
 40
0.5499999999999838
 50
184.9999999999999
 51
270.0
  0
ARC
  8
0
  6
CONTINUOUS
 62
     7
 10
138.4100645453
 20
33.08304616820001
 40
0.4654752418000216
 50
4.999999999999628
 51
175.0000000000004
  0
ARC
  8
0
  6
CONTINUOUS
 62
     7
 10
-71.447953309
 20
31.49852141010001
 40
0.5499999999999977
 50
184.9999999999998
 51
270.0000000000001
  0
ARC
  8
0
  6
CONTINUOUS
 62
     7
 10
86.4480823996
 20
31.49852141010001
 40
0.5499999999999949
 50
270.0
 51
355.0000000000002
  0
ARC
  8
0
  6
CONTINUOUS
 62
     7
 10
-75.35595330900003
 20
31.49852141010001
 40
0.5499999999999977
 50
184.9999999999998
 51
270.0000000000001
  0
ARC
  8
0
  6
CONTINUOUS
 62
     7
 10
99.33006454530002
 20
33.08304616820001
 40
0.4654752418000216
 50
4.999999999999628
 51
175.0000000000004
  0
ARC
  8
0
  6
CONTINUOUS
 62
     7
 10
-119.5019354547
 20
33.08304616820001
 40
0.4654752418000216
 50
4.999999999999628
 51
175.0000000000004
  0
ARC
  8
0
  6
CONTINUOUS
 62
     7
 10
-126.159953309
 20
31.49852141010001
 40
0.5499999999999838
 50
184.9999999999999
 51
270.0
  0
ARC
  8
0
  6
CONTINUOUS
 62
     7
 10
142.3180645453
 20
33.08304616820001
 40
0.4654752418000216
 50
4.999999999999628
 51
175.0000000000004
  0
ARC
  8
0
  6
CONTINUOUS
 62
     7
 10
-118.343953309
 20
31.49852141010001
 40
0.5499999999999977
 50
184.9999999999998
 51
270.0000000000001
  0
ARC
  8
0
  6
CONTINUOUS
 62
     7
 10
94.26408239960004
 20
31.49852141010001
 40
0.5499999999999949
 50
270.0
 51
355.0000000000002
  0
ARC
  8
0
  6
CONTINUOUS
 62
     7
 10
92.67204669099999
 20
31.49852141010001
 40
0.5499999999999977
 50
184.9999999999998
 51
270.0000000000001
  0
ARC
  8
0
  6
CONTINUOUS
 62
     7
 10
98.17208239959996
 20
31.49852141010001
 40
0.5499999999999949
 50
270.0
 51
355.0000000000002
  0
ARC
  8
0
  6
CONTINUOUS
 62
     7
 10
91.51406454529997
 20
33.08304616820001
 40
0.4654752418000216
 50
4.999999999999628
 51
175.0000000000004
  0
ARC
  8
0
  6
CONTINUOUS
 62
     7
 10
141.1600823996
 20
31.49852141010001
 40
0.5499999999999949
 50
270.0
 51
355.0000000000002
  0
ARC
  8
0
  6
CONTINUOUS
 62
     7
 10
-76.51393545469998
 20
33.08304616820001
 40
0.4654752418000216
 50
4.999999999999628
 51
175.0000000000004
  0
ARC
  8
0
  6
CONTINUOUS
 62
     7
 10
-97.21191760039999
 20
31.49852141010001
 40
0.5499999999999949
 50
270.0
 51
355.0000000000002
  0
ARC
  8
0
  6
CONTINUOUS
 62
     7
 10
-99.96193545469994
 20
33.08304616820001
 40
0.4654752418000216
 50
4.999999999999628
 51
175.0000000000004
  0
ARC
  8
0
  6
CONTINUOUS
 62
     7
 10
-96.05393545469998
 20
33.08304616820001
 40
0.4654752418000216
 50
4.999999999999628
 51
175.0000000000004
  0
ARC
  8
0
  6
CONTINUOUS
 62
     7
 10
-94.89595330899996
 20
31.49852141010001
 40
0.5499999999999977
 50
184.9999999999998
 51
270.0000000000001
  0
ARC
  8
0
  6
CONTINUOUS
 62
     7
 10
-98.803953309
 20
31.49852141010001
 40
0.5499999999999977
 50
184.9999999999998
 51
270.0000000000001
  0
ARC
  8
0
  6
CONTINUOUS
 62
     7
 10
-92.14593545470001
 20
33.08304616820001
 40
0.4654752418000216
 50
4.999999999999628
 51
175.0000000000004
  0
ARC
  8
0
  6
CONTINUOUS
 62
     7
 10
-90.98795330899995
 20
31.49852141010001
 40
0.5499999999999977
 50
184.9999999999998
 51
270.0000000000001
  0
ARC
  8
0
  6
CONTINUOUS
 62
     7
 10
-93.30391760039997
 20
31.49852141010001
 40
0.5499999999999949
 50
270.0
 51
355.0000000000002
  0
ARC
  8
0
  6
CONTINUOUS
 62
     7
 10
-101.1199176004
 20
31.49852141010001
 40
0.5499999999999949
 50
270.0
 51
355.0000000000002
  0
ARC
  8
0
  6
CONTINUOUS
 62
     7
 10
-77.67191760039998
 20
31.49852141010001
 40
0.5499999999999949
 50
270.0
 51
355.0000000000002
  0
ARC
  8
0
  6
CONTINUOUS
 62
     7
 10
-89.3959176004
 20
31.49852141010001
 40
0.5499999999999949
 50
270.0
 51
355.0000000000002
  0
ARC
  8
0
  6
CONTINUOUS
 62
     7
 10
-88.2379354547
 20
33.08304616820001
 40
0.4654752418000216
 50
4.999999999999628
 51
175.0000000000004
  0
ARC
  8
0
  6
CONTINUOUS
 62
     7
 10
-69.85591760039999
 20
31.49852141010001
 40
0.5499999999999949
 50
270.0
 51
355.0000000000002
  0
ARC
  8
0
  6
CONTINUOUS
 62
     7
 10
-68.69793545469999
 20
33.08304616820001
 40
0.4654752418000216
 50
4.999999999999628
 51
175.0000000000004
  0
ARC
  8
0
  6
CONTINUOUS
 62
     7
 10
-85.48791760039997
 20
31.49852141010001
 40
0.5499999999999949
 50
270.0
 51
355.0000000000002
  0
ARC
  8
0
  6
CONTINUOUS
 62
     7
 10
-80.4219354547
 20
33.08304616820001
 40
0.4654752418000216
 50
4.999999999999628
 51
175.0000000000004
  0
ARC
  8
0
  6
CONTINUOUS
 62
     7
 10
-111.6859354547
 20
33.08304616820001
 40
0.4654752418000216
 50
4.999999999999628
 51
175.0000000000004
  0
ARC
  8
0
  6
CONTINUOUS
 62
     7
 10
-115.5939354547
 20
33.08304616820001
 40
0.4654752418000216
 50
4.999999999999628
 51
175.0000000000004
  0
ARC
  8
0
  6
CONTINUOUS
 62
     7
 10
-116.7519176004
 20
31.49852141010001
 40
0.5499999999999949
 50
270.0
 51
355.0000000000002
  0
ARC
  8
0
  6
CONTINUOUS
 62
     7
 10
-84.32993545469996
 20
33.08304616820001
 40
0.4654752418000216
 50
4.999999999999628
 51
175.0000000000004
  0
ARC
  8
0
  6
CONTINUOUS
 62
     7
 10
-81.57991760039995
 20
31.49852141010001
 40
0.5499999999999949
 50
270.0
 51
355.0000000000002
  0
ARC
  8
0
  6
CONTINUOUS
 62
     7
 10
-114.435953309
 20
31.49852141010001
 40
0.5499999999999977
 50
184.9999999999998
 51
270.0000000000001
  0
ARC
  8
0
  6
CONTINUOUS
 62
     7
 10
-83.17195330899996
 20
31.49852141010001
 40
0.5499999999999977
 50
184.9999999999998
 51
270.0000000000001
  0
ARC
  8
0
  6
CONTINUOUS
 62
     7
 10
-87.07995330899998
 20
31.49852141010001
 40
0.5499999999999977
 50
184.9999999999998
 51
270.0000000000001
  0
ARC
  8
0
  6
CONTINUOUS
 62
     7
 10
-103.8699354547
 20
33.08304616820001
 40
0.4654752418000216
 50
4.999999999999628
 51
175.0000000000004
  0
ARC
  8
0
  6
CONTINUOUS
 62
     7
 10
-105.0279176004
 20
31.49852141010001
 40
0.5499999999999949
 50
270.0
 51
355.0000000000002
  0
ARC
  8
0
  6
CONTINUOUS
 62
     7
 10
-107.7779354547
 20
33.08304616820001
 40
0.4654752418000216
 50
4.999999999999628
 51
175.0000000000004
  0
ARC
  8
0
  6
CONTINUOUS
 62
     7
 10
-102.711953309
 20
31.49852141010001
 40
0.5499999999999977
 50
184.9999999999998
 51
270.0000000000001
  0
ARC
  8
0
  6
CONTINUOUS
 62
     7
 10
-108.9359176003999
 20
31.49852141010001
 40
0.5499999999999949
 50
270.0
 51
355.0000000000002
  0
ARC
  8
0
  6
CONTINUOUS
 62
     7
 10
-106.619953309
 20
31.49852141010001
 40
0.5499999999999977
 50
184.9999999999998
 51
270.0000000000001
  0
ARC
  8
0
  6
CONTINUOUS
 62
     7
 10
-112.8439176004
 20
31.49852141010001
 40
0.5499999999999949
 50
270.0
 51
355.0000000000002
  0
ARC
  8
0
  6
CONTINUOUS
 62
     7
 10
-79.26395330899999
 20
31.49852141010001
 40
0.5499999999999977
 50
184.9999999999998
 51
270.0000000000001
  0
ARC
  8
0
  6
CONTINUOUS
 62
     7
 10
-110.527953309
 20
31.49852141010001
 40
0.5499999999999977
 50
184.9999999999998
 51
270.0000000000001
  0
ARC
  8
0
  6
CONTINUOUS
 62
     7
 10
-46.41191760039997
 20
31.49852141010001
 40
0.5499999999999949
 50
270.0
 51
355.0000000000002
  0
ARC
  8
0
  6
CONTINUOUS
 62
     7
 10
-44.09595330899996
 20
31.49852141010001
 40
0.5499999999999977
 50
184.9999999999998
 51
270.0000000000001
  0
ARC
  8
0
  6
CONTINUOUS
 62
     7
 10
-48.00395330899998
 20
31.49852141010001
 40
0.5499999999999977
 50
184.9999999999998
 51
270.0000000000001
  0
ARC
  8
0
  6
CONTINUOUS
 62
     7
 10
-21.80593545469994
 20
33.08304616820001
 40
0.4654752418000181
 50
4.9999999999997
 51
175.0000000000004
  0
ARC
  8
0
  6
CONTINUOUS
 62
     7
 10
-16.73995330899997
 20
31.49852141010001
 40
0.5499999999999943
 50
184.9999999999998
 51
270.0
  0
ARC
  8
0
  6
CONTINUOUS
 62
     7
 10
-73.76391760040002
 20
31.49852141010001
 40
0.5499999999999949
 50
270.0
 51
355.0000000000002
  0
ARC
  8
0
  6
CONTINUOUS
 62
     7
 10
-19.05591760039999
 20
31.49852141010001
 40
0.5499999999999949
 50
270.0
 51
355.0000000000002
  0
ARC
  8
0
  6
CONTINUOUS
 62
     7
 10
-24.55595330900001
 20
31.49852141010001
 40
0.5499999999999943
 50
184.9999999999998
 51
270.0
  0
ARC
  8
0
  6
CONTINUOUS
 62
     7
 10
-25.71393545469996
 20
33.08304616820001
 40
0.4654752418000181
 50
4.9999999999997
 51
175.0000000000004
  0
ARC
  8
0
  6
CONTINUOUS
 62
     7
 10
-17.89793545469998
 20
33.08304616820001
 40
0.4654752418000181
 50
4.9999999999997
 51
175.0000000000004
  0
ARC
  8
0
  6
CONTINUOUS
 62
     7
 10
-20.64795330899999
 20
31.49852141010001
 40
0.5499999999999943
 50
184.9999999999998
 51
270.0
  0
ARC
  8
0
  6
CONTINUOUS
 62
     7
 10
-26.87191760039997
 20
31.49852141010001
 40
0.5499999999999949
 50
270.0
 51
355.0000000000002
  0
ARC
  8
0
  6
CONTINUOUS
 62
     7
 10
-45.25393545469996
 20
33.08304616820001
 40
0.4654752418000146
 50
4.9999999999997
 51
175.0000000000003
  0
ARC
  8
0
  6
CONTINUOUS
 62
     7
 10
-49.16193545469994
 20
33.08304616820001
 40
0.4654752418000146
 50
4.9999999999997
 51
175.0000000000003
  0
ARC
  8
0
  6
CONTINUOUS
 62
     7
 10
-40.18795330899994
 20
31.49852141010001
 40
0.5499999999999977
 50
184.9999999999998
 51
270.0000000000001
  0
ARC
  8
0
  6
CONTINUOUS
 62
     7
 10
-51.911953309
 20
31.49852141010001
 40
0.5499999999999977
 50
184.9999999999998
 51
270.0000000000001
  0
ARC
  8
0
  6
CONTINUOUS
 62
     7
 10
-28.46395330899998
 20
31.49852141010001
 40
0.5499999999999943
 50
184.9999999999998
 51
270.0
  0
ARC
  8
0
  6
CONTINUOUS
 62
     7
 10
-41.3459354547
 20
33.08304616820001
 40
0.4654752418000146
 50
4.9999999999997
 51
175.0000000000003
  0
ARC
  8
0
  6
CONTINUOUS
 62
     7
 10
-54.22791760040002
 20
31.49852141010001
 40
0.5499999999999949
 50
270.0
 51
355.0000000000002
  0
ARC
  8
0
  6
CONTINUOUS
 62
     7
 10
-58.13591760039994
 20
31.49852141010001
 40
0.5499999999999949
 50
270.0
 51
355.0000000000002
  0
ARC
  8
0
  6
CONTINUOUS
 62
     7
 10
-37.43793545469997
 20
33.08304616820001
 40
0.4654752418000146
 50
4.9999999999997
 51
175.0000000000003
  0
ARC
  8
0
  6
CONTINUOUS
 62
     7
 10
-56.97793545469998
 20
33.08304616820001
 40
0.4654752418000146
 50
4.9999999999997
 51
175.0000000000003
  0
ARC
  8
0
  6
CONTINUOUS
 62
     7
 10
-55.81995330899997
 20
31.49852141010001
 40
0.5499999999999977
 50
184.9999999999998
 51
270.0000000000001
  0
ARC
  8
0
  6
CONTINUOUS
 62
     7
 10
-36.27995330899996
 20
31.49852141010001
 40
0.5499999999999977
 50
184.9999999999998
 51
270.0000000000001
  0
ARC
  8
0
  6
CONTINUOUS
 62
     7
 10
-33.52993545469995
 20
33.08304616820001
 40
0.4654752418000146
 50
4.9999999999997
 51
175.0000000000003
  0
ARC
  8
0
  6
CONTINUOUS
 62
     7
 10
-53.06993545469996
 20
33.08304616820001
 40
0.4654752418000146
 50
4.9999999999997
 51
175.0000000000003
  0
ARC
  8
0
  6
CONTINUOUS
 62
     7
 10
-34.68791760039996
 20
31.49852141010001
 40
0.5499999999999949
 50
270.0
 51
355.0000000000002
  0
ARC
  8
0
  6
CONTINUOUS
 62
     7
 10
-42.50391760039995
 20
31.49852141010001
 40
0.5499999999999949
 50
270.0
 51
355.0000000000002
  0
ARC
  8
0
  6
CONTINUOUS
 62
     7
 10
-30.77991760039994
 20
31.49852141010001
 40
0.5499999999999949
 50
270.0
 51
355.0000000000002
  0
ARC
  8
0
  6
CONTINUOUS
 62
     7
 10
-50.3199176004
 20
31.49852141010001
 40
0.5499999999999949
 50
270.0
 51
355.0000000000002
  0
ARC
  8
0
  6
CONTINUOUS
 62
     7
 10
-38.59591760039999
 20
31.49852141010001
 40
0.5499999999999949
 50
270.0
 51
355.0000000000002
  0
ARC
  8
0
  6
CONTINUOUS
 62
     7
 10
-29.62193545469999
 20
33.08304616820001
 40
0.4654752418000181
 50
4.9999999999997
 51
175.0000000000004
  0
ARC
  8
0
  6
CONTINUOUS
 62
     7
 10
-32.37195330899994
 20
31.49852141010001
 40
0.5499999999999977
 50
184.9999999999998
 51
270.0000000000001
  0
ARC
  8
0
  6
CONTINUOUS
 62
     7
 10
-65.95191760039998
 20
31.49852141010001
 40
0.5499999999999949
 50
270.0
 51
355.0000000000002
  0
ARC
  8
0
  6
CONTINUOUS
 62
     7
 10
-60.8859354547
 20
33.08304616820001
 40
0.4654752418000146
 50
4.9999999999997
 51
175.0000000000003
  0
ARC
  8
0
  6
CONTINUOUS
 62
     7
 10
28.99406454530004
 20
33.08304616820001
 40
0.4654752418000181
 50
4.9999999999997
 51
175.0000000000004
  0
ARC
  8
0
  6
CONTINUOUS
 62
     7
 10
25.08606454530002
 20
33.08304616820001
 40
0.4654752418000181
 50
4.9999999999997
 51
175.0000000000004
  0
ARC
  8
0
  6
CONTINUOUS
 62
     7
 10
34.06004669100002
 20
31.49852141010001
 40
0.5499999999999977
 50
184.9999999999998
 51
270.0000000000001
  0
ARC
  8
0
  6
CONTINUOUS
 62
     7
 10
-22.96391760040001
 20
31.49852141010001
 40
0.5499999999999949
 50
270.0
 51
355.0000000000002
  0
ARC
  8
0
  6
CONTINUOUS
 62
     7
 10
-59.72795330899999
 20
31.49852141010001
 40
0.5499999999999977
 50
184.9999999999998
 51
270.0000000000001
  0
ARC
  8
0
  6
CONTINUOUS
 62
     7
 10
-63.63595330899996
 20
31.49852141010001
 40
0.5499999999999977
 50
184.9999999999998
 51
270.0000000000001
  0
ARC
  8
0
  6
CONTINUOUS
 62
     7
 10
-64.79393545469996
 20
33.08304616820001
 40
0.4654752418000216
 50
4.999999999999628
 51
175.0000000000004
  0
ARC
  8
0
  6
CONTINUOUS
 62
     7
 10
30.152046691
 20
31.49852141010001
 40
0.5499999999999943
 50
184.9999999999998
 51
270.0
  0
ARC
  8
0
  6
CONTINUOUS
 62
     7
 10
-62.04391760039996
 20
31.49852141010001
 40
0.5499999999999949
 50
270.0
 51
355.0000000000002
  0
ARC
  8
0
  6
CONTINUOUS
 62
     7
 10
26.24404669099997
 20
31.49852141010001
 40
0.5499999999999943
 50
184.9999999999998
 51
270.0
  0
ARC
  8
0
  6
CONTINUOUS
 62
     7
 10
2.796046691000003
 20
31.49852141010001
 40
0.5499999999999947
 50
184.9999999999998
 51
270.0
  0
ARC
  8
0
  6
CONTINUOUS
 62
     7
 10
1.63806454530005
 20
33.08304616820001
 40
0.4654752418000173
 50
4.999999999999627
 51
175.0000000000003
  0
ARC
  8
0
  6
CONTINUOUS
 62
     7
 10
5.546064545300017
 20
33.08304616820001
 40
0.4654752418000173
 50
4.999999999999627
 51
175.0000000000003
  0
ARC
  8
0
  6
CONTINUOUS
 62
     7
 10
31.7440823996
 20
31.49852141010001
 40
0.5499999999999949
 50
270.0
 51
355.0000000000002
  0
ARC
  8
0
  6
CONTINUOUS
 62
     7
 10
10.61204669100005
 20
31.49852141010001
 40
0.5499999999999943
 50
184.9999999999998
 51
270.0
  0
ARC
  8
0
  6
CONTINUOUS
 62
     7
 10
0.4800823995999848
 20
31.49852141010001
 40
0.5499999999999949
 50
270.0
 51
355.0000000000002
  0
ARC
  8
0
  6
CONTINUOUS
 62
     7
 10
8.29608239960003
 20
31.49852141010001
 40
0.5499999999999949
 50
270.0
 51
355.0000000000002
  0
ARC
  8
0
  6
CONTINUOUS
 62
     7
 10
23.92808239960001
 20
31.49852141010001
 40
0.5499999999999949
 50
270.0
 51
355.0000000000002
  0
ARC
  8
0
  6
CONTINUOUS
 62
     7
 10
6.704046691000026
 20
31.49852141010001
 40
0.5499999999999952
 50
184.9999999999998
 51
270.0
  0
ARC
  8
0
  6
CONTINUOUS
 62
     7
 10
9.454064545299984
 20
33.08304616820001
 40
0.4654752418000164
 50
4.999999999999627
 51
175.0000000000002
  0
ARC
  8
0
  6
CONTINUOUS
 62
     7
 10
32.90206454530001
 20
33.08304616820001
 40
0.4654752418000146
 50
4.9999999999997
 51
175.0000000000003
  0
ARC
  8
0
  6
CONTINUOUS
 62
     7
 10
4.388082399600007
 20
31.49852141010001
 40
0.5499999999999949
 50
270.0
 51
355.0000000000002
  0
ARC
  8
0
  6
CONTINUOUS
 62
     7
 10
-10.08593545470002
 20
33.08304616820001
 40
0.4654752418000164
 50
4.999999999999627
 51
175.0000000000002
  0
ARC
  8
0
  6
CONTINUOUS
 62
     7
 10
14.52004669100002
 20
31.49852141010001
 40
0.5499999999999943
 50
184.9999999999998
 51
270.0
  0
ARC
  8
0
  6
CONTINUOUS
 62
     7
 10
16.11208239960002
 20
31.49852141010001
 40
0.5499999999999949
 50
270.0
 51
355.0000000000002
  0
ARC
  8
0
  6
CONTINUOUS
 62
     7
 10
-1.111953309000019
 20
31.49852141010001
 40
0.5499999999999947
 50
184.9999999999998
 51
270.0
  0
ARC
  8
0
  6
CONTINUOUS
 62
     7
 10
20.02008239960004
 20
31.49852141010001
 40
0.5499999999999949
 50
270.0
 51
355.0000000000002
  0
ARC
  8
0
  6
CONTINUOUS
 62
     7
 10
-3.427917600400038
 20
31.49852141010001
 40
0.5499999999999949
 50
270.0
 51
355.0000000000002
  0
ARC
  8
0
  6
CONTINUOUS
 62
     7
 10
21.1780645453
 20
33.08304616820001
 40
0.4654752418000181
 50
4.9999999999997
 51
175.0000000000004
  0
ARC
  8
0
  6
CONTINUOUS
 62
     7
 10
-8.927953309000008
 20
31.49852141010001
 40
0.5499999999999943
 50
184.9999999999998
 51
270.0
  0
ARC
  8
0
  6
CONTINUOUS
 62
     7
 10
-11.24391760039997
 20
31.49852141010001
 40
0.5499999999999949
 50
270.0
 51
355.0000000000002
  0
ARC
  8
0
  6
CONTINUOUS
 62
     7
 10
-12.83595330899998
 20
31.49852141010001
 40
0.5499999999999943
 50
184.9999999999998
 51
270.0
  0
ARC
  8
0
  6
CONTINUOUS
 62
     7
 10
13.36206454530001
 20
33.08304616820001
 40
0.4654752418000164
 50
4.999999999999627
 51
175.0000000000002
  0
ARC
  8
0
  6
CONTINUOUS
 62
     7
 10
-2.269935454699973
 20
33.08304616820001
 40
0.4654752418000173
 50
4.999999999999627
 51
175.0000000000003
  0
ARC
  8
0
  6
CONTINUOUS
 62
     7
 10
17.27006454530003
 20
33.08304616820001
 40
0.4654752418000181
 50
4.9999999999997
 51
175.0000000000004
  0
ARC
  8
0
  6
CONTINUOUS
 62
     7
 10
18.42804669100004
 20
31.49852141010001
 40
0.5499999999999943
 50
184.9999999999998
 51
270.0
  0
ARC
  8
0
  6
CONTINUOUS
 62
     7
 10
12.2040823996
 20
31.49852141010001
 40
0.5499999999999949
 50
270.0
 51
355.0000000000002
  0
ARC
  8
0
  6
CONTINUOUS
 62
     7
 10
-6.177935454699996
 20
33.08304616820001
 40
0.4654752418000173
 50
4.999999999999627
 51
175.0000000000003
  0
ARC
  8
0
  6
CONTINUOUS
 62
     7
 10
-7.33591760039995
 20
31.49852141010001
 40
0.5499999999999949
 50
270.0
 51
355.0000000000002
  0
ARC
  8
0
  6
CONTINUOUS
 62
     7
 10
22.336046691
 20
31.49852141010001
 40
0.5499999999999943
 50
184.9999999999998
 51
270.0
  0
ARC
  8
0
  6
CONTINUOUS
 62
     7
 10
-5.019953308999986
 20
31.49852141010001
 40
0.5499999999999952
 50
184.9999999999998
 51
270.0
  0
ARC
  8
0
  6
CONTINUOUS
 62
     7
 10
77.04404669099996
 20
31.49852141010001
 40
0.5499999999999977
 50
184.9999999999998
 51
270.0000000000001
  0
ARC
  8
0
  6
CONTINUOUS
 62
     7
 10
83.7020645453
 20
33.08304616820001
 40
0.4654752418000216
 50
4.999999999999628
 51
175.0000000000004
  0
ARC
  8
0
  6
CONTINUOUS
 62
     7
 10
79.79406454530003
 20
33.08304616820001
 40
0.4654752418000216
 50
4.999999999999628
 51
175.0000000000004
  0
ARC
  8
0
  6
CONTINUOUS
 62
     7
 10
52.43806454530004
 20
33.08304616820001
 40
0.4654752418000146
 50
4.9999999999997
 51
175.0000000000003
  0
ARC
  8
0
  6
CONTINUOUS
 62
     7
 10
-13.99393545469998
 20
33.08304616820001
 40
0.4654752418000164
 50
4.999999999999627
 51
175.0000000000002
  0
ARC
  8
0
  6
CONTINUOUS
 62
     7
 10
61.41204669100004
 20
31.49852141010001
 40
0.5499999999999977
 50
184.9999999999998
 51
270.0000000000001
  0
ARC
  8
0
  6
CONTINUOUS
 62
     7
 10
63.00408239959999
 20
31.49852141010001
 40
0.5499999999999949
 50
270.0
 51
355.0000000000002
  0
ARC
  8
0
  6
CONTINUOUS
 62
     7
 10
64.1620645453
 20
33.08304616820001
 40
0.4654752418000216
 50
4.999999999999628
 51
175.0000000000004
  0
ARC
  8
0
  6
CONTINUOUS
 62
     7
 10
65.32004669100002
 20
31.49852141010001
 40
0.5499999999999977
 50
184.9999999999998
 51
270.0000000000001
  0
ARC
  8
0
  6
CONTINUOUS
 62
     7
 10
66.91208239960001
 20
31.49852141010001
 40
0.5499999999999949
 50
270.0
 51
355.0000000000002
  0
ARC
  8
0
  6
CONTINUOUS
 62
     7
 10
71.97806454529999
 20
33.08304616820001
 40
0.4654752418000216
 50
4.999999999999628
 51
175.0000000000004
  0
ARC
  8
0
  6
CONTINUOUS
 62
     7
 10
60.25406454529998
 20
33.08304616820001
 40
0.4654752418000146
 50
4.9999999999997
 51
175.0000000000003
  0
ARC
  8
0
  6
CONTINUOUS
 62
     7
 10
70.82008239960004
 20
31.49852141010001
 40
0.5499999999999949
 50
270.0
 51
355.0000000000002
  0
ARC
  8
0
  6
CONTINUOUS
 62
     7
 10
68.07006454530003
 20
33.08304616820001
 40
0.4654752418000216
 50
4.999999999999628
 51
175.0000000000004
  0
ARC
  8
0
  6
CONTINUOUS
 62
     7
 10
69.22804669100003
 20
31.49852141010001
 40
0.5499999999999977
 50
184.9999999999998
 51
270.0000000000001
  0
ARC
  8
0
  6
CONTINUOUS
 62
     7
 10
27.83608239959998
 20
31.49852141010001
 40
0.5499999999999949
 50
270.0
 51
355.0000000000002
  0
ARC
  8
0
  6
CONTINUOUS
 62
     7
 10
73.136046691
 20
31.49852141010001
 40
0.5499999999999977
 50
184.9999999999998
 51
270.0000000000001
  0
ARC
  8
0
  6
CONTINUOUS
 62
     7
 10
75.88606454530002
 20
33.08304616820001
 40
0.4654752418000216
 50
4.999999999999628
 51
175.0000000000004
  0
ARC
  8
0
  6
CONTINUOUS
 62
     7
 10
56.34606454530002
 20
33.08304616820001
 40
0.4654752418000146
 50
4.9999999999997
 51
175.0000000000003
  0
ARC
  8
0
  6
CONTINUOUS
 62
     7
 10
-15.15191760039999
 20
31.49852141010001
 40
0.5499999999999949
 50
270.0
 51
355.0000000000002
  0
ARC
  8
0
  6
CONTINUOUS
 62
     7
 10
84.86004669100001
 20
31.49852141010001
 40
0.5499999999999977
 50
184.9999999999998
 51
270.0000000000001
  0
ARC
  8
0
  6
CONTINUOUS
 62
     7
 10
80.95204669099999
 20
31.49852141010001
 40
0.5499999999999977
 50
184.9999999999998
 51
270.0000000000001
  0
ARC
  8
0
  6
CONTINUOUS
 62
     7
 10
74.72808239960001
 20
31.49852141010001
 40
0.5499999999999949
 50
270.0
 51
355.0000000000002
  0
ARC
  8
0
  6
CONTINUOUS
 62
     7
 10
82.5440823996
 20
31.49852141010001
 40
0.5499999999999949
 50
270.0
 51
355.0000000000002
  0
ARC
  8
0
  6
CONTINUOUS
 62
     7
 10
55.18808239960001
 20
31.49852141010001
 40
0.5499999999999949
 50
270.0
 51
355.0000000000002
  0
ARC
  8
0
  6
CONTINUOUS
 62
     7
 10
57.50404669100002
 20
31.49852141010001
 40
0.5499999999999977
 50
184.9999999999998
 51
270.0000000000001
  0
ARC
  8
0
  6
CONTINUOUS
 62
     7
 10
53.596046691
 20
31.49852141010001
 40
0.5499999999999977
 50
184.9999999999998
 51
270.0000000000001
  0
ARC
  8
0
  6
CONTINUOUS
 62
     7
 10
51.28008239959998
 20
31.49852141010001
 40
0.5499999999999949
 50
270.0
 51
355.0000000000002
  0
ARC
  8
0
  6
CONTINUOUS
 62
     7
 10
59.09608239960003
 20
31.49852141010001
 40
0.5499999999999949
 50
270.0
 51
355.0000000000002
  0
ARC
  8
0
  6
CONTINUOUS
 62
     7
 10
-129.5479354557
 20
58.80942917420003
 40
0.9999999999999982
 50
31.64042768620027
 51
89.01788283680014
  0
ARC
  8
0
  6
CONTINUOUS
 62
     7
 10
-127.8271682024999
 20
59.86972667870003
 40
1.021205268599996
 50
211.6404276862002
 51
355.0
  0
ARC
  8
0
  6
CONTINUOUS
 62
     7
 10
45.78004669100001
 20
31.49852141010001
 40
0.5499999999999977
 50
184.9999999999998
 51
270.0000000000001
  0
ARC
  8
0
  6
CONTINUOUS
 62
     7
 10
36.80606454530001
 20
33.08304616820001
 40
0.4654752418000146
 50
4.9999999999997
 51
175.0000000000003
  0
ARC
  8
0
  6
CONTINUOUS
 62
     7
 10
148.4560645463
 20
58.80942917420003
 40
0.9999999999999932
 50
90.98211716319992
 51
148.3595723137997
  0
ARC
  8
0
  6
CONTINUOUS
 62
     7
 10
146.7352972930999
 20
59.86972667870003
 40
1.0212052686
 50
185.0
 51
328.3595723137998
  0
LINE
  8
0
  6
CONTINUOUS
 62
     7
 10
-118.343953309
 20
61.44852141010001
 11
-116.7519176004
 21
61.44852141010001
  0
ARC
  8
0
  6
CONTINUOUS
 62
     7
 10
44.6220645453
 20
33.08304616820001
 40
0.4654752418000146
 50
4.9999999999997
 51
175.0000000000003
  0
LINE
  8
0
  6
CONTINUOUS
 62
     7
 10
131.204139607
 20
60.94645706860003
 11
131.0577685133
 21
59.27342781150002
  0
LINE
  8
0
  6
CONTINUOUS
 62
     7
 10
127.296139607
 20
60.94645706860003
 11
127.1497685133
 21
59.27342781150002
  0
LINE
  8
0
  6
CONTINUOUS
 62
     7
 10
135.1121396069999
 20
60.94645706860003
 11
134.9657685133
 21
59.27342781150002
  0
LINE
  8
0
  6
CONTINUOUS
 62
     7
 10
133.8919894835
 20
60.94645706860003
 11
134.0383605773
 21
59.27342781150002
  0
LINE
  8
0
  6
CONTINUOUS
 62
     7
 10
133.3440823996
 20
61.44852141010001
 11
131.7520466909999
 21
61.44852141010001
  0
LINE
  8
0
  6
CONTINUOUS
 62
     7
 10
126.0759894835
 20
60.94645706860003
 11
126.2223605773
 21
59.27342781150002
  0
LINE
  8
0
  6
CONTINUOUS
 62
     7
 10
106.5359894835
 20
60.94645706860003
 11
106.6823605772999
 21
59.27342781150002
  0
LINE
  8
0
  6
CONTINUOUS
 62
     7
 10
107.756139607
 20
60.94645706860003
 11
107.6097685133
 21
59.27342781150002
  0
LINE
  8
0
  6
CONTINUOUS
 62
     7
 10
104.396046691
 20
61.44852141010001
 11
105.9880823996
 21
61.44852141010001
  0
ARC
  8
0
  6
CONTINUOUS
 62
     7
 10
43.46408239960004
 20
31.49852141010001
 40
0.5499999999999949
 50
270.0
 51
355.0000000000002
  0
ARC
  8
0
  6
CONTINUOUS
 62
     7
 10
41.87204669099999
 20
31.49852141010001
 40
0.5499999999999977
 50
184.9999999999998
 51
270.0000000000001
  0
ARC
  8
0
  6
CONTINUOUS
 62
     7
 10
39.55608239960002
 20
31.49852141010001
 40
0.5499999999999949
 50
270.0
 51
355.0000000000002
  0
ARC
  8
0
  6
CONTINUOUS
 62
     7
 10
37.96404669100002
 20
31.49852141010001
 40
0.5499999999999977
 50
184.9999999999998
 51
270.0000000000001
  0
ARC
  8
0
  6
CONTINUOUS
 62
     7
 10
47.37208239959996
 20
31.49852141010001
 40
0.5499999999999949
 50
270.0
 51
355.0000000000002
  0
ARC
  8
0
  6
CONTINUOUS
 62
     7
 10
78.63608239959997
 20
31.49852141010001
 40
0.5499999999999949
 50
270.0
 51
355.0000000000002
  0
ARC
  8
0
  6
CONTINUOUS
 62
     7
 10
48.53006454530002
 20
33.08304616820001
 40
0.4654752418000146
 50
4.9999999999997
 51
175.0000000000003
  0
ARC
  8
0
  6
CONTINUOUS
 62
     7
 10
35.6480823996
 20
31.49852141010001
 40
0.5499999999999949
 50
270.0
 51
355.0000000000002
  0
LINE
  8
0
  6
CONTINUOUS
 62
     7
 10
137.7999894835
 20
60.94645706860003
 11
137.7999894835
 21
31.45058575160001
  0
ARC
  8
0
  6
CONTINUOUS
 62
     7
 10
49.68804669099998
 20
31.49852141010001
 40
0.5499999999999977
 50
184.9999999999998
 51
270.0000000000001
  0
ARC
  8
0
  6
CONTINUOUS
 62
     7
 10
40.71406454529998
 20
33.08304616820001
 40
0.4654752418000146
 50
4.9999999999997
 51
175.0000000000003
  0
LINE
  8
0
  6
CONTINUOUS
 62
     7
 10
109.8960823996
 20
61.44852141010001
 11
108.304046691
 21
61.44852141010001
  0
LINE
  8
0
  6
CONTINUOUS
 62
     7
 10
113.8040823996
 20
61.44852141010001
 11
112.212046691
 21
61.44852141010001
  0
LINE
  8
0
  6
CONTINUOUS
 62
     7
 10
102.6279894835
 20
60.94645706860003
 11
102.7743605773
 21
59.27342781150002
  0
LINE
  8
0
  6
CONTINUOUS
 62
     7
 10
103.848139607
 20
60.94645706860003
 11
103.7017685133
 21
59.27342781150002
  0
LINE
  8
0
  6
CONTINUOUS
 62
     7
 10
111.664139607
 20
60.94645706860003
 11
111.5177685133
 21
59.27342781150002
  0
LINE
  8
0
  6
CONTINUOUS
 62
     7
 10
110.4439894835
 20
60.94645706860003
 11
110.5903605773
 21
59.27342781150002
  0
LINE
  8
0
  6
CONTINUOUS
 62
     7
 10
115.572139607
 20
60.94645706860003
 11
115.4257685133
 21
59.27342781150002
  0
LINE
  8
0
  6
CONTINUOUS
 62
     7
 10
114.3519894835
 20
60.94645706860003
 11
114.4983605773
 21
59.27342781150002
  0
LINE
  8
0
  6
CONTINUOUS
 62
     7
 10
117.7120823996
 20
61.44852141010001
 11
116.120046691
 21
61.44852141010001
  0
LINE
  8
0
  6
CONTINUOUS
 62
     7
 10
120.028046691
 20
61.44852141010001
 11
121.6200823996
 21
61.44852141010001
  0
LINE
  8
0
  6
CONTINUOUS
 62
     7
 10
122.1679894835
 20
60.94645706860003
 11
122.3143605773
 21
59.27342781150002
  0
LINE
  8
0
  6
CONTINUOUS
 62
     7
 10
125.5280823996
 20
61.44852141010001
 11
123.936046691
 21
61.44852141010001
  0
LINE
  8
0
  6
CONTINUOUS
 62
     7
 10
123.388139607
 20
60.94645706860003
 11
123.2417685133
 21
59.27342781150002
  0
LINE
  8
0
  6
CONTINUOUS
 62
     7
 10
118.2599894834999
 20
60.94645706860003
 11
118.4063605773
 21
59.27342781150002
  0
LINE
  8
0
  6
CONTINUOUS
 62
     7
 10
88.764046691
 20
61.44852141010001
 11
90.35608239960001
 21
61.44852141010001
  0
LINE
  8
0
  6
CONTINUOUS
 62
     7
 10
94.81198948349997
 20
60.94645706860003
 11
94.95836057729997
 21
59.27342781150002
  0
LINE
  8
0
  6
CONTINUOUS
 62
     7
 10
88.21613960700002
 20
60.94645706860003
 11
88.06976851329999
 21
59.27342781150002
  0
LINE
  8
0
  6
CONTINUOUS
 62
     7
 10
86.9959894835
 20
60.94645706860003
 11
87.1423605773
 21
59.27342781150002
  0
LINE
  8
0
  6
CONTINUOUS
 62
     7
 10
92.12413960699999
 20
60.94645706860003
 11
91.97776851329996
 21
59.27342781150002
  0
LINE
  8
0
  6
CONTINUOUS
 62
     7
 10
98.7199894835
 20
60.94645706860003
 11
98.8663605773
 21
59.27342781150002
  0
LINE
  8
0
  6
CONTINUOUS
 62
     7
 10
127.8440466909999
 20
61.44852141010001
 11
129.4360823995999
 21
61.44852141010001
  0
LINE
  8
0
  6
CONTINUOUS
 62
     7
 10
96.03213960699999
 20
60.94645706860003
 11
95.88576851329996
 21
59.27342781150002
  0
LINE
  8
0
  6
CONTINUOUS
 62
     7
 10
90.90398948349997
 20
60.94645706860003
 11
91.05036057730003
 21
59.27342781150002
  0
LINE
  8
0
  6
CONTINUOUS
 62
     7
 10
129.9839894835
 20
60.94645706860003
 11
130.1303605773
 21
59.27342781150002
  0
LINE
  8
0
  6
CONTINUOUS
 62
     7
 10
-124.5679176004
 20
61.44852141010001
 11
-126.159953309
 21
61.44852141010001
  0
LINE
  8
0
  6
CONTINUOUS
 62
     7
 10
92.67204669099998
 20
61.44852141010001
 11
94.26408239960003
 21
61.44852141010001
  0
LINE
  8
0
  6
CONTINUOUS
 62
     7
 10
99.94013960699996
 20
60.94645706860003
 11
99.7937685133
 21
59.27342781150002
  0
LINE
  8
0
  6
CONTINUOUS
 62
     7
 10
119.480139607
 20
60.94645706860003
 11
119.3337685132999
 21
59.27342781150002
  0
LINE
  8
0
  6
CONTINUOUS
 62
     7
 10
102.0800823995999
 20
61.44852141010001
 11
100.488046691
 21
61.44852141010001
  0
LINE
  8
0
  6
CONTINUOUS
 62
     7
 10
96.58004669099998
 20
61.44852141010001
 11
98.17208239959993
 21
61.44852141010001
  0
LINE
  8
0
  6
CONTINUOUS
 62
     7
 10
-120.6599176003999
 20
61.44852141010001
 11
-122.2519533089999
 21
61.44852141010001
  0
LINE
  8
0
  6
CONTINUOUS
 62
     7
 10
-122.799860393
 20
60.94645706860003
 11
-122.9462314866999
 21
59.27342781150002
  0
LINE
  8
0
  6
CONTINUOUS
 62
     7
 10
-124.0200105164999
 20
60.94645706860003
 11
-123.8736394227
 21
59.27342781150002
  0
LINE
  8
0
  6
CONTINUOUS
 62
     7
 10
-120.1120105165
 20
60.94645706860003
 11
-119.9656394227
 21
59.27342781150002
  0
ARC
  8
0
  6
CONTINUOUS
 62
     7
 10
52.43806454530003
 20
59.31399665200001
 40
0.4654752418000216
 50
184.9999999999998
 51
355.0000000000004
  0
ARC
  8
0
  6
CONTINUOUS
 62
     7
 10
51.28008239959997
 20
60.89852141010002
 40
0.5499999999999949
 50
4.999999999999773
 51
90.0
  0
ARC
  8
0
  6
CONTINUOUS
 62
     7
 10
60.25406454529997
 20
59.31399665200001
 40
0.4654752418000216
 50
184.9999999999998
 51
355.0000000000004
  0
ARC
  8
0
  6
CONTINUOUS
 62
     7
 10
53.59604669099998
 20
60.89852141010002
 40
0.5499999999999977
 50
89.99999999999994
 51
175.0000000000002
  0
ARC
  8
0
  6
CONTINUOUS
 62
     7
 10
61.41204669100003
 20
60.89852141010002
 40
0.5499999999999977
 50
89.99999999999994
 51
175.0000000000002
  0
ARC
  8
0
  6
CONTINUOUS
 62
     7
 10
65.320046691
 20
60.89852141010002
 40
0.5499999999999977
 50
89.99999999999994
 51
175.0000000000002
  0
ARC
  8
0
  6
CONTINUOUS
 62
     7
 10
59.09608239960001
 20
60.89852141010002
 40
0.5499999999999949
 50
4.999999999999773
 51
90.0
  0
ARC
  8
0
  6
CONTINUOUS
 62
     7
 10
63.00408239959998
 20
60.89852141010002
 40
0.5499999999999949
 50
4.999999999999773
 51
90.0
  0
ARC
  8
0
  6
CONTINUOUS
 62
     7
 10
64.16206454529998
 20
59.31399665200001
 40
0.4654752418000216
 50
184.9999999999997
 51
355.0000000000004
  0
ARC
  8
0
  6
CONTINUOUS
 62
     7
 10
69.22804669100002
 20
60.89852141010002
 40
0.5499999999999977
 50
89.99999999999994
 51
175.0000000000002
  0
ARC
  8
0
  6
CONTINUOUS
 62
     7
 10
48.53006454530001
 20
59.31399665200001
 40
0.4654752418000216
 50
184.9999999999998
 51
355.0000000000004
  0
ARC
  8
0
  6
CONTINUOUS
 62
     7
 10
47.37208239959995
 20
60.89852141010002
 40
0.5499999999999949
 50
4.999999999999773
 51
90.0
  0
ARC
  8
0
  6
CONTINUOUS
 62
     7
 10
44.6220645453
 20
59.31399665200001
 40
0.4654752418000078
 50
184.9999999999995
 51
355.0000000000002
  0
ARC
  8
0
  6
CONTINUOUS
 62
     7
 10
43.46408239960004
 20
60.89852141010002
 40
0.5499999999999949
 50
4.999999999999773
 51
90.0
  0
ARC
  8
0
  6
CONTINUOUS
 62
     7
 10
45.78004669100001
 20
60.89852141010002
 40
0.5499999999999977
 50
89.99999999999994
 51
175.0000000000002
  0
ARC
  8
0
  6
CONTINUOUS
 62
     7
 10
66.9120823996
 20
60.89852141010002
 40
0.5499999999999949
 50
4.999999999999773
 51
90.0
  0
ARC
  8
0
  6
CONTINUOUS
 62
     7
 10
49.68804669099996
 20
60.89852141010002
 40
0.5499999999999977
 50
89.99999999999994
 51
175.0000000000002
  0
ARC
  8
0
  6
CONTINUOUS
 62
     7
 10
41.87204669099999
 20
60.89852141010002
 40
0.5499999999999977
 50
89.99999999999994
 51
175.0000000000002
  0
ARC
  8
0
  6
CONTINUOUS
 62
     7
 10
40.71406454529998
 20
59.31399665200001
 40
0.4654752418000078
 50
184.9999999999995
 51
355.0000000000002
  0
ARC
  8
0
  6
CONTINUOUS
 62
     7
 10
39.55608239960002
 20
60.89852141010002
 40
0.5499999999999949
 50
4.999999999999773
 51
90.0
  0
ARC
  8
0
  6
CONTINUOUS
 62
     7
 10
73.13604669099999
 20
60.89852141010002
 40
0.5499999999999977
 50
89.99999999999994
 51
175.0000000000002
  0
ARC
  8
0
  6
CONTINUOUS
 62
     7
 10
71.97806454529997
 20
59.31399665200001
 40
0.4654752418000216
 50
184.9999999999997
 51
355.0000000000004
  0
ARC
  8
0
  6
CONTINUOUS
 62
     7
 10
70.82008239960003
 20
60.89852141010002
 40
0.5499999999999949
 50
4.999999999999773
 51
90.0
  0
ARC
  8
0
  6
CONTINUOUS
 62
     7
 10
68.07006454530001
 20
59.31399665200001
 40
0.4654752418000216
 50
184.9999999999997
 51
355.0000000000004
  0
ARC
  8
0
  6
CONTINUOUS
 62
     7
 10
35.6480823996
 20
60.89852141010002
 40
0.5499999999999949
 50
4.999999999999773
 51
90.0
  0
ARC
  8
0
  6
CONTINUOUS
 62
     7
 10
78.63608239959996
 20
60.89852141010002
 40
0.5499999999999949
 50
4.999999999999773
 51
90.0
  0
ARC
  8
0
  6
CONTINUOUS
 62
     7
 10
36.80606454530001
 20
59.31399665200001
 40
0.4654752418000078
 50
184.9999999999995
 51
355.0000000000002
  0
ARC
  8
0
  6
CONTINUOUS
 62
     7
 10
37.96404669100002
 20
60.89852141010002
 40
0.5499999999999977
 50
89.99999999999994
 51
175.0000000000002
  0
ARC
  8
0
  6
CONTINUOUS
 62
     7
 10
-92.1459354547
 20
59.31399665200001
 40
0.4654752418000216
 50
184.9999999999997
 51
355.0000000000004
  0
ARC
  8
0
  6
CONTINUOUS
 62
     7
 10
-76.51393545469996
 20
59.31399665200001
 40
0.4654752418000216
 50
184.9999999999997
 51
355.0000000000004
  0
ARC
  8
0
  6
CONTINUOUS
 62
     7
 10
139.568046691
 20
60.89852141010002
 40
0.5499999999999838
 50
90.0
 51
175.0000000000001
  0
ARC
  8
0
  6
CONTINUOUS
 62
     7
 10
141.1600823996
 20
60.89852141010002
 40
0.5499999999999949
 50
4.999999999999886
 51
90.0
  0
ARC
  8
0
  6
CONTINUOUS
 62
     7
 10
-96.05393545469995
 20
59.31399665200001
 40
0.4654752418000216
 50
184.9999999999997
 51
355.0000000000004
  0
ARC
  8
0
  6
CONTINUOUS
 62
     7
 10
-97.21191760039996
 20
60.89852141010002
 40
0.5499999999999949
 50
4.999999999999773
 51
90.0
  0
ARC
  8
0
  6
CONTINUOUS
 62
     7
 10
-90.98795330899993
 20
60.89852141010002
 40
0.5499999999999977
 50
89.99999999999994
 51
175.0000000000002
  0
ARC
  8
0
  6
CONTINUOUS
 62
     7
 10
-93.30391760039996
 20
60.89852141010002
 40
0.5499999999999949
 50
4.999999999999773
 51
90.0
  0
ARC
  8
0
  6
CONTINUOUS
 62
     7
 10
-89.39591760039998
 20
60.89852141010002
 40
0.5499999999999949
 50
4.999999999999773
 51
90.0
  0
ARC
  8
0
  6
CONTINUOUS
 62
     7
 10
-88.23793545469998
 20
59.31399665200001
 40
0.4654752418000216
 50
184.9999999999997
 51
355.0000000000004
  0
ARC
  8
0
  6
CONTINUOUS
 62
     7
 10
137.2520823996
 20
60.89852141010002
 40
0.5499999999999949
 50
4.999999999999886
 51
90.0
  0
ARC
  8
0
  6
CONTINUOUS
 62
     7
 10
145.0680823996
 20
60.89852141010002
 40
0.5499999999999949
 50
4.999999999999886
 51
90.0
  0
ARC
  8
0
  6
CONTINUOUS
 62
     7
 10
-77.67191760039996
 20
60.89852141010002
 40
0.5499999999999949
 50
4.999999999999773
 51
90.0
  0
ARC
  8
0
  6
CONTINUOUS
 62
     7
 10
138.4100645452999
 20
59.31399665200001
 40
0.4654752418000216
 50
184.9999999999997
 51
355.0000000000004
  0
ARC
  8
0
  6
CONTINUOUS
 62
     7
 10
-67.53995330899997
 20
60.89852141010002
 40
0.5499999999999977
 50
89.99999999999994
 51
175.0000000000002
  0
ARC
  8
0
  6
CONTINUOUS
 62
     7
 10
-72.60593545469995
 20
59.31399665200001
 40
0.4654752418000216
 50
184.9999999999997
 51
355.0000000000004
  0
ARC
  8
0
  6
CONTINUOUS
 62
     7
 10
-75.35595330900001
 20
60.89852141010002
 40
0.5499999999999977
 50
89.99999999999994
 51
175.0000000000002
  0
ARC
  8
0
  6
CONTINUOUS
 62
     7
 10
-69.85591760039998
 20
60.89852141010002
 40
0.5499999999999949
 50
4.999999999999773
 51
90.0
  0
ARC
  8
0
  6
CONTINUOUS
 62
     7
 10
-71.44795330899998
 20
60.89852141010002
 40
0.5499999999999977
 50
89.99999999999994
 51
175.0000000000002
  0
ARC
  8
0
  6
CONTINUOUS
 62
     7
 10
-94.89595330899994
 20
60.89852141010002
 40
0.5499999999999977
 50
89.99999999999994
 51
175.0000000000002
  0
ARC
  8
0
  6
CONTINUOUS
 62
     7
 10
-98.80395330899997
 20
60.89852141010002
 40
0.5499999999999977
 50
89.99999999999994
 51
175.0000000000002
  0
ARC
  8
0
  6
CONTINUOUS
 62
     7
 10
-68.69793545469997
 20
59.31399665200001
 40
0.4654752418000216
 50
184.9999999999997
 51
355.0000000000004
  0
ARC
  8
0
  6
CONTINUOUS
 62
     7
 10
-99.96193545469991
 20
59.31399665200001
 40
0.4654752418000216
 50
184.9999999999997
 51
355.0000000000004
  0
ARC
  8
0
  6
CONTINUOUS
 62
     7
 10
-101.1199176004
 20
60.89852141010002
 40
0.5499999999999949
 50
4.999999999999773
 51
90.0
  0
ARC
  8
0
  6
CONTINUOUS
 62
     7
 10
-24.555953309
 20
60.89852141010002
 40
0.5499999999999943
 50
90.0
 51
175.0000000000002
  0
ARC
  8
0
  6
CONTINUOUS
 62
     7
 10
-25.71393545469995
 20
59.31399665200001
 40
0.4654752418000181
 50
184.9999999999995
 51
355.0000000000002
  0
ARC
  8
0
  6
CONTINUOUS
 62
     7
 10
-26.87191760039996
 20
60.89852141010002
 40
0.5499999999999949
 50
4.999999999999829
 51
90.0
  0
ARC
  8
0
  6
CONTINUOUS
 62
     7
 10
-111.6859354547
 20
59.31399665200001
 40
0.4654752418000216
 50
184.9999999999997
 51
355.0000000000004
  0
ARC
  8
0
  6
CONTINUOUS
 62
     7
 10
-17.89793545469997
 20
59.31399665200001
 40
0.4654752418000181
 50
184.9999999999995
 51
355.0000000000002
  0
ARC
  8
0
  6
CONTINUOUS
 62
     7
 10
-46.41191760039996
 20
60.89852141010002
 40
0.5499999999999949
 50
4.999999999999773
 51
90.0
  0
ARC
  8
0
  6
CONTINUOUS
 62
     7
 10
-45.25393545469995
 20
59.31399665200001
 40
0.4654752418000078
 50
184.9999999999995
 51
355.0000000000002
  0
ARC
  8
0
  6
CONTINUOUS
 62
     7
 10
-48.00395330899997
 20
60.89852141010002
 40
0.5499999999999977
 50
89.99999999999994
 51
175.0000000000002
  0
ARC
  8
0
  6
CONTINUOUS
 62
     7
 10
-112.8439176003999
 20
60.89852141010002
 40
0.5499999999999949
 50
4.999999999999773
 51
90.0
  0
ARC
  8
0
  6
CONTINUOUS
 62
     7
 10
-85.48791760039997
 20
60.89852141010002
 40
0.5499999999999949
 50
4.999999999999773
 51
90.0
  0
ARC
  8
0
  6
CONTINUOUS
 62
     7
 10
-80.42193545469999
 20
59.31399665200001
 40
0.4654752418000216
 50
184.9999999999997
 51
355.0000000000004
  0
ARC
  8
0
  6
CONTINUOUS
 62
     7
 10
-87.07995330899996
 20
60.89852141010002
 40
0.5499999999999977
 50
89.99999999999994
 51
175.0000000000002
  0
ARC
  8
0
  6
CONTINUOUS
 62
     7
 10
-102.711953309
 20
60.89852141010002
 40
0.5499999999999977
 50
89.99999999999994
 51
175.0000000000002
  0
ARC
  8
0
  6
CONTINUOUS
 62
     7
 10
-105.0279176004
 20
60.89852141010002
 40
0.5499999999999949
 50
4.999999999999773
 51
90.0
  0
ARC
  8
0
  6
CONTINUOUS
 62
     7
 10
-115.5939354546999
 20
59.31399665200001
 40
0.4654752418000216
 50
184.9999999999997
 51
355.0000000000004
  0
ARC
  8
0
  6
CONTINUOUS
 62
     7
 10
-73.7639176004
 20
60.89852141010002
 40
0.5499999999999949
 50
4.999999999999773
 51
90.0
  0
ARC
  8
0
  6
CONTINUOUS
 62
     7
 10
-19.05591760039998
 20
60.89852141010002
 40
0.5499999999999949
 50
4.999999999999829
 51
90.0
  0
ARC
  8
0
  6
CONTINUOUS
 62
     7
 10
-21.80593545469993
 20
59.31399665200001
 40
0.4654752418000181
 50
184.9999999999995
 51
355.0000000000002
  0
ARC
  8
0
  6
CONTINUOUS
 62
     7
 10
-44.09595330899995
 20
60.89852141010002
 40
0.5499999999999977
 50
89.99999999999994
 51
175.0000000000002
  0
ARC
  8
0
  6
CONTINUOUS
 62
     7
 10
-108.9359176003999
 20
60.89852141010002
 40
0.5499999999999949
 50
4.999999999999773
 51
90.0
  0
ARC
  8
0
  6
CONTINUOUS
 62
     7
 10
-106.619953309
 20
60.89852141010002
 40
0.5499999999999977
 50
89.99999999999994
 51
175.0000000000002
  0
ARC
  8
0
  6
CONTINUOUS
 62
     7
 10
-83.17195330899995
 20
60.89852141010002
 40
0.5499999999999977
 50
89.99999999999994
 51
175.0000000000002
  0
ARC
  8
0
  6
CONTINUOUS
 62
     7
 10
-110.527953309
 20
60.89852141010002
 40
0.5499999999999977
 50
89.99999999999994
 51
175.0000000000002
  0
ARC
  8
0
  6
CONTINUOUS
 62
     7
 10
-79.26395330899997
 20
60.89852141010002
 40
0.5499999999999977
 50
89.99999999999994
 51
175.0000000000002
  0
ARC
  8
0
  6
CONTINUOUS
 62
     7
 10
-84.32993545469995
 20
59.31399665200001
 40
0.4654752418000216
 50
184.9999999999997
 51
355.0000000000004
  0
ARC
  8
0
  6
CONTINUOUS
 62
     7
 10
-81.57991760039994
 20
60.89852141010002
 40
0.5499999999999949
 50
4.999999999999773
 51
90.0
  0
ARC
  8
0
  6
CONTINUOUS
 62
     7
 10
-114.4359533089999
 20
60.89852141010002
 40
0.5499999999999977
 50
89.99999999999994
 51
175.0000000000002
  0
ARC
  8
0
  6
CONTINUOUS
 62
     7
 10
-107.7779354547
 20
59.31399665200001
 40
0.4654752418000216
 50
184.9999999999997
 51
355.0000000000004
  0
ARC
  8
0
  6
CONTINUOUS
 62
     7
 10
-116.7519176004
 20
60.89852141010002
 40
0.5499999999999949
 50
4.999999999999773
 51
90.0
  0
ARC
  8
0
  6
CONTINUOUS
 62
     7
 10
-103.8699354546999
 20
59.31399665200001
 40
0.4654752418000216
 50
184.9999999999997
 51
355.0000000000004
  0
ARC
  8
0
  6
CONTINUOUS
 62
     7
 10
-16.73995330899996
 20
60.89852141010002
 40
0.5499999999999943
 50
90.0
 51
175.0000000000002
  0
ARC
  8
0
  6
CONTINUOUS
 62
     7
 10
-20.64795330899998
 20
60.89852141010002
 40
0.5499999999999943
 50
90.0
 51
175.0000000000002
  0
ARC
  8
0
  6
CONTINUOUS
 62
     7
 10
-55.81995330899996
 20
60.89852141010002
 40
0.5499999999999977
 50
89.99999999999994
 51
175.0000000000002
  0
ARC
  8
0
  6
CONTINUOUS
 62
     7
 10
-42.50391760039994
 20
60.89852141010002
 40
0.5499999999999949
 50
4.999999999999773
 51
90.0
  0
ARC
  8
0
  6
CONTINUOUS
 62
     7
 10
-59.72795330899998
 20
60.89852141010002
 40
0.5499999999999977
 50
89.99999999999994
 51
175.0000000000002
  0
ARC
  8
0
  6
CONTINUOUS
 62
     7
 10
-60.88593545469999
 20
59.31399665200001
 40
0.4654752418000216
 50
184.9999999999998
 51
355.0000000000004
  0
ARC
  8
0
  6
CONTINUOUS
 62
     7
 10
-62.04391760039994
 20
60.89852141010002
 40
0.5499999999999949
 50
4.999999999999773
 51
90.0
  0
ARC
  8
0
  6
CONTINUOUS
 62
     7
 10
-38.59591760039997
 20
60.89852141010002
 40
0.5499999999999949
 50
4.999999999999773
 51
90.0
  0
ARC
  8
0
  6
CONTINUOUS
 62
     7
 10
-63.63595330899994
 20
60.89852141010002
 40
0.5499999999999977
 50
89.99999999999994
 51
175.0000000000002
  0
ARC
  8
0
  6
CONTINUOUS
 62
     7
 10
-65.95191760039997
 20
60.89852141010002
 40
0.5499999999999949
 50
4.999999999999773
 51
90.0
  0
ARC
  8
0
  6
CONTINUOUS
 62
     7
 10
-22.9639176004
 20
60.89852141010002
 40
0.5499999999999949
 50
4.999999999999829
 51
90.0
  0
ARC
  8
0
  6
CONTINUOUS
 62
     7
 10
34.06004669100002
 20
60.89852141010002
 40
0.5499999999999977
 50
89.99999999999994
 51
175.0000000000002
  0
ARC
  8
0
  6
CONTINUOUS
 62
     7
 10
28.99406454530004
 20
59.31399665200001
 40
0.4654752418000181
 50
184.9999999999995
 51
355.0000000000002
  0
ARC
  8
0
  6
CONTINUOUS
 62
     7
 10
30.15204669099999
 20
60.89852141010002
 40
0.5499999999999943
 50
90.0
 51
175.0000000000002
  0
ARC
  8
0
  6
CONTINUOUS
 62
     7
 10
-33.52993545469994
 20
59.31399665200001
 40
0.4654752418000078
 50
184.9999999999995
 51
355.0000000000002
  0
ARC
  8
0
  6
CONTINUOUS
 62
     7
 10
-64.79393545469995
 20
59.31399665200001
 40
0.4654752418000216
 50
184.9999999999997
 51
355.0000000000004
  0
ARC
  8
0
  6
CONTINUOUS
 62
     7
 10
-50.31991760039998
 20
60.89852141010002
 40
0.5499999999999949
 50
4.999999999999773
 51
90.0
  0
ARC
  8
0
  6
CONTINUOUS
 62
     7
 10
26.24404669099997
 20
60.89852141010002
 40
0.5499999999999943
 50
90.0
 51
175.0000000000002
  0
ARC
  8
0
  6
CONTINUOUS
 62
     7
 10
25.08606454530002
 20
59.31399665200001
 40
0.4654752418000181
 50
184.9999999999995
 51
355.0000000000002
  0
ARC
  8
0
  6
CONTINUOUS
 62
     7
 10
-28.46395330899997
 20
60.89852141010002
 40
0.5499999999999943
 50
90.0
 51
175.0000000000002
  0
ARC
  8
0
  6
CONTINUOUS
 62
     7
 10
-53.06993545469994
 20
59.31399665200001
 40
0.4654752418000216
 50
184.9999999999998
 51
355.0000000000004
  0
ARC
  8
0
  6
CONTINUOUS
 62
     7
 10
-41.34593545469998
 20
59.31399665200001
 40
0.4654752418000078
 50
184.9999999999995
 51
355.0000000000002
  0
ARC
  8
0
  6
CONTINUOUS
 62
     7
 10
-30.77991760039993
 20
60.89852141010002
 40
0.5499999999999949
 50
4.999999999999829
 51
90.0
  0
ARC
  8
0
  6
CONTINUOUS
 62
     7
 10
-40.18795330899992
 20
60.89852141010002
 40
0.5499999999999977
 50
89.99999999999994
 51
175.0000000000002
  0
ARC
  8
0
  6
CONTINUOUS
 62
     7
 10
-37.43793545469996
 20
59.31399665200001
 40
0.4654752418000078
 50
184.9999999999995
 51
355.0000000000002
  0
ARC
  8
0
  6
CONTINUOUS
 62
     7
 10
-32.37195330899993
 20
60.89852141010002
 40
0.5499999999999977
 50
89.99999999999994
 51
175.0000000000002
  0
ARC
  8
0
  6
CONTINUOUS
 62
     7
 10
-51.91195330899999
 20
60.89852141010002
 40
0.5499999999999977
 50
89.99999999999994
 51
175.0000000000002
  0
ARC
  8
0
  6
CONTINUOUS
 62
     7
 10
-54.2279176004
 20
60.89852141010002
 40
0.5499999999999949
 50
4.999999999999773
 51
90.0
  0
ARC
  8
0
  6
CONTINUOUS
 62
     7
 10
-29.62193545469998
 20
59.31399665200001
 40
0.4654752418000181
 50
184.9999999999995
 51
355.0000000000002
  0
ARC
  8
0
  6
CONTINUOUS
 62
     7
 10
-56.97793545469997
 20
59.31399665200001
 40
0.4654752418000216
 50
184.9999999999998
 51
355.0000000000004
  0
ARC
  8
0
  6
CONTINUOUS
 62
     7
 10
-36.27995330899996
 20
60.89852141010002
 40
0.5499999999999977
 50
89.99999999999994
 51
175.0000000000002
  0
ARC
  8
0
  6
CONTINUOUS
 62
     7
 10
-34.68791760039995
 20
60.89852141010002
 40
0.5499999999999949
 50
4.999999999999773
 51
90.0
  0
ARC
  8
0
  6
CONTINUOUS
 62
     7
 10
-58.13591760039992
 20
60.89852141010002
 40
0.5499999999999949
 50
4.999999999999773
 51
90.0
  0
ARC
  8
0
  6
CONTINUOUS
 62
     7
 10
-49.16193545469992
 20
59.31399665200001
 40
0.4654752418000216
 50
184.9999999999998
 51
355.0000000000004
  0
ARC
  8
0
  6
CONTINUOUS
 62
     7
 10
1.638064545300053
 20
59.31399665200001
 40
0.4654752418000173
 50
184.9999999999998
 51
355.0000000000004
  0
ARC
  8
0
  6
CONTINUOUS
 62
     7
 10
13.36206454530001
 20
59.31399665200001
 40
0.4654752418000164
 50
184.9999999999998
 51
355.0000000000004
  0
ARC
  8
0
  6
CONTINUOUS
 62
     7
 10
22.336046691
 20
60.89852141010002
 40
0.5499999999999943
 50
90.0
 51
175.0000000000002
  0
ARC
  8
0
  6
CONTINUOUS
 62
     7
 10
20.02008239960004
 20
60.89852141010002
 40
0.5499999999999949
 50
4.999999999999829
 51
90.0
  0
ARC
  8
0
  6
CONTINUOUS
 62
     7
 10
17.27006454530003
 20
59.31399665200001
 40
0.4654752418000181
 50
184.9999999999995
 51
355.0000000000002
  0
ARC
  8
0
  6
CONTINUOUS
 62
     7
 10
5.54606454530002
 20
59.31399665200001
 40
0.4654752418000164
 50
184.9999999999998
 51
355.0000000000004
  0
ARC
  8
0
  6
CONTINUOUS
 62
     7
 10
2.796046691000007
 20
60.89852141010002
 40
0.5499999999999947
 50
90.0
 51
175.0000000000002
  0
ARC
  8
0
  6
CONTINUOUS
 62
     7
 10
18.42804669100004
 20
60.89852141010002
 40
0.5499999999999943
 50
90.0
 51
175.0000000000002
  0
ARC
  8
0
  6
CONTINUOUS
 62
     7
 10
-2.269935454699969
 20
59.31399665200001
 40
0.4654752418000173
 50
184.9999999999998
 51
355.0000000000004
  0
ARC
  8
0
  6
CONTINUOUS
 62
     7
 10
-1.111953309000015
 20
60.89852141010002
 40
0.5499999999999945
 50
90.0
 51
175.0000000000002
  0
ARC
  8
0
  6
CONTINUOUS
 62
     7
 10
-3.427917600400034
 20
60.89852141010002
 40
0.5499999999999949
 50
4.999999999999829
 51
90.0
  0
ARC
  8
0
  6
CONTINUOUS
 62
     7
 10
-7.335917600399944
 20
60.89852141010002
 40
0.5499999999999949
 50
4.999999999999829
 51
90.0
  0
ARC
  8
0
  6
CONTINUOUS
 62
     7
 10
-5.019953308999981
 20
60.89852141010002
 40
0.5499999999999952
 50
90.0
 51
175.0000000000002
  0
ARC
  8
0
  6
CONTINUOUS
 62
     7
 10
-8.927953309000003
 20
60.89852141010002
 40
0.5499999999999943
 50
90.0
 51
175.0000000000002
  0
ARC
  8
0
  6
CONTINUOUS
 62
     7
 10
-6.17793545469999
 20
59.31399665200001
 40
0.4654752418000164
 50
184.9999999999998
 51
355.0000000000004
  0
ARC
  8
0
  6
CONTINUOUS
 62
     7
 10
-10.08593545470001
 20
59.31399665200001
 40
0.4654752418000164
 50
184.9999999999998
 51
355.0000000000004
  0
ARC
  8
0
  6
CONTINUOUS
 62
     7
 10
6.704046691000028
 20
60.89852141010002
 40
0.5499999999999952
 50
90.0
 51
175.0000000000002
  0
ARC
  8
0
  6
CONTINUOUS
 62
     7
 10
21.1780645453
 20
59.31399665200001
 40
0.4654752418000181
 50
184.9999999999995
 51
355.0000000000002
  0
ARC
  8
0
  6
CONTINUOUS
 62
     7
 10
-11.24391760039997
 20
60.89852141010002
 40
0.5499999999999949
 50
4.999999999999829
 51
90.0
  0
ARC
  8
0
  6
CONTINUOUS
 62
     7
 10
-12.83595330899997
 20
60.89852141010002
 40
0.5499999999999943
 50
90.0
 51
175.0000000000002
  0
ARC
  8
0
  6
CONTINUOUS
 62
     7
 10
0.4800823995999881
 20
60.89852141010002
 40
0.5499999999999949
 50
4.999999999999773
 51
90.0
  0
ARC
  8
0
  6
CONTINUOUS
 62
     7
 10
-13.99393545469998
 20
59.31399665200001
 40
0.4654752418000164
 50
184.9999999999998
 51
355.0000000000004
  0
ARC
  8
0
  6
CONTINUOUS
 62
     7
 10
14.52004669100002
 20
60.89852141010002
 40
0.5499999999999943
 50
90.0
 51
175.0000000000002
  0
ARC
  8
0
  6
CONTINUOUS
 62
     7
 10
23.9280823996
 20
60.89852141010002
 40
0.5499999999999949
 50
4.999999999999829
 51
90.0
  0
ARC
  8
0
  6
CONTINUOUS
 62
     7
 10
10.61204669100005
 20
60.89852141010002
 40
0.5499999999999943
 50
90.0
 51
175.0000000000002
  0
ARC
  8
0
  6
CONTINUOUS
 62
     7
 10
8.296082399600031
 20
60.89852141010002
 40
0.5499999999999949
 50
4.999999999999829
 51
90.0
  0
ARC
  8
0
  6
CONTINUOUS
 62
     7
 10
12.2040823996
 20
60.89852141010002
 40
0.5499999999999949
 50
4.999999999999829
 51
90.0
  0
ARC
  8
0
  6
CONTINUOUS
 62
     7
 10
31.7440823996
 20
60.89852141010002
 40
0.5499999999999949
 50
4.999999999999773
 51
90.0
  0
ARC
  8
0
  6
CONTINUOUS
 62
     7
 10
16.11208239960002
 20
60.89852141010002
 40
0.5499999999999949
 50
4.999999999999829
 51
90.0
  0
ARC
  8
0
  6
CONTINUOUS
 62
     7
 10
9.454064545299985
 20
59.31399665200001
 40
0.4654752418000164
 50
184.9999999999998
 51
355.0000000000004
  0
ARC
  8
0
  6
CONTINUOUS
 62
     7
 10
4.38808239960001
 20
60.89852141010002
 40
0.5499999999999949
 50
4.999999999999829
 51
90.0
  0
ARC
  8
0
  6
CONTINUOUS
 62
     7
 10
32.90206454530001
 20
59.31399665200001
 40
0.4654752418000078
 50
184.9999999999995
 51
355.0000000000002
  0
ARC
  8
0
  6
CONTINUOUS
 62
     7
 10
57.50404669100001
 20
60.89852141010002
 40
0.5499999999999977
 50
89.99999999999994
 51
175.0000000000002
  0
ARC
  8
0
  6
CONTINUOUS
 62
     7
 10
56.3460645453
 20
59.31399665200001
 40
0.4654752418000216
 50
184.9999999999998
 51
355.0000000000004
  0
ARC
  8
0
  6
CONTINUOUS
 62
     7
 10
74.7280823996
 20
60.89852141010002
 40
0.5499999999999949
 50
4.999999999999773
 51
90.0
  0
ARC
  8
0
  6
CONTINUOUS
 62
     7
 10
79.79406454530002
 20
59.31399665200001
 40
0.4654752418000216
 50
184.9999999999997
 51
355.0000000000004
  0
ARC
  8
0
  6
CONTINUOUS
 62
     7
 10
82.54408239959999
 20
60.89852141010002
 40
0.5499999999999949
 50
4.999999999999773
 51
90.0
  0
ARC
  8
0
  6
CONTINUOUS
 62
     7
 10
-15.15191760039999
 20
60.89852141010002
 40
0.5499999999999949
 50
4.999999999999829
 51
90.0
  0
ARC
  8
0
  6
CONTINUOUS
 62
     7
 10
84.860046691
 20
60.89852141010002
 40
0.5499999999999977
 50
89.99999999999994
 51
175.0000000000002
  0
ARC
  8
0
  6
CONTINUOUS
 62
     7
 10
27.83608239959997
 20
60.89852141010002
 40
0.5499999999999949
 50
4.999999999999829
 51
90.0
  0
ARC
  8
0
  6
CONTINUOUS
 62
     7
 10
80.95204669099998
 20
60.89852141010002
 40
0.5499999999999977
 50
89.99999999999994
 51
175.0000000000002
  0
ARC
  8
0
  6
CONTINUOUS
 62
     7
 10
77.04404669099995
 20
60.89852141010002
 40
0.5499999999999977
 50
89.99999999999994
 51
175.0000000000002
  0
ARC
  8
0
  6
CONTINUOUS
 62
     7
 10
75.8860645453
 20
59.31399665200001
 40
0.4654752418000216
 50
184.9999999999997
 51
355.0000000000004
  0
ARC
  8
0
  6
CONTINUOUS
 62
     7
 10
83.70206454529999
 20
59.31399665200001
 40
0.4654752418000216
 50
184.9999999999997
 51
355.0000000000004
  0
ARC
  8
0
  6
CONTINUOUS
 62
     7
 10
55.18808239959999
 20
60.89852141010002
 40
0.5499999999999949
 50
4.999999999999773
 51
90.0
  0
LINE
  8
0
  6
CONTINUOUS
 62
     7
 10
96.03213960700002
 20
31.45058575160001
 11
95.8857685133
 21
33.12361500870001
  0
LINE
  8
0
  6
CONTINUOUS
 62
     7
 10
104.396046691
 20
30.94852141010001
 11
105.9880823996
 21
30.94852141010001
  0
LINE
  8
0
  6
CONTINUOUS
 62
     7
 10
-112.2960105165
 20
60.94645706860034
 11
-112.2960105165
 21
31.45058575160001
  0
LINE
  8
0
  6
CONTINUOUS
 62
     7
 10
-163.0479354788
 20
60.24858750127139
 11
-129.5307951169529
 21
59.8092822678031
  0
LINE
  8
0
  6
CONTINUOUS
 62
     7
 10
113.8040823996
 20
30.94852141010001
 11
112.212046691
 21
30.94852141010001
  0
LINE
  8
0
  6
CONTINUOUS
 62
     7
 10
181.9560645694
 20
60.2485875012714
 11
181.9560654579
 21
32.1484552119714
  0
LINE
  8
0
  6
CONTINUOUS
 62
     7
 10
103.848139607
 20
31.45058575160001
 11
103.7017685133
 21
33.12361500870001
  0
ARC
  8
0
  6
CONTINUOUS
 62
     7
 10
148.4560645463001
 20
33.58761364600001
 40
0.9999999999999932
 50
211.6404276862003
 51
269.0178828368001
  0
ARC
  8
0
  6
CONTINUOUS
 62
     7
 10
146.7352972931
 20
32.52731614150001
 40
1.0212052686
 50
31.64042768620013
 51
175.0000000000001
  0
LINE
  8
0
  6
CONTINUOUS
 62
     7
 10
99.94013960699999
 20
31.45058575160001
 11
99.79376851330002
 21
33.12361500870001
  0
ARC
  8
0
  6
CONTINUOUS
 62
     7
 10
-127.8271682024999
 20
32.52731614150001
 40
1.021205268599996
 50
4.999999999999918
 51
148.3595723137998
  0
LINE
  8
0
  6
CONTINUOUS
 62
     7
 10
181.9560645694
 20
60.2485875012714
 11
148.4389242075
 21
59.80927424850002
  0
LINE
  8
0
  6
CONTINUOUS
 62
     7
 10
98.71998948350003
 20
31.45058575160001
 11
98.86636057730003
 21
33.12361500870001
  0
LINE
  8
0
  6
CONTINUOUS
 62
     7
 10
110.4439894835
 20
31.45058575160001
 11
110.5903605773
 21
33.12361500870001
  0
LINE
  8
0
  6
CONTINUOUS
 62
     7
 10
92.67204669099999
 20
30.94852141010001
 11
94.26408239960004
 21
30.94852141010001
  0
LINE
  8
0
  6
CONTINUOUS
 62
     7
 10
90.90398948349998
 20
31.45058575160001
 11
91.05036057730004
 21
33.12361500870001
  0
LINE
  8
0
  6
CONTINUOUS
 62
     7
 10
133.3440823996
 20
30.94852141010001
 11
131.752046691
 21
30.94852141010001
  0
LINE
  8
0
  6
CONTINUOUS
 62
     7
 10
-124.0200105165
 20
60.94645706860034
 11
-124.0200105165
 21
31.45058575160001
  0
ARC
  8
0
  6
CONTINUOUS
 62
     7
 10
-129.5479354557
 20
33.58761364600001
 40
0.9999999999999982
 50
270.9821171631999
 51
328.3595723137997
  0
LINE
  8
0
  6
CONTINUOUS
 62
     7
 10
181.9560654579
 20
32.1484552119714
 11
148.4389242075
 21
32.58776857170001
  0
LINE
  8
0
  6
CONTINUOUS
 62
     7
 10
133.8919894835
 20
31.45058575160001
 11
134.0383605773
 21
33.12361500870001
  0
LINE
  8
0
  6
CONTINUOUS
 62
     7
 10
106.5359894835
 20
31.45058575160001
 11
106.6823605773
 21
33.12361500870001
  0
LINE
  8
0
  6
CONTINUOUS
 62
     7
 10
126.0759894835
 20
31.45058575160001
 11
126.2223605773
 21
33.12361500870001
  0
LINE
  8
0
  6
CONTINUOUS
 62
     7
 10
-163.0479354788
 20
60.24858750127139
 11
-163.0479363673
 21
32.14845521197139
  0
LINE
  8
0
  6
CONTINUOUS
 62
     7
 10
109.8960823996
 20
30.94852141010001
 11
108.304046691
 21
30.94852141010001
  0
LINE
  8
0
  6
CONTINUOUS
 62
     7
 10
-108.3880105165
 20
31.45058575160001
 11
-108.3880105165
 21
60.94645706860034
  0
LINE
  8
0
  6
CONTINUOUS
 62
     7
 10
-122.799860393
 20
60.94645706859971
 11
-122.799860393
 21
31.45058575160001
  0
LINE
  8
0
  6
CONTINUOUS
 62
     7
 10
-163.0479363673
 20
32.14845521197139
 11
-129.530795117
 21
32.58776857170001
  0
LINE
  8
0
  6
CONTINUOUS
 62
     7
 10
-118.891860393
 20
31.45058575160001
 11
-118.891860393
 21
60.94645706859971
  0
LINE
  8
0
  6
CONTINUOUS
 62
     7
 10
107.756139607
 20
31.45058575160001
 11
107.6097685133
 21
33.12361500870001
  0
LINE
  8
0
  6
CONTINUOUS
 62
     7
 10
111.664139607
 20
31.45058575160001
 11
111.5177685133
 21
33.12361500870001
  0
LINE
  8
0
  6
CONTINUOUS
 62
     7
 10
-116.2040105165
 20
31.45058575160001
 11
-116.2040105165
 21
60.94645706860034
  0
LINE
  8
0
  6
CONTINUOUS
 62
     7
 10
127.296139607
 20
31.45058575160001
 11
127.1497685133
 21
33.12361500870001
  0
LINE
  8
0
  6
CONTINUOUS
 62
     7
 10
114.3519894835
 20
31.45058575160001
 11
114.4983605773
 21
33.12361500870001
  0
LINE
  8
0
  6
CONTINUOUS
 62
     7
 10
115.572139607
 20
31.45058575160001
 11
115.4257685133
 21
33.12361500870001
  0
LINE
  8
0
  6
CONTINUOUS
 62
     7
 10
-114.983860393
 20
31.45058575160001
 11
-114.983860393
 21
60.94645706859971
  0
LINE
  8
0
  6
CONTINUOUS
 62
     7
 10
117.7120823996
 20
30.94852141010001
 11
116.120046691
 21
30.94852141010001
  0
LINE
  8
0
  6
CONTINUOUS
 62
     7
 10
125.5280823996
 20
30.94852141010001
 11
123.936046691
 21
30.94852141010001
  0
LINE
  8
0
  6
CONTINUOUS
 62
     7
 10
-120.1120105165
 20
31.45058575160001
 11
-120.1120105165
 21
60.94645706860034
  0
LINE
  8
0
  6
CONTINUOUS
 62
     7
 10
-111.075860393
 20
60.94645706859971
 11
-111.075860393
 21
31.45058575160001
  0
LINE
  8
0
  6
CONTINUOUS
 62
     7
 10
-118.343953309
 20
30.94852141010001
 11
-116.7519176004
 21
30.94852141010001
  0
LINE
  8
0
  6
CONTINUOUS
 62
     7
 10
123.388139607
 20
31.45058575160001
 11
123.2417685133
 21
33.12361500870001
  0
LINE
  8
0
  6
CONTINUOUS
 62
     7
 10
120.028046691
 20
30.94852141010001
 11
121.6200823996
 21
30.94852141010001
  0
LINE
  8
0
  6
CONTINUOUS
 62
     7
 10
131.204139607
 20
31.45058575160001
 11
131.0577685133
 21
33.12361500870001
  0
LINE
  8
0
  6
CONTINUOUS
 62
     7
 10
135.112139607
 20
31.45058575160001
 11
134.9657685133
 21
33.12361500870001
  0
LINE
  8
0
  6
CONTINUOUS
 62
     7
 10
122.1679894835
 20
31.45058575160001
 11
122.3143605773
 21
33.12361500870001
  0
LINE
  8
0
  6
CONTINUOUS
 62
     7
 10
118.2599894835
 20
31.45058575160001
 11
118.4063605773
 21
33.12361500870001
  0
LINE
  8
0
  6
CONTINUOUS
 62
     7
 10
102.0800823996
 20
30.94852141010001
 11
100.488046691
 21
30.94852141010001
  0
LINE
  8
0
  6
CONTINUOUS
 62
     7
 10
102.6279894835
 20
31.45058575160001
 11
102.7743605773
 21
33.12361500870001
  0
LINE
  8
0
  6
CONTINUOUS
 62
     7
 10
119.480139607
 20
31.45058575160001
 11
119.3337685133
 21
33.12361500870001
  0
LINE
  8
0
  6
CONTINUOUS
 62
     7
 10
96.580046691
 20
30.94852141010001
 11
98.17208239959996
 21
30.94852141010001
  0
LINE
  8
0
  6
CONTINUOUS
 62
     7
 10
94.8119894835
 20
31.45058575160001
 11
94.9583605773
 21
33.12361500870001
  0
LINE
  8
0
  6
CONTINUOUS
 62
     7
 10
-25.10386039299994
 20
31.45058575160001
 11
-25.25023148669997
 21
33.12361500870001
  0
LINE
  8
0
  6
CONTINUOUS
 62
     7
 10
-17.28786039300001
 20
31.45058575160001
 11
-17.43423148669998
 21
33.12361500870001
  0
LINE
  8
0
  6
CONTINUOUS
 62
     7
 10
-114.983860393
 20
31.45058575160001
 11
-115.1302314867
 21
33.12361500870001
  0
LINE
  8
0
  6
CONTINUOUS
 62
     7
 10
88.21613960700003
 20
31.45058575160001
 11
88.0697685133
 21
33.12361500870001
  0
LINE
  8
0
  6
CONTINUOUS
 62
     7
 10
-124.0200105165
 20
31.45058575160001
 11
-123.8736394227
 21
33.12361500870001
  0
LINE
  8
0
  6
CONTINUOUS
 62
     7
 10
139.020139607
 20
31.45058575160001
 11
138.8737685133
 21
33.12361500870001
  0
LINE
  8
0
  6
CONTINUOUS
 62
     7
 10
-75.90386039299996
 20
31.45058575160001
 11
-76.05023148669999
 21
33.12361500870001
  0
LINE
  8
0
  6
CONTINUOUS
 62
     7
 10
-95.44386039300001
 20
31.45058575160001
 11
-95.59023148669998
 21
33.12361500870001
  0
LINE
  8
0
  6
CONTINUOUS
 62
     7
 10
-99.35186039299998
 20
31.45058575160001
 11
-99.49823148669995
 21
33.12361500870001
  0
LINE
  8
0
  6
CONTINUOUS
 62
     7
 10
-91.535860393
 20
31.45058575160001
 11
-91.68223148669996
 21
33.12361500870001
  0
LINE
  8
0
  6
CONTINUOUS
 62
     7
 10
-83.17195330899996
 20
30.94852141010001
 11
-81.57991760039995
 21
30.94852141010001
  0
LINE
  8
0
  6
CONTINUOUS
 62
     7
 10
-84.94001051650002
 20
31.45058575160001
 11
-84.79363942269995
 21
33.12361500870001
  0
LINE
  8
0
  6
CONTINUOUS
 62
     7
 10
129.9839894835
 20
31.45058575160001
 11
130.1303605773001
 21
33.12361500870001
  0
LINE
  8
0
  6
CONTINUOUS
 62
     7
 10
127.844046691
 20
30.94852141010001
 11
129.4360823996
 21
30.94852141010001
  0
LINE
  8
0
  6
CONTINUOUS
 62
     7
 10
-124.5679176004
 20
30.94852141010001
 11
-126.159953309
 21
30.94852141010001
  0
LINE
  8
0
  6
CONTINUOUS
 62
     7
 10
-120.1120105165
 20
31.45058575160001
 11
-119.9656394227
 21
33.12361500870001
  0
LINE
  8
0
  6
CONTINUOUS
 62
     7
 10
-77.12401051649998
 20
31.45058575160001
 11
-76.97763942269997
 21
33.12361500870001
  0
LINE
  8
0
  6
CONTINUOUS
 62
     7
 10
92.124139607
 20
31.45058575160001
 11
91.97776851329998
 21
33.12361500870001
  0
LINE
  8
0
  6
CONTINUOUS
 62
     7
 10
86.99598948350001
 20
31.45058575160001
 11
87.14236057730001
 21
33.12361500870001
  0
LINE
  8
0
  6
CONTINUOUS
 62
     7
 10
-69.30801051649998
 20
31.45058575160001
 11
-69.16163942269998
 21
33.12361500870001
  0
LINE
  8
0
  6
CONTINUOUS
 62
     7
 10
-93.30391760039997
 20
30.94852141010001
 11
-94.89595330899996
 21
30.94852141010001
  0
LINE
  8
0
  6
CONTINUOUS
 62
     7
 10
-88.84801051649998
 20
31.45058575160001
 11
-88.70163942269998
 21
33.12361500870001
  0
LINE
  8
0
  6
CONTINUOUS
 62
     7
 10
-126.707860393
 20
31.45058575160001
 11
-126.8098489283
 21
32.61632004520001
  0
LINE
  8
0
  6
CONTINUOUS
 62
     7
 10
-81.0320105165
 20
31.45058575160001
 11
-80.8856394227
 21
33.12361500870001
  0
LINE
  8
0
  6
CONTINUOUS
 62
     7
 10
-106.619953309
 20
30.94852141010001
 11
-105.0279176004
 21
30.94852141010001
  0
LINE
  8
0
  6
CONTINUOUS
 62
     7
 10
-112.2960105165
 20
31.45058575160001
 11
-112.1496394226999
 21
33.12361500870001
  0
LINE
  8
0
  6
CONTINUOUS
 62
     7
 10
-114.435953309
 20
30.94852141010001
 11
-112.8439176004
 21
30.94852141010001
  0
LINE
  8
0
  6
CONTINUOUS
 62
     7
 10
-71.99586039299999
 20
31.45058575160001
 11
-72.14223148669996
 21
33.12361500870001
  0
LINE
  8
0
  6
CONTINUOUS
 62
     7
 10
-111.075860393
 20
31.45058575160001
 11
-111.2222314867
 21
33.12361500870001
  0
LINE
  8
0
  6
CONTINUOUS
 62
     7
 10
-120.6599176004
 20
30.94852141010001
 11
-122.251953309
 21
30.94852141010001
  0
LINE
  8
0
  6
CONTINUOUS
 62
     7
 10
-79.81186039299998
 20
31.45058575160001
 11
-79.9582314867
 21
33.12361500870001
  0
LINE
  8
0
  6
CONTINUOUS
 62
     7
 10
88.76404669100002
 20
30.94852141010001
 11
90.35608239960003
 21
30.94852141010001
  0
LINE
  8
0
  6
CONTINUOUS
 62
     7
 10
142.928139607
 20
31.45058575160001
 11
142.7817685133
 21
33.12361500870001
  0
LINE
  8
0
  6
CONTINUOUS
 62
     7
 10
-101.1199176004
 20
30.94852141010001
 11
-102.711953309
 21
30.94852141010001
  0
LINE
  8
0
  6
CONTINUOUS
 62
     7
 10
-118.891860393
 20
31.45058575160001
 11
-119.0382314867
 21
33.12361500870001
  0
LINE
  8
0
  6
CONTINUOUS
 62
     7
 10
-108.3880105165
 20
31.45058575160001
 11
-108.2416394227
 21
33.12361500870001
  0
LINE
  8
0
  6
CONTINUOUS
 62
     7
 10
-18.50801051649997
 20
31.45058575160001
 11
-18.36163942269997
 21
33.12361500870001
  0
LINE
  8
0
  6
CONTINUOUS
 62
     7
 10
-100.5720105165
 20
31.45058575160001
 11
-100.4256394226999
 21
33.12361500870001
  0
LINE
  8
0
  6
CONTINUOUS
 62
     7
 10
-103.259860393
 20
31.45058575160001
 11
-103.4062314867
 21
33.12361500870001
  0
LINE
  8
0
  6
CONTINUOUS
 62
     7
 10
-92.75601051649996
 20
31.45058575160001
 11
-92.6096394227
 21
33.12361500870001
  0
LINE
  8
0
  6
CONTINUOUS
 62
     7
 10
-19.05591760039999
 20
30.94852141010001
 11
-20.64795330899999
 21
30.94852141010001
  0
LINE
  8
0
  6
CONTINUOUS
 62
     7
 10
145.6159894835
 20
31.45058575160001
 11
145.7179780189
 21
32.61632004520001
  0
LINE
  8
0
  6
CONTINUOUS
 62
     7
 10
-104.4800105165
 20
31.45058575160001
 11
-104.3336394227
 21
33.12361500870001
  0
LINE
  8
0
  6
CONTINUOUS
 62
     7
 10
-68.08786039300001
 20
31.45058575160001
 11
-68.2342314867
 21
33.12361500870001
  0
LINE
  8
0
  6
CONTINUOUS
 62
     7
 10
143.476046691
 20
30.94852141010001
 11
145.0680823996
 21
30.94852141010001
  0
LINE
  8
0
  6
CONTINUOUS
 62
     7
 10
-96.66401051649997
 20
31.45058575160001
 11
-96.51763942270003
 21
33.12361500870001
  0
LINE
  8
0
  6
CONTINUOUS
 62
     7
 10
-98.803953309
 20
30.94852141010001
 11
-97.21191760039999
 21
30.94852141010001
  0
LINE
  8
0
  6
CONTINUOUS
 62
     7
 10
-107.167860393
 20
31.45058575160001
 11
-107.3142314867
 21
33.12361500870001
  0
LINE
  8
0
  6
CONTINUOUS
 62
     7
 10
-69.85591760039999
 20
30.94852141010001
 11
-71.447953309
 21
30.94852141010001
  0
LINE
  8
0
  6
CONTINUOUS
 62
     7
 10
-73.21601051649995
 20
31.45058575160001
 11
-73.06963942269995
 21
33.12361500870001
  0
LINE
  8
0
  6
CONTINUOUS
 62
     7
 10
-122.799860393
 20
31.45058575160001
 11
-122.9462314867
 21
33.12361500870001
  0
LINE
  8
0
  6
CONTINUOUS
 62
     7
 10
141.7079894835
 20
31.45058575160001
 11
141.8543605773
 21
33.12361500870001
  0
LINE
  8
0
  6
CONTINUOUS
 62
     7
 10
137.7999894835
 20
31.45058575160001
 11
137.9463605773
 21
33.12361500870001
  0
LINE
  8
0
  6
CONTINUOUS
 62
     7
 10
139.568046691
 20
30.94852141010001
 11
141.1600823996
 21
30.94852141010001
  0
LINE
  8
0
  6
CONTINUOUS
 62
     7
 10
-85.48791760039997
 20
30.94852141010001
 11
-87.07995330899998
 21
30.94852141010001
  0
LINE
  8
0
  6
CONTINUOUS
 62
     7
 10
-77.67191760039998
 20
30.94852141010001
 11
-79.26395330899999
 21
30.94852141010001
  0
LINE
  8
0
  6
CONTINUOUS
 62
     7
 10
-83.71986039299995
 20
31.45058575160001
 11
-83.86623148670003
 21
33.12361500870001
  0
LINE
  8
0
  6
CONTINUOUS
 62
     7
 10
-89.3959176004
 20
30.94852141010001
 11
-90.98795330899995
 21
30.94852141010001
  0
LINE
  8
0
  6
CONTINUOUS
 62
     7
 10
-110.527953309
 20
30.94852141010001
 11
-108.9359176003999
 21
30.94852141010001
  0
LINE
  8
0
  6
CONTINUOUS
 62
     7
 10
-116.2040105165
 20
31.45058575160001
 11
-116.0576394227
 21
33.12361500870001
  0
LINE
  8
0
  6
CONTINUOUS
 62
     7
 10
-75.35595330900003
 20
30.94852141010001
 11
-73.76391760040002
 21
30.94852141010001
  0
LINE
  8
0
  6
CONTINUOUS
 62
     7
 10
-21.19586039299998
 20
31.45058575160001
 11
-21.34223148669995
 21
33.12361500870001
  0
LINE
  8
0
  6
CONTINUOUS
 62
     7
 10
-26.32401051649996
 20
31.45058575160001
 11
-26.17763942269996
 21
33.12361500870001
  0
LINE
  8
0
  6
CONTINUOUS
 62
     7
 10
-87.62786039299996
 20
31.45058575160001
 11
-87.77423148669999
 21
33.12361500870001
  0
LINE
  8
0
  6
CONTINUOUS
 62
     7
 10
12.75198948350001
 20
31.45058575160001
 11
12.89836057730001
 21
33.12361500870001
  0
LINE
  8
0
  6
CONTINUOUS
 62
     7
 10
20.5679894835
 20
31.45058575160001
 11
20.7143605773
 21
33.12361500870001
  0
LINE
  8
0
  6
CONTINUOUS
 62
     7
 10
-59.72795330899999
 20
30.94852141010001
 11
-58.13591760039994
 21
30.94852141010001
  0
LINE
  8
0
  6
CONTINUOUS
 62
     7
 10
16.65998948349998
 20
31.45058575160001
 11
16.80636057730003
 21
33.12361500870001
  0
LINE
  8
0
  6
CONTINUOUS
 62
     7
 10
-64.18386039299995
 20
31.45058575160001
 11
-64.33023148669997
 21
33.12361500870001
  0
LINE
  8
0
  6
CONTINUOUS
 62
     7
 10
-5.567860392999973
 20
31.45058575160001
 11
-5.7142314867
 21
33.12361500870001
  0
LINE
  8
0
  6
CONTINUOUS
 62
     7
 10
-22.41601051649994
 20
31.45058575160001
 11
-22.26963942269994
 21
33.12361500870001
  0
LINE
  8
0
  6
CONTINUOUS
 62
     7
 10
12.2040823996
 20
30.94852141010001
 11
10.61204669100005
 21
30.94852141010001
  0
LINE
  8
0
  6
CONTINUOUS
 62
     7
 10
-8.927953309000008
 20
30.94852141010001
 11
-7.33591760039995
 21
30.94852141010001
  0
LINE
  8
0
  6
CONTINUOUS
 62
     7
 10
8.843989483500042
 20
31.45058575160001
 11
8.990360577299988
 21
33.12361500870001
  0
LINE
  8
0
  6
CONTINUOUS
 62
     7
 10
31.7440823996
 20
30.94852141010001
 11
30.152046691
 21
30.94852141010001
  0
LINE
  8
0
  6
CONTINUOUS
 62
     7
 10
-42.50391760039995
 20
30.94852141010001
 11
-44.09595330899996
 21
30.94852141010001
  0
LINE
  8
0
  6
CONTINUOUS
 62
     7
 10
8.29608239960003
 20
30.94852141010001
 11
6.704046691000026
 21
30.94852141010001
  0
LINE
  8
0
  6
CONTINUOUS
 62
     7
 10
-44.643860393
 20
31.45058575160001
 11
-44.79023148669997
 21
33.12361500870001
  0
LINE
  8
0
  6
CONTINUOUS
 62
     7
 10
-45.86401051649997
 20
31.45058575160001
 11
-45.71763942270002
 21
33.12361500870001
  0
LINE
  8
0
  6
CONTINUOUS
 62
     7
 10
-40.73586039299997
 20
31.45058575160001
 11
-40.88223148669995
 21
33.12361500870001
  0
LINE
  8
0
  6
CONTINUOUS
 62
     7
 10
-57.58801051649998
 20
31.45058575160001
 11
-57.44163942269997
 21
33.12361500870001
  0
LINE
  8
0
  6
CONTINUOUS
 62
     7
 10
-67.54395330899997
 20
30.94852141010001
 11
-65.94791760039998
 21
30.94852141010001
  0
LINE
  8
0
  6
CONTINUOUS
 62
     7
 10
24.47598948350002
 20
31.45058575160001
 11
24.62236057730002
 21
33.12361500870001
  0
LINE
  8
0
  6
CONTINUOUS
 62
     7
 10
-26.87191760039997
 20
30.94852141010001
 11
-28.46395330899998
 21
30.94852141010001
  0
LINE
  8
0
  6
CONTINUOUS
 62
     7
 10
32.29198948350001
 20
31.45058575160001
 11
32.43836057730001
 21
33.12361500870001
  0
LINE
  8
0
  6
CONTINUOUS
 62
     7
 10
-56.36786039299996
 20
31.45058575160001
 11
-56.51423148669998
 21
33.12361500870001
  0
LINE
  8
0
  6
CONTINUOUS
 62
     7
 10
-24.55595330900001
 20
30.94852141010001
 11
-22.96391760040001
 21
30.94852141010001
  0
LINE
  8
0
  6
CONTINUOUS
 62
     7
 10
13.97213960700003
 20
31.45058575160001
 11
13.8257685133
 21
33.12361500870001
  0
LINE
  8
0
  6
CONTINUOUS
 62
     7
 10
16.11208239960002
 20
30.94852141010001
 11
14.52004669100002
 21
30.94852141010001
  0
LINE
  8
0
  6
CONTINUOUS
 62
     7
 10
18.42804669100004
 20
30.94852141010001
 11
20.02008239960004
 21
30.94852141010001
  0
LINE
  8
0
  6
CONTINUOUS
 62
     7
 10
-48.55186039299997
 20
31.45058575160001
 11
-48.69823148669994
 21
33.12361500870001
  0
LINE
  8
0
  6
CONTINUOUS
 62
     7
 10
-52.45986039299999
 20
31.45058575160001
 11
-52.60623148669996
 21
33.12361500870001
  0
LINE
  8
0
  6
CONTINUOUS
 62
     7
 10
-48.00395330899998
 20
30.94852141010001
 11
-46.41191760039997
 21
30.94852141010001
  0
LINE
  8
0
  6
CONTINUOUS
 62
     7
 10
23.92808239960001
 20
30.94852141010001
 11
22.336046691
 21
30.94852141010001
  0
LINE
  8
0
  6
CONTINUOUS
 62
     7
 10
-30.23201051649998
 20
31.45058575160001
 11
-30.08563942269998
 21
33.12361500870001
  0
LINE
  8
0
  6
CONTINUOUS
 62
     7
 10
-60.27586039299998
 20
31.45058575160001
 11
-60.42223148670001
 21
33.12361500870001
  0
LINE
  8
0
  6
CONTINUOUS
 62
     7
 10
-65.40401051649997
 20
31.45058575160001
 11
-65.25763942269997
 21
33.12361500870001
  0
LINE
  8
0
  6
CONTINUOUS
 62
     7
 10
21.78813960700002
 20
31.45058575160001
 11
21.64176851329999
 21
33.12361500870001
  0
LINE
  8
0
  6
CONTINUOUS
 62
     7
 10
-34.68791760039996
 20
30.94852141010001
 11
-36.27995330899996
 21
30.94852141010001
  0
LINE
  8
0
  6
CONTINUOUS
 62
     7
 10
2.248139607000016
 20
31.45058575160001
 11
2.101768513300045
 21
33.12361500870001
  0
LINE
  8
0
  6
CONTINUOUS
 62
     7
 10
-49.77201051649999
 20
31.45058575160001
 11
-49.62563942269993
 21
33.12361500870001
  0
LINE
  8
0
  6
CONTINUOUS
 62
     7
 10
-36.82786039299995
 20
31.45058575160001
 11
-36.97423148669998
 21
33.12361500870001
  0
LINE
  8
0
  6
CONTINUOUS
 62
     7
 10
-38.04801051649997
 20
31.45058575160001
 11
-37.90163942269997
 21
33.12361500870001
  0
LINE
  8
0
  6
CONTINUOUS
 62
     7
 10
6.156139606999983
 20
31.45058575160001
 11
6.009768513300012
 21
33.12361500870001
  0
LINE
  8
0
  6
CONTINUOUS
 62
     7
 10
29.60413960700001
 20
31.45058575160001
 11
29.45776851330004
 21
33.12361500870001
  0
LINE
  8
0
  6
CONTINUOUS
 62
     7
 10
-1.659860393000007
 20
31.45058575160001
 11
-1.806231486699978
 21
33.12361500870001
  0
LINE
  8
0
  6
CONTINUOUS
 62
     7
 10
-2.88001051649997
 20
31.45058575160001
 11
-2.733639422699968
 21
33.12361500870001
  0
LINE
  8
0
  6
CONTINUOUS
 62
     7
 10
-32.91986039299993
 20
31.45058575160001
 11
-33.06623148670001
 21
33.12361500870001
  0
LINE
  8
0
  6
CONTINUOUS
 62
     7
 10
-38.59591760039999
 20
30.94852141010001
 11
-40.18795330899994
 21
30.94852141010001
  0
LINE
  8
0
  6
CONTINUOUS
 62
     7
 10
33.51213960699997
 20
31.45058575160001
 11
33.3657685133
 21
33.12361500870001
  0
LINE
  8
0
  6
CONTINUOUS
 62
     7
 10
-29.01186039299997
 20
31.45058575160001
 11
-29.15823148669999
 21
33.12361500870001
  0
LINE
  8
0
  6
CONTINUOUS
 62
     7
 10
-53.68001051649996
 20
31.45058575160001
 11
-53.53363942269995
 21
33.12361500870001
  0
LINE
  8
0
  6
CONTINUOUS
 62
     7
 10
-50.3199176004
 20
30.94852141010001
 11
-51.911953309
 21
30.94852141010001
  0
LINE
  8
0
  6
CONTINUOUS
 62
     7
 10
-63.63595330899996
 20
30.94852141010001
 11
-62.04391760039996
 21
30.94852141010001
  0
LINE
  8
0
  6
CONTINUOUS
 62
     7
 10
4.93598948350002
 20
31.45058575160001
 11
5.082360577299966
 21
33.12361500870001
  0
LINE
  8
0
  6
CONTINUOUS
 62
     7
 10
1.027989483499997
 20
31.45058575160001
 11
1.174360577300054
 21
33.12361500870001
  0
LINE
  8
0
  6
CONTINUOUS
 62
     7
 10
17.88013960700005
 20
31.45058575160001
 11
17.73376851329997
 21
33.12361500870001
  0
LINE
  8
0
  6
CONTINUOUS
 62
     7
 10
0.4800823995999848
 20
30.94852141010001
 11
-1.111953309000019
 21
30.94852141010001
  0
LINE
  8
0
  6
CONTINUOUS
 62
     7
 10
-5.019953308999986
 20
30.94852141010001
 11
-3.427917600400038
 21
30.94852141010001
  0
LINE
  8
0
  6
CONTINUOUS
 62
     7
 10
-6.788010516499993
 20
31.45058575160001
 11
-6.641639422699991
 21
33.12361500870001
  0
LINE
  8
0
  6
CONTINUOUS
 62
     7
 10
-55.81995330899997
 20
30.94852141010001
 11
-54.22791760040002
 21
30.94852141010001
  0
LINE
  8
0
  6
CONTINUOUS
 62
     7
 10
-32.37195330899994
 20
30.94852141010001
 11
-30.77991760039994
 21
30.94852141010001
  0
LINE
  8
0
  6
CONTINUOUS
 62
     7
 10
-41.95601051649994
 20
31.45058575160001
 11
-41.80963942269999
 21
33.12361500870001
  0
LINE
  8
0
  6
CONTINUOUS
 62
     7
 10
-61.4960105165
 20
31.45058575160001
 11
-61.34963942269994
 21
33.12361500870001
  0
LINE
  8
0
  6
CONTINUOUS
 62
     7
 10
25.69613960700004
 20
31.45058575160001
 11
25.54976851330001
 21
33.12361500870001
  0
LINE
  8
0
  6
CONTINUOUS
 62
     7
 10
2.796046691000003
 20
30.94852141010001
 11
4.388082399600007
 21
30.94852141010001
  0
LINE
  8
0
  6
CONTINUOUS
 62
     7
 10
-34.14001051650001
 20
31.45058575160001
 11
-33.99363942269995
 21
33.12361500870001
  0
LINE
  8
0
  6
CONTINUOUS
 62
     7
 10
10.064139607
 20
31.45058575160001
 11
9.917768513300034
 21
33.12361500870001
  0
LINE
  8
0
  6
CONTINUOUS
 62
     7
 10
51.28008239959998
 20
30.94852141010001
 11
49.68804669099998
 21
30.94852141010001
  0
LINE
  8
0
  6
CONTINUOUS
 62
     7
 10
77.04404669099996
 20
30.94852141010001
 11
78.63608239959997
 21
30.94852141010001
  0
LINE
  8
0
  6
CONTINUOUS
 62
     7
 10
66.91208239960001
 20
30.94852141010001
 11
65.32004669100002
 21
30.94852141010001
  0
LINE
  8
0
  6
CONTINUOUS
 62
     7
 10
96.03213960700002
 20
31.45058575160001
 11
96.03213960700002
 21
60.94645706860003
  0
LINE
  8
0
  6
CONTINUOUS
 62
     7
 10
67.45998948349997
 20
31.45058575160001
 11
67.60636057730002
 21
33.12361500870001
  0
LINE
  8
0
  6
CONTINUOUS
 62
     7
 10
102.6279894835
 20
60.94645706860003
 11
102.6279894835
 21
31.45058575160001
  0
LINE
  8
0
  6
CONTINUOUS
 62
     7
 10
118.2599894835
 20
31.45058575160001
 11
118.2599894835
 21
60.94645706860003
  0
LINE
  8
0
  6
CONTINUOUS
 62
     7
 10
114.3519894835
 20
31.45058575160001
 11
114.3519894835
 21
60.94645706860003
  0
LINE
  8
0
  6
CONTINUOUS
 62
     7
 10
34.056046691
 20
30.94852141010001
 11
35.65208239960002
 21
30.94852141010001
  0
LINE
  8
0
  6
CONTINUOUS
 62
     7
 10
37.96404669100002
 20
30.94852141010001
 11
39.55608239960002
 21
30.94852141010001
  0
LINE
  8
0
  6
CONTINUOUS
 62
     7
 10
84.856046691
 20
30.94852141010001
 11
86.45208239960002
 21
30.94852141010001
  0
LINE
  8
0
  6
CONTINUOUS
 62
     7
 10
123.388139607
 20
31.45058575160001
 11
123.388139607
 21
60.94645706860003
  0
LINE
  8
0
  6
CONTINUOUS
 62
     7
 10
63.55198948350001
 20
31.45058575160001
 11
63.69836057730001
 21
33.12361500870001
  0
LINE
  8
0
  6
CONTINUOUS
 62
     7
 10
127.296139607
 20
31.45058575160001
 11
127.296139607
 21
60.94645706860003
  0
LINE
  8
0
  6
CONTINUOUS
 62
     7
 10
92.124139607
 20
31.45058575160001
 11
92.124139607
 21
60.94645706860003
  0
LINE
  8
0
  6
CONTINUOUS
 62
     7
 10
55.73598948350001
 20
31.45058575160001
 11
55.88236057729996
 21
33.12361500870001
  0
LINE
  8
0
  6
CONTINUOUS
 62
     7
 10
80.404139607
 20
31.45058575160001
 11
80.25776851330004
 21
33.12361500870001
  0
LINE
  8
0
  6
CONTINUOUS
 62
     7
 10
28.38398948350005
 20
31.45058575160001
 11
28.53036057730004
 21
33.12361500870001
  0
LINE
  8
0
  6
CONTINUOUS
 62
     7
 10
53.596046691
 20
30.94852141010001
 11
55.18808239960001
 21
30.94852141010001
  0
LINE
  8
0
  6
CONTINUOUS
 62
     7
 10
-9.475860392999996
 20
31.45058575160001
 11
-9.622231486700022
 21
33.12361500870001
  0
LINE
  8
0
  6
CONTINUOUS
 62
     7
 10
49.14013960699999
 20
31.45058575160001
 11
48.99376851330002
 21
33.12361500870001
  0
LINE
  8
0
  6
CONTINUOUS
 62
     7
 10
69.22804669100003
 20
30.94852141010001
 11
70.82008239960004
 21
30.94852141010001
  0
LINE
  8
0
  6
CONTINUOUS
 62
     7
 10
40.10398948349998
 20
31.45058575160001
 11
40.25036057730004
 21
33.12361500870001
  0
LINE
  8
0
  6
CONTINUOUS
 62
     7
 10
53.04813960700001
 20
31.45058575160001
 11
52.90176851330004
 21
33.12361500870001
  0
LINE
  8
0
  6
CONTINUOUS
 62
     7
 10
56.95613960699998
 20
31.45058575160001
 11
56.80976851330001
 21
33.12361500870001
  0
LINE
  8
0
  6
CONTINUOUS
 62
     7
 10
59.64398948350004
 20
31.45058575160001
 11
59.79036057729999
 21
33.12361500870001
  0
LINE
  8
0
  6
CONTINUOUS
 62
     7
 10
79.18398948350004
 20
31.45058575160001
 11
79.33036057730004
 21
33.12361500870001
  0
LINE
  8
0
  6
CONTINUOUS
 62
     7
 10
51.82798948349999
 20
31.45058575160001
 11
51.97436057730005
 21
33.12361500870001
  0
LINE
  8
0
  6
CONTINUOUS
 62
     7
 10
41.324139607
 20
31.45058575160001
 11
41.17776851329997
 21
33.12361500870001
  0
LINE
  8
0
  6
CONTINUOUS
 62
     7
 10
126.0759894835
 20
60.94645706860003
 11
126.0759894835
 21
31.45058575160001
  0
LINE
  8
0
  6
CONTINUOUS
 62
     7
 10
68.68013960700004
 20
31.45058575160001
 11
68.53376851329996
 21
33.12361500870001
  0
LINE
  8
0
  6
CONTINUOUS
 62
     7
 10
60.86413960700001
 20
31.45058575160001
 11
60.71776851330003
 21
33.12361500870001
  0
LINE
  8
0
  6
CONTINUOUS
 62
     7
 10
-12.83595330899998
 20
30.94852141010001
 11
-11.24391760039997
 21
30.94852141010001
  0
LINE
  8
0
  6
CONTINUOUS
 62
     7
 10
36.19598948350001
 20
31.45058575160001
 11
36.34236057730001
 21
33.12361500870001
  0
LINE
  8
0
  6
CONTINUOUS
 62
     7
 10
94.8119894835
 20
60.94645706860003
 11
94.8119894835
 21
31.45058575160001
  0
LINE
  8
0
  6
CONTINUOUS
 62
     7
 10
45.78004669100001
 20
30.94852141010001
 11
47.37208239959996
 21
30.94852141010001
  0
LINE
  8
0
  6
CONTINUOUS
 62
     7
 10
98.71998948350003
 20
60.94645706860003
 11
98.71998948350003
 21
31.45058575160001
  0
LINE
  8
0
  6
CONTINUOUS
 62
     7
 10
37.41613960700003
 20
31.45058575160001
 11
37.26976851330001
 21
33.12361500870001
  0
LINE
  8
0
  6
CONTINUOUS
 62
     7
 10
71.3679894835
 20
31.45058575160001
 11
71.5143605773
 21
33.12361500870001
  0
LINE
  8
0
  6
CONTINUOUS
 62
     7
 10
133.8919894835
 20
60.94645706918779
 11
133.8919894835
 21
31.45058575101223
  0
LINE
  8
0
  6
CONTINUOUS
 62
     7
 10
99.94013960699999
 20
31.45058575160001
 11
99.94013960699999
 21
60.94645706860003
  0
LINE
  8
0
  6
CONTINUOUS
 62
     7
 10
45.23213960700002
 20
31.45058575160001
 11
45.0857685133
 21
33.12361500870001
  0
LINE
  8
0
  6
CONTINUOUS
 62
     7
 10
83.0919894835
 20
31.45058575160001
 11
83.23836057730001
 21
33.12361500870001
  0
LINE
  8
0
  6
CONTINUOUS
 62
     7
 10
115.572139607
 20
60.94645706860003
 11
115.572139607
 21
31.45058575160001
  0
LINE
  8
0
  6
CONTINUOUS
 62
     7
 10
-10.69601051650002
 20
31.45058575160001
 11
-10.54963942269996
 21
33.12361500870001
  0
LINE
  8
0
  6
CONTINUOUS
 62
     7
 10
-16.743953309
 20
30.94852141010001
 11
-15.14791760039996
 21
30.94852141010001
  0
LINE
  8
0
  6
CONTINUOUS
 62
     7
 10
75.27598948350001
 20
31.45058575160001
 11
75.42236057730003
 21
33.12361500870001
  0
LINE
  8
0
  6
CONTINUOUS
 62
     7
 10
84.31213960699998
 20
31.45058575160001
 11
84.1657685133
 21
33.12361500870001
  0
LINE
  8
0
  6
CONTINUOUS
 62
     7
 10
26.24404669099997
 20
30.94852141010001
 11
27.83608239959998
 21
30.94852141010001
  0
LINE
  8
0
  6
CONTINUOUS
 62
     7
 10
63.00408239959999
 20
30.94852141010001
 11
61.41204669100004
 21
30.94852141010001
  0
LINE
  8
0
  6
CONTINUOUS
 62
     7
 10
72.58813960700002
 20
31.45058575160001
 11
72.44176851329999
 21
33.12361500870001
  0
LINE
  8
0
  6
CONTINUOUS
 62
     7
 10
74.72808239960001
 20
30.94852141010001
 11
73.136046691
 21
30.94852141010001
  0
LINE
  8
0
  6
CONTINUOUS
 62
     7
 10
47.91998948350003
 20
31.45058575160001
 11
48.06636057730003
 21
33.12361500870001
  0
LINE
  8
0
  6
CONTINUOUS
 62
     7
 10
-13.38386039299996
 20
31.45058575160001
 11
-13.53023148669999
 21
33.12361500870001
  0
LINE
  8
0
  6
CONTINUOUS
 62
     7
 10
44.0119894835
 20
31.45058575160001
 11
44.15836057730001
 21
33.12361500870001
  0
LINE
  8
0
  6
CONTINUOUS
 62
     7
 10
41.87204669099999
 20
30.94852141010001
 11
43.46408239960004
 21
30.94852141010001
  0
LINE
  8
0
  6
CONTINUOUS
 62
     7
 10
103.848139607
 20
31.45058575160001
 11
103.848139607
 21
60.94645706860003
  0
LINE
  8
0
  6
CONTINUOUS
 62
     7
 10
135.112139607
 20
31.45058575160001
 11
135.112139607
 21
60.94645706860003
  0
LINE
  8
0
  6
CONTINUOUS
 62
     7
 10
131.204139607
 20
31.45058575160001
 11
131.204139607
 21
60.94645706860003
  0
LINE
  8
0
  6
CONTINUOUS
 62
     7
 10
-14.60401051649998
 20
31.45058575160001
 11
-14.45763942269998
 21
33.12361500870001
  0
LINE
  8
0
  6
CONTINUOUS
 62
     7
 10
82.5440823996
 20
30.94852141010001
 11
80.95204669099999
 21
30.94852141010001
  0
LINE
  8
0
  6
CONTINUOUS
 62
     7
 10
76.49613960700003
 20
31.45058575160001
 11
76.3497685133
 21
33.12361500870001
  0
LINE
  8
0
  6
CONTINUOUS
 62
     7
 10
59.09608239960003
 20
30.94852141010001
 11
57.50404669100002
 21
30.94852141010001
  0
LINE
  8
0
  6
CONTINUOUS
 62
     7
 10
64.77213960700003
 20
31.45058575160001
 11
64.6257685133
 21
33.12361500870001
  0
LINE
  8
0
  6
CONTINUOUS
 62
     7
 10
147.4560645463001
 20
59.14629405070003
 11
147.4560645463001
 21
33.2507487695
  0
LINE
  8
0
  6
CONTINUOUS
 62
     7
 10
-38.04801051649997
 20
31.45058575160001
 11
-38.04801051649997
 21
60.94645706860003
  0
LINE
  8
0
  6
CONTINUOUS
 62
     7
 10
-84.94001051650002
 20
31.45058575160001
 11
-84.94001051650002
 21
60.94645706860003
  0
LINE
  8
0
  6
CONTINUOUS
 62
     7
 10
-49.77201051649999
 20
60.94645706860003
 11
-49.77201051649999
 21
31.45058575160001
  0
LINE
  8
0
  6
CONTINUOUS
 62
     7
 10
88.21613960700003
 20
60.94645706860003
 11
88.21613960700003
 21
31.45058575160001
  0
LINE
  8
0
  6
CONTINUOUS
 62
     7
 10
-81.0320105165
 20
31.45058575160001
 11
-81.0320105165
 21
60.94645706860003
  0
LINE
  8
0
  6
CONTINUOUS
 62
     7
 10
-41.95601051649994
 20
31.45058575160001
 11
-41.95601051649994
 21
60.94645706860003
  0
LINE
  8
0
  6
CONTINUOUS
 62
     7
 10
-65.40401051649997
 20
60.94645706860003
 11
-65.40401051649997
 21
31.45058575160001
  0
LINE
  8
0
  6
CONTINUOUS
 62
     7
 10
139.020139607
 20
60.94645706860003
 11
139.020139607
 21
31.45058575160001
  0
LINE
  8
0
  6
CONTINUOUS
 62
     7
 10
141.7079894835
 20
31.45058575160001
 11
141.7079894835
 21
60.94645706860003
  0
LINE
  8
0
  6
CONTINUOUS
 62
     7
 10
-79.81186039299998
 20
31.45058575160001
 11
-79.81186039299998
 21
60.94645706860003
  0
LINE
  8
0
  6
CONTINUOUS
 62
     7
 10
129.9839894835
 20
60.85058575160003
 11
129.9839894835
 21
31.5464570686
  0
LINE
  8
0
  6
CONTINUOUS
 62
     7
 10
122.1679894835
 20
31.45058575160001
 11
122.1679894835
 21
60.94645706860003
  0
LINE
  8
0
  6
CONTINUOUS
 62
     7
 10
-92.75601051649996
 20
31.45058575160001
 11
-92.75601051649996
 21
60.94645706860003
  0
LINE
  8
0
  6
CONTINUOUS
 62
     7
 10
-21.19586039299998
 20
31.45058575160001
 11
-21.19586039299998
 21
60.94645706860003
  0
LINE
  8
0
  6
CONTINUOUS
 62
     7
 10
110.4439894835
 20
31.45058575160001
 11
110.4439894835
 21
60.94645706860003
  0
LINE
  8
0
  6
CONTINUOUS
 62
     7
 10
-25.10386039299994
 20
31.45058575160001
 11
-25.10386039299994
 21
60.94645706860003
  0
LINE
  8
0
  6
CONTINUOUS
 62
     7
 10
-88.84801051649998
 20
31.45058575160001
 11
-88.84801051649998
 21
60.94645706860003
  0
LINE
  8
0
  6
CONTINUOUS
 62
     7
 10
-17.28786039300001
 20
31.45058575160001
 11
-17.28786039300001
 21
60.94645706860003
  0
LINE
  8
0
  6
CONTINUOUS
 62
     7
 10
-53.68001051649996
 20
60.94645706860003
 11
-53.68001051649996
 21
31.45058575160001
  0
LINE
  8
0
  6
CONTINUOUS
 62
     7
 10
-96.66401051649997
 20
31.45058575160001
 11
-96.66401051649997
 21
60.94645706860003
  0
LINE
  8
0
  6
CONTINUOUS
 62
     7
 10
-95.44386039300001
 20
60.94645706860003
 11
-95.44386039300001
 21
31.45058575160001
  0
LINE
  8
0
  6
CONTINUOUS
 62
     7
 10
86.99598948350001
 20
60.94645706860003
 11
86.99598948350001
 21
31.45058575160001
  0
LINE
  8
0
  6
CONTINUOUS
 62
     7
 10
-99.35186039299998
 20
31.45058575160001
 11
-99.35186039299998
 21
60.94645706860003
  0
LINE
  8
0
  6
CONTINUOUS
 62
     7
 10
-29.01186039299997
 20
31.45058575160001
 11
-29.01186039299997
 21
60.94645706860003
  0
LINE
  8
0
  6
CONTINUOUS
 62
     7
 10
-68.08786039300001
 20
31.45058575160001
 11
-68.08786039300001
 21
60.94645706860003
  0
LINE
  8
0
  6
CONTINUOUS
 62
     7
 10
119.480139607
 20
60.94645706860003
 11
119.480139607
 21
31.45058575160001
  0
LINE
  8
0
  6
CONTINUOUS
 62
     7
 10
107.756139607
 20
60.94645706860003
 11
107.756139607
 21
31.45058575160001
  0
LINE
  8
0
  6
CONTINUOUS
 62
     7
 10
-128.5479354557
 20
59.14629405070003
 11
-128.5479354557
 21
33.2507487695
  0
LINE
  8
0
  6
CONTINUOUS
 62
     7
 10
-18.50801051649997
 20
60.94645706918779
 11
-18.50801051649997
 21
31.45058575101223
  0
LINE
  8
0
  6
CONTINUOUS
 62
     7
 10
-57.58801051649998
 20
60.94645706860003
 11
-57.58801051649998
 21
31.45058575160001
  0
LINE
  8
0
  6
CONTINUOUS
 62
     7
 10
-87.62786039299996
 20
60.94645706860003
 11
-87.62786039299996
 21
31.45058575160001
  0
LINE
  8
0
  6
CONTINUOUS
 62
     7
 10
-36.82786039299995
 20
60.94645706860003
 11
-36.82786039299995
 21
31.45058575160001
  0
LINE
  8
0
  6
CONTINUOUS
 62
     7
 10
-40.73586039299997
 20
60.94645706860003
 11
-40.73586039299997
 21
31.45058575160001
  0
LINE
  8
0
  6
CONTINUOUS
 62
     7
 10
-30.23201051649998
 20
31.45058575160001
 11
-30.23201051649998
 21
60.94645706860003
  0
LINE
  8
0
  6
CONTINUOUS
 62
     7
 10
111.664139607
 20
60.94645706860003
 11
111.664139607
 21
31.45058575160001
  0
LINE
  8
0
  6
CONTINUOUS
 62
     7
 10
-71.99586039299999
 20
31.45058575160001
 11
-71.99586039299999
 21
60.94645706860003
  0
LINE
  8
0
  6
CONTINUOUS
 62
     7
 10
-32.91986039299993
 20
60.94645706860003
 11
-32.91986039299993
 21
31.45058575160001
  0
LINE
  8
0
  6
CONTINUOUS
 62
     7
 10
-34.14001051650001
 20
31.45058575160001
 11
-34.14001051650001
 21
60.94645706860003
  0
LINE
  8
0
  6
CONTINUOUS
 62
     7
 10
21.78813960700002
 20
31.45058575160001
 11
21.78813960700002
 21
60.94645706860003
  0
LINE
  8
0
  6
CONTINUOUS
 62
     7
 10
-64.18386039299995
 20
60.94645706860003
 11
-64.18386039299995
 21
31.45058575160001
  0
LINE
  8
0
  6
CONTINUOUS
 62
     7
 10
-26.32401051649996
 20
60.94645706860003
 11
-26.32401051649996
 21
31.45058575160001
  0
LINE
  8
0
  6
CONTINUOUS
 62
     7
 10
-52.45986039299999
 20
31.45058575160001
 11
-52.45986039299999
 21
60.94645706860003
  0
LINE
  8
0
  6
CONTINUOUS
 62
     7
 10
-75.90386039299996
 20
31.45058575160001
 11
-75.90386039299996
 21
60.94645706860003
  0
LINE
  8
0
  6
CONTINUOUS
 62
     7
 10
-91.535860393
 20
60.94645706860003
 11
-91.535860393
 21
31.45058575160001
  0
LINE
  8
0
  6
CONTINUOUS
 62
     7
 10
-100.5720105165
 20
60.94645706860003
 11
-100.5720105165
 21
31.45058575160001
  0
LINE
  8
0
  6
CONTINUOUS
 62
     7
 10
106.5359894835
 20
31.45058575160001
 11
106.5359894835
 21
60.94645706860003
  0
LINE
  8
0
  6
CONTINUOUS
 62
     7
 10
-44.643860393
 20
60.94645706860003
 11
-44.643860393
 21
31.45058575160001
  0
LINE
  8
0
  6
CONTINUOUS
 62
     7
 10
-45.86401051649997
 20
31.45058575160001
 11
-45.86401051649997
 21
60.94645706860003
  0
LINE
  8
0
  6
CONTINUOUS
 62
     7
 10
-22.41601051649994
 20
60.85058575160003
 11
-22.41601051649994
 21
31.5464570686
  0
LINE
  8
0
  6
CONTINUOUS
 62
     7
 10
24.47598948350002
 20
60.94645706860003
 11
24.47598948350002
 21
31.45058575160001
  0
LINE
  8
0
  6
CONTINUOUS
 62
     7
 10
145.6159894835
 20
60.94645706860003
 11
145.6159894835
 21
31.45058575160001
  0
LINE
  8
0
  6
CONTINUOUS
 62
     7
 10
-48.55186039299997
 20
31.45058575160001
 11
-48.55186039299997
 21
60.94645706860003
  0
LINE
  8
0
  6
CONTINUOUS
 62
     7
 10
-69.30801051649998
 20
60.94645706918779
 11
-69.30801051649998
 21
31.45058575101223
  0
LINE
  8
0
  6
CONTINUOUS
 62
     7
 10
25.69613960700004
 20
31.45058575160001
 11
25.69613960700004
 21
60.94645706860003
  0
LINE
  8
0
  6
CONTINUOUS
 62
     7
 10
29.60413960700001
 20
31.45058575160001
 11
29.60413960700001
 21
60.94645706860003
  0
LINE
  8
0
  6
CONTINUOUS
 62
     7
 10
-56.36786039299996
 20
31.45058575160001
 11
-56.36786039299996
 21
60.94645706860003
  0
LINE
  8
0
  6
CONTINUOUS
 62
     7
 10
-77.12401051649998
 20
60.94645706860003
 11
-77.12401051649998
 21
31.45058575160001
  0
LINE
  8
0
  6
CONTINUOUS
 62
     7
 10
32.29198948350001
 20
60.94645706918779
 11
32.29198948350001
 21
31.45058575101223
  0
LINE
  8
0
  6
CONTINUOUS
 62
     7
 10
-61.4960105165
 20
31.45058575160001
 11
-61.4960105165
 21
60.94645706860003
  0
LINE
  8
0
  6
CONTINUOUS
 62
     7
 10
33.51213960699997
 20
31.45058575160001
 11
33.51213960699997
 21
60.94645706860003
  0
LINE
  8
0
  6
CONTINUOUS
 62
     7
 10
-83.71986039299995
 20
60.94645706860003
 11
-83.71986039299995
 21
31.45058575160001
  0
LINE
  8
0
  6
CONTINUOUS
 62
     7
 10
142.928139607
 20
31.45058575160001
 11
142.928139607
 21
60.94645706860003
  0
LINE
  8
0
  6
CONTINUOUS
 62
     7
 10
90.90398948349998
 20
31.45058575160001
 11
90.90398948349998
 21
60.94645706860003
  0
LINE
  8
0
  6
CONTINUOUS
 62
     7
 10
10.064139607
 20
60.94645706860003
 11
10.064139607
 21
31.45058575160001
  0
LINE
  8
0
  6
CONTINUOUS
 62
     7
 10
-73.21601051649995
 20
60.85058575160003
 11
-73.21601051649995
 21
31.5464570686
  0
ARC
  8
0
  6
CONTINUOUS
 62
     7
 10
125.5280823996
 20
31.49852141010001
 40
0.5499999999999949
 50
270.0
 51
355.0000000000002
  0
ARC
  8
0
  6
CONTINUOUS
 62
     7
 10
105.9880823996
 20
31.49852141010001
 40
0.5499999999999949
 50
270.0
 51
355.0000000000002
  0
LINE
  8
0
  6
CONTINUOUS
 62
     7
 10
76.49613960700003
 20
31.45058575160001
 11
76.49613960700003
 21
60.94645706860003
  0
ARC
  8
0
  6
CONTINUOUS
 62
     7
 10
108.304046691
 20
31.49852141010001
 40
0.5499999999999977
 50
184.9999999999998
 51
270.0000000000001
  0
LINE
  8
0
  6
CONTINUOUS
 62
     7
 10
-6.788010516499993
 20
60.94645706860003
 11
-6.788010516499995
 21
31.45058575160001
  0
LINE
  8
0
  6
CONTINUOUS
 62
     7
 10
40.10398948349998
 20
31.45058575160001
 11
40.10398948349998
 21
60.94645706860003
  0
LINE
  8
0
  6
CONTINUOUS
 62
     7
 10
-13.38386039299996
 20
60.94645706860003
 11
-13.38386039299997
 21
31.45058575160001
  0
LINE
  8
0
  6
CONTINUOUS
 62
     7
 10
60.86413960700001
 20
60.94645706860003
 11
60.86413960700001
 21
31.45058575160001
  0
LINE
  8
0
  6
CONTINUOUS
 62
     7
 10
-10.69601051650002
 20
31.45058575160001
 11
-10.69601051650001
 21
60.94645706860003
  0
LINE
  8
0
  6
CONTINUOUS
 62
     7
 10
68.68013960700004
 20
60.94645706860003
 11
68.68013960700004
 21
31.45058575160001
  0
LINE
  8
0
  6
CONTINUOUS
 62
     7
 10
36.19598948350001
 20
60.94645706860003
 11
36.19598948350001
 21
31.45058575160001
  0
LINE
  8
0
  6
CONTINUOUS
 62
     7
 10
-104.4800105165
 20
31.45058575160001
 11
-104.4800105165
 21
60.94645706860034
  0
LINE
  8
0
  6
CONTINUOUS
 62
     7
 10
-126.707860393
 20
60.94645706860003
 11
-126.707860393
 21
31.45058575160001
  0
LINE
  8
0
  6
CONTINUOUS
 62
     7
 10
44.0119894835
 20
60.94645706860003
 11
44.0119894835
 21
31.45058575160001
  0
ARC
  8
0
  6
CONTINUOUS
 62
     7
 10
130.5940645453
 20
33.08304616820001
 40
0.4654752418000216
 50
4.999999999999628
 51
175.0000000000004
  0
LINE
  8
0
  6
CONTINUOUS
 62
     7
 10
55.73598948350001
 20
31.45058575160001
 11
55.73598948350001
 21
60.94645706860003
  0
LINE
  8
0
  6
CONTINUOUS
 62
     7
 10
63.55198948350001
 20
31.45058575160001
 11
63.55198948350001
 21
60.94645706860003
  0
LINE
  8
0
  6
CONTINUOUS
 62
     7
 10
-103.259860393
 20
60.94645706859971
 11
-103.259860393
 21
31.45058575160001
  0
LINE
  8
0
  6
CONTINUOUS
 62
     7
 10
12.75198948350001
 20
31.45058575160001
 11
12.75198948350001
 21
60.94645706860003
  0
ARC
  8
0
  6
CONTINUOUS
 62
     7
 10
131.752046691
 20
31.49852141010001
 40
0.5499999999999838
 50
184.9999999999999
 51
270.0
  0
ARC
  8
0
  6
CONTINUOUS
 62
     7
 10
104.396046691
 20
31.49852141010001
 40
0.5499999999999977
 50
184.9999999999998
 51
270.0000000000001
  0
LINE
  8
0
  6
CONTINUOUS
 62
     7
 10
13.97213960700003
 20
60.94645706860003
 11
13.97213960700002
 21
31.45058575160001
  0
LINE
  8
0
  6
CONTINUOUS
 62
     7
 10
41.324139607
 20
31.45058575160001
 11
41.324139607
 21
60.94645706860003
  0
LINE
  8
0
  6
CONTINUOUS
 62
     7
 10
83.0919894835
 20
60.94645706918779
 11
83.0919894835
 21
31.45058575101223
  0
LINE
  8
0
  6
CONTINUOUS
 62
     7
 10
64.77213960700003
 20
60.94645706860003
 11
64.77213960700003
 21
31.45058575160001
  0
LINE
  8
0
  6
CONTINUOUS
 62
     7
 10
37.41613960700003
 20
60.94645706860003
 11
37.41613960700003
 21
31.45058575160001
  0
LINE
  8
0
  6
CONTINUOUS
 62
     7
 10
-60.27586039299998
 20
31.45058575160001
 11
-60.27586039299998
 21
60.94645706860003
  0
ARC
  8
0
  6
CONTINUOUS
 62
     7
 10
133.3440823996
 20
31.49852141010001
 40
0.5499999999999949
 50
270.0
 51
355.0000000000002
  0
LINE
  8
0
  6
CONTINUOUS
 62
     7
 10
8.84398948350004
 20
31.45058575160001
 11
8.843989483500044
 21
60.94645706860003
  0
LINE
  8
0
  6
CONTINUOUS
 62
     7
 10
-9.475860392999998
 20
31.45058575160001
 11
-9.475860392999994
 21
60.94645706860003
  0
LINE
  8
0
  6
CONTINUOUS
 62
     7
 10
56.95613960699998
 20
60.94645706860003
 11
56.95613960699998
 21
31.45058575160001
  0
LINE
  8
0
  6
CONTINUOUS
 62
     7
 10
-107.167860393
 20
60.94645706859971
 11
-107.167860393
 21
31.45058575160001
  0
LINE
  8
0
  6
CONTINUOUS
 62
     7
 10
75.27598948350001
 20
60.94645706860003
 11
75.27598948350001
 21
31.45058575160001
  0
ARC
  8
0
  6
CONTINUOUS
 62
     7
 10
127.844046691
 20
31.49852141010001
 40
0.5499999999999838
 50
184.9999999999999
 51
270.0
  0
LINE
  8
0
  6
CONTINUOUS
 62
     7
 10
45.23213960700002
 20
31.45058575160001
 11
45.23213960700002
 21
60.94645706860003
  0
LINE
  8
0
  6
CONTINUOUS
 62
     7
 10
6.156139606999983
 20
60.94645706860003
 11
6.156139606999981
 21
31.45058575160001
  0
LINE
  8
0
  6
CONTINUOUS
 62
     7
 10
80.404139607
 20
31.45058575160001
 11
80.404139607
 21
60.94645706860003
  0
ARC
  8
0
  6
CONTINUOUS
 62
     7
 10
126.6860645453
 20
33.08304616820001
 40
0.4654752418000216
 50
4.999999999999628
 51
175.0000000000004
  0
LINE
  8
0
  6
CONTINUOUS
 62
     7
 10
28.38398948350005
 20
60.85058575160003
 11
28.38398948350005
 21
31.5464570686
  0
LINE
  8
0
  6
CONTINUOUS
 62
     7
 10
51.82798948349999
 20
60.94645706860003
 11
51.82798948349999
 21
31.45058575160001
  0
LINE
  8
0
  6
CONTINUOUS
 62
     7
 10
53.04813960700001
 20
31.45058575160001
 11
53.04813960700001
 21
60.94645706860003
  0
LINE
  8
0
  6
CONTINUOUS
 62
     7
 10
47.91998948350003
 20
60.94645706860003
 11
47.91998948350003
 21
31.45058575160001
  0
LINE
  8
0
  6
CONTINUOUS
 62
     7
 10
59.64398948350004
 20
31.45058575160001
 11
59.64398948350004
 21
60.94645706860003
  0
LINE
  8
0
  6
CONTINUOUS
 62
     7
 10
71.3679894835
 20
31.45058575160001
 11
71.3679894835
 21
60.94645706860003
  0
LINE
  8
0
  6
CONTINUOUS
 62
     7
 10
-1.659860393000008
 20
31.45058575160001
 11
-1.659860393000006
 21
60.94645706860003
  0
LINE
  8
0
  6
CONTINUOUS
 62
     7
 10
-5.567860392999974
 20
31.45058575160001
 11
-5.567860392999973
 21
60.94645706860003
  0
LINE
  8
0
  6
CONTINUOUS
 62
     7
 10
17.88013960700005
 20
60.94645706860003
 11
17.88013960700005
 21
31.45058575160001
  0
LINE
  8
0
  6
CONTINUOUS
 62
     7
 10
49.14013960699999
 20
31.45058575160001
 11
49.14013960699999
 21
60.94645706860003
  0
ARC
  8
0
  6
CONTINUOUS
 62
     7
 10
135.660046691
 20
31.49852141010001
 40
0.5499999999999838
 50
184.9999999999999
 51
270.0
  0
LINE
  8
0
  6
CONTINUOUS
 62
     7
 10
-14.60401051649998
 20
60.94645706860003
 11
-14.60401051649998
 21
31.45058575160001
  0
ARC
  8
0
  6
CONTINUOUS
 62
     7
 10
134.5020645453
 20
33.08304616820001
 40
0.4654752418000216
 50
4.999999999999628
 51
175.0000000000004
  0
ARC
  8
0
  6
CONTINUOUS
 62
     7
 10
107.1460645453
 20
33.08304616820001
 40
0.4654752418000216
 50
4.999999999999628
 51
175.0000000000004
  0
LINE
  8
0
  6
CONTINUOUS
 62
     7
 10
79.18398948350004
 20
60.85058575160003
 11
79.18398948350004
 21
31.5464570686
  0
LINE
  8
0
  6
CONTINUOUS
 62
     7
 10
72.58813960700002
 20
31.45058575160001
 11
72.58813960700002
 21
60.94645706860003
  0
LINE
  8
0
  6
CONTINUOUS
 62
     7
 10
4.935989483500019
 20
31.45058575160001
 11
4.935989483500021
 21
60.94645706860003
  0
LINE
  8
0
  6
CONTINUOUS
 62
     7
 10
-2.88001051649997
 20
60.94645706860003
 11
-2.880010516499972
 21
31.45058575160001
  0
LINE
  8
0
  6
CONTINUOUS
 62
     7
 10
16.65998948349998
 20
31.45058575160001
 11
16.65998948349998
 21
60.94645706860003
  0
LINE
  8
0
  6
CONTINUOUS
 62
     7
 10
2.248139607000015
 20
31.45058575160001
 11
2.248139607000017
 21
60.94645706860003
  0
LINE
  8
0
  6
CONTINUOUS
 62
     7
 10
84.31213960699998
 20
31.45058575160001
 11
84.31213960699998
 21
60.94645706860003
  0
LINE
  8
0
  6
CONTINUOUS
 62
     7
 10
20.5679894835
 20
31.45058575160001
 11
20.5679894835
 21
60.94645706860003
  0
LINE
  8
0
  6
CONTINUOUS
 62
     7
 10
1.027989483499997
 20
60.94645706860003
 11
1.027989483499995
 21
31.45058575160001
  0
LINE
  8
0
  6
CONTINUOUS
 62
     7
 10
67.45998948349997
 20
31.45058575160001
 11
67.45998948349997
 21
60.94645706860003
  0
ARC
  8
0
  6
CONTINUOUS
 62
     7
 10
103.2380645453
 20
33.08304616820001
 40
0.4654752418000216
 50
4.999999999999628
 51
175.0000000000004
  0
ARC
  8
0
  6
CONTINUOUS
 62
     7
 10
121.6200823996
 20
31.49852141010001
 40
0.5499999999999949
 50
270.0
 51
355.0000000000002
  0
ARC
  8
0
  6
CONTINUOUS
 62
     7
 10
118.8700645453
 20
33.08304616820001
 40
0.4654752418000216
 50
4.999999999999628
 51
175.0000000000004
  0
ARC
  8
0
  6
CONTINUOUS
 62
     7
 10
120.028046691
 20
31.49852141010001
 40
0.5499999999999977
 50
184.9999999999998
 51
270.0000000000001
  0
ARC
  8
0
  6
CONTINUOUS
 62
     7
 10
102.0800823996
 20
31.49852141010001
 40
0.5499999999999949
 50
270.0
 51
355.0000000000002
  0
ARC
  8
0
  6
CONTINUOUS
 62
     7
 10
111.0540645453
 20
33.08304616820001
 40
0.4654752418000216
 50
4.999999999999628
 51
175.0000000000004
  0
ARC
  8
0
  6
CONTINUOUS
 62
     7
 10
112.212046691
 20
31.49852141010001
 40
0.5499999999999977
 50
184.9999999999998
 51
270.0000000000001
  0
ARC
  8
0
  6
CONTINUOUS
 62
     7
 10
113.8040823996
 20
31.49852141010001
 40
0.5499999999999949
 50
270.0
 51
355.0000000000002
  0
ARC
  8
0
  6
CONTINUOUS
 62
     7
 10
114.9620645453
 20
33.08304616820001
 40
0.4654752418000216
 50
4.999999999999628
 51
175.0000000000004
  0
ARC
  8
0
  6
CONTINUOUS
 62
     7
 10
116.120046691
 20
31.49852141010001
 40
0.5499999999999977
 50
184.9999999999998
 51
270.0000000000001
  0
ARC
  8
0
  6
CONTINUOUS
 62
     7
 10
123.936046691
 20
31.49852141010001
 40
0.5499999999999977
 50
184.9999999999998
 51
270.0000000000001
  0
ARC
  8
0
  6
CONTINUOUS
 62
     7
 10
117.7120823996
 20
31.49852141010001
 40
0.5499999999999949
 50
270.0
 51
355.0000000000002
  0
ARC
  8
0
  6
CONTINUOUS
 62
     7
 10
109.8960823996
 20
31.49852141010001
 40
0.5499999999999949
 50
270.0
 51
355.0000000000002
  0
ARC
  8
0
  6
CONTINUOUS
 62
     7
 10
122.7780645453
 20
33.08304616820001
 40
0.4654752418000216
 50
4.999999999999628
 51
175.0000000000004
  0
ENDSEC
  0
EOF
