  0
SECTION
  2
HEADER
  9
$ACADVER
  1
AC1006
  9
$DWGCODEPAGE
  3
ansi_932
  9
$INSBASE
 10
0.0
 20
0.0
 30
0.0
  9
$EXTMIN
 10
-1022.25
 20
-162.7045454545454
  9
$EXTMAX
 10
-876.25
 20
165.0000000000001
  9
$LIMMIN
 10
0.0
 20
0.0
  9
$LIMMAX
 10
12.0
 20
9.0
  9
$ORTHOMODE
 70
     0
  9
$REGENMODE
 70
     1
  9
$FILLMODE
 70
     1
  9
$QTEXTMODE
 70
     0
  9
$MIRRTEXT
 70
     1
  9
$DRAGMODE
 70
     2
  9
$LTSCALE
 40
1.0
  9
$OSMODE
 70
    37
  9
$ATTMODE
 70
     1
  9
$TEXTSIZE
 40
0.2
  9
$TRACEWID
 40
0.05
  9
$TEXTSTYLE
  7
STANDARD
  9
$CLAYER
  8
0
  9
$CELTYPE
  6
BYLAYER
  9
$CECOLOR
 62
   256
  9
$DIMSCALE
 40
1.0
  9
$DIMASZ
 40
3.0
  9
$DIMEXO
 40
0.0625
  9
$DIMDLI
 40
0.38
  9
$DIMRND
 40
0.0
  9
$DIMDLE
 40
0.0
  9
$DIMEXE
 40
0.18
  9
$DIMTP
 40
0.0
  9
$DIMTM
 40
0.0
  9
$DIMTXT
 40
3.0
  9
$DIMCEN
 40
0.09
  9
$DIMTSZ
 40
0.0
  9
$DIMTOL
 70
     0
  9
$DIMLIM
 70
     0
  9
$DIMTIH
 70
     1
  9
$DIMTOH
 70
     1
  9
$DIMSE1
 70
     0
  9
$DIMSE2
 70
     0
  9
$DIMTAD
 70
     1
  9
$DIMZIN
 70
     0
  9
$DIMBLK
  1

  9
$DIMASO
 70
     1
  9
$DIMSHO
 70
     1
  9
$DIMPOST
  1

  9
$DIMAPOST
  1

  9
$DIMALT
 70
     0
  9
$DIMALTD
 70
     2
  9
$DIMALTF
 40
25.4
  9
$DIMLFAC
 40
1.0
  9
$DIMTOFL
 70
     0
  9
$DIMTVP
 40
0.0
  9
$DIMTIX
 70
     0
  9
$DIMSOXD
 70
     0
  9
$DIMSAH
 70
     0
  9
$DIMBLK1
  1

  9
$DIMBLK2
  1

  9
$LUNITS
 70
     2
  9
$LUPREC
 70
     4
  9
$SKETCHINC
 40
0.1
  9
$FILLETRAD
 40
0.5
  9
$AUNITS
 70
     0
  9
$AUPREC
 70
     0
  9
$MENU
  1
.
  9
$ELEVATION
 40
0.0
  9
$THICKNESS
 40
0.0
  9
$LIMCHECK
 70
     0
  9
$CHAMFERA
 40
0.5
  9
$CHAMFERB
 40
0.5
  9
$SKPOLY
 70
     0
  9
$TDCREATE
 40
2460368.537758356
  9
$TDUPDATE
 40
2460368.537758368
  9
$TDINDWG
 40
0.0000000116
  9
$TDUSRTIMER
 40
0.0000000116
  9
$USRTIMER
 70
     1
  9
$ANGBASE
 50
0.0
  9
$ANGDIR
 70
     0
  9
$PDMODE
 70
     0
  9
$PDSIZE
 40
0.0
  9
$PLINEWID
 40
0.0
  9
$COORDS
 70
     1
  9
$SPLFRAME
 70
     0
  9
$SPLINETYPE
 70
     6
  9
$SPLINESEGS
 70
     8
  9
$ATTDIA
 70
     0
  9
$ATTREQ
 70
     1
  9
$HANDLING
 70
     1
  9
$HANDSEED
  5
323
  9
$SURFTAB1
 70
     6
  9
$SURFTAB2
 70
     6
  9
$SURFTYPE
 70
     6
  9
$SURFU
 70
     6
  9
$SURFV
 70
     6
  9
$UCSNAME
  2

  9
$UCSORG
 10
0.0
 20
0.0
 30
0.0
  9
$UCSXDIR
 10
1.0
 20
0.0
 30
0.0
  9
$UCSYDIR
 10
0.0
 20
1.0
 30
0.0
  9
$USERI1
 70
     0
  9
$USERI2
 70
     0
  9
$USERI3
 70
     0
  9
$USERI4
 70
     0
  9
$USERI5
 70
     0
  9
$USERR1
 40
0.0
  9
$USERR2
 40
0.0
  9
$USERR3
 40
0.0
  9
$USERR4
 40
0.0
  9
$USERR5
 40
0.0
  9
$WORLDVIEW
 70
     1
  0
ENDSEC
  0
SECTION
  2
TABLES
  0
TABLE
  2
VPORT
 70
     1
  0
VPORT
  2
*ACTIVE
 70
     0
 10
0.0
 20
0.0
 11
1.0
 21
1.0
 12
-949.25
 22
1.147727272727323
 13
0.0
 23
0.0
 14
0.5
 24
0.5
 15
0.5
 25
0.5
 16
0.0
 26
0.0
 36
1.0
 17
0.0
 27
0.0
 37
0.0
 40
327.7045454545455
 41
1.6
 42
50.0
 43
0.0
 44
0.0
 50
0.0
 51
0.0
 71
     0
 72
   100
 73
     1
 74
     3
 75
     0
 76
     0
 77
     0
 78
     0
  0
ENDTAB
  0
TABLE
  2
LTYPE
 70
     3
  0
LTYPE
  2
CONTINUOUS
 70
     0
  3
Solid line
 72
    65
 73
     0
 40
0.0
  0
LTYPE
  2
________________
 70
     0
  3

 72
    65
 73
     0
 40
0.0
  0
LTYPE
  2
________________0
 70
     0
  3

 72
    65
 73
     4
 40
7.2
 49
2.7
 49
-1.8
 49
0.8999999999999999
 49
-1.8
  0
ENDTAB
  0
TABLE
  2
LAYER
 70
     1
  0
LAYER
  2
0
 70
     0
 62
     7
  6
CONTINUOUS
  0
ENDTAB
  0
TABLE
  2
STYLE
 70
     2
  0
STYLE
  2
STANDARD
 70
     0
 40
0.0
 41
1.0
 50
0.0
 71
     0
 42
0.2
  3
txt
  4

  0
STYLE
  2
EXPLODED0
 70
     0
 40
0.2
 41
1.0
 50
0.0
 71
     0
 42
0.2
  3
ＭＳ ゴシック
  4

  0
ENDTAB
  0
TABLE
  2
VIEW
 70
     0
  0
ENDTAB
  0
TABLE
  2
UCS
 70
     0
  0
ENDTAB
  0
ENDSEC
  0
SECTION
  2
BLOCKS
  0
BLOCK
  8
0
  2
_13783
 70
     0
 10
0.0
 20
0.0
 30
0.0
  0
ENDBLK
  8
0
  0
BLOCK
  8
0
  2
_22959
 70
     0
 10
0.0
 20
0.0
 30
0.0
  0
ENDBLK
  8
0
  0
BLOCK
  8
0
  2
*X3
 70
     1
 10
0.0
 20
0.0
 30
0.0
  0
TEXT
  5
31C
  8
0
 62
     2
 10
-964.2613636363635
 20
-163.2727272727272
 30
0.0
 40
5.0
  1
VVD-75100D
  7
EXPLODED0
  0
LINE
  5
31D
  8
0
 62
     2
 10
-964.2613636363635
 20
-164.1860866477272
 30
0.0
 11
-931.7613636363635
 21
-164.1860866477272
 31
0.0
  0
ENDBLK
  8
0
  0
ENDSEC
  0
SECTION
  2
ENTITIES
  0
INSERT
  5
3C
  8
0
  6
________________
 62
     7
  2
_13783
 10
0.0
 20
0.0
 30
0.0
  0
ARC
  5
3E
  8
0
  6
________________
 62
     7
 10
899.8865519842869
 20
63.50000000000003
 30
0.0
 40
1.499999999999986
 50
76.50660117844848
 51
103.4933988215519
210
0.0
220
0.0
230
-1.0
  0
ARC
  5
3F
  8
0
  6
________________
 62
     7
 10
899.8865519842869
 20
63.50000000000003
 30
0.0
 40
1.5
 50
346.5066011784481
 51
13.49339882155169
210
0.0
220
0.0
230
-1.0
  0
ARC
  5
40
  8
0
  6
________________
 62
     7
 10
899.8865519842869
 20
63.50000000000003
 30
0.0
 40
1.49999999999999
 50
256.506601178448
 51
283.4933988215514
210
0.0
220
0.0
230
-1.0
  0
LINE
  5
41
  8
0
  6
________________
 62
     7
 10
-899.5365519842868
 20
63.15000000000004
 30
0.0
 11
-899.5365519842868
 21
62.04140478541856
 31
0.0
  0
ARC
  5
42
  8
0
  6
________________
 62
     7
 10
899.8865519842869
 20
63.50000000000003
 30
0.0
 40
1.5
 50
166.5066011784485
 51
193.4933988215518
210
0.0
220
0.0
230
-1.0
  0
CIRCLE
  5
43
  8
0
  6
________________
 62
     7
 10
899.8865519842869
 20
63.50000000000003
 30
0.0
 40
2.800000000000008
210
0.0
220
0.0
230
-1.0
  0
LINE
  5
44
  8
0
  6
________________
 62
     7
 10
-899.5365519842868
 20
63.85000000000004
 30
0.0
 11
-898.4279567697054
 21
63.85000000000004
 31
0.0
  0
LINE
  5
45
  8
0
  6
________________
 62
     7
 10
-900.2365519842868
 20
62.04140478541856
 30
0.0
 11
-900.2365519842868
 21
63.15000000000004
 31
0.0
  0
LINE
  5
46
  8
0
  6
________________
 62
     7
 10
-900.2365519842868
 20
63.15000000000004
 30
0.0
 11
-901.3451471988684
 21
63.15000000000004
 31
0.0
  0
LINE
  5
47
  8
0
  6
________________
 62
     7
 10
-900.2365519842868
 20
63.85000000000004
 30
0.0
 11
-900.2365519842868
 21
64.95859521458149
 31
0.0
  0
LINE
  5
48
  8
0
  6
________________
 62
     7
 10
-898.4279567697055
 20
63.15000000000004
 30
0.0
 11
-899.5365519842869
 21
63.15000000000004
 31
0.0
  0
LINE
  5
49
  8
0
  6
________________
 62
     7
 10
-899.5365519842868
 20
64.95859521458149
 30
0.0
 11
-899.5365519842868
 21
63.85000000000002
 31
0.0
  0
LINE
  5
4A
  8
0
  6
________________
 62
     7
 10
-901.3451471988684
 20
63.85000000000004
 30
0.0
 11
-900.2365519842868
 21
63.85000000000004
 31
0.0
  0
ARC
  5
4B
  8
0
  6
________________
 62
     7
 10
-899.8865519842869
 20
63.50000000000003
 30
0.0
 40
0.7344081032030665
 50
241.538100333359
 51
298.4618996666418
  0
ARC
  5
4C
  8
0
  6
________________
 62
     7
 10
-899.8865519842869
 20
63.50000000000003
 30
0.0
 40
0.7344081032030665
 50
331.5381003333582
 51
28.46189966664173
  0
ARC
  5
4D
  8
0
  6
________________
 62
     7
 10
-899.8865519842869
 20
63.50000000000003
 30
0.0
 40
0.7344081032030797
 50
151.5381003333579
 51
208.4618996666424
  0
ARC
  5
4E
  8
0
  6
________________
 62
     7
 10
-899.8865519842869
 20
63.50000000000003
 30
0.0
 40
0.7344081032030731
 50
61.53810033335783
 51
118.4618996666416
  0
ARC
  5
4F
  8
0
  6
________________
 62
     7
 10
949.2499999999999
 20
149.0000000000001
 30
0.0
 40
1.49999999999999
 50
76.50660117844834
 51
103.4933988215517
210
0.0
220
0.0
230
-1.0
  0
ARC
  5
50
  8
0
  6
________________
 62
     7
 10
949.2499999999999
 20
149.0000000000001
 30
0.0
 40
1.500000000000006
 50
346.5066011784482
 51
13.49339882155186
210
0.0
220
0.0
230
-1.0
  0
ARC
  5
51
  8
0
  6
________________
 62
     7
 10
949.2499999999999
 20
149.0000000000001
 30
0.0
 40
1.49999999999999
 50
256.5066011784482
 51
283.4933988215518
210
0.0
220
0.0
230
-1.0
  0
LINE
  5
52
  8
0
  6
________________
 62
     7
 10
-947.7914047854183
 20
148.65
 30
0.0
 11
-948.8999999999999
 21
148.65
 31
0.0
  0
ARC
  5
53
  8
0
  6
________________
 62
     7
 10
949.2499999999999
 20
149.0000000000001
 30
0.0
 40
1.500000000000006
 50
166.5066011784482
 51
193.493398821552
210
0.0
220
0.0
230
-1.0
  0
CIRCLE
  5
54
  8
0
  6
________________
 62
     7
 10
949.2499999999999
 20
149.0000000000001
 30
0.0
 40
2.79999999999998
210
0.0
220
0.0
230
-1.0
  0
LINE
  5
55
  8
0
  6
________________
 62
     7
 10
-948.8999999999999
 20
149.3500000000001
 30
0.0
 11
-947.7914047854183
 21
149.3500000000001
 31
0.0
  0
LINE
  5
56
  8
0
  6
________________
 62
     7
 10
-948.8999999999999
 20
148.65
 30
0.0
 11
-948.8999999999999
 21
147.5414047854186
 31
0.0
  0
LINE
  5
57
  8
0
  6
________________
 62
     7
 10
-949.5999999999999
 20
147.5414047854186
 30
0.0
 11
-949.5999999999999
 21
148.65
 31
0.0
  0
LINE
  5
58
  8
0
  6
________________
 62
     7
 10
-950.7085952145812
 20
149.3500000000001
 30
0.0
 11
-949.5999999999998
 21
149.3500000000001
 31
0.0
  0
LINE
  5
59
  8
0
  6
________________
 62
     7
 10
-948.8999999999999
 20
150.4585952145815
 30
0.0
 11
-948.8999999999999
 21
149.3500000000001
 31
0.0
  0
LINE
  5
5A
  8
0
  6
________________
 62
     7
 10
-949.5999999999999
 20
148.65
 30
0.0
 11
-950.7085952145814
 21
148.65
 31
0.0
  0
LINE
  5
5B
  8
0
  6
________________
 62
     7
 10
-949.5999999999999
 20
149.3500000000001
 30
0.0
 11
-949.5999999999999
 21
150.4585952145815
 31
0.0
  0
ARC
  5
5C
  8
0
  6
________________
 62
     7
 10
-949.2499999999999
 20
149.0000000000001
 30
0.0
 40
0.7344081032030797
 50
151.5381003333579
 51
208.4618996666421
  0
ARC
  5
5D
  8
0
  6
________________
 62
     7
 10
-949.2499999999999
 20
149.0000000000001
 30
0.0
 40
0.7344081032030731
 50
61.53810033335815
 51
118.4618996666417
  0
ARC
  5
5E
  8
0
  6
________________
 62
     7
 10
-949.2499999999999
 20
149.0000000000001
 30
0.0
 40
0.7344081032030676
 50
331.5381003333579
 51
28.46189966664213
  0
ARC
  5
5F
  8
0
  6
________________
 62
     7
 10
-949.2499999999999
 20
149.0000000000001
 30
0.0
 40
0.7344081032030731
 50
241.538100333358
 51
298.4618996666416
  0
LINE
  5
60
  8
0
  6
________________
 62
     7
 10
-998.2634480157128
 20
64.95859521458155
 30
0.0
 11
-998.2634480157128
 21
63.85000000000004
 31
0.0
  0
ARC
  5
61
  8
0
  6
________________
 62
     7
 10
998.6134480157128
 20
63.50000000000006
 30
0.0
 40
1.500000000000016
 50
76.50660117844791
 51
103.4933988215514
210
0.0
220
0.0
230
-1.0
  0
LINE
  5
62
  8
0
  6
________________
 62
     7
 10
-998.9634480157129
 20
63.85000000000004
 30
0.0
 11
-998.9634480157129
 21
64.95859521458155
 31
0.0
  0
LINE
  5
63
  8
0
  6
________________
 62
     7
 10
-1000.072043230294
 20
63.85000000000007
 30
0.0
 11
-998.9634480157127
 21
63.85000000000004
 31
0.0
  0
ARC
  5
64
  8
0
  6
________________
 62
     7
 10
998.6134480157128
 20
63.50000000000006
 30
0.0
 40
1.499999999999993
 50
346.5066011784484
 51
13.49339882155141
210
0.0
220
0.0
230
-1.0
  0
LINE
  5
65
  8
0
  6
________________
 62
     7
 10
-998.9634480157129
 20
63.15000000000006
 30
0.0
 11
-1000.072043230294
 21
63.15000000000006
 31
0.0
  0
LINE
  5
66
  8
0
  6
________________
 62
     7
 10
-998.9634480157129
 20
62.04140478541859
 30
0.0
 11
-998.9634480157129
 21
63.15000000000006
 31
0.0
  0
ARC
  5
67
  8
0
  6
________________
 62
     7
 10
998.6134480157128
 20
63.50000000000006
 30
0.0
 40
1.49999999999999
 50
256.5066011784485
 51
283.4933988215519
210
0.0
220
0.0
230
-1.0
  0
LINE
  5
68
  8
0
  6
________________
 62
     7
 10
-998.2634480157128
 20
63.15000000000006
 30
0.0
 11
-998.2634480157128
 21
62.04140478541859
 31
0.0
  0
LINE
  5
69
  8
0
  6
________________
 62
     7
 10
-997.1548528011314
 20
63.15000000000006
 30
0.0
 11
-998.2634480157128
 21
63.15000000000006
 31
0.0
  0
ARC
  5
6A
  8
0
  6
________________
 62
     7
 10
998.6134480157128
 20
63.50000000000006
 30
0.0
 40
1.5
 50
166.5066011784484
 51
193.4933988215517
210
0.0
220
0.0
230
-1.0
  0
LINE
  5
6B
  8
0
  6
________________
 62
     7
 10
-998.2634480157128
 20
63.85000000000004
 30
0.0
 11
-997.1548528011314
 21
63.85000000000007
 31
0.0
  0
CIRCLE
  5
6C
  8
0
  6
________________
 62
     7
 10
998.6134480157128
 20
63.50000000000006
 30
0.0
 40
2.799999999999979
210
0.0
220
0.0
230
-1.0
  0
ARC
  5
6D
  8
0
  6
________________
 62
     7
 10
-998.6134480157128
 20
63.50000000000006
 30
0.0
 40
0.7344081032030665
 50
151.5381003333585
 51
208.461899666642
  0
ARC
  5
6E
  8
0
  6
________________
 62
     7
 10
-998.6134480157128
 20
63.50000000000006
 30
0.0
 40
0.7344081032030697
 50
61.53810033335879
 51
118.4618996666427
  0
ARC
  5
6F
  8
0
  6
________________
 62
     7
 10
-998.6134480157128
 20
63.50000000000006
 30
0.0
 40
0.7344081032030454
 50
241.538100333358
 51
298.4618996666414
  0
ARC
  5
70
  8
0
  6
________________
 62
     7
 10
-998.6134480157128
 20
63.50000000000006
 30
0.0
 40
0.7344081032030665
 50
331.5381003333576
 51
28.46189966664218
  0
LINE
  5
71
  8
0
  6
________________
 62
     7
 10
-889.7749999999999
 20
-143.1499999999999
 30
0.0
 11
-1008.725
 21
-143.1499999999999
 31
0.0
  0
LINE
  5
72
  8
0
  6
________________
 62
     7
 10
-902.2749999999999
 20
-148.1499999999999
 30
0.0
 11
-996.2249999999999
 21
-148.1499999999999
 31
0.0
  0
LINE
  5
73
  8
0
  6
________________
 62
     7
 10
-951.555768372269
 20
-24.44999628325864
 30
0.0
 11
-951.5204243407741
 21
-19.64465056815493
 31
0.0
  0
LINE
  5
74
  8
0
  6
________________
 62
     7
 10
-950.4549022124302
 20
-24.44999628325864
 30
0.0
 11
-950.4087976757278
 21
-19.6446505681549
 31
0.0
  0
LINE
  5
75
  8
0
  6
________________
 62
     7
 10
-950.6701819763309
 20
-18.67788846103438
 30
0.0
 11
-950.2522028043533
 21
-18.66536603764346
 31
0.0
  0
POLYLINE
  5
76
  8
0
  6
________________
 62
     7
 10
0.0
 20
0.0
 30
0.0
 66
     1
 70
     8
  0
VERTEX
  5
77
  8
0
  6
________________
 62
     7
 10
-950.6701819763309
 20
-18.67788846103438
 30
0.0
 70
    32
  0
VERTEX
  5
78
  8
0
  6
________________
 62
     7
 10
-950.7178142614546
 20
-18.68814149896147
 30
0.0
 70
    32
  0
VERTEX
  5
79
  8
0
  6
________________
 62
     7
 10
-950.765161815095
 20
-18.7003399508732
 30
0.0
 70
    32
  0
VERTEX
  5
7A
  8
0
  6
________________
 62
     7
 10
-950.8120587611271
 20
-18.71451123380871
 30
0.0
 70
    32
  0
VERTEX
  5
7B
  8
0
  6
________________
 62
     7
 10
-950.85848752141
 20
-18.73071924953904
 30
0.0
 70
    32
  0
VERTEX
  5
7C
  8
0
  6
________________
 62
     7
 10
-950.8991688633786
 20
-18.74681998905767
 30
0.0
 70
    32
  0
VERTEX
  5
7D
  8
0
  6
________________
 62
     7
 10
-950.9392626744715
 20
-18.76454292946628
 30
0.0
 70
    32
  0
VERTEX
  5
7E
  8
0
  6
________________
 62
     7
 10
-950.9788169524818
 20
-18.78396042770761
 30
0.0
 70
    32
  0
VERTEX
  5
7F
  8
0
  6
________________
 62
     7
 10
-951.017626929118
 20
-18.80502321539776
 30
0.0
 70
    32
  0
VERTEX
  5
80
  8
0
  6
________________
 62
     7
 10
-951.0562620036825
 20
-18.82813693639493
 30
0.0
 70
    32
  0
VERTEX
  5
81
  8
0
  6
________________
 62
     7
 10
-951.0939593159826
 20
-18.8529450454844
 30
0.0
 70
    32
  0
VERTEX
  5
82
  8
0
  6
________________
 62
     7
 10
-951.1307671941986
 20
-18.87953685792229
 30
0.0
 70
    32
  0
VERTEX
  5
83
  8
0
  6
________________
 62
     7
 10
-951.1664529934624
 20
-18.90780281628704
 30
0.0
 70
    32
  0
VERTEX
  5
84
  8
0
  6
________________
 62
     7
 10
-951.1996631300146
 20
-18.93657142421745
 30
0.0
 70
    32
  0
VERTEX
  5
85
  8
0
  6
________________
 62
     7
 10
-951.231666950447
 20
-18.96683622652889
 30
0.0
 70
    32
  0
VERTEX
  5
86
  8
0
  6
________________
 62
     7
 10
-951.2625015959086
 20
-18.99868900068388
 30
0.0
 70
    32
  0
VERTEX
  5
87
  8
0
  6
________________
 62
     7
 10
-951.2919594322356
 20
-19.0319737444852
 30
0.0
 70
    32
  0
VERTEX
  5
88
  8
0
  6
________________
 62
     7
 10
-951.3205368450864
 20
-19.06739156884801
 30
0.0
 70
    32
  0
VERTEX
  5
89
  8
0
  6
________________
 62
     7
 10
-951.347513785339
 20
-19.10419976865066
 30
0.0
 70
    32
  0
VERTEX
  5
8A
  8
0
  6
________________
 62
     7
 10
-951.3729179609014
 20
-19.14250977926932
 30
0.0
 70
    32
  0
VERTEX
  5
8B
  8
0
  6
________________
 62
     7
 10
-951.3965455691025
 20
-19.1820921317615
 30
0.0
 70
    32
  0
VERTEX
  5
8C
  8
0
  6
________________
 62
     7
 10
-951.4158959850787
 20
-19.21809225460322
 30
0.0
 70
    32
  0
VERTEX
  5
8D
  8
0
  6
________________
 62
     7
 10
-951.433741854297
 20
-19.25496460142267
 30
0.0
 70
    32
  0
VERTEX
  5
8E
  8
0
  6
________________
 62
     7
 10
-951.4502313139329
 20
-19.29313222393903
 30
0.0
 70
    32
  0
VERTEX
  5
8F
  8
0
  6
________________
 62
     7
 10
-951.4650563887186
 20
-19.33199304068861
 30
0.0
 70
    32
  0
VERTEX
  5
90
  8
0
  6
________________
 62
     7
 10
-951.4782771592802
 20
-19.37178668443065
 30
0.0
 70
    32
  0
VERTEX
  5
91
  8
0
  6
________________
 62
     7
 10
-951.4897414948751
 20
-19.41213389253715
 30
0.0
 70
    32
  0
VERTEX
  5
92
  8
0
  6
________________
 62
     7
 10
-951.49955260751
 20
-19.4535730081557
 30
0.0
 70
    32
  0
VERTEX
  5
93
  8
0
  6
________________
 62
     7
 10
-951.50751577347
 20
-19.49550428971106
 30
0.0
 70
    32
  0
VERTEX
  5
94
  8
0
  6
________________
 62
     7
 10
-951.5129288441182
 20
-19.53241940536984
 30
0.0
 70
    32
  0
VERTEX
  5
95
  8
0
  6
________________
 62
     7
 10
-951.5168985894402
 20
-19.56964053308641
 30
0.0
 70
    32
  0
VERTEX
  5
96
  8
0
  6
________________
 62
     7
 10
-951.5194008173087
 20
-19.60705050635037
 30
0.0
 70
    32
  0
VERTEX
  5
97
  8
0
  6
________________
 62
     7
 10
-951.5204243407741
 20
-19.64465056815493
 30
0.0
 70
    32
  0
SEQEND
  5
98
  8
0
  6
________________
 62
     7
  0
LINE
  5
99
  8
0
  6
________________
 62
     7
 10
-950.2522028043531
 20
-18.66536603764346
 30
0.0
 11
-950.2591203694493
 21
-18.67788846103432
 31
0.0
  0
LINE
  5
9A
  8
0
  6
________________
 62
     7
 10
-879.8273502691895
 20
-16.64999999999994
 30
0.0
 11
-1018.67264973081
 21
-16.64999999999994
 31
0.0
  0
LINE
  5
9B
  8
0
  6
________________
 62
     7
 10
-897.1105911814218
 20
-5.946366598678297
 30
0.0
 11
-897.1077513726601
 21
-5.951448761092977
 31
0.0
  0
LINE
  5
9C
  8
0
  6
________________
 62
     7
 10
-895.6921142634322
 20
-7.651400641698407
 30
0.0
 11
-895.6219234241419
 21
-7.65944980026139
 31
0.0
  0
LINE
  5
9D
  8
0
  6
________________
 62
     7
 10
-1002.878476143434
 20
-7.659516317352507
 30
0.0
 11
-1002.808160589784
 21
-7.651418174040885
 31
0.0
  0
LINE
  5
9E
  8
0
  6
________________
 62
     7
 10
-1001.514932281375
 20
-6.196257629069496
 30
0.0
 11
-1001.517738146183
 21
-6.201287022007755
 31
0.0
  0
LINE
  5
9F
  8
0
  6
________________
 62
     7
 10
-1001.392248787659
 20
-5.951449081956664
 30
0.0
 11
-1001.389408734468
 21
-5.946366463191207
 31
0.0
  0
LINE
  5
A0
  8
0
  6
________________
 62
     7
 10
-896.9822616921239
 20
-6.201287345767664
 30
0.0
 11
-896.9850923975723
 21
-6.196217804907788
 31
0.0
  0
LINE
  5
A1
  8
0
  6
________________
 62
     7
 10
-895.7361979562658
 20
-7.649999999999962
 30
0.0
 11
-891.7361979562658
 21
-7.649999999999962
 31
0.0
  0
LINE
  5
A2
  8
0
  6
________________
 62
     7
 10
-1006.763802043734
 20
-7.649999999999962
 30
0.0
 11
-1002.763802043734
 21
-7.649999999999962
 31
0.0
  0
LINE
  5
A3
  8
0
  6
________________
 62
     7
 10
-1018.75
 20
-31.14999999999993
 30
0.0
 11
-879.7499999999998
 21
-31.14999999999993
 31
0.0
  0
LINE
  5
A4
  8
0
  6
________________
 62
     7
 10
-995.3190771067178
 20
-24.64999999999995
 30
0.0
 11
-903.1809228932818
 21
-24.64999999999995
 31
0.0
  0
LINE
  5
A5
  8
0
  6
________________
 62
     7
 10
-1009.026076938781
 20
-108.65
 30
0.0
 11
-1008.725
 21
-143.1499999999999
 31
0.0
  0
LINE
  5
A6
  8
0
  6
________________
 62
     7
 10
-889.7749999999999
 20
-143.1499999999999
 30
0.0
 11
-889.4739230612188
 21
-108.6499999999999
 31
0.0
  0
LINE
  5
A7
  8
0
  6
________________
 62
     7
 10
-996.2686343389536
 20
-143.1499999999999
 30
0.0
 11
-996.2249999999998
 21
-148.1499999999999
 31
0.0
  0
LINE
  5
A8
  8
0
  6
________________
 62
     7
 10
-902.2749999999999
 20
-148.1499999999999
 30
0.0
 11
-902.231365661046
 21
-143.1499999999999
 31
0.0
  0
LINE
  5
A9
  8
0
  6
________________
 62
     7
 10
-1019.25
 20
-33.64999999999993
 30
0.0
 11
-1018.937139618548
 21
-69.50024878954217
 31
0.0
  0
LINE
  5
AA
  8
0
  6
________________
 62
     7
 10
-879.562860381452
 20
-69.50024878954217
 30
0.0
 11
-879.2499999999999
 21
-33.64999999999993
 31
0.0
  0
ARC
  5
AB
  8
0
  6
________________
 62
     7
 10
-1001.937786926457
 20
-69.35189768607123
 30
0.0
 40
17.0
 50
180.4999999999953
 51
220.0
  0
ARC
  5
AC
  8
0
  6
________________
 62
     7
 10
-896.5622130735429
 20
-69.35189768607123
 30
0.0
 40
16.99999999999999
 50
320.0
 51
359.5000000000047
  0
LINE
  5
AD
  8
0
  6
________________
 62
     7
 10
-1014.960542459479
 20
-80.27928705074238
 30
0.0
 11
-1014.909774434489
 21
-80.33979002691385
 31
0.0
  0
LINE
  5
AE
  8
0
  6
________________
 62
     7
 10
-883.5902255655109
 20
-80.33979002691385
 30
0.0
 11
-883.5394575405203
 21
-80.27928705074238
 31
0.0
  0
ARC
  5
AF
  8
0
  6
________________
 62
     7
 10
1027.932529967512
 20
-91.26717939158505
 30
0.0
 40
17.00000000000001
 50
139.9999999999999
 51
179.5
210
0.0
220
0.0
230
-1.0
  0
ARC
  5
B0
  8
0
  6
________________
 62
     7
 10
870.5674700324884
 20
-91.26717939158505
 30
0.0
 40
17.0
 50
0.4999999999999998
 51
40.00000000000007
210
0.0
220
0.0
230
-1.0
  0
ARC
  5
B1
  8
0
  6
________________
 62
     7
 10
-888.2154705476233
 20
-108.1499999999999
 30
0.0
 40
0.5000000000000004
 50
269.9999999999999
 51
359.5000000000342
  0
ARC
  5
B2
  8
0
  6
________________
 62
     7
 10
-1010.284529452376
 20
-108.1499999999999
 30
0.0
 40
0.4999999999999989
 50
180.4999999999658
 51
270.0000000000001
  0
LINE
  5
B3
  8
0
  6
________________
 62
     7
 10
-946.8940227900846
 20
-24.44999999999994
 30
0.0
 11
-946.9359584392647
 21
-19.64465056815487
 31
0.0
  0
LINE
  5
B4
  8
0
  6
________________
 62
     7
 10
-951.5640415607353
 20
-19.64465056815493
 30
0.0
 11
-951.6059772099153
 21
-24.44999999999994
 31
0.0
  0
ARC
  5
B5
  8
0
  6
________________
 62
     7
 10
-950.5640796376711
 20
-19.65337710365325
 30
0.0
 40
1.000000000000001
 50
90.00000000000001
 51
179.5000000000011
  0
ARC
  5
B6
  8
0
  6
________________
 62
     7
 10
-947.9359203623288
 20
-19.65337710365325
 30
0.0
 40
1.000000000000003
 50
0.500000000000483
 51
90.0000000000004
  0
LINE
  5
B7
  8
0
  6
________________
 62
     7
 10
-879.8273502691895
 20
-16.64999999999994
 30
0.0
 11
-879.8273502691895
 21
-15.7839745962155
 31
0.0
  0
LINE
  5
B8
  8
0
  6
________________
 62
     7
 10
-1018.67264973081
 20
-15.7839745962155
 30
0.0
 11
-1018.67264973081
 21
-16.64999999999994
 31
0.0
  0
ARC
  5
B9
  8
0
  6
________________
 62
     7
 10
-1018.17264973081
 20
-15.7839745962155
 30
0.0
 40
0.500000000000002
 50
150.0000000000008
 51
180.0
  0
ARC
  5
BA
  8
0
  6
________________
 62
     7
 10
-880.3273502691895
 20
-15.7839745962155
 30
0.0
 40
0.5000000000000004
 50
0.0000000000000005
 51
29.99999999999919
  0
LINE
  5
BB
  8
0
  6
________________
 62
     7
 10
-879.8943375672973
 20
-15.5339745962155
 30
0.0
 11
-885.4564120240389
 21
-5.90017904165799
 31
0.0
  0
LINE
  5
BC
  8
0
  6
________________
 62
     7
 10
-1013.043587975961
 20
-5.900179041657988
 30
0.0
 11
-1018.605662432702
 21
-15.5339745962155
 31
0.0
  0
ARC
  5
BD
  8
0
  6
________________
 62
     7
 10
-988.1577322857636
 20
-12.35116159008226
 30
0.0
 40
14.70029464613065
 50
114.7546381098354
 51
154.1706898747631
  0
ARC
  5
BE
  8
0
  6
________________
 62
     7
 10
-910.3522970336604
 20
-12.36138081161181
 30
0.0
 40
14.71377521785675
 50
25.84811276697661
 51
65.22655924842454
  0
LINE
  5
BF
  8
0
  6
________________
 62
     7
 10
-895.6274429547517
 20
-7.658555138626149
 30
0.0
 11
-895.7460125950287
 21
-7.628634924596228
 31
0.0
  0
ARC
  5
C0
  8
0
  6
________________
 62
     7
 10
893.769613329949
 20
-4.667150810215459
 30
0.0
 40
3.560413208426353
 50
303.7178715973381
 51
334.4798112107686
210
0.0
220
0.0
230
-1.0
  0
ARC
  5
C1
  8
0
  6
________________
 62
     7
 10
1004.684291743509
 20
-4.705474770433066
 30
0.0
 40
3.502475253299886
 50
205.1898435195802
 51
236.5660075590195
210
0.0
220
0.0
230
-1.0
  0
POLYLINE
  5
C2
  8
0
  6
________________
 62
     7
 10
0.0
 20
0.0
 30
0.0
 66
     1
 70
     8
  0
VERTEX
  5
C3
  8
0
  6
________________
 62
     7
 10
-1002.754512142435
 20
-7.628364366579238
 30
0.0
 70
    32
  0
VERTEX
  5
C4
  8
0
  6
________________
 62
     7
 10
-1002.851268122205
 20
-7.662495710995615
 30
0.0
 70
    32
  0
VERTEX
  5
C5
  8
0
  6
________________
 62
     7
 10
-1002.872557045248
 20
-7.658555138626122
 30
0.0
 70
    32
  0
SEQEND
  5
C6
  8
0
  6
________________
 62
     7
  0
LINE
  5
C7
  8
0
  6
________________
 62
     7
 10
-1001.392248670067
 20
-5.951448846606838
 30
0.0
 11
-1001.517738190637
 21
-6.201287111019221
 31
0.0
  0
ARC
  5
C8
  8
0
  6
________________
 62
     7
 10
-918.9469505618424
 20
-22.74228978117185
 30
0.0
 40
25.0
 50
89.6510055126178
 51
90.00000000000001
  0
ARC
  5
C9
  8
0
  6
________________
 62
     7
 10
-979.5530494381572
 20
-22.74228978117185
 30
0.0
 40
25.00000000000002
 50
90.0
 51
90.34899448738223
  0
ARC
  5
CA
  8
0
  6
________________
 62
     7
 10
-999.1871815154101
 20
-13.90017904165783
 30
0.0
 40
16.0
 50
90.57408459404316
 51
150.0000000000004
  0
ARC
  5
CB
  8
0
  6
________________
 62
     7
 10
-988.1478882290377
 20
-12.05265594680041
 30
0.0
 40
14.4339623385502
 50
101.9356988411646
 51
115.286297171887
  0
ARC
  5
CC
  8
0
  6
________________
 62
     7
 10
-910.3620568251102
 20
-12.08218832383887
 30
0.0
 40
14.46491346313327
 50
64.72805098776584
 51
78.04995299918237
  0
ARC
  5
CD
  8
0
  6
________________
 62
     7
 10
-899.3128184845897
 20
-13.90017904165783
 30
0.0
 40
16.00000000000001
 50
29.99999999999962
 51
89.42591540595687
  0
LINE
  5
CE
  8
0
  6
________________
 62
     7
 10
-879.2499999999999
 20
-33.64999999999996
 30
0.0
 11
-879.2499999999999
 21
-31.64999999999996
 31
0.0
  0
LINE
  5
CF
  8
0
  6
________________
 62
     7
 10
-1019.25
 20
-31.64999999999996
 30
0.0
 11
-1019.25
 21
-33.64999999999996
 31
0.0
  0
ARC
  5
D0
  8
0
  6
________________
 62
     7
 10
-1018.75
 20
-31.64999999999996
 30
0.0
 40
0.5000000000000004
 50
90.0
 51
180.0
  0
ARC
  5
D1
  8
0
  6
________________
 62
     7
 10
-879.7499999999998
 20
-31.64999999999996
 30
0.0
 40
0.5000000000000004
 50
0.0000000000000005
 51
90.0
  0
ARC
  5
D2
  8
0
  6
________________
 62
     7
 10
906.2424726046623
 20
-28.14999999999992
 30
0.0
 40
2.999999999999993
 50
180.9999999999997
 51
270.0
210
0.0
220
0.0
230
-1.0
  0
ARC
  5
D3
  8
0
  6
________________
 62
     7
 10
893.5306313639113
 20
-28.14999999999992
 30
0.0
 40
3.000000000000003
 50
270.0
 51
359.0000000000003
210
0.0
220
0.0
230
-1.0
  0
ARC
  5
D4
  8
0
  6
________________
 62
     7
 10
1004.969368636088
 20
-28.14999999999992
 30
0.0
 40
2.999999999999993
 50
180.9999999999997
 51
270.0
210
0.0
220
0.0
230
-1.0
  0
ARC
  5
D5
  8
0
  6
________________
 62
     7
 10
992.2575273953373
 20
-28.14999999999992
 30
0.0
 40
3.000000000000003
 50
270.0
 51
359.0000000000003
210
0.0
220
0.0
230
-1.0
  0
LINE
  5
D6
  8
0
  6
________________
 62
     7
 10
-896.5301744493805
 20
-28.20235721931178
 30
0.0
 11
-896.7318215947176
 21
-16.64999999999994
 31
0.0
  0
LINE
  5
D7
  8
0
  6
________________
 62
     7
 10
-903.0412823738561
 20
-16.64999999999994
 30
0.0
 11
-903.2429295191932
 21
-28.20235721931178
 31
0.0
  0
LINE
  5
D8
  8
0
  6
________________
 62
     7
 10
-995.2570704808065
 20
-28.20235721931178
 30
0.0
 11
-995.4587176261437
 21
-16.64999999999994
 31
0.0
  0
LINE
  5
D9
  8
0
  6
________________
 62
     7
 10
-1001.768178405282
 20
-16.64999999999994
 30
0.0
 11
-1001.969825550619
 21
-28.20235721931178
 31
0.0
  0
LINE
  5
DA
  8
0
  6
________________
 62
     7
 10
-945.9591201039905
 20
-24.44999999999994
 30
0.0
 11
-946.0952696104306
 21
-16.64999999999997
 31
0.0
  0
LINE
  5
DB
  8
0
  6
________________
 62
     7
 10
-952.4047303895692
 20
-16.64999999999997
 30
0.0
 11
-952.5408798960093
 21
-24.44999999999994
 31
0.0
  0
LINE
  5
DC
  8
0
  6
________________
 62
     7
 10
-904.7482546264417
 20
-24.64999999999995
 30
0.0
 11
-904.7499999999998
 21
-24.44999999999994
 31
0.0
  0
LINE
  5
DD
  8
0
  6
________________
 62
     7
 10
-993.7499999999999
 20
-24.44999999999994
 30
0.0
 11
-993.751745373558
 21
-24.64999999999995
 31
0.0
  0
INSERT
  5
E1
  8
0
  6
________________
 62
     7
  2
_22959
 10
0.0
 20
0.0
 30
0.0
  0
ARC
  5
E2
  8
0
  6
________________
 62
     9
 10
-949.2499999999999
 20
92.00000000000006
 30
0.0
 40
50.0974934945929
 50
213.7612031514427
 51
326.2387968485573
  0
ARC
  5
E3
  8
0
  6
________________
 62
     9
 10
901.0171118214732
 20
64.82004042452662
 30
0.0
 40
6.616872141192459
 50
300.032300864911
 51
354.2680213257629
210
0.0
220
0.0
230
-1.0
  0
LINE
  5
E4
  8
0
  6
________________
 62
     9
 10
-897.2961222221065
 20
54.9808637231172
 30
0.0
 11
-904.3287779044475
 21
59.09152711933413
 31
0.0
  0
LINE
  5
E5
  8
0
  6
________________
 62
     9
 10
-994.1712220955523
 20
59.09152711933416
 30
0.0
 11
-1001.203877777893
 21
54.9808637231172
 31
0.0
  0
ARC
  5
E6
  8
0
  6
________________
 62
     9
 10
997.4666752740301
 20
64.80957194928793
 30
0.0
 40
6.599700624187474
 50
185.655608012176
 51
240.04406979715
210
0.0
220
0.0
230
-1.0
  0
POLYLINE
  5
E7
  8
0
  6
________________
 62
     9
 66
     1
 10
0.0
 20
0.0
 30
0.0
  0
VERTEX
  5
208
  8
0
  6
________________
 62
     9
 10
-907.6008994784398
 20
64.15917960645278
 30
0.0
  0
VERTEX
  5
209
  8
0
  6
________________
 62
     9
 10
-907.4072591595126
 20
64.17014041097691
 30
0.0
  0
VERTEX
  5
20A
  8
0
  6
________________
 62
     9
 10
-907.2213017764822
 20
64.18089607967723
 30
0.0
  0
VERTEX
  5
20B
  8
0
  6
________________
 62
     9
 10
-907.0501011406565
 20
64.19103746735261
 30
0.0
  0
VERTEX
  5
20C
  8
0
  6
________________
 62
     9
 10
-906.9001697172782
 20
64.20017879602726
 30
0.0
  0
VERTEX
  5
20D
  8
0
  6
________________
 62
     9
 10
-906.7772108916114
 20
64.20797232992913
 30
0.0
  0
VERTEX
  5
20E
  8
0
  6
________________
 62
     9
 10
-906.6859020123973
 20
64.21412160334475
 30
0.0
  0
VERTEX
  5
20F
  8
0
  6
________________
 62
     9
 10
-906.6297164656974
 20
64.21839269816277
 30
0.0
  0
VERTEX
  5
210
  8
0
  6
________________
 62
     9
 10
-906.6107915474294
 20
64.22062314210957
 30
0.0
  0
SEQEND
  5
211
  8
0
  6
________________
 62
     9
  0
POLYLINE
  5
E8
  8
0
  6
________________
 62
     9
 66
     1
 10
0.0
 20
0.0
 30
0.0
  0
VERTEX
  5
212
  8
0
  6
________________
 62
     9
 10
-904.3287779044475
 20
59.09152711933415
 30
0.0
  0
VERTEX
  5
213
  8
0
  6
________________
 62
     9
 10
-904.2323580661415
 20
59.26737690039732
 30
0.0
  0
VERTEX
  5
214
  8
0
  6
________________
 62
     9
 10
-904.1515245500144
 20
59.44469840050892
 30
0.0
  0
VERTEX
  5
215
  8
0
  6
________________
 62
     9
 10
-904.089539270447
 20
59.61633607851589
 30
0.0
  0
VERTEX
  5
216
  8
0
  6
________________
 62
     9
 10
-904.0489035497183
 20
59.77536375531631
 30
0.0
  0
VERTEX
  5
217
  8
0
  6
________________
 62
     9
 10
-904.0312571809261
 20
59.9153641093496
 30
0.0
  0
VERTEX
  5
218
  8
0
  6
________________
 62
     9
 10
-904.0373122566144
 20
60.03068763790968
 30
0.0
  0
VERTEX
  5
219
  8
0
  6
________________
 62
     9
 10
-904.0668244333546
 20
60.11668063428863
 30
0.0
  0
VERTEX
  5
21A
  8
0
  6
________________
 62
     9
 10
-904.1186027918558
 20
60.16987298107781
 30
0.0
  0
SEQEND
  5
21B
  8
0
  6
________________
 62
     9
  0
POLYLINE
  5
E9
  8
0
  6
________________
 62
     9
 66
     1
 10
0.0
 20
0.0
 30
0.0
  0
VERTEX
  5
21C
  8
0
  6
________________
 62
     9
 10
-999.381397208144
 20
68.83012701892224
 30
0.0
  0
VERTEX
  5
21D
  8
0
  6
________________
 62
     9
 10
-999.4533523110009
 20
68.81188181848853
 30
0.0
  0
VERTEX
  5
21E
  8
0
  6
________________
 62
     9
 10
-999.5425805187828
 20
68.82932002190003
 30
0.0
  0
VERTEX
  5
21F
  8
0
  6
________________
 62
     9
 10
-999.645481162014
 20
68.88173793681223
 30
0.0
  0
VERTEX
  5
220
  8
0
  6
________________
 62
     9
 10
-999.7579018407496
 20
68.96702031748744
 30
0.0
  0
VERTEX
  5
221
  8
0
  6
________________
 62
     9
 10
-999.8753059883992
 20
69.08172572233977
 30
0.0
  0
VERTEX
  5
222
  8
0
  6
________________
 62
     9
 10
-999.992955938016
 20
69.2212253881094
 30
0.0
  0
VERTEX
  5
223
  8
0
  6
________________
 62
     9
 10
-1000.106104103686
 20
69.37989001660843
 30
0.0
  0
VERTEX
  5
224
  8
0
  6
________________
 62
     9
 10
-1000.210184562184
 20
69.55131693654181
 30
0.0
  0
SEQEND
  5
225
  8
0
  6
________________
 62
     9
  0
ARC
  5
EA
  8
0
  6
________________
 62
     9
 10
996.9049795554572
 20
63.81907332723841
 30
0.0
 40
6.616872141192622
 50
60.03230086491179
 51
114.2680213257624
210
0.0
220
0.0
230
-1.0
  0
POLYLINE
  5
EB
  8
0
  6
________________
 62
     9
 66
     1
 10
0.0
 20
0.0
 30
0.0
  0
VERTEX
  5
226
  8
0
  6
________________
 62
     9
 10
-994.6272502865197
 20
68.96305071175901
 30
0.0
  0
VERTEX
  5
227
  8
0
  6
________________
 62
     9
 10
-994.6197194485055
 20
68.98055539371694
 30
0.0
  0
VERTEX
  5
228
  8
0
  6
________________
 62
     9
 10
-994.5953255517699
 20
69.03134905189349
 30
0.0
  0
VERTEX
  5
229
  8
0
  6
________________
 62
     9
 10
-994.5549965391555
 20
69.11349949759186
 30
0.0
  0
VERTEX
  5
22A
  8
0
  6
________________
 62
     9
 10
-994.5002665246665
 20
69.22388173118972
 30
0.0
  0
VERTEX
  5
22B
  8
0
  6
________________
 62
     9
 10
-994.433217435834
 20
69.35829681699819
 30
0.0
  0
VERTEX
  5
22C
  8
0
  6
________________
 62
     9
 10
-994.3563998172774
 20
69.51163161060508
 30
0.0
  0
VERTEX
  5
22D
  8
0
  6
________________
 62
     9
 10
-994.2727358080914
 20
69.6780532626809
 30
0.0
  0
VERTEX
  5
22E
  8
0
  6
________________
 62
     9
 10
-994.1854079837916
 20
69.85123110033086
 30
0.0
  0
SEQEND
  5
22F
  8
0
  6
________________
 62
     9
  0
LINE
  5
EC
  8
0
  6
________________
 62
     9
 10
-898.2898154378157
 20
69.55131693654174
 30
0.0
 11
-891.2135486691145
 21
65.51619015767396
 31
0.0
  0
ARC
  5
ED
  8
0
  6
________________
 62
     9
 10
901.5940609312951
 20
63.83834835202099
 30
0.0
 40
6.59970062418741
 50
65.65560801217593
 51
120.0440697971505
210
0.0
220
0.0
230
-1.0
  0
ARC
  5
EE
  8
0
  6
________________
 62
     9
 10
-949.2499999999999
 20
92.00000000000006
 30
0.0
 40
50.09749349459291
 50
333.7612031514427
 51
86.23879684855733
  0
ARC
  5
EF
  8
0
  6
________________
 62
     9
 10
949.827908623069
 20
147.3608862482349
 30
0.0
 40
6.616872141192303
 50
180.0323008649105
 51
234.2680213257636
210
0.0
220
0.0
230
-1.0
  0
LINE
  5
F0
  8
0
  6
________________
 62
     9
 10
-943.1674264470079
 20
155.502946119209
 30
0.0
 11
-943.2110375333681
 21
147.3571559441242
 31
0.0
  0
POLYLINE
  5
F1
  8
0
  6
________________
 62
     9
 66
     1
 10
0.0
 20
0.0
 30
0.0
  0
VERTEX
  5
230
  8
0
  6
________________
 62
     9
 10
-944.2499999999999
 20
147.0000000000001
 30
0.0
  0
VERTEX
  5
231
  8
0
  6
________________
 62
     9
 10
-944.2298232556442
 20
147.071437547223
 30
0.0
  0
VERTEX
  5
232
  8
0
  6
________________
 62
     9
 10
-944.1701072246025
 20
147.1399923401904
 30
0.0
  0
VERTEX
  5
233
  8
0
  6
________________
 62
     9
 10
-944.0732616570596
 20
147.2028979538383
 30
0.0
  0
VERTEX
  5
234
  8
0
  6
________________
 62
     9
 10
-943.9431946095318
 20
147.2576159271964
 30
0.0
  0
VERTEX
  5
235
  8
0
  6
________________
 62
     9
 10
-943.7851547411535
 20
147.3019381991445
 30
0.0
  0
VERTEX
  5
236
  8
0
  6
________________
 62
     9
 10
-943.6055195119692
 20
147.3340762113818
 30
0.0
  0
VERTEX
  5
237
  8
0
  6
________________
 62
     9
 10
-943.4115378301718
 20
147.3527330829944
 30
0.0
  0
VERTEX
  5
238
  8
0
  6
________________
 62
     9
 10
-943.2110375333682
 20
147.3571559441242
 30
0.0
  0
SEQEND
  5
239
  8
0
  6
________________
 62
     9
  0
POLYLINE
  5
F2
  8
0
  6
________________
 62
     9
 66
     1
 10
0.0
 20
0.0
 30
0.0
  0
VERTEX
  5
23A
  8
0
  6
________________
 62
     9
 10
-946.5119581660505
 20
142.8163261461315
 30
0.0
  0
VERTEX
  5
23B
  8
0
  6
________________
 62
     9
 10
-946.5005640857969
 20
142.8010519081204
 30
0.0
  0
VERTEX
  5
23C
  8
0
  6
________________
 62
     9
 10
-946.4687724358325
 20
142.7545293447619
 30
0.0
  0
VERTEX
  5
23D
  8
0
  6
________________
 62
     9
 10
-946.4177925692328
 20
142.6785281724791
 30
0.0
  0
VERTEX
  5
23E
  8
0
  6
________________
 62
     9
 10
-946.3495637580552
 20
142.5759394727831
 30
0.0
  0
VERTEX
  5
23F
  8
0
  6
________________
 62
     9
 10
-946.2666814235095
 20
142.4506657156493
 30
0.0
  0
VERTEX
  5
240
  8
0
  6
________________
 62
     9
 10
-946.17229840624
 20
142.3074723097178
 30
0.0
  0
VERTEX
  5
241
  8
0
  6
________________
 62
     9
 10
-946.0700050323957
 20
142.1518063263423
 30
0.0
  0
VERTEX
  5
242
  8
0
  6
________________
 62
     9
 10
-945.9636925377681
 20
141.9895892932165
 30
0.0
  0
SEQEND
  5
243
  8
0
  6
________________
 62
     9
  0
ARC
  5
F3
  8
0
  6
________________
 62
     9
 10
-949.2499999999999
 20
92.00000000000006
 30
0.0
 40
50.09749349459288
 50
93.76120315144269
 51
206.2387968485573
  0
LINE
  5
F4
  8
0
  6
________________
 62
     9
 10
-1007.286451330885
 20
65.51619015767399
 30
0.0
 11
-1000.210184562184
 21
69.55131693654177
 31
0.0
  0
LINE
  5
F5
  8
0
  6
________________
 62
     9
 10
-955.2889624666316
 20
147.3571559441242
 30
0.0
 11
-955.3325735529918
 21
155.502946119209
 31
0.0
  0
ARC
  5
F6
  8
0
  6
________________
 62
     9
 10
948.6892637946746
 20
147.3520796986912
 30
0.0
 40
6.599700624187297
 50
305.6556080121752
 51
0.0440697971504846
210
0.0
220
0.0
230
-1.0
  0
POLYLINE
  5
F7
  8
0
  6
________________
 62
     9
 66
     1
 10
0.0
 20
0.0
 30
0.0
  0
VERTEX
  5
244
  8
0
  6
________________
 62
     9
 10
-991.8892084525704
 20
64.22062314210962
 30
0.0
  0
VERTEX
  5
245
  8
0
  6
________________
 62
     9
 10
-991.8702835343025
 20
64.21839269816282
 30
0.0
  0
VERTEX
  5
246
  8
0
  6
________________
 62
     9
 10
-991.8140979876027
 20
64.2141216033448
 30
0.0
  0
VERTEX
  5
247
  8
0
  6
________________
 62
     9
 10
-991.7227891083886
 20
64.20797232992918
 30
0.0
  0
VERTEX
  5
248
  8
0
  6
________________
 62
     9
 10
-991.5998302827218
 20
64.2001787960273
 30
0.0
  0
VERTEX
  5
249
  8
0
  6
________________
 62
     9
 10
-991.4498988593435
 20
64.19103746735266
 30
0.0
  0
VERTEX
  5
24A
  8
0
  6
________________
 62
     9
 10
-991.2786982235177
 20
64.18089607967727
 30
0.0
  0
VERTEX
  5
24B
  8
0
  6
________________
 62
     9
 10
-991.0927408404873
 20
64.17014041097694
 30
0.0
  0
VERTEX
  5
24C
  8
0
  6
________________
 62
     9
 10
-990.89910052156
 20
64.15917960645281
 30
0.0
  0
SEQEND
  5
24D
  8
0
  6
________________
 62
     9
  0
LINE
  5
F8
  8
0
  6
________________
 62
     9
 10
-994.381397208144
 20
60.16987298107784
 30
0.0
 11
-994.39691210829
 21
60.15933297234534
 31
0.0
  0
POLYLINE
  5
F9
  8
0
  6
________________
 62
     9
 66
     1
 10
0.0
 20
0.0
 30
0.0
  0
VERTEX
  5
24E
  8
0
  6
________________
 62
     9
 10
-994.39691210829
 20
60.15933297234533
 30
0.0
  0
VERTEX
  5
24F
  8
0
  6
________________
 62
     9
 10
-994.4419103551021
 20
60.09988069534408
 30
0.0
  0
VERTEX
  5
250
  8
0
  6
________________
 62
     9
 10
-994.465732840693
 20
60.01035489139098
 30
0.0
  0
VERTEX
  5
251
  8
0
  6
________________
 62
     9
 10
-994.4674795696403
 20
59.89413777740268
 30
0.0
  0
VERTEX
  5
252
  8
0
  6
________________
 62
     9
 10
-994.4470845518503
 20
59.75561994772826
 30
0.0
  0
VERTEX
  5
253
  8
0
  6
________________
 62
     9
 10
-994.4053182956135
 20
59.6000345008275
 30
0.0
  0
VERTEX
  5
254
  8
0
  6
________________
 62
     9
 10
-994.3437586983871
 20
59.43325933678345
 30
0.0
  0
VERTEX
  5
255
  8
0
  6
________________
 62
     9
 10
-994.264731435026
 20
59.26159509469899
 30
0.0
  0
VERTEX
  5
256
  8
0
  6
________________
 62
     9
 10
-994.1712220955523
 20
59.09152711933417
 30
0.0
  0
SEQEND
  5
257
  8
0
  6
________________
 62
     9
  0
POLYLINE
  5
FA
  8
0
  6
________________
 62
     9
 66
     1
 10
0.0
 20
0.0
 30
0.0
  0
VERTEX
  5
258
  8
0
  6
________________
 62
     9
 10
-898.2898154378156
 20
69.55131693654175
 30
0.0
  0
VERTEX
  5
259
  8
0
  6
________________
 62
     9
 10
-898.3938958963133
 20
69.37989001660837
 30
0.0
  0
VERTEX
  5
25A
  8
0
  6
________________
 62
     9
 10
-898.5070440619836
 20
69.22122538810933
 30
0.0
  0
VERTEX
  5
25B
  8
0
  6
________________
 62
     9
 10
-898.6246940116005
 20
69.08172572233971
 30
0.0
  0
VERTEX
  5
25C
  8
0
  6
________________
 62
     9
 10
-898.7420981592501
 20
68.96702031748737
 30
0.0
  0
VERTEX
  5
25D
  8
0
  6
________________
 62
     9
 10
-898.8545188379857
 20
68.88173793681217
 30
0.0
  0
VERTEX
  5
25E
  8
0
  6
________________
 62
     9
 10
-898.9574194812169
 20
68.82932002189997
 30
0.0
  0
VERTEX
  5
25F
  8
0
  6
________________
 62
     9
 10
-899.0466476889987
 20
68.81188181848847
 30
0.0
  0
VERTEX
  5
260
  8
0
  6
________________
 62
     9
 10
-899.1186027918557
 20
68.83012701892218
 30
0.0
  0
SEQEND
  5
261
  8
0
  6
________________
 62
     9
  0
POLYLINE
  5
FB
  8
0
  6
________________
 62
     9
 66
     1
 10
0.0
 20
0.0
 30
0.0
  0
VERTEX
  5
262
  8
0
  6
________________
 62
     9
 10
-904.314592016208
 20
69.85123110033085
 30
0.0
  0
VERTEX
  5
263
  8
0
  6
________________
 62
     9
 10
-904.2272641919084
 20
69.67805326268113
 30
0.0
  0
VERTEX
  5
264
  8
0
  6
________________
 62
     9
 10
-904.1436001827225
 20
69.51163161060552
 30
0.0
  0
VERTEX
  5
265
  8
0
  6
________________
 62
     9
 10
-904.066782564166
 20
69.35829681699879
 30
0.0
  0
VERTEX
  5
266
  8
0
  6
________________
 62
     9
 10
-903.9997334753335
 20
69.2238817311904
 30
0.0
  0
VERTEX
  5
267
  8
0
  6
________________
 62
     9
 10
-903.9450034608445
 20
69.11349949759251
 30
0.0
  0
VERTEX
  5
268
  8
0
  6
________________
 62
     9
 10
-903.90467444823
 20
69.03134905189403
 30
0.0
  0
VERTEX
  5
269
  8
0
  6
________________
 62
     9
 10
-903.8802805514944
 20
68.98055539371725
 30
0.0
  0
VERTEX
  5
26A
  8
0
  6
________________
 62
     9
 10
-903.87274971348
 20
68.96305071175898
 30
0.0
  0
SEQEND
  5
26B
  8
0
  6
________________
 62
     9
  0
POLYLINE
  5
FC
  8
0
  6
________________
 62
     9
 66
     1
 10
0.0
 20
0.0
 30
0.0
  0
VERTEX
  5
26C
  8
0
  6
________________
 62
     9
 10
-951.9880418339493
 20
142.8163261461315
 30
0.0
  0
VERTEX
  5
26D
  8
0
  6
________________
 62
     9
 10
-951.9994359142029
 20
142.8010519081204
 30
0.0
  0
VERTEX
  5
26E
  8
0
  6
________________
 62
     9
 10
-952.0312275641671
 20
142.7545293447619
 30
0.0
  0
VERTEX
  5
26F
  8
0
  6
________________
 62
     9
 10
-952.082207430767
 20
142.6785281724791
 30
0.0
  0
VERTEX
  5
270
  8
0
  6
________________
 62
     9
 10
-952.1504362419446
 20
142.5759394727831
 30
0.0
  0
VERTEX
  5
271
  8
0
  6
________________
 62
     9
 10
-952.2333185764903
 20
142.4506657156493
 30
0.0
  0
VERTEX
  5
272
  8
0
  6
________________
 62
     9
 10
-952.3277015937598
 20
142.3074723097178
 30
0.0
  0
VERTEX
  5
273
  8
0
  6
________________
 62
     9
 10
-952.4299949676041
 20
142.1518063263423
 30
0.0
  0
VERTEX
  5
274
  8
0
  6
________________
 62
     9
 10
-952.5363074622317
 20
141.9895892932165
 30
0.0
  0
SEQEND
  5
275
  8
0
  6
________________
 62
     9
  0
POLYLINE
  5
FD
  8
0
  6
________________
 62
     9
 66
     1
 10
0.0
 20
0.0
 30
0.0
  0
VERTEX
  5
276
  8
0
  6
________________
 62
     9
 10
-954.2499999999999
 20
147.0000000000001
 30
0.0
  0
VERTEX
  5
277
  8
0
  6
________________
 62
     9
 10
-954.2701767443556
 20
147.071437547223
 30
0.0
  0
VERTEX
  5
278
  8
0
  6
________________
 62
     9
 10
-954.3298927753973
 20
147.1399923401904
 30
0.0
  0
VERTEX
  5
279
  8
0
  6
________________
 62
     9
 10
-954.4267383429402
 20
147.2028979538383
 30
0.0
  0
VERTEX
  5
27A
  8
0
  6
________________
 62
     9
 10
-954.556805390468
 20
147.2576159271964
 30
0.0
  0
VERTEX
  5
27B
  8
0
  6
________________
 62
     9
 10
-954.7148452588463
 20
147.3019381991445
 30
0.0
  0
VERTEX
  5
27C
  8
0
  6
________________
 62
     9
 10
-954.8944804880307
 20
147.3340762113818
 30
0.0
  0
VERTEX
  5
27D
  8
0
  6
________________
 62
     9
 10
-955.088462169828
 20
147.3527330829944
 30
0.0
  0
VERTEX
  5
27E
  8
0
  6
________________
 62
     9
 10
-955.2889624666316
 20
147.3571559441242
 30
0.0
  0
SEQEND
  5
27F
  8
0
  6
________________
 62
     9
  0
ARC
  5
FE
  8
0
  6
________________
 62
     9
 10
996.8911383675747
 20
64.49437593898047
 30
0.0
 40
6.001406012711779
 50
116.7981945378503
 51
183.2018054621495
210
0.0
220
0.0
230
-1.0
  0
CIRCLE
  5
FF
  8
0
  6
________________
 62
     9
 10
949.2499999999999
 20
92.00000000000006
 30
0.0
 40
30.45532606849993
210
0.0
220
0.0
230
-1.0
  0
ARC
  5
100
  8
0
  6
________________
 62
     9
 10
901.608861632425
 20
64.4943759389805
 30
0.0
 40
6.001406012711711
 50
356.79819453785
 51
63.20180546214987
210
0.0
220
0.0
230
-1.0
  0
ARC
  5
101
  8
0
  6
________________
 62
     9
 10
949.2499999999999
 20
147.0112481220391
 30
0.0
 40
6.001406012711669
 50
236.7981945378498
 51
303.2018054621502
210
0.0
220
0.0
230
-1.0
  0
CIRCLE
  5
102
  8
0
  6
________________
 62
     9
 10
-949.2499999999999
 20
92.00000000000006
 30
0.0
 40
12.62537990849423
  0
POLYLINE
  5
103
  8
0
  6
________________
 62
     9
 66
     1
 10
0.0
 20
0.0
 30
0.0
  0
VERTEX
  5
280
  8
0
  6
________________
 62
     9
 10
-954.2499999999999
 20
154.6408663036775
 30
0.0
  0
VERTEX
  5
281
  8
0
  6
________________
 62
     9
 10
-954.2712830055754
 20
154.8183839224822
 30
0.0
  0
VERTEX
  5
282
  8
0
  6
________________
 62
     9
 10
-954.3342260896491
 20
154.9883453243454
 30
0.0
  0
VERTEX
  5
283
  8
0
  6
________________
 62
     9
 10
-954.4361500162025
 20
155.1435159303401
 30
0.0
  0
VERTEX
  5
284
  8
0
  6
________________
 62
     9
 10
-954.5727162902415
 20
155.2772907467213
 30
0.0
  0
VERTEX
  5
285
  8
0
  6
________________
 62
     9
 10
-954.7381118302225
 20
155.3839755131632
 30
0.0
  0
VERTEX
  5
286
  8
0
  6
________________
 62
     9
 10
-954.925296407746
 20
155.4590290847077
 30
0.0
  0
VERTEX
  5
287
  8
0
  6
________________
 62
     9
 10
-955.1263023219983
 20
155.4992567301917
 30
0.0
  0
VERTEX
  5
288
  8
0
  6
________________
 62
     9
 10
-955.3325735529918
 20
155.5029461192087
 30
0.0
  0
SEQEND
  5
289
  8
0
  6
________________
 62
     9
  0
POLYLINE
  5
104
  8
0
  6
________________
 62
     9
 66
     1
 10
0.0
 20
0.0
 30
0.0
  0
VERTEX
  5
28A
  8
0
  6
________________
 62
     9
 10
-897.2961222221068
 20
54.98086372311732
 30
0.0
  0
VERTEX
  5
28B
  8
0
  6
________________
 62
     9
 10
-897.1961817112233
 20
55.16134454373606
 30
0.0
  0
VERTEX
  5
28C
  8
0
  6
________________
 62
     9
 10
-897.1305169170206
 20
55.35553459453142
 30
0.0
  0
VERTEX
  5
28D
  8
0
  6
________________
 62
     9
 10
-897.1019229278611
 20
55.55516797963583
 30
0.0
  0
VERTEX
  5
28E
  8
0
  6
________________
 62
     9
 10
-897.1116168758061
 20
55.75174710215286
 30
0.0
  0
VERTEX
  5
28F
  8
0
  6
________________
 62
     9
 10
-897.1591861281593
 20
55.93690437296137
 30
0.0
  0
VERTEX
  5
290
  8
0
  6
________________
 62
     9
 10
-897.2426058515947
 20
56.1027583856075
 30
0.0
  0
VERTEX
  5
291
  8
0
  6
________________
 62
     9
 10
-897.358325201234
 20
56.24224939633949
 30
0.0
  0
VERTEX
  5
292
  8
0
  6
________________
 62
     9
 10
-897.5014184659506
 20
56.34943982923908
 30
0.0
  0
SEQEND
  5
293
  8
0
  6
________________
 62
     9
  0
POLYLINE
  5
105
  8
0
  6
________________
 62
     9
 66
     1
 10
0.0
 20
0.0
 30
0.0
  0
VERTEX
  5
294
  8
0
  6
________________
 62
     9
 10
-1007.286451330885
 20
65.51619015767409
 30
0.0
  0
VERTEX
  5
295
  8
0
  6
________________
 62
     9
 10
-1007.180120610775
 20
65.33939872607242
 30
0.0
  0
VERTEX
  5
296
  8
0
  6
________________
 62
     9
 10
-1007.044779490725
 20
65.18543632076099
 30
0.0
  0
VERTEX
  5
297
  8
0
  6
________________
 62
     9
 10
-1006.886188902361
 20
65.0608565072011
 30
0.0
  0
VERTEX
  5
298
  8
0
  6
________________
 62
     9
 10
-1006.711099414435
 20
64.97096215112593
 30
0.0
  0
VERTEX
  5
299
  8
0
  6
________________
 62
     9
 10
-1006.526963888043
 20
64.91957969669859
 30
0.0
  0
VERTEX
  5
29A
  8
0
  6
________________
 62
     9
 10
-1006.341620238054
 20
64.90889629004718
 30
0.0
  0
VERTEX
  5
29B
  8
0
  6
________________
 62
     9
 10
-1006.162957804341
 20
64.93936668117836
 30
0.0
  0
VERTEX
  5
29C
  8
0
  6
________________
 62
     9
 10
-1005.998581534049
 20
65.00969386708348
 30
0.0
  0
SEQEND
  5
29D
  8
0
  6
________________
 62
     9
  0
POLYLINE
  5
106
  8
0
  6
________________
 62
     9
 66
     1
 10
0.0
 20
0.0
 30
0.0
  0
VERTEX
  5
29E
  8
0
  6
________________
 62
     9
 10
-1000.998581534049
 20
56.34943982923912
 30
0.0
  0
VERTEX
  5
29F
  8
0
  6
________________
 62
     9
 10
-1001.141674798766
 20
56.24224939633953
 30
0.0
  0
VERTEX
  5
2A0
  8
0
  6
________________
 62
     9
 10
-1001.257394148405
 20
56.10275838560753
 30
0.0
  0
VERTEX
  5
2A1
  8
0
  6
________________
 62
     9
 10
-1001.340813871841
 20
55.93690437296141
 30
0.0
  0
VERTEX
  5
2A2
  8
0
  6
________________
 62
     9
 10
-1001.388383124194
 20
55.75174710215289
 30
0.0
  0
VERTEX
  5
2A3
  8
0
  6
________________
 62
     9
 10
-1001.398077072139
 20
55.55516797963587
 30
0.0
  0
VERTEX
  5
2A4
  8
0
  6
________________
 62
     9
 10
-1001.369483082979
 20
55.35553459453145
 30
0.0
  0
VERTEX
  5
2A5
  8
0
  6
________________
 62
     9
 10
-1001.303818288776
 20
55.16134454373609
 30
0.0
  0
VERTEX
  5
2A6
  8
0
  6
________________
 62
     9
 10
-1001.203877777893
 20
54.98086372311734
 30
0.0
  0
SEQEND
  5
2A7
  8
0
  6
________________
 62
     9
  0
POLYLINE
  5
107
  8
0
  6
________________
 62
     9
 66
     1
 10
0.0
 20
0.0
 30
0.0
  0
VERTEX
  5
2A8
  8
0
  6
________________
 62
     9
 10
-943.167426447008
 20
155.5029461192087
 30
0.0
  0
VERTEX
  5
2A9
  8
0
  6
________________
 62
     9
 10
-943.3736976780015
 20
155.4992567301917
 30
0.0
  0
VERTEX
  5
2AA
  8
0
  6
________________
 62
     9
 10
-943.5747035922537
 20
155.4590290847077
 30
0.0
  0
VERTEX
  5
2AB
  8
0
  6
________________
 62
     9
 10
-943.7618881697773
 20
155.3839755131632
 30
0.0
  0
VERTEX
  5
2AC
  8
0
  6
________________
 62
     9
 10
-943.9272837097583
 20
155.2772907467213
 30
0.0
  0
VERTEX
  5
2AD
  8
0
  6
________________
 62
     9
 10
-944.0638499837972
 20
155.1435159303401
 30
0.0
  0
VERTEX
  5
2AE
  8
0
  6
________________
 62
     9
 10
-944.1657739103507
 20
154.9883453243454
 30
0.0
  0
VERTEX
  5
2AF
  8
0
  6
________________
 62
     9
 10
-944.2287169944244
 20
154.8183839224822
 30
0.0
  0
VERTEX
  5
2B0
  8
0
  6
________________
 62
     9
 10
-944.2499999999999
 20
154.6408663036775
 30
0.0
  0
SEQEND
  5
2B1
  8
0
  6
________________
 62
     9
  0
POLYLINE
  5
108
  8
0
  6
________________
 62
     9
 66
     1
 10
0.0
 20
0.0
 30
0.0
  0
VERTEX
  5
2B2
  8
0
  6
________________
 62
     9
 10
-892.5014184659506
 20
65.00969386708348
 30
0.0
  0
VERTEX
  5
2B3
  8
0
  6
________________
 62
     9
 10
-892.3370421956587
 20
64.93936668117837
 30
0.0
  0
VERTEX
  5
2B4
  8
0
  6
________________
 62
     9
 10
-892.1583797619454
 20
64.90889629004718
 30
0.0
  0
VERTEX
  5
2B5
  8
0
  6
________________
 62
     9
 10
-891.9730361119566
 20
64.91957969669858
 30
0.0
  0
VERTEX
  5
2B6
  8
0
  6
________________
 62
     9
 10
-891.7889005855644
 20
64.97096215112593
 30
0.0
  0
VERTEX
  5
2B7
  8
0
  6
________________
 62
     9
 10
-891.6138110976385
 20
65.0608565072011
 30
0.0
  0
VERTEX
  5
2B8
  8
0
  6
________________
 62
     9
 10
-891.4552205092745
 20
65.185436320761
 30
0.0
  0
VERTEX
  5
2B9
  8
0
  6
________________
 62
     9
 10
-891.3198793892248
 20
65.33939872607243
 30
0.0
  0
VERTEX
  5
2BA
  8
0
  6
________________
 62
     9
 10
-891.2135486691147
 20
65.5161901576741
 30
0.0
  0
SEQEND
  5
2BB
  8
0
  6
________________
 62
     9
  0
CIRCLE
  5
109
  8
0
  6
________________
 62
     9
 10
949.2499999999999
 20
92.00000000000006
 30
0.0
 40
4.797359472881473
210
0.0
220
0.0
230
-1.0
  0
LINE
  5
10A
  8
0
  6
________________
 62
     9
 10
-955.3325735529918
 20
155.5029461192087
 30
0.0
 11
-955.3323847216795
 21
155.6478569976141
 31
0.0
  0
POLYLINE
  5
10B
  8
0
  6
________________
 62
     9
 66
     1
 10
0.0
 20
0.0
 30
0.0
  0
VERTEX
  5
2BC
  8
0
  6
________________
 62
     9
 10
-955.3323847216795
 20
155.6478569976141
 30
0.0
  0
VERTEX
  5
2BD
  8
0
  6
________________
 62
     9
 10
-955.1261378047047
 20
155.6441363182967
 30
0.0
  0
VERTEX
  5
2BE
  8
0
  6
________________
 62
     9
 10
-954.9251620033372
 20
155.6038862891026
 30
0.0
  0
VERTEX
  5
2BF
  8
0
  6
________________
 62
     9
 10
-954.7380101022321
 20
155.5288198019806
 30
0.0
  0
VERTEX
  5
2C0
  8
0
  6
________________
 62
     9
 10
-954.5726465921247
 20
155.422131408189
 30
0.0
  0
VERTEX
  5
2C1
  8
0
  6
________________
 62
     9
 10
-954.4361087306455
 20
155.2883613700436
 30
0.0
  0
VERTEX
  5
2C2
  8
0
  6
________________
 62
     9
 10
-954.3342070627386
 20
155.1332024441937
 30
0.0
  0
VERTEX
  5
2C3
  8
0
  6
________________
 62
     9
 10
-954.2712781454209
 20
154.9632576190143
 30
0.0
  0
VERTEX
  5
2C4
  8
0
  6
________________
 62
     9
 10
-954.2499999999999
 20
154.7857591159129
 30
0.0
  0
SEQEND
  5
2C5
  8
0
  6
________________
 62
     9
  0
LINE
  5
10C
  8
0
  6
________________
 62
     9
 10
-1007.411853417212
 20
65.44357118575789
 30
0.0
 11
-1007.286451330885
 21
65.5161901576741
 31
0.0
  0
POLYLINE
  5
10D
  8
0
  6
________________
 62
     9
 66
     1
 10
0.0
 20
0.0
 30
0.0
  0
VERTEX
  5
2C6
  8
0
  6
________________
 62
     9
 10
-1007.411853417212
 20
65.44357118575792
 30
0.0
  0
VERTEX
  5
2C7
  8
0
  6
________________
 62
     9
 10
-1007.305507755917
 20
65.26681645586419
 30
0.0
  0
VERTEX
  5
2C8
  8
0
  6
________________
 62
     9
 10
-1007.170162307448
 20
65.11289132093104
 30
0.0
  0
VERTEX
  5
2C9
  8
0
  6
________________
 62
     9
 10
-1007.011576872075
 20
64.98834626376856
 30
0.0
  0
VERTEX
  5
2CA
  8
0
  6
________________
 62
     9
 10
-1006.836500257709
 20
64.89848146005228
 30
0.0
  0
VERTEX
  5
2CB
  8
0
  6
________________
 62
     9
 10
-1006.65238307567
 20
64.84712122250559
 30
0.0
  0
VERTEX
  5
2CC
  8
0
  6
________________
 62
     9
 10
-1006.467060670307
 20
64.83645125233525
 30
0.0
  0
VERTEX
  5
2CD
  8
0
  6
________________
 62
     9
 10
-1006.288419675801
 20
64.8669256238951
 30
0.0
  0
VERTEX
  5
2CE
  8
0
  6
________________
 62
     9
 10
-1006.124062390271
 20
64.93724746096582
 30
0.0
  0
SEQEND
  5
2CF
  8
0
  6
________________
 62
     9
  0
LINE
  5
10E
  8
0
  6
________________
 62
     9
 10
-943.1676152783202
 20
155.6478569976141
 30
0.0
 11
-943.1674264470079
 21
155.5029461192087
 31
0.0
  0
POLYLINE
  5
10F
  8
0
  6
________________
 62
     9
 66
     1
 10
0.0
 20
0.0
 30
0.0
  0
VERTEX
  5
2D0
  8
0
  6
________________
 62
     9
 10
-943.1676152783202
 20
155.6478569976141
 30
0.0
  0
VERTEX
  5
2D1
  8
0
  6
________________
 62
     9
 10
-943.373862195295
 20
155.6441363182967
 30
0.0
  0
VERTEX
  5
2D2
  8
0
  6
________________
 62
     9
 10
-943.5748379966626
 20
155.6038862891026
 30
0.0
  0
VERTEX
  5
2D3
  8
0
  6
________________
 62
     9
 10
-943.7619898977676
 20
155.5288198019806
 30
0.0
  0
VERTEX
  5
2D4
  8
0
  6
________________
 62
     9
 10
-943.9273534078751
 20
155.422131408189
 30
0.0
  0
VERTEX
  5
2D5
  8
0
  6
________________
 62
     9
 10
-944.0638912693543
 20
155.2883613700436
 30
0.0
  0
VERTEX
  5
2D6
  8
0
  6
________________
 62
     9
 10
-944.1657929372611
 20
155.1332024441937
 30
0.0
  0
VERTEX
  5
2D7
  8
0
  6
________________
 62
     9
 10
-944.2287218545789
 20
154.9632576190143
 30
0.0
  0
VERTEX
  5
2D8
  8
0
  6
________________
 62
     9
 10
-944.2499999999999
 20
154.7857591159129
 30
0.0
  0
SEQEND
  5
2D9
  8
0
  6
________________
 62
     9
  0
LINE
  5
110
  8
0
  6
________________
 62
     9
 10
-1001.203877777893
 20
54.98086372311736
 30
0.0
 11
-1001.329468695533
 21
54.90857181662814
 31
0.0
  0
POLYLINE
  5
111
  8
0
  6
________________
 62
     9
 66
     1
 10
0.0
 20
0.0
 30
0.0
  0
VERTEX
  5
2DA
  8
0
  6
________________
 62
     9
 10
-1001.329468695533
 20
54.90857181662813
 30
0.0
  0
VERTEX
  5
2DB
  8
0
  6
________________
 62
     9
 10
-1001.429369951212
 20
55.08904722583923
 30
0.0
  0
VERTEX
  5
2DC
  8
0
  6
________________
 62
     9
 10
-1001.495000304111
 20
55.28322238996649
 30
0.0
  0
VERTEX
  5
2DD
  8
0
  6
________________
 62
     9
 10
-1001.523566769843
 20
55.48283393425102
 30
0.0
  0
VERTEX
  5
2DE
  8
0
  6
________________
 62
     9
 10
-1001.513853665584
 20
55.67938713175886
 30
0.0
  0
VERTEX
  5
2DF
  8
0
  6
________________
 62
     9
 10
-1001.466274345024
 20
55.86451740745093
 30
0.0
  0
VERTEX
  5
2E0
  8
0
  6
________________
 62
     9
 10
-1001.382853607568
 20
56.03034630347125
 30
0.0
  0
VERTEX
  5
2E1
  8
0
  6
________________
 62
     9
 10
-1001.26714153038
 20
56.16981675709079
 30
0.0
  0
VERTEX
  5
2E2
  8
0
  6
________________
 62
     9
 10
-1001.124062390271
 20
56.27699342312145
 30
0.0
  0
SEQEND
  5
2E3
  8
0
  6
________________
 62
     9
  0
LINE
  5
112
  8
0
  6
________________
 62
     9
 10
-891.2135486691149
 20
65.51619015767407
 30
0.0
 11
-891.0881465827872
 21
65.44357118575786
 31
0.0
  0
POLYLINE
  5
113
  8
0
  6
________________
 62
     9
 66
     1
 10
0.0
 20
0.0
 30
0.0
  0
VERTEX
  5
2E4
  8
0
  6
________________
 62
     9
 10
-892.3759376097289
 20
64.93724746096582
 30
0.0
  0
VERTEX
  5
2E5
  8
0
  6
________________
 62
     9
 10
-892.211580324199
 20
64.86692562389511
 30
0.0
  0
VERTEX
  5
2E6
  8
0
  6
________________
 62
     9
 10
-892.032939329693
 20
64.83645125233525
 30
0.0
  0
VERTEX
  5
2E7
  8
0
  6
________________
 62
     9
 10
-891.8476169243296
 20
64.84712122250559
 30
0.0
  0
VERTEX
  5
2E8
  8
0
  6
________________
 62
     9
 10
-891.6634997422908
 20
64.89848146005227
 30
0.0
  0
VERTEX
  5
2E9
  8
0
  6
________________
 62
     9
 10
-891.4884231279246
 20
64.98834626376855
 30
0.0
  0
VERTEX
  5
2EA
  8
0
  6
________________
 62
     9
 10
-891.3298376925516
 20
65.11289132093103
 30
0.0
  0
VERTEX
  5
2EB
  8
0
  6
________________
 62
     9
 10
-891.1944922440828
 20
65.26681645586416
 30
0.0
  0
VERTEX
  5
2EC
  8
0
  6
________________
 62
     9
 10
-891.0881465827871
 20
65.44357118575788
 30
0.0
  0
SEQEND
  5
2ED
  8
0
  6
________________
 62
     9
  0
POLYLINE
  5
114
  8
0
  6
________________
 62
     9
 66
     1
 10
0.0
 20
0.0
 30
0.0
  0
VERTEX
  5
2EE
  8
0
  6
________________
 62
     9
 10
-897.3759376097289
 20
56.27699342312143
 30
0.0
  0
VERTEX
  5
2EF
  8
0
  6
________________
 62
     9
 10
-897.2328584696198
 20
56.16981675709076
 30
0.0
  0
VERTEX
  5
2F0
  8
0
  6
________________
 62
     9
 10
-897.1171463924317
 20
56.03034630347122
 30
0.0
  0
VERTEX
  5
2F1
  8
0
  6
________________
 62
     9
 10
-897.0337256549751
 20
55.8645174074509
 30
0.0
  0
VERTEX
  5
2F2
  8
0
  6
________________
 62
     9
 10
-896.9861463344156
 20
55.67938713175883
 30
0.0
  0
VERTEX
  5
2F3
  8
0
  6
________________
 62
     9
 10
-896.9764332301569
 20
55.482833934251
 30
0.0
  0
VERTEX
  5
2F4
  8
0
  6
________________
 62
     9
 10
-897.0049996958888
 20
55.28322238996646
 30
0.0
  0
VERTEX
  5
2F5
  8
0
  6
________________
 62
     9
 10
-897.0706300487874
 20
55.08904722583921
 30
0.0
  0
VERTEX
  5
2F6
  8
0
  6
________________
 62
     9
 10
-897.1705313044666
 20
54.9085718166281
 30
0.0
  0
SEQEND
  5
2F7
  8
0
  6
________________
 62
     9
  0
LINE
  5
115
  8
0
  6
________________
 62
     9
 10
-897.1705313044667
 20
54.90857181662809
 30
0.0
 11
-897.2961222221068
 21
54.98086372311733
 31
0.0
  0
POLYLINE
  5
116
  8
0
  6
________________
 62
     9
 10
0.0
 20
0.0
 30
0.0
 66
     1
 70
     8
  0
VERTEX
  5
117
  8
0
  6
________________
 62
     9
 10
-1007.411853417212
 20
65.44357118575789
 30
0.0
 70
    32
  0
VERTEX
  5
118
  8
0
  6
________________
 62
     9
 10
-1007.517430563608
 20
65.36803871801908
 30
0.0
 70
    32
  0
VERTEX
  5
119
  8
0
  6
________________
 62
     9
 10
-1007.611439623794
 20
65.2708282866803
 30
0.0
 70
    32
  0
VERTEX
  5
11A
  8
0
  6
________________
 62
     9
 10
-1007.692542552938
 20
65.15333238642604
 30
0.0
 70
    32
  0
VERTEX
  5
11B
  8
0
  6
________________
 62
     9
 10
-1007.759852812582
 20
65.01628957835206
 30
0.0
 70
    32
  0
VERTEX
  5
11C
  8
0
  6
________________
 62
     9
 10
-1007.812757102229
 20
64.86039267247648
 30
0.0
 70
    32
  0
SEQEND
  5
11E
  8
0
  6
________________
 62
     9
  0
ARC
  5
11D
  8
0
  6
________________
 62
     9
 10
-1005.135274876343
 20
64.32315697303842
 30
0.0
 40
2.730848451797193
 50
168.6542849611066
 51
208.3181897728796
  0
ARC
  5
11F
  8
0
  6
________________
 62
     9
 10
949.2499999999999
 20
92.00000000000006
 30
0.0
 40
65.09252271188818
 50
326.4293314425916
 51
333.5706685574083
210
0.0
220
0.0
230
-1.0
  0
ARC
  5
120
  8
0
  6
________________
 62
     9
 10
-1001.23426461413
 20
57.3785105217017
 30
0.0
 40
2.636475146235768
 50
211.3687790004786
 51
255.9564771034226
  0
POLYLINE
  5
121
  8
0
  6
________________
 62
     9
 10
0.0
 20
0.0
 30
0.0
 66
     1
 70
     8
  0
VERTEX
  5
122
  8
0
  6
________________
 62
     9
 10
-1001.874028719422
 20
54.82083519314673
 30
0.0
 70
    32
  0
VERTEX
  5
123
  8
0
  6
________________
 62
     9
 10
-1001.724163473118
 20
54.81061353545871
 30
0.0
 70
    32
  0
VERTEX
  5
124
  8
0
  6
________________
 62
     9
 10
-1001.584041504209
 20
54.82120465648174
 30
0.0
 70
    32
  0
VERTEX
  5
125
  8
0
  6
________________
 62
     9
 10
-1001.450163591552
 20
54.85398770696067
 30
0.0
 70
    32
  0
VERTEX
  5
126
  8
0
  6
________________
 62
     9
 10
-1001.329468695533
 20
54.90857181662814
 30
0.0
 70
    32
  0
SEQEND
  5
127
  8
0
  6
________________
 62
     9
  0
POLYLINE
  5
128
  8
0
  6
________________
 62
     9
 10
0.0
 20
0.0
 30
0.0
 66
     1
 70
     8
  0
VERTEX
  5
129
  8
0
  6
________________
 62
     9
 10
-897.1705313044667
 20
54.90857181662809
 30
0.0
 70
    32
  0
VERTEX
  5
12A
  8
0
  6
________________
 62
     9
 10
-897.0523296953967
 20
54.85490555966002
 30
0.0
 70
    32
  0
VERTEX
  5
12B
  8
0
  6
________________
 62
     9
 10
-896.9211384622517
 20
54.82209654102279
 30
0.0
 70
    32
  0
VERTEX
  5
12C
  8
0
  6
________________
 62
     9
 10
-896.7788325632188
 20
54.81060729418949
 30
0.0
 70
    32
  0
VERTEX
  5
12D
  8
0
  6
________________
 62
     9
 10
-896.6264948801988
 20
54.82083630343967
 30
0.0
 70
    32
  0
VERTEX
  5
12E
  8
0
  6
________________
 62
     9
 10
-896.4650320545156
 20
54.85296829757391
 30
0.0
 70
    32
  0
SEQEND
  5
130
  8
0
  6
________________
 62
     9
  0
ARC
  5
12F
  8
0
  6
________________
 62
     9
 10
-897.338513403925
 20
57.44035377309103
 30
0.0
 40
2.730848451797185
 50
288.654284961106
 51
328.3181897728792
  0
ARC
  5
131
  8
0
  6
________________
 62
     9
 10
949.2499999999999
 20
92.00000000000006
 30
0.0
 40
65.09252271188818
 50
206.4293314425917
 51
213.5706685574085
210
0.0
220
0.0
230
-1.0
  0
ARC
  5
132
  8
0
  6
________________
 62
     9
 10
-893.2747782878727
 20
64.29105098626012
 30
0.0
 40
2.636475146235631
 50
331.3687790004767
 51
15.9564771034236
  0
POLYLINE
  5
133
  8
0
  6
________________
 62
     9
 10
0.0
 20
0.0
 30
0.0
 66
     1
 70
     8
  0
VERTEX
  5
134
  8
0
  6
________________
 62
     9
 10
-890.7398844260654
 20
65.0158366829253
 30
0.0
 70
    32
  0
VERTEX
  5
135
  8
0
  6
________________
 62
     9
 10
-890.8059648339907
 20
65.15073462221274
 30
0.0
 70
    32
  0
VERTEX
  5
136
  8
0
  6
________________
 62
     9
 10
-890.8851979983059
 20
65.266788246405
 30
0.0
 70
    32
  0
VERTEX
  5
137
  8
0
  6
________________
 62
     9
 10
-890.9805279091623
 20
65.36633839453157
 30
0.0
 70
    32
  0
VERTEX
  5
138
  8
0
  6
________________
 62
     9
 10
-891.0881465827871
 20
65.44357118575789
 30
0.0
 70
    32
  0
SEQEND
  5
139
  8
0
  6
________________
 62
     9
  0
POLYLINE
  5
13A
  8
0
  6
________________
 62
     9
 10
0.0
 20
0.0
 30
0.0
 66
     1
 70
     8
  0
VERTEX
  5
13B
  8
0
  6
________________
 62
     9
 10
-943.1676152783202
 20
155.6478569976141
 30
0.0
 70
    32
  0
VERTEX
  5
13C
  8
0
  6
________________
 62
     9
 10
-943.1802397409949
 20
155.777055722321
 30
0.0
 70
    32
  0
VERTEX
  5
13D
  8
0
  6
________________
 62
     9
 10
-943.2174219139544
 20
155.907075172297
 30
0.0
 70
    32
  0
VERTEX
  5
13E
  8
0
  6
________________
 62
     9
 10
-943.2786248838428
 20
156.0360603193846
 30
0.0
 70
    32
  0
VERTEX
  5
13F
  8
0
  6
________________
 62
     9
 10
-943.3636523072189
 20
156.1628741182084
 30
0.0
 70
    32
  0
VERTEX
  5
140
  8
0
  6
________________
 62
     9
 10
-943.4722108432551
 20
156.2866390299497
 30
0.0
 70
    32
  0
SEQEND
  5
142
  8
0
  6
________________
 62
     9
  0
ARC
  5
141
  8
0
  6
________________
 62
     9
 10
-945.276211719731
 20
154.2364892538705
 30
0.0
 40
2.730848451797402
 50
48.65428496110779
 51
88.31818977287779
  0
ARC
  5
143
  8
0
  6
________________
 62
     9
 10
949.2499999999999
 20
92.00000000000006
 30
0.0
 40
65.0925227118882
 50
86.42933144259167
 51
93.57066855740833
210
0.0
220
0.0
230
-1.0
  0
ARC
  5
144
  8
0
  6
________________
 62
     9
 10
-953.2409570979969
 20
154.3304384920387
 30
0.0
 40
2.636475146235413
 50
91.36877900047564
 51
135.9564771034265
  0
POLYLINE
  5
145
  8
0
  6
________________
 62
     9
 10
0.0
 20
0.0
 30
0.0
 66
     1
 70
     8
  0
VERTEX
  5
146
  8
0
  6
________________
 62
     9
 10
-955.1360868545122
 20
156.1633281239281
 30
0.0
 70
    32
  0
VERTEX
  5
147
  8
0
  6
________________
 62
     9
 10
-955.2198716928907
 20
156.0386518423286
 30
0.0
 70
    32
  0
VERTEX
  5
148
  8
0
  6
________________
 62
     9
 10
-955.2807604974848
 20
155.9120070971134
 30
0.0
 70
    32
  0
VERTEX
  5
149
  8
0
  6
________________
 62
     9
 10
-955.3193084992847
 20
155.7796738985079
 30
0.0
 70
    32
  0
VERTEX
  5
14A
  8
0
  6
________________
 62
     9
 10
-955.3323847216794
 20
155.6478569976141
 30
0.0
 70
    32
  0
SEQEND
  5
14B
  8
0
  6
________________
 62
     9
  0
POLYLINE
  5
14C
  8
0
  6
________________
 62
     9
 10
0.0
 20
0.0
 30
0.0
 66
     1
 70
     8
  0
VERTEX
  5
14D
  8
0
  6
________________
 62
     9
 10
-892.375937609729
 20
64.93724746096582
 30
0.0
 70
    32
  0
VERTEX
  5
14E
  8
0
  6
________________
 62
     9
 10
-892.3029827121289
 20
64.89202194163676
 30
0.0
 70
    32
  0
VERTEX
  5
14F
  8
0
  6
________________
 62
     9
 10
-892.2323304605407
 20
64.84192333496702
 30
0.0
 70
    32
  0
VERTEX
  5
150
  8
0
  6
________________
 62
     9
 10
-892.1642458836108
 20
64.78711584304702
 30
0.0
 70
    32
  0
VERTEX
  5
151
  8
0
  6
________________
 62
     9
 10
-892.098994009986
 20
64.72776366796717
 30
0.0
 70
    32
  0
VERTEX
  5
152
  8
0
  6
________________
 62
     9
 10
-892.0368398683129
 20
64.66403101181791
 30
0.0
 70
    32
  0
VERTEX
  5
153
  8
0
  6
________________
 62
     9
 10
-891.9780484872383
 20
64.59608207668963
 30
0.0
 70
    32
  0
VERTEX
  5
154
  8
0
  6
________________
 62
     9
 10
-891.9309165765158
 20
64.53511453117811
 30
0.0
 70
    32
  0
VERTEX
  5
155
  8
0
  6
________________
 62
     9
 10
-891.8863614754648
 20
64.47086122941106
 30
0.0
 70
    32
  0
VERTEX
  5
156
  8
0
  6
________________
 62
     9
 10
-891.8447408270575
 20
64.40340638932638
 30
0.0
 70
    32
  0
VERTEX
  5
157
  8
0
  6
________________
 62
     9
 10
-891.8064122742662
 20
64.33283422886191
 30
0.0
 70
    32
  0
VERTEX
  5
158
  8
0
  6
________________
 62
     9
 10
-891.771733460063
 20
64.25922896595561
 30
0.0
 70
    32
  0
VERTEX
  5
159
  8
0
  6
________________
 62
     9
 10
-891.7410620274203
 20
64.18267481854537
 30
0.0
 70
    32
  0
VERTEX
  5
15A
  8
0
  6
________________
 62
     9
 10
-891.7221845326553
 20
64.12733958320379
 30
0.0
 70
    32
  0
VERTEX
  5
15B
  8
0
  6
________________
 62
     9
 10
-891.7056250096725
 20
64.07047759829157
 30
0.0
 70
    32
  0
VERTEX
  5
15C
  8
0
  6
________________
 62
     9
 10
-891.6916074305391
 20
64.01218488199115
 30
0.0
 70
    32
  0
VERTEX
  5
15D
  8
0
  6
________________
 62
     9
 10
-891.6826921373275
 20
63.96639304922888
 30
0.0
 70
    32
  0
VERTEX
  5
15E
  8
0
  6
________________
 62
     9
 10
-891.6755163273859
 20
63.91974914666707
 30
0.0
 70
    32
  0
VERTEX
  5
15F
  8
0
  6
________________
 62
     9
 10
-891.6702146461374
 20
63.87235665727556
 30
0.0
 70
    32
  0
VERTEX
  5
160
  8
0
  6
________________
 62
     9
 10
-891.6669217390056
 20
63.82431906402417
 30
0.0
 70
    32
  0
VERTEX
  5
161
  8
0
  6
________________
 62
     9
 10
-891.6658158014725
 20
63.7831887595156
 30
0.0
 70
    32
  0
VERTEX
  5
162
  8
0
  6
________________
 62
     9
 10
-891.6663416299311
 20
63.74155808395393
 30
0.0
 70
    32
  0
VERTEX
  5
163
  8
0
  6
________________
 62
     9
 10
-891.668578066648
 20
63.69958348765722
 30
0.0
 70
    32
  0
VERTEX
  5
164
  8
0
  6
________________
 62
     9
 10
-891.6726039538892
 20
63.65742142094352
 30
0.0
 70
    32
  0
VERTEX
  5
165
  8
0
  6
________________
 62
     9
 10
-891.678498133921
 20
63.61522833413085
 30
0.0
 70
    32
  0
VERTEX
  5
166
  8
0
  6
________________
 62
     9
 10
-891.6863394490101
 20
63.5731606775373
 30
0.0
 70
    32
  0
VERTEX
  5
167
  8
0
  6
________________
 62
     9
 10
-891.6944029403489
 20
63.53831510489463
 30
0.0
 70
    32
  0
VERTEX
  5
168
  8
0
  6
________________
 62
     9
 10
-891.7038915030525
 20
63.50365804030314
 30
0.0
 70
    32
  0
VERTEX
  5
169
  8
0
  6
________________
 62
     9
 10
-891.7148110346612
 20
63.46933645557803
 30
0.0
 70
    32
  0
VERTEX
  5
16A
  8
0
  6
________________
 62
     9
 10
-891.7250047357343
 20
63.4410879053173
 30
0.0
 70
    32
  0
VERTEX
  5
16B
  8
0
  6
________________
 62
     9
 10
-891.7361979562658
 20
63.41319306144833
 30
0.0
 70
    32
  0
SEQEND
  5
16C
  8
0
  6
________________
 62
     9
  0
LINE
  5
16D
  8
0
  6
________________
 62
     9
 10
-891.7361979562658
 20
63.41319306144833
 30
0.0
 11
-890.9606860456728
 21
63.02773064236131
 31
0.0
  0
LINE
  5
16E
  8
0
  6
________________
 62
     9
 10
-1003.485378246164
 20
56.00610802520539
 30
0.0
 11
-1002.763802043734
 21
56.48498983117284
 31
0.0
  0
POLYLINE
  5
16F
  8
0
  6
________________
 62
     9
 10
0.0
 20
0.0
 30
0.0
 66
     1
 70
     8
  0
VERTEX
  5
170
  8
0
  6
________________
 62
     9
 10
-1001.124062390271
 20
56.27699342312145
 30
0.0
 70
    32
  0
VERTEX
  5
171
  8
0
  6
________________
 62
     9
 10
-1001.276886458546
 20
56.20098234135426
 30
0.0
 70
    32
  0
VERTEX
  5
172
  8
0
  6
________________
 62
     9
 10
-1001.442025419731
 20
56.14249579063868
 30
0.0
 70
    32
  0
SEQEND
  5
17C
  8
0
  6
________________
 62
     9
  0
ARC
  5
173
  8
0
  6
________________
 62
     9
 10
1001.847445469088
 20
57.50934074364647
 30
0.0
 40
1.425703525275853
 50
253.4791102699956
 51
287.1292404039807
210
0.0
220
0.0
230
-1.0
  0
POLYLINE
  5
174
  8
0
  6
________________
 62
     9
 10
0.0
 20
0.0
 30
0.0
 66
     1
 70
     8
  0
VERTEX
  5
175
  8
0
  6
________________
 62
     9
 10
-1002.267355173348
 20
56.14687739285401
 30
0.0
 70
    32
  0
VERTEX
  5
176
  8
0
  6
________________
 62
     9
 10
-1002.399146360319
 20
56.19826481046228
 30
0.0
 70
    32
  0
VERTEX
  5
177
  8
0
  6
________________
 62
     9
 10
-1002.51358716894
 20
56.25979409206202
 30
0.0
 70
    32
  0
VERTEX
  5
178
  8
0
  6
________________
 62
     9
 10
-1002.600342845961
 20
56.32015175505312
 30
0.0
 70
    32
  0
VERTEX
  5
179
  8
0
  6
________________
 62
     9
 10
-1002.688980954891
 20
56.39874986342408
 30
0.0
 70
    32
  0
VERTEX
  5
17A
  8
0
  6
________________
 62
     9
 10
-1002.763802043734
 20
56.48498983117284
 30
0.0
 70
    32
  0
SEQEND
  5
17B
  8
0
  6
________________
 62
     9
  0
LINE
  5
17D
  8
0
  6
________________
 62
     9
 10
-953.3039357081628
 20
156.9661613324334
 30
0.0
 11
-953.2499999999999
 21
156.1018171073789
 31
0.0
  0
POLYLINE
  5
17E
  8
0
  6
________________
 62
     9
 10
0.0
 20
0.0
 30
0.0
 66
     1
 70
     8
  0
VERTEX
  5
17F
  8
0
  6
________________
 62
     9
 10
-954.2499999999998
 20
154.7857591159129
 30
0.0
 70
    32
  0
VERTEX
  5
180
  8
0
  6
________________
 62
     9
 10
-954.2473110001615
 20
154.8715526702295
 30
0.0
 70
    32
  0
VERTEX
  5
181
  8
0
  6
________________
 62
     9
 10
-954.2392504598855
 20
154.9577886182744
 30
0.0
 70
    32
  0
VERTEX
  5
182
  8
0
  6
________________
 62
     9
 10
-954.22582806803
 20
155.0441553374617
 30
0.0
 70
    32
  0
VERTEX
  5
183
  8
0
  6
________________
 62
     9
 10
-954.2070535134535
 20
155.1303412052052
 30
0.0
 70
    32
  0
VERTEX
  5
184
  8
0
  6
________________
 62
     9
 10
-954.182936485014
 20
155.2160345989191
 30
0.0
 70
    32
  0
VERTEX
  5
185
  8
0
  6
________________
 62
     9
 10
-954.1534866715701
 20
155.3009238960173
 30
0.0
 70
    32
  0
VERTEX
  5
186
  8
0
  6
________________
 62
     9
 10
-954.1242531837121
 20
155.3722251007878
 30
0.0
 70
    32
  0
VERTEX
  5
187
  8
0
  6
________________
 62
     9
 10
-954.0908857426302
 20
155.4429376010496
 30
0.0
 70
    32
  0
VERTEX
  5
188
  8
0
  6
________________
 62
     9
 10
-954.0532784617122
 20
155.5127095599346
 30
0.0
 70
    32
  0
VERTEX
  5
189
  8
0
  6
________________
 62
     9
 10
-954.0113254543459
 20
155.5811891405744
 30
0.0
 70
    32
  0
VERTEX
  5
18A
  8
0
  6
________________
 62
     9
 10
-953.9649208339182
 20
155.6480245061006
 30
0.0
 70
    32
  0
VERTEX
  5
18B
  8
0
  6
________________
 62
     9
 10
-953.9139587138174
 20
155.7128638196448
 30
0.0
 70
    32
  0
VERTEX
  5
18C
  8
0
  6
________________
 62
     9
 10
-953.8754757416697
 20
155.7568798273419
 30
0.0
 70
    32
  0
VERTEX
  5
18D
  8
0
  6
________________
 62
     9
 10
-953.8345115797174
 20
155.7996517873757
 30
0.0
 70
    32
  0
VERTEX
  5
18E
  8
0
  6
________________
 62
     9
 10
-953.7910373961123
 20
155.840937725155
 30
0.0
 70
    32
  0
VERTEX
  5
18F
  8
0
  6
________________
 62
     9
 10
-953.7558381522601
 20
155.8715545119395
 30
0.0
 70
    32
  0
VERTEX
  5
190
  8
0
  6
________________
 62
     9
 10
-953.7190312526809
 20
155.9010908969226
 30
0.0
 70
    32
  0
VERTEX
  5
191
  8
0
  6
________________
 62
     9
 10
-953.6806389935434
 20
155.9293785322623
 30
0.0
 70
    32
  0
VERTEX
  5
192
  8
0
  6
________________
 62
     9
 10
-953.640683671017
 20
155.9562490701164
 30
0.0
 70
    32
  0
VERTEX
  5
193
  8
0
  6
________________
 62
     9
 10
-953.6056167512137
 20
155.9777719923694
 30
0.0
 70
    32
  0
VERTEX
  5
194
  8
0
  6
________________
 62
     9
 10
-953.5693006143713
 20
155.998131949347
 30
0.0
 70
    32
  0
VERTEX
  5
195
  8
0
  6
________________
 62
     9
 10
-953.5318313293064
 20
156.0171824364847
 30
0.0
 70
    32
  0
VERTEX
  5
196
  8
0
  6
________________
 62
     9
 10
-953.4933049648356
 20
156.0347769492179
 30
0.0
 70
    32
  0
VERTEX
  5
197
  8
0
  6
________________
 62
     9
 10
-953.4538175897759
 20
156.0507689829821
 30
0.0
 70
    32
  0
VERTEX
  5
198
  8
0
  6
________________
 62
     9
 10
-953.4134652729437
 20
156.0650120332127
 30
0.0
 70
    32
  0
VERTEX
  5
199
  8
0
  6
________________
 62
     9
 10
-953.3792563761563
 20
156.0754516311914
 30
0.0
 70
    32
  0
VERTEX
  5
19A
  8
0
  6
________________
 62
     9
 10
-953.3444981964476
 20
156.0845628271405
 30
0.0
 70
    32
  0
VERTEX
  5
19B
  8
0
  6
________________
 62
     9
 10
-953.3093150663732
 20
156.0922670277324
 30
0.0
 70
    32
  0
VERTEX
  5
19C
  8
0
  6
________________
 62
     9
 10
-953.2797542536908
 20
156.097563298775
 30
0.0
 70
    32
  0
VERTEX
  5
19D
  8
0
  6
________________
 62
     9
 10
-953.2499999999999
 20
156.101817107379
 30
0.0
 70
    32
  0
SEQEND
  5
19E
  8
0
  6
________________
 62
     9
  0
POLYLINE
  5
19F
  8
0
  6
________________
 62
     9
 10
0.0
 20
0.0
 30
0.0
 66
     1
 70
     8
  0
VERTEX
  5
1A0
  8
0
  6
________________
 62
     9
 10
-945.2499999999999
 20
156.101817107379
 30
0.0
 70
    32
  0
VERTEX
  5
1A1
  8
0
  6
________________
 62
     9
 10
-945.2165645001886
 20
156.0969568355821
 30
0.0
 70
    32
  0
VERTEX
  5
1A2
  8
0
  6
________________
 62
     9
 10
-945.1833409458151
 20
156.0907753017935
 30
0.0
 70
    32
  0
VERTEX
  5
1A3
  8
0
  6
________________
 62
     9
 10
-945.1504460285933
 20
156.0833279180553
 30
0.0
 70
    32
  0
VERTEX
  5
1A4
  8
0
  6
________________
 62
     9
 10
-945.117996440237
 20
156.0746700964098
 30
0.0
 70
    32
  0
VERTEX
  5
1A5
  8
0
  6
________________
 62
     9
 10
-945.084766755853
 20
156.0644285389302
 30
0.0
 70
    32
  0
VERTEX
  5
1A6
  8
0
  6
________________
 62
     9
 10
-945.0520673115363
 20
156.0529819104221
 30
0.0
 70
    32
  0
VERTEX
  5
1A7
  8
0
  6
________________
 62
     9
 10
-945.0199782596691
 20
156.0404106469756
 30
0.0
 70
    32
  0
VERTEX
  5
1A8
  8
0
  6
________________
 62
     9
 10
-944.9885797526339
 20
156.0267951846809
 30
0.0
 70
    32
  0
VERTEX
  5
1A9
  8
0
  6
________________
 62
     9
 10
-944.9683379257835
 20
156.0173108158454
 30
0.0
 70
    32
  0
VERTEX
  5
1AA
  8
0
  6
________________
 62
     9
 10
-944.9484004948673
 20
156.0074184857775
 30
0.0
 70
    32
  0
VERTEX
  5
1AB
  8
0
  6
________________
 62
     9
 10
-944.9119791724589
 20
155.9879000074001
 30
0.0
 70
    32
  0
VERTEX
  5
1AC
  8
0
  6
________________
 62
     9
 10
-944.876632190426
 20
155.9671134170439
 30
0.0
 70
    32
  0
VERTEX
  5
1AD
  8
0
  6
________________
 62
     9
 10
-944.8424042522198
 20
155.9451835790762
 30
0.0
 70
    32
  0
VERTEX
  5
1AE
  8
0
  6
________________
 62
     9
 10
-944.8093400612917
 20
155.9222353578641
 30
0.0
 70
    32
  0
VERTEX
  5
1AF
  8
0
  6
________________
 62
     9
 10
-944.7658165354442
 20
155.889228892469
 30
0.0
 70
    32
  0
VERTEX
  5
1B0
  8
0
  6
________________
 62
     9
 10
-944.7243603307041
 20
155.8546273780153
 30
0.0
 70
    32
  0
VERTEX
  5
1B1
  8
0
  6
________________
 62
     9
 10
-944.6849843821292
 20
155.8186618399859
 30
0.0
 70
    32
  0
VERTEX
  5
1B2
  8
0
  6
________________
 62
     9
 10
-944.6337719817792
 20
155.7669018966285
 30
0.0
 70
    32
  0
VERTEX
  5
1B3
  8
0
  6
________________
 62
     9
 10
-944.5861869236419
 20
155.7130750090201
 30
0.0
 70
    32
  0
VERTEX
  5
1B4
  8
0
  6
________________
 62
     9
 10
-944.5421556144169
 20
155.6575202918395
 30
0.0
 70
    32
  0
VERTEX
  5
1B5
  8
0
  6
________________
 62
     9
 10
-944.5016044608036
 20
155.6005768597652
 30
0.0
 70
    32
  0
VERTEX
  5
1B6
  8
0
  6
________________
 62
     9
 10
-944.4644598695014
 20
155.5425838274759
 30
0.0
 70
    32
  0
VERTEX
  5
1B7
  8
0
  6
________________
 62
     9
 10
-944.4236143937089
 20
155.4708202422803
 30
0.0
 70
    32
  0
VERTEX
  5
1B8
  8
0
  6
________________
 62
     9
 10
-944.3872784771124
 20
155.3977666956609
 30
0.0
 70
    32
  0
VERTEX
  5
1B9
  8
0
  6
________________
 62
     9
 10
-944.355370965446
 20
155.3237141429698
 30
0.0
 70
    32
  0
VERTEX
  5
1BA
  8
0
  6
________________
 62
     9
 10
-944.3278107044433
 20
155.2489535395587
 30
0.0
 70
    32
  0
VERTEX
  5
1BB
  8
0
  6
________________
 62
     9
 10
-944.3045165398382
 20
155.1737758407798
 30
0.0
 70
    32
  0
VERTEX
  5
1BC
  8
0
  6
________________
 62
     9
 10
-944.2849600511829
 20
155.0964259964524
 30
0.0
 70
    32
  0
VERTEX
  5
1BD
  8
0
  6
________________
 62
     9
 10
-944.269704103239
 20
155.0187270184437
 30
0.0
 70
    32
  0
VERTEX
  5
1BE
  8
0
  6
________________
 62
     9
 10
-944.2587747456388
 20
154.940901290112
 30
0.0
 70
    32
  0
VERTEX
  5
1BF
  8
0
  6
________________
 62
     9
 10
-944.252198028015
 20
154.8631711948157
 30
0.0
 70
    32
  0
VERTEX
  5
1C0
  8
0
  6
________________
 62
     9
 10
-944.2499999999999
 20
154.7857591159129
 30
0.0
 70
    32
  0
SEQEND
  5
1C1
  8
0
  6
________________
 62
     9
  0
LINE
  5
1C2
  8
0
  6
________________
 62
     9
 10
-945.1960642918368
 20
156.9661613324334
 30
0.0
 11
-945.2499999999998
 21
156.101817107379
 31
0.0
  0
POLYLINE
  5
1C3
  8
0
  6
________________
 62
     9
 10
0.0
 20
0.0
 30
0.0
 66
     1
 70
     8
  0
VERTEX
  5
1C4
  8
0
  6
________________
 62
     9
 10
-1006.763802043734
 20
63.41319306144835
 30
0.0
 70
    32
  0
VERTEX
  5
1C5
  8
0
  6
________________
 62
     9
 10
-1006.797566921787
 20
63.50865392439603
 30
0.0
 70
    32
  0
VERTEX
  5
1C6
  8
0
  6
________________
 62
     9
 10
-1006.820475866802
 20
63.60902539637561
 30
0.0
 70
    32
  0
VERTEX
  5
1C7
  8
0
  6
________________
 62
     9
 10
-1006.832850191911
 20
63.72158520546259
 30
0.0
 70
    32
  0
VERTEX
  5
1C8
  8
0
  6
________________
 62
     9
 10
-1006.831951303029
 20
63.84449809765169
 30
0.0
 70
    32
  0
SEQEND
  5
1CA
  8
0
  6
________________
 62
     9
  0
ARC
  5
1C9
  8
0
  6
________________
 62
     9
 10
1005.416730468212
 20
63.70337223536882
 30
0.0
 40
1.422239965795021
 50
5.694710347991431
 51
60.17605634818351
210
0.0
220
0.0
230
-1.0
  0
LINE
  5
1CB
  8
0
  6
________________
 62
     9
 10
-1007.539313954327
 20
63.02773064236133
 30
0.0
 11
-1006.763802043734
 21
63.41319306144835
 31
0.0
  0
POLYLINE
  5
1CC
  8
0
  6
________________
 62
     9
 10
0.0
 20
0.0
 30
0.0
 66
     1
 70
     8
  0
VERTEX
  5
1CD
  8
0
  6
________________
 62
     9
 10
-895.7361979562658
 20
56.48498983117281
 30
0.0
 70
    32
  0
VERTEX
  5
1CE
  8
0
  6
________________
 62
     9
 10
-895.8019870496189
 20
56.40801815754887
 30
0.0
 70
    32
  0
VERTEX
  5
1CF
  8
0
  6
________________
 62
     9
 10
-895.8774568216611
 20
56.33799269320242
 30
0.0
 70
    32
  0
VERTEX
  5
1D0
  8
0
  6
________________
 62
     9
 10
-895.9687493132211
 20
56.27099630875995
 30
0.0
 70
    32
  0
VERTEX
  5
1D1
  8
0
  6
________________
 62
     9
 10
-896.0756444447504
 20
56.21031832327223
 30
0.0
 70
    32
  0
SEQEND
  5
1D3
  8
0
  6
________________
 62
     9
  0
ARC
  5
1D2
  8
0
  6
________________
 62
     9
 10
896.6610362802908
 20
57.50649844932984
 30
0.0
 40
1.422239965794856
 50
245.6947103479881
 51
300.1760563481864
210
0.0
220
0.0
230
-1.0
  0
LINE
  5
1D4
  8
0
  6
________________
 62
     9
 10
-895.7361979562658
 20
56.48498983117281
 30
0.0
 11
-895.0146217538357
 21
56.00610802520536
 31
0.0
  0
LINE
  5
1D5
  8
0
  6
________________
 62
     9
 10
-953.2499999999999
 20
156.1018171073789
 30
0.0
 11
-953.2499999999999
 21
147.0000000000001
 31
0.0
  0
LINE
  5
1D6
  8
0
  6
________________
 62
     9
 10
-954.2499999999998
 20
147.0000000000001
 30
0.0
 11
-953.2499999999998
 21
147.0000000000001
 31
0.0
  0
LINE
  5
1D7
  8
0
  6
________________
 62
     9
 10
-891.7361979562658
 20
63.41319306144833
 30
0.0
 11
-899.6186027918557
 21
67.96410161513778
 31
0.0
  0
LINE
  5
1D8
  8
0
  6
________________
 62
     9
 10
-899.6186027918558
 20
67.96410161513778
 30
0.0
 11
-899.1186027918558
 21
68.83012701892218
 31
0.0
  0
LINE
  5
1D9
  8
0
  6
________________
 62
     9
 10
-1002.763802043734
 20
56.48498983117284
 30
0.0
 11
-994.881397208144
 21
61.03589838486229
 31
0.0
  0
LINE
  5
1DA
  8
0
  6
________________
 62
     9
 10
-994.381397208144
 20
60.16987298107784
 30
0.0
 11
-994.881397208144
 21
61.03589838486229
 31
0.0
  0
LINE
  5
1DB
  8
0
  6
________________
 62
     9
 10
-945.2499999999999
 20
147.0000000000001
 30
0.0
 11
-945.2499999999999
 21
156.101817107379
 31
0.0
  0
LINE
  5
1DC
  8
0
  6
________________
 62
     9
 10
-944.2499999999999
 20
147.0000000000001
 30
0.0
 11
-945.2499999999999
 21
147.0000000000001
 31
0.0
  0
LINE
  5
1DD
  8
0
  6
________________
 62
     9
 10
-998.881397208144
 20
67.96410161513779
 30
0.0
 11
-1006.763802043734
 21
63.41319306144835
 31
0.0
  0
LINE
  5
1DE
  8
0
  6
________________
 62
     9
 10
-999.381397208144
 20
68.83012701892224
 30
0.0
 11
-998.881397208144
 21
67.96410161513779
 31
0.0
  0
LINE
  5
1DF
  8
0
  6
________________
 62
     9
 10
-903.6186027918558
 20
61.03589838486226
 30
0.0
 11
-904.1186027918558
 21
60.16987298107782
 31
0.0
  0
LINE
  5
1E0
  8
0
  6
________________
 62
     9
 10
-903.6186027918558
 20
61.03589838486226
 30
0.0
 11
-895.7361979562659
 21
56.48498983117281
 31
0.0
  0
ARC
  5
1E1
  8
0
  6
________________
 62
     9
 10
-996.881397208144
 20
64.50000000000006
 30
0.0
 40
3.999999999999984
 50
299.9999999999998
 51
120.0
  0
ARC
  5
1E2
  8
0
  6
________________
 62
     9
 10
-901.6186027918558
 20
64.50000000000003
 30
0.0
 40
3.999999999999991
 50
60.00000000000001
 51
240.0
  0
ARC
  5
1E3
  8
0
  6
________________
 62
     9
 10
-949.2499999999999
 20
147.0000000000001
 30
0.0
 40
4.000000000000004
 50
180.0
 51
0.0
  0
ARC
  5
1E4
  8
0
  6
________________
 62
     9
 10
-949.2499999999999
 20
92.00000000000006
 30
0.0
 40
64.22649730810377
 50
86.42933144259167
 51
93.57066855740834
  0
ARC
  5
1E5
  8
0
  6
________________
 62
     9
 10
-949.2499999999999
 20
92.00000000000006
 30
0.0
 40
64.22649730810373
 50
326.4293314425916
 51
333.5706685574083
  0
ARC
  5
1E6
  8
0
  6
________________
 62
     9
 10
-949.2499999999999
 20
92.00000000000006
 30
0.0
 40
64.22649730810375
 50
206.4293314425917
 51
213.5706685574084
  0
CIRCLE
  5
1E7
  8
0
  6
________________
 62
     9
 10
-949.2499999999999
 20
92.00000000000006
 30
0.0
 40
0.5547187857623572
  0
LINE
  5
1E8
  8
0
  6
________________
 62
     7
 10
-888.2154705476233
 20
-108.6499999999999
 30
0.0
 11
-1010.284529452376
 21
-108.6499999999999
 31
0.0
  0
ARC
  5
1E9
  8
0
  6
________________
 62
     7
 10
947.1449640162925
 20
-19.58671382789748
 30
0.0
 40
3.264347840279024
 50
358.983041893854
 51
14.68285822966982
210
0.0
220
0.0
230
-1.0
  0
LINE
  5
1EA
  8
0
  6
________________
 62
     7
 10
-950.3027101020062
 20
-18.75930432801601
 30
0.0
 11
-950.2591203694507
 21
-18.67788846103585
 31
0.0
  0
LINE
  5
1EB
  8
0
  6
________________
 62
     7
 10
-991.1340477354627
 20
2.068993806157847
 30
0.0
 11
-990.9979972822473
 21
2.093302622114695
 31
0.0
  0
LINE
  5
1EC
  8
0
  6
________________
 62
     7
 10
-907.5019895542305
 20
2.093301202361241
 30
0.0
 11
-907.3658979356356
 21
2.068980152757813
 31
0.0
  0
LINE
  5
1ED
  8
0
  6
________________0
 62
     2
 10
-949.2499999999999
 20
-151.1499999999999
 30
0.0
 11
-949.2499999999999
 21
5.650000000000071
 31
0.0
  0
LINE
  5
1EF
  8
0
  6
________________0
 62
     2
 10
-949.2499999999999
 20
19.00000000000004
 30
0.0
 11
-949.2499999999999
 21
165.0000000000001
 31
0.0
  0
LINE
  5
1F0
  8
0
  6
________________0
 62
     2
 10
-1022.25
 20
92.00000000000006
 30
0.0
 11
-876.25
 21
92.00000000000006
 31
0.0
  0
LINE
  5
1F1
  8
0
  6
________________
 62
     7
 10
-918.9469505618425
 20
2.257710218828174
 30
0.0
 11
-979.5530494381572
 21
2.257710218828174
 31
0.0
  0
LINE
  5
1F2
  8
0
  6
________________
 62
     7
 10
-896.9822618093623
 20
-6.201287111019194
 30
0.0
 11
-897.107751329933
 21
-5.951448846606838
 31
0.0
  0
LINE
  5
1F3
  8
0
  6
________________
 62
     7
 10
-887.7154895860914
 20
-108.1543632677488
 30
0.0
 11
-887.5668227245792
 21
-91.11882828811268
 31
0.0
  0
LINE
  5
1F4
  8
0
  6
________________
 62
     7
 10
-1010.93317727542
 20
-91.11882828811268
 30
0.0
 11
-1010.784510413908
 21
-108.1543632677488
 31
0.0
  0
LINE
  5
1F5
  8
0
  6
________________
 62
     7
 10
-904.7499999999998
 20
-24.44999999999994
 30
0.0
 11
-993.7499999999999
 21
-24.44999999999994
 31
0.0
  0
LINE
  5
1F6
  8
0
  6
________________
 62
     7
 10
-879.2499999999998
 20
-33.64999999999996
 30
0.0
 11
-1019.25
 21
-33.64999999999996
 31
0.0
  0
LINE
  5
1F7
  8
0
  6
________________
 62
     7
 10
-950.5640796376711
 20
-18.65337710365325
 30
0.0
 11
-947.9359203623288
 21
-18.65337710365325
 31
0.0
  0
LINE
  5
1F8
  8
0
  6
________________
 62
     7
 10
-904.1186027918559
 20
60.16987298107746
 30
0.0
 11
-897.375937609729
 21
56.27699342312143
 31
0.0
  0
LINE
  5
1F9
  8
0
  6
________________
 62
     7
 10
-892.375937609729
 20
64.93724746096582
 30
0.0
 11
-899.1186027918557
 21
68.83012701892217
 31
0.0
  0
LINE
  5
1FA
  8
0
  6
________________
 62
     7
 10
-1001.124062390271
 20
56.27699342312145
 30
0.0
 11
-994.3813972081439
 21
60.16987298107769
 31
0.0
  0
LINE
  5
1FB
  8
0
  6
________________
 62
     7
 10
-999.3813972081441
 20
68.8301270189224
 30
0.0
 11
-1006.124062390271
 21
64.93724746096582
 31
0.0
  0
LINE
  5
1FC
  8
0
  6
________________
 62
     7
 10
-944.249999999999
 20
147.0000000000001
 30
0.0
 11
-944.2499999999998
 21
154.7857591159129
 31
0.0
  0
LINE
  5
1FD
  8
0
  6
________________
 62
     7
 10
-954.2499999999998
 20
154.7857591159129
 30
0.0
 11
-954.2499999999998
 21
147.0000000000001
 31
0.0
  0
ARC
  5
1FE
  8
0
  6
________________
 62
     7
 10
-949.2499999999998
 20
-4997.649999999999
 30
0.0
 40
5000.0
 50
89.42591540601558
 51
89.65100551248058
  0
ARC
  5
1FF
  8
0
  6
________________
 62
     7
 10
-949.2499999999998
 20
-4997.649999999999
 30
0.0
 40
5000.0
 50
90.34899448751939
 51
90.57408459398442
  0
CIRCLE
  5
200
  8
0
  6
________________
 62
     7
 10
949.2499999999999
 20
92.00000000000006
 30
0.0
 40
70.00000000000004
210
0.0
220
0.0
230
-1.0
  0
ARC
  5
201
  8
0
  6
________________
 62
     7
 10
-949.2499999999999
 20
147.0000000000001
 30
0.0
 40
4.999999999999981
 50
180.0
 51
0.0
  0
ARC
  5
202
  8
0
  6
________________
 62
     7
 10
-996.881397208144
 20
64.50000000000006
 30
0.0
 40
5.000000000000004
 50
300.0000000000007
 51
119.9999999999995
  0
ARC
  5
203
  8
0
  6
________________
 62
     7
 10
-901.6186027918558
 20
64.50000000000003
 30
0.0
 40
4.999999999999967
 50
59.99999999999937
 51
240.0000000000005
  0
INSERT
  5
204
  8
0
 62
     2
  2
*X3
 10
0.0
 20
0.0
 30
0.0
  0
ENDSEC
  0
EOF
