  0
SECTION
  2
HEADER
  9
$ACADVER
  1
AC1006
  9
$DWGCODEPAGE
  3
ansi_932
  9
$INSBASE
 10
0.0
 20
0.0
 30
0.0
  9
$EXTMIN
 10
426.9584024445405
 20
-219.7694199810606
  9
$EXTMAX
 10
541.3749308887928
 20
29.70826422212616
  9
$LIMMIN
 10
0.0
 20
0.0
  9
$LIMMAX
 10
12.0
 20
9.0
  9
$ORTHOMODE
 70
     0
  9
$REGENMODE
 70
     1
  9
$FILLMODE
 70
     1
  9
$QTEXTMODE
 70
     0
  9
$MIRRTEXT
 70
     1
  9
$DRAGMODE
 70
     2
  9
$LTSCALE
 40
1.0
  9
$OSMODE
 70
    37
  9
$ATTMODE
 70
     1
  9
$TEXTSIZE
 40
0.2
  9
$TRACEWID
 40
0.05
  9
$TEXTSTYLE
  7
STANDARD
  9
$CLAYER
  8
0
  9
$CELTYPE
  6
BYLAYER
  9
$CECOLOR
 62
   256
  9
$DIMSCALE
 40
1.0
  9
$DIMASZ
 40
3.0
  9
$DIMEXO
 40
0.0625
  9
$DIMDLI
 40
0.38
  9
$DIMRND
 40
0.0
  9
$DIMDLE
 40
0.0
  9
$DIMEXE
 40
0.18
  9
$DIMTP
 40
0.0
  9
$DIMTM
 40
0.0
  9
$DIMTXT
 40
3.0
  9
$DIMCEN
 40
0.09
  9
$DIMTSZ
 40
0.0
  9
$DIMTOL
 70
     0
  9
$DIMLIM
 70
     0
  9
$DIMTIH
 70
     1
  9
$DIMTOH
 70
     1
  9
$DIMSE1
 70
     0
  9
$DIMSE2
 70
     0
  9
$DIMTAD
 70
     1
  9
$DIMZIN
 70
     0
  9
$DIMBLK
  1

  9
$DIMASO
 70
     1
  9
$DIMSHO
 70
     1
  9
$DIMPOST
  1

  9
$DIMAPOST
  1

  9
$DIMALT
 70
     0
  9
$DIMALTD
 70
     2
  9
$DIMALTF
 40
25.4
  9
$DIMLFAC
 40
1.0
  9
$DIMTOFL
 70
     0
  9
$DIMTVP
 40
0.0
  9
$DIMTIX
 70
     0
  9
$DIMSOXD
 70
     0
  9
$DIMSAH
 70
     0
  9
$DIMBLK1
  1

  9
$DIMBLK2
  1

  9
$LUNITS
 70
     2
  9
$LUPREC
 70
     4
  9
$SKETCHINC
 40
0.1
  9
$FILLETRAD
 40
0.5
  9
$AUNITS
 70
     0
  9
$AUPREC
 70
     0
  9
$MENU
  1
.
  9
$ELEVATION
 40
0.0
  9
$THICKNESS
 40
0.0
  9
$LIMCHECK
 70
     0
  9
$CHAMFERA
 40
0.5
  9
$CHAMFERB
 40
0.5
  9
$SKPOLY
 70
     0
  9
$TDCREATE
 40
2459731.55803
  9
$TDUPDATE
 40
2459731.558030012
  9
$TDINDWG
 40
0.0000000116
  9
$TDUSRTIMER
 40
0.0000000116
  9
$USRTIMER
 70
     1
  9
$ANGBASE
 50
0.0
  9
$ANGDIR
 70
     0
  9
$PDMODE
 70
     0
  9
$PDSIZE
 40
0.0
  9
$PLINEWID
 40
0.0
  9
$COORDS
 70
     1
  9
$SPLFRAME
 70
     0
  9
$SPLINETYPE
 70
     6
  9
$SPLINESEGS
 70
     8
  9
$ATTDIA
 70
     0
  9
$ATTREQ
 70
     1
  9
$HANDLING
 70
     1
  9
$HANDSEED
  5
90
  9
$SURFTAB1
 70
     6
  9
$SURFTAB2
 70
     6
  9
$SURFTYPE
 70
     6
  9
$SURFU
 70
     6
  9
$SURFV
 70
     6
  9
$UCSNAME
  2

  9
$UCSORG
 10
0.0
 20
0.0
 30
0.0
  9
$UCSXDIR
 10
1.0
 20
0.0
 30
0.0
  9
$UCSYDIR
 10
0.0
 20
1.0
 30
0.0
  9
$USERI1
 70
     0
  9
$USERI2
 70
     0
  9
$USERI3
 70
     0
  9
$USERI4
 70
     0
  9
$USERI5
 70
     0
  9
$USERR1
 40
0.0
  9
$USERR2
 40
0.0
  9
$USERR3
 40
0.0
  9
$USERR4
 40
0.0
  9
$USERR5
 40
0.0
  9
$WORLDVIEW
 70
     1
  0
ENDSEC
  0
SECTION
  2
TABLES
  0
TABLE
  2
VPORT
 70
     1
  0
VPORT
  2
*ACTIVE
 70
     0
 10
0.0
 20
0.0
 11
1.0
 21
1.0
 12
484.1666666666667
 22
-95.03057787946722
 13
0.0
 23
0.0
 14
0.5
 24
0.5
 15
0.5
 25
0.5
 16
0.0
 26
0.0
 36
1.0
 17
0.0
 27
0.0
 37
0.0
 40
249.4776842031868
 41
1.6
 42
50.0
 43
0.0
 44
0.0
 50
0.0
 51
0.0
 71
     0
 72
   100
 73
     1
 74
     3
 75
     0
 76
     0
 77
     0
 78
     0
  0
ENDTAB
  0
TABLE
  2
LTYPE
 70
     2
  0
LTYPE
  2
CONTINUOUS
 70
     0
  3
Solid line
 72
    65
 73
     0
 40
0.0
  0
LTYPE
  2
________________
 70
     0
  3

 72
    65
 73
     0
 40
0.0
  0
ENDTAB
  0
TABLE
  2
LAYER
 70
     2
  0
LAYER
  2
0
 70
     0
 62
     7
  6
CONTINUOUS
  0
LAYER
  2
1
 70
     0
 62
     7
  6
CONTINUOUS
  0
ENDTAB
  0
TABLE
  2
STYLE
 70
     2
  0
STYLE
  2
STANDARD
 70
     0
 40
0.0
 41
1.0
 50
0.0
 71
     0
 42
0.2
  3
txt
  4

  0
STYLE
  2
EXPLODED0
 70
     0
 40
0.2
 41
1.0
 50
0.0
 71
     0
 42
0.2
  3
ＭＳ ゴシック
  4

  0
ENDTAB
  0
TABLE
  2
VIEW
 70
     0
  0
ENDTAB
  0
TABLE
  2
UCS
 70
     0
  0
ENDTAB
  0
ENDSEC
  0
SECTION
  2
BLOCKS
  0
ENDSEC
  0
SECTION
  2
ENTITIES
  0
CIRCLE
  5
3C
  8
1
  6
________________
 62
     7
 10
-484.1666666666667
 20
-27.5
 30
0.0
 40
57.20826422212616
210
0.0
220
0.0
230
-1.0
  0
LINE
  5
3E
  8
1
  6
________________
 62
     7
 10
448.8916748608582
 20
-167.0826261799198
 30
0.0
 11
448.926468093589
 21
-167.1352719140788
 31
0.0
  0
LINE
  5
3F
  8
1
  6
________________
 62
     7
 10
449.1227886375859
 20
-167.1352480511958
 30
0.0
 11
448.9264680935891
 21
-167.1352719140788
 31
0.0
  0
LINE
  5
40
  8
1
  6
________________
 62
     7
 10
520.494728691242
 20
-167.1355939875882
 30
0.0
 11
519.2105359558067
 21
-167.135240189604
 31
0.0
  0
LINE
  5
41
  8
1
  6
________________
 62
     7
 10
524.5194438467449
 20
-167.1403424327996
 30
0.0
 11
520.494728691242
 21
-167.1355939875882
 31
0.0
  0
LINE
  5
42
  8
1
  6
________________
 62
     7
 10
527.599923646476
 20
-167.1388646471854
 30
0.0
 11
524.5194438467449
 21
-167.1403424327996
 31
0.0
  0
LINE
  5
43
  8
1
  6
________________
 62
     7
 10
527.6449667357258
 20
-167.0833333333333
 30
0.0
 11
527.599923646476
 21
-167.1388646471854
 31
0.0
  0
LINE
  5
44
  8
1
  6
________________
 62
     7
 10
527.6003791399925
 20
-167.0833333333345
 30
0.0
 11
527.599923646476
 21
-167.1388646471854
 31
0.0
  0
LINE
  5
45
  8
1
  6
________________
 62
     7
 10
448.9264680935891
 20
-167.1352719140788
 30
0.0
 11
448.9261208362333
 21
-167.0833333333336
 31
0.0
  0
LINE
  5
46
  8
1
  6
________________
 62
     7
 10
516.9503180351088
 20
-205.5833333333333
 30
0.0
 11
451.3830152982246
 21
-205.5833333333333
 31
0.0
  0
LINE
  5
47
  8
1
  6
________________
 62
     7
 10
541.1916666666667
 20
-146.0833335029008
 30
0.0
 11
427.1416666666667
 21
-146.0833335029007
 31
0.0
  0
LINE
  5
48
  8
1
  6
________________
 62
     7
 10
541.3749308887928
 20
-167.0833333333333
 30
0.0
 11
426.9584024445405
 21
-167.0833333333333
 31
0.0
  0
LINE
  5
49
  8
1
  6
________________
 62
     7
 10
518.3528590304351
 20
-181.52737208934
 30
0.0
 11
530.8166666666667
 21
-167.0833333333334
 31
0.0
  0
LINE
  5
4A
  8
1
  6
________________
 62
     7
 10
437.5166666666667
 20
-167.0833333333333
 30
0.0
 11
449.9798723805398
 21
-181.5158867265425
 31
0.0
  0
LINE
  5
4B
  8
1
  6
________________
 62
     7
 10
450.7171160173845
 20
-195.5833333333333
 30
0.0
 11
450.8830914506463
 21
-205.092059536552
 31
0.0
  0
LINE
  5
4C
  8
1
  6
________________
 62
     7
 10
517.450241882687
 20
-205.092059536552
 30
0.0
 11
517.6162173159488
 21
-195.5833333333333
 31
0.0
  0
ARC
  5
4D
  8
1
  6
________________
 62
     7
 10
516.9503180351088
 20
-205.0833333333333
 30
0.0
 40
0.5000000000000004
 50
270.0
 51
358.9999999999998
  0
ARC
  5
4E
  8
1
  6
________________
 62
     7
 10
451.3830152982246
 20
-205.0833333333333
 30
0.0
 40
0.4999999999999917
 50
181.0000000000002
 51
270.0
  0
LINE
  5
4F
  8
1
  6
________________
 62
     7
 10
541.3749308887928
 20
-167.0833333333333
 30
0.0
 11
541.1916666666667
 21
-146.0833335029008
 31
0.0
  0
LINE
  5
50
  8
1
  6
________________
 62
     7
 10
427.1416666666667
 20
-146.0833335029007
 30
0.0
 11
426.9584024445405
 21
-167.0833333333333
 31
0.0
  0
LINE
  5
51
  8
1
  6
________________
 62
     7
 10
541.1916666666667
 20
-146.0833335029008
 30
0.0
 11
540.0959473476863
 21
-141.2060754284507
 31
0.0
  0
LINE
  5
52
  8
1
  6
________________
 62
     7
 10
540.0959473476863
 20
-141.2060754284507
 30
0.0
 11
536.8508971191345
 21
-136.516247641701
 31
0.0
  0
LINE
  5
53
  8
1
  6
________________
 62
     7
 10
536.8508971191345
 20
-136.516247641701
 30
0.0
 11
531.5812214425226
 21
-132.1940775959621
 31
0.0
  0
LINE
  5
54
  8
1
  6
________________
 62
     7
 10
531.5812214425226
 20
-132.1940775959621
 30
0.0
 11
524.4894310005781
 21
-128.4056638636208
 31
0.0
  0
LINE
  5
55
  8
1
  6
________________
 62
     7
 10
524.4894310005781
 20
-128.4056638636208
 30
0.0
 11
515.848059325209
 21
-125.2965930610972
 31
0.0
  0
LINE
  5
56
  8
1
  6
________________
 62
     7
 10
515.848059325209
 20
-125.2965930610972
 30
0.0
 11
505.9891894866212
 21
-122.9863450367738
 31
0.0
  0
LINE
  5
57
  8
1
  6
________________
 62
     7
 10
505.9891894866212
 20
-122.9863450367738
 30
0.0
 11
495.2916923270553
 21
-121.5637013273877
 31
0.0
  0
LINE
  5
58
  8
1
  6
________________
 62
     7
 10
495.2916923270553
 20
-121.5637013273877
 30
0.0
 11
484.1666666666667
 21
-121.0833333333333
 31
0.0
  0
LINE
  5
59
  8
1
  6
________________
 62
     7
 10
484.1666666666667
 20
-121.0833333333334
 30
0.0
 11
473.041641006278
 21
-121.5637013273877
 31
0.0
  0
LINE
  5
5A
  8
1
  6
________________
 62
     7
 10
473.041641006278
 20
-121.5637013273877
 30
0.0
 11
462.3441438467121
 21
-122.9863450367739
 31
0.0
  0
LINE
  5
5B
  8
1
  6
________________
 62
     7
 10
462.3441438467121
 20
-122.9863450367739
 30
0.0
 11
452.4852740081244
 21
-125.2965930610972
 31
0.0
  0
LINE
  5
5C
  8
1
  6
________________
 62
     7
 10
452.4852740081244
 20
-125.2965930610972
 30
0.0
 11
443.8439023327552
 21
-128.4056638636208
 31
0.0
  0
LINE
  5
5D
  8
1
  6
________________
 62
     7
 10
443.8439023327552
 20
-128.4056638636208
 30
0.0
 11
436.7521118908107
 21
-132.1940775959621
 31
0.0
  0
LINE
  5
5E
  8
1
  6
________________
 62
     7
 10
436.7521118908107
 20
-132.1940775959621
 30
0.0
 11
431.4824362141989
 21
-136.516247641701
 31
0.0
  0
LINE
  5
5F
  8
1
  6
________________
 62
     7
 10
431.4824362141989
 20
-136.516247641701
 30
0.0
 11
428.2373859856469
 21
-141.2060754284507
 31
0.0
  0
LINE
  5
60
  8
1
  6
________________
 62
     7
 10
428.2373859856469
 20
-141.2060754284507
 30
0.0
 11
427.1416666666667
 21
-146.0833335029008
 31
0.0
  0
TEXT
  5
61
  8
1
 62
     7
 10
474.1439393939395
 20
-219.3787878787879
 30
0.0
 40
5.0
  1
VVD-PVP50
  7
EXPLODED0
  0
LINE
  5
62
  8
1
  6
________________
 62
     7
 10
474.1553030303031
 20
-219.7694199810606
 30
0.0
 11
503.4053030303032
 21
-219.7694199810606
 31
0.0
  0
LINE
  5
63
  8
0
  6
________________
 62
     7
 10
450.7171160173845
 20
-195.5833333333333
 30
0.0
 11
517.6162173159488
 21
-195.5833333333333
 31
0.0
  0
LINE
  5
64
  8
0
  6
________________
 62
     7
 10
517.6162173159488
 20
-195.5833333333333
 30
0.0
 11
518.3528590304351
 21
-181.52737208934
 31
0.0
  0
LINE
  5
65
  8
0
  6
________________
 62
     7
 10
450.7171160173845
 20
-195.5833333333333
 30
0.0
 11
449.9798723805399
 21
-181.5158867265425
 31
0.0
  0
POINT
  5
66
  8
0
 62
     9
 10
449.9798723805398
 20
-181.5158867265425
 30
0.0
  0
POINT
  5
67
  8
0
 62
     9
 10
518.3528590304351
 20
-181.52737208934
 30
0.0
  0
LINE
  5
68
  8
0
  6
________________
 62
     7
 10
449.9798723805398
 20
-181.5158867265425
 30
0.0
 11
518.3528590304351
 21
-181.52737208934
 31
0.0
  0
ENDSEC
  0
EOF
