  0
SECTION
  2
HEADER
  9
$ACADVER
  1
AC1006
  9
$DWGCODEPAGE
  3
ansi_932
  9
$INSBASE
 10
0.0
 20
0.0
 30
0.0
  9
$EXTMIN
 10
70.99999999999999
 20
91.99984842620957
  9
$EXTMAX
 10
148.0
 20
264.5
  9
$LIMMIN
 10
0.0
 20
0.0
  9
$LIMMAX
 10
12.0
 20
9.0
  9
$ORTHOMODE
 70
     0
  9
$REGENMODE
 70
     1
  9
$FILLMODE
 70
     1
  9
$QTEXTMODE
 70
     0
  9
$MIRRTEXT
 70
     1
  9
$DRAGMODE
 70
     2
  9
$LTSCALE
 40
1.0
  9
$OSMODE
 70
    37
  9
$ATTMODE
 70
     1
  9
$TEXTSIZE
 40
0.2
  9
$TRACEWID
 40
0.05
  9
$TEXTSTYLE
  7
STANDARD
  9
$CLAYER
  8
0
  9
$CELTYPE
  6
BYLAYER
  9
$CECOLOR
 62
   256
  9
$DIMSCALE
 40
1.0
  9
$DIMASZ
 40
3.0
  9
$DIMEXO
 40
0.0625
  9
$DIMDLI
 40
0.38
  9
$DIMRND
 40
0.0
  9
$DIMDLE
 40
0.0
  9
$DIMEXE
 40
1.5
  9
$DIMTP
 40
0.0
  9
$DIMTM
 40
0.0
  9
$DIMTXT
 40
3.0
  9
$DIMCEN
 40
0.09
  9
$DIMTSZ
 40
0.0
  9
$DIMTOL
 70
     0
  9
$DIMLIM
 70
     0
  9
$DIMTIH
 70
     1
  9
$DIMTOH
 70
     1
  9
$DIMSE1
 70
     0
  9
$DIMSE2
 70
     0
  9
$DIMTAD
 70
     1
  9
$DIMZIN
 70
     0
  9
$DIMBLK
  1

  9
$DIMASO
 70
     1
  9
$DIMSHO
 70
     1
  9
$DIMPOST
  1

  9
$DIMAPOST
  1

  9
$DIMALT
 70
     0
  9
$DIMALTD
 70
     2
  9
$DIMALTF
 40
25.4
  9
$DIMLFAC
 40
1.0
  9
$DIMTOFL
 70
     0
  9
$DIMTVP
 40
0.0
  9
$DIMTIX
 70
     0
  9
$DIMSOXD
 70
     0
  9
$DIMSAH
 70
     0
  9
$DIMBLK1
  1

  9
$DIMBLK2
  1

  9
$LUNITS
 70
     2
  9
$LUPREC
 70
     4
  9
$SKETCHINC
 40
0.1
  9
$FILLETRAD
 40
0.5
  9
$AUNITS
 70
     0
  9
$AUPREC
 70
     0
  9
$MENU
  1
.
  9
$ELEVATION
 40
0.0
  9
$THICKNESS
 40
0.0
  9
$LIMCHECK
 70
     0
  9
$CHAMFERA
 40
0.0
  9
$CHAMFERB
 40
0.0
  9
$SKPOLY
 70
     0
  9
$TDCREATE
 40
2458939.390535776
  9
$TDUPDATE
 40
2458939.39053603
  9
$TDINDWG
 40
0.0000000116
  9
$TDUSRTIMER
 40
0.0000000116
  9
$USRTIMER
 70
     1
  9
$ANGBASE
 50
0.0
  9
$ANGDIR
 70
     0
  9
$PDMODE
 70
     0
  9
$PDSIZE
 40
0.0
  9
$PLINEWID
 40
0.0
  9
$COORDS
 70
     1
  9
$SPLFRAME
 70
     0
  9
$SPLINETYPE
 70
     6
  9
$SPLINESEGS
 70
     8
  9
$ATTDIA
 70
     0
  9
$ATTREQ
 70
     1
  9
$HANDLING
 70
     1
  9
$HANDSEED
  5
1E9
  9
$SURFTAB1
 70
     6
  9
$SURFTAB2
 70
     6
  9
$SURFTYPE
 70
     6
  9
$SURFU
 70
     6
  9
$SURFV
 70
     6
  9
$UCSNAME
  2

  9
$UCSORG
 10
0.0
 20
0.0
 30
0.0
  9
$UCSXDIR
 10
1.0
 20
0.0
 30
0.0
  9
$UCSYDIR
 10
0.0
 20
1.0
 30
0.0
  9
$USERI1
 70
     0
  9
$USERI2
 70
     0
  9
$USERI3
 70
     0
  9
$USERI4
 70
     0
  9
$USERI5
 70
     0
  9
$USERR1
 40
0.0
  9
$USERR2
 40
0.0
  9
$USERR3
 40
0.0
  9
$USERR4
 40
0.0
  9
$USERR5
 40
0.0
  9
$WORLDVIEW
 70
     1
  0
ENDSEC
  0
SECTION
  2
TABLES
  0
TABLE
  2
VPORT
 70
     1
  0
VPORT
  2
*ACTIVE
 70
     0
 10
0.0
 20
0.0
 11
1.0
 21
1.0
 12
109.5
 22
178.2499242131048
 13
0.0
 23
0.0
 14
0.5
 24
0.5
 15
0.5
 25
0.5
 16
0.0
 26
0.0
 36
1.0
 17
0.0
 27
0.0
 37
0.0
 40
172.5001515737904
 41
1.6
 42
50.0
 43
0.0
 44
0.0
 50
0.0
 51
0.0
 71
     0
 72
   100
 73
     1
 74
     3
 75
     0
 76
     0
 77
     0
 78
     0
  0
ENDTAB
  0
TABLE
  2
LTYPE
 70
     1
  0
LTYPE
  2
CONTINUOUS
 70
     0
  3
Solid line
 72
    65
 73
     0
 40
0.0
  0
ENDTAB
  0
TABLE
  2
LAYER
 70
     1
  0
LAYER
  2
0
 70
     0
 62
     7
  6
CONTINUOUS
  0
ENDTAB
  0
TABLE
  2
STYLE
 70
     2
  0
STYLE
  2
STANDARD
 70
     0
 40
0.0
 41
1.0
 50
0.0
 71
     0
 42
0.2
  3
txt
  4

  0
STYLE
  2
ＭＳ_ゴシック
 70
     0
 40
0.0
 41
1.0
 50
0.0
 71
     0
 42
0.2
  3
ＭＳ ゴシック.shx
  4

  0
ENDTAB
  0
TABLE
  2
VIEW
 70
     0
  0
ENDTAB
  0
TABLE
  2
UCS
 70
     0
  0
ENDTAB
  0
ENDSEC
  0
SECTION
  2
BLOCKS
  0
BLOCK
  8
0
  2
D_FRAME_VIEW_7343
 70
     0
 10
0.0
 20
0.0
 30
0.0
  0
ARC
  5
70
  8
0
  6
CONTINUOUS
 62
     7
 10
82.28404827085615
 20
226.0
 30
0.0
 40
9.89689986234964
 50
340.5583865148445
 51
19.44161348515547
  0
LINE
  5
71
  8
0
  6
CONTINUOUS
 62
     7
 10
121.2944936285808
 20
239.8403731796775
 30
0.0
 11
121.4020041034591
 21
239.8203110265326
 31
0.0
  0
LINE
  5
72
  8
0
  6
CONTINUOUS
 62
     7
 10
115.5177383854498
 20
243.2175934228085
 30
0.0
 11
115.5888679571671
 21
243.1345176969634
 31
0.0
  0
ARC
  5
73
  8
0
  6
CONTINUOUS
 62
     7
 10
123.1079758645718
 20
249.5697055856095
 30
0.0
 40
9.896899862349551
 50
220.5583865148444
 51
259.4416134851557
  0
ARC
  5
74
  8
0
  6
CONTINUOUS
 62
     7
 10
95.89202413542816
 20
249.5697055856095
 30
0.0
 40
9.896899862349526
 50
280.5583865148443
 51
319.4416134851557
  0
ARC
  5
75
  8
0
  6
CONTINUOUS
 62
     7
 10
95.89202413542793
 20
202.4302944143902
 30
0.0
 40
9.896899862349853
 50
40.558386514845
 51
79.44161348515507
  0
LINE
  5
76
  8
0
  6
CONTINUOUS
 62
     7
 10
97.59799589654084
 20
239.8203110265326
 30
0.0
 11
97.70550637141922
 21
239.8403731796775
 31
0.0
  0
ARC
  5
77
  8
0
  6
CONTINUOUS
 62
     7
 10
136.7159517291438
 20
226.0
 30
0.0
 40
9.896899862349605
 50
160.5583865148443
 51
199.4416134851556
  0
LINE
  5
78
  8
0
  6
CONTINUOUS
 62
     7
 10
121.4020041034591
 20
212.1796889734674
 30
0.0
 11
121.2944936285808
 21
212.1596268203226
 31
0.0
  0
LINE
  5
79
  8
0
  6
CONTINUOUS
 62
     7
 10
127.3833615857479
 20
222.7058554827141
 30
0.0
 11
127.419742488909
 21
222.602717603724
 31
0.0
  0
ARC
  5
7A
  8
0
  6
CONTINUOUS
 62
     7
 10
120.0026739421589
 20
219.9362783722837
 30
0.0
 40
7.881802078341782
 50
280.2264676476273
 51
19.77353235237279
  0
ARC
  5
7B
  8
0
  6
CONTINUOUS
 62
     7
 10
98.99732605784104
 20
219.9362783722837
 30
0.0
 40
7.881802078341784
 50
160.2264676476274
 51
259.7735323523727
  0
ARC
  5
7C
  8
0
  6
CONTINUOUS
 62
     7
 10
109.5
 20
238.1274432554327
 30
0.0
 40
7.881802078341773
 50
40.22646764762726
 51
139.7735323523727
  0
ARC
  5
7D
  8
0
  6
CONTINUOUS
 62
     7
 10
109.5
 20
213.8725567445673
 30
0.0
 40
7.881802078341804
 50
220.2264676476274
 51
319.7735323523724
  0
LINE
  5
7E
  8
0
  6
CONTINUOUS
 62
     7
 10
91.580257511091
 20
222.602717603724
 30
0.0
 11
91.61663841425212
 21
222.7058554827141
 31
0.0
  0
LINE
  5
7F
  8
0
  6
CONTINUOUS
 62
     7
 10
103.4111320428329
 20
243.1345176969634
 30
0.0
 11
103.4822616145502
 21
243.2175934228085
 31
0.0
  0
LINE
  5
80
  8
0
  6
CONTINUOUS
 62
     7
 10
91.61663841425211
 20
229.2941445172859
 30
0.0
 11
91.580257511091
 21
229.397282396276
 31
0.0
  0
LINE
  5
81
  8
0
  6
CONTINUOUS
 62
     7
 10
103.4822616145502
 20
208.7824065771915
 30
0.0
 11
103.4111320428329
 21
208.8654823030366
 31
0.0
  0
LINE
  5
82
  8
0
  6
CONTINUOUS
 62
     7
 10
97.70550637141918
 20
212.1596268203226
 30
0.0
 11
97.59799589654085
 21
212.1796889734674
 31
0.0
  0
LINE
  5
83
  8
0
  6
CONTINUOUS
 62
     7
 10
115.5888679571671
 20
208.8654823030366
 30
0.0
 11
115.5177383854498
 21
208.7824065771914
 31
0.0
  0
ARC
  5
84
  8
0
  6
CONTINUOUS
 62
     7
 10
123.107975864572
 20
202.4302944143902
 30
0.0
 40
9.896899862349915
 50
100.558386514845
 51
139.4416134851548
  0
LINE
  5
85
  8
0
  6
CONTINUOUS
 62
     7
 10
127.4197424889089
 20
229.397282396276
 30
0.0
 11
127.3833615857479
 21
229.294144517286
 31
0.0
  0
ARC
  5
86
  8
0
  6
CONTINUOUS
 62
     7
 10
120.0026739421589
 20
232.0637216277163
 30
0.0
 40
7.881802078341816
 50
340.2264676476274
 51
79.77353235237257
  0
ARC
  5
87
  8
0
  6
CONTINUOUS
 62
     7
 10
98.99732605784101
 20
232.0637216277163
 30
0.0
 40
7.881802078341753
 50
100.226467647627
 51
199.7735323523727
  0
LINE
  5
88
  8
0
  6
CONTINUOUS
 62
     7
 10
87.4631780332237
 20
231.7742793410978
 30
0.0
 11
88.33802193863588
 21
229.2941445172859
 31
0.0
  0
LINE
  5
89
  8
0
  6
CONTINUOUS
 62
     7
 10
130.6619780613642
 20
229.2941445172859
 30
0.0
 11
131.5368219667763
 21
231.7742793410978
 31
0.0
  0
POLYLINE
  5
8A
  8
0
  6
CONTINUOUS
 62
     7
 66
     1
 10
0.0
 20
0.0
 30
0.0
  0
VERTEX
  5
131
  8
0
  6
CONTINUOUS
 62
     7
 10
87.46317803322368
 20
220.2257206589022
 30
0.0
  0
VERTEX
  5
132
  8
0
  6
CONTINUOUS
 62
     7
 10
87.09313804688448
 20
218.7432815777101
 30
0.0
  0
VERTEX
  5
133
  8
0
  6
CONTINUOUS
 62
     7
 10
87.01039406840738
 20
217.2239879258086
 30
0.0
  0
VERTEX
  5
134
  8
0
  6
CONTINUOUS
 62
     7
 10
87.21789937237737
 20
215.7220659008241
 30
0.0
  0
VERTEX
  5
135
  8
0
  6
CONTINUOUS
 62
     7
 10
87.70824773840545
 20
214.2911216772078
 30
0.0
  0
VERTEX
  5
136
  8
0
  6
CONTINUOUS
 62
     7
 10
88.46393779184375
 20
212.9822281098782
 30
0.0
  0
VERTEX
  5
137
  8
0
  6
CONTINUOUS
 62
     7
 10
89.45799765788004
 20
211.8421018563856
 30
0.0
  0
VERTEX
  5
138
  8
0
  6
CONTINUOUS
 62
     7
 10
90.65494763403498
 20
210.9114359792353
 30
0.0
  0
VERTEX
  5
139
  8
0
  6
CONTINUOUS
 62
     7
 10
92.01206652162868
 20
210.2234475406559
 30
0.0
  0
VERTEX
  5
13A
  8
0
  6
CONTINUOUS
 62
     7
 10
93.48091641867352
 20
209.8026920286456
 30
0.0
  0
SEQEND
  5
1D1
  8
0
  6
CONTINUOUS
 62
     7
  0
LINE
  5
8B
  8
0
  6
CONTINUOUS
 62
     7
 10
101.7718238050248
 20
206.0261171458867
 30
0.0
 11
103.4822616145502
 21
204.0284126875479
 31
0.0
  0
LINE
  5
8C
  8
0
  6
CONTINUOUS
 62
     7
 10
88.33802193863586
 20
222.705855482714
 30
0.0
 11
87.4631780332237
 21
220.2257206589022
 31
0.0
  0
POLYLINE
  5
8D
  8
0
  6
CONTINUOUS
 62
     7
 66
     1
 10
0.0
 20
0.0
 30
0.0
  0
VERTEX
  5
13B
  8
0
  6
CONTINUOUS
 62
     7
 10
115.5177383854498
 20
247.9715873124521
 30
0.0
  0
VERTEX
  5
13C
  8
0
  6
CONTINUOUS
 62
     7
 10
114.4189284747442
 20
249.0332708816339
 30
0.0
  0
VERTEX
  5
13D
  8
0
  6
CONTINUOUS
 62
     7
 10
113.1445535656276
 20
249.864576094956
 30
0.0
  0
VERTEX
  5
13E
  8
0
  6
CONTINUOUS
 62
     7
 10
111.7400982855027
 20
250.4358322427903
 30
0.0
  0
VERTEX
  5
13F
  8
0
  6
CONTINUOUS
 62
     7
 10
110.2556900534383
 20
250.7266502129139
 30
0.0
  0
VERTEX
  5
140
  8
0
  6
CONTINUOUS
 62
     7
 10
108.7443099465617
 20
250.7266502129139
 30
0.0
  0
VERTEX
  5
141
  8
0
  6
CONTINUOUS
 62
     7
 10
107.2599017144974
 20
250.4358322427903
 30
0.0
  0
VERTEX
  5
142
  8
0
  6
CONTINUOUS
 62
     7
 10
105.8554464343724
 20
249.864576094956
 30
0.0
  0
VERTEX
  5
143
  8
0
  6
CONTINUOUS
 62
     7
 10
104.5810715252558
 20
249.0332708816339
 30
0.0
  0
VERTEX
  5
144
  8
0
  6
CONTINUOUS
 62
     7
 10
103.4822616145502
 20
247.9715873124521
 30
0.0
  0
SEQEND
  5
1D2
  8
0
  6
CONTINUOUS
 62
     7
  0
LINE
  5
8E
  8
0
  6
CONTINUOUS
 62
     7
 10
131.5368219667763
 20
220.2257206589022
 30
0.0
 11
130.6619780613641
 21
222.705855482714
 31
0.0
  0
LINE
  5
8F
  8
0
  6
CONTINUOUS
 62
     7
 10
103.4822616145502
 20
247.9715873124521
 30
0.0
 11
101.7718238050248
 21
245.9738828541133
 31
0.0
  0
POLYLINE
  5
90
  8
0
  6
CONTINUOUS
 62
     7
 66
     1
 10
0.0
 20
0.0
 30
0.0
  0
VERTEX
  5
145
  8
0
  6
CONTINUOUS
 62
     7
 10
103.4822616145502
 20
204.0284126875479
 30
0.0
  0
VERTEX
  5
146
  8
0
  6
CONTINUOUS
 62
     7
 10
104.5810715252558
 20
202.966729118366
 30
0.0
  0
VERTEX
  5
147
  8
0
  6
CONTINUOUS
 62
     7
 10
105.8554464343724
 20
202.1354239050439
 30
0.0
  0
VERTEX
  5
148
  8
0
  6
CONTINUOUS
 62
     7
 10
107.2599017144973
 20
201.5641677572097
 30
0.0
  0
VERTEX
  5
149
  8
0
  6
CONTINUOUS
 62
     7
 10
108.7443099465617
 20
201.273349787086
 30
0.0
  0
VERTEX
  5
14A
  8
0
  6
CONTINUOUS
 62
     7
 10
110.2556900534383
 20
201.273349787086
 30
0.0
  0
VERTEX
  5
14B
  8
0
  6
CONTINUOUS
 62
     7
 10
111.7400982855027
 20
201.5641677572097
 30
0.0
  0
VERTEX
  5
14C
  8
0
  6
CONTINUOUS
 62
     7
 10
113.1445535656276
 20
202.1354239050439
 30
0.0
  0
VERTEX
  5
14D
  8
0
  6
CONTINUOUS
 62
     7
 10
114.4189284747442
 20
202.966729118366
 30
0.0
  0
VERTEX
  5
14E
  8
0
  6
CONTINUOUS
 62
     7
 10
115.5177383854498
 20
204.0284126875479
 30
0.0
  0
SEQEND
  5
1D3
  8
0
  6
CONTINUOUS
 62
     7
  0
LINE
  5
91
  8
0
  6
CONTINUOUS
 62
     7
 10
125.5190835813265
 20
242.1973079713543
 30
0.0
 11
122.9338018663889
 21
242.6797383368273
 31
0.0
  0
POLYLINE
  5
92
  8
0
  6
CONTINUOUS
 62
     7
 66
     1
 10
0.0
 20
0.0
 30
0.0
  0
VERTEX
  5
14F
  8
0
  6
CONTINUOUS
 62
     7
 10
117.2281761949752
 20
245.9738828541132
 30
0.0
  0
VERTEX
  5
150
  8
0
  6
CONTINUOUS
 62
     7
 10
118.8634342535382
 20
244.4511658885001
 30
0.0
  0
VERTEX
  5
151
  8
0
  6
CONTINUOUS
 62
     7
 10
120.7974612621129
 20
243.3345548744794
 30
0.0
  0
VERTEX
  5
152
  8
0
  6
CONTINUOUS
 62
     7
 10
122.9338018663889
 20
242.6797383368273
 30
0.0
  0
SEQEND
  5
1D4
  8
0
  6
CONTINUOUS
 62
     7
  0
LINE
  5
93
  8
0
  6
CONTINUOUS
 62
     7
 10
93.48091641867352
 20
209.8026920286457
 30
0.0
 11
96.06619813361107
 21
209.3202616631727
 31
0.0
  0
LINE
  5
94
  8
0
  6
CONTINUOUS
 62
     7
 10
122.9338018663889
 20
209.3202616631727
 30
0.0
 11
125.5190835813265
 21
209.8026920286457
 31
0.0
  0
POLYLINE
  5
95
  8
0
  6
CONTINUOUS
 62
     7
 66
     1
 10
0.0
 20
0.0
 30
0.0
  0
VERTEX
  5
153
  8
0
  6
CONTINUOUS
 62
     7
 10
101.7718238050248
 20
206.0261171458867
 30
0.0
  0
VERTEX
  5
154
  8
0
  6
CONTINUOUS
 62
     7
 10
100.1365657464618
 20
207.5488341114999
 30
0.0
  0
VERTEX
  5
155
  8
0
  6
CONTINUOUS
 62
     7
 10
98.20253873788711
 20
208.6654451255205
 30
0.0
  0
VERTEX
  5
156
  8
0
  6
CONTINUOUS
 62
     7
 10
96.06619813361108
 20
209.3202616631727
 30
0.0
  0
SEQEND
  5
1D5
  8
0
  6
CONTINUOUS
 62
     7
  0
POLYLINE
  5
96
  8
0
  6
CONTINUOUS
 62
     7
 66
     1
 10
0.0
 20
0.0
 30
0.0
  0
VERTEX
  5
157
  8
0
  6
CONTINUOUS
 62
     7
 10
130.6619780613642
 20
229.294144517286
 30
0.0
  0
VERTEX
  5
158
  8
0
  6
CONTINUOUS
 62
     7
 10
130.1608955156511
 20
227.1166110140206
 30
0.0
  0
VERTEX
  5
159
  8
0
  6
CONTINUOUS
 62
     7
 10
130.1608955156511
 20
224.8833889859794
 30
0.0
  0
VERTEX
  5
15A
  8
0
  6
CONTINUOUS
 62
     7
 10
130.6619780613642
 20
222.705855482714
 30
0.0
  0
SEQEND
  5
1D6
  8
0
  6
CONTINUOUS
 62
     7
  0
POLYLINE
  5
97
  8
0
  6
CONTINUOUS
 62
     7
 66
     1
 10
0.0
 20
0.0
 30
0.0
  0
VERTEX
  5
15B
  8
0
  6
CONTINUOUS
 62
     7
 10
93.48091641867354
 20
242.1973079713544
 30
0.0
  0
VERTEX
  5
15C
  8
0
  6
CONTINUOUS
 62
     7
 10
92.01206652162874
 20
241.7765524593441
 30
0.0
  0
VERTEX
  5
15D
  8
0
  6
CONTINUOUS
 62
     7
 10
90.65494763403503
 20
241.0885640207647
 30
0.0
  0
VERTEX
  5
15E
  8
0
  6
CONTINUOUS
 62
     7
 10
89.45799765788009
 20
240.1578981436144
 30
0.0
  0
VERTEX
  5
15F
  8
0
  6
CONTINUOUS
 62
     7
 10
88.46393779184379
 20
239.0177718901218
 30
0.0
  0
VERTEX
  5
160
  8
0
  6
CONTINUOUS
 62
     7
 10
87.70824773840549
 20
237.7088783227922
 30
0.0
  0
VERTEX
  5
161
  8
0
  6
CONTINUOUS
 62
     7
 10
87.21789937237742
 20
236.2779340991759
 30
0.0
  0
VERTEX
  5
162
  8
0
  6
CONTINUOUS
 62
     7
 10
87.01039406840741
 20
234.7760120741914
 30
0.0
  0
VERTEX
  5
163
  8
0
  6
CONTINUOUS
 62
     7
 10
87.0931380468845
 20
233.2567184222899
 30
0.0
  0
VERTEX
  5
164
  8
0
  6
CONTINUOUS
 62
     7
 10
87.46317803322371
 20
231.7742793410978
 30
0.0
  0
SEQEND
  5
1D7
  8
0
  6
CONTINUOUS
 62
     7
  0
POLYLINE
  5
98
  8
0
  6
CONTINUOUS
 62
     7
 66
     1
 10
0.0
 20
0.0
 30
0.0
  0
VERTEX
  5
165
  8
0
  6
CONTINUOUS
 62
     7
 10
122.9338018663889
 20
209.3202616631727
 30
0.0
  0
VERTEX
  5
166
  8
0
  6
CONTINUOUS
 62
     7
 10
120.7974612621129
 20
208.6654451255205
 30
0.0
  0
VERTEX
  5
167
  8
0
  6
CONTINUOUS
 62
     7
 10
118.8634342535382
 20
207.5488341114999
 30
0.0
  0
VERTEX
  5
168
  8
0
  6
CONTINUOUS
 62
     7
 10
117.2281761949752
 20
206.0261171458867
 30
0.0
  0
SEQEND
  5
1D8
  8
0
  6
CONTINUOUS
 62
     7
  0
POLYLINE
  5
99
  8
0
  6
CONTINUOUS
 62
     7
 66
     1
 10
0.0
 20
0.0
 30
0.0
  0
VERTEX
  5
169
  8
0
  6
CONTINUOUS
 62
     7
 10
131.5368219667763
 20
231.7742793410978
 30
0.0
  0
VERTEX
  5
16A
  8
0
  6
CONTINUOUS
 62
     7
 10
131.9068619531155
 20
233.2567184222899
 30
0.0
  0
VERTEX
  5
16B
  8
0
  6
CONTINUOUS
 62
     7
 10
131.9896059315926
 20
234.7760120741914
 30
0.0
  0
VERTEX
  5
16C
  8
0
  6
CONTINUOUS
 62
     7
 10
131.7821006276226
 20
236.2779340991759
 30
0.0
  0
VERTEX
  5
16D
  8
0
  6
CONTINUOUS
 62
     7
 10
131.2917522615945
 20
237.7088783227922
 30
0.0
  0
VERTEX
  5
16E
  8
0
  6
CONTINUOUS
 62
     7
 10
130.5360622081562
 20
239.0177718901218
 30
0.0
  0
VERTEX
  5
16F
  8
0
  6
CONTINUOUS
 62
     7
 10
129.54200234212
 20
240.1578981436145
 30
0.0
  0
VERTEX
  5
170
  8
0
  6
CONTINUOUS
 62
     7
 10
128.345052365965
 20
241.0885640207647
 30
0.0
  0
VERTEX
  5
171
  8
0
  6
CONTINUOUS
 62
     7
 10
126.9879334783713
 20
241.7765524593441
 30
0.0
  0
VERTEX
  5
172
  8
0
  6
CONTINUOUS
 62
     7
 10
125.5190835813265
 20
242.1973079713544
 30
0.0
  0
SEQEND
  5
1D9
  8
0
  6
CONTINUOUS
 62
     7
  0
POLYLINE
  5
9A
  8
0
  6
CONTINUOUS
 62
     7
 66
     1
 10
0.0
 20
0.0
 30
0.0
  0
VERTEX
  5
173
  8
0
  6
CONTINUOUS
 62
     7
 10
125.5190835813265
 20
209.8026920286456
 30
0.0
  0
VERTEX
  5
174
  8
0
  6
CONTINUOUS
 62
     7
 10
126.9879334783713
 20
210.2234475406559
 30
0.0
  0
VERTEX
  5
175
  8
0
  6
CONTINUOUS
 62
     7
 10
128.345052365965
 20
210.9114359792353
 30
0.0
  0
VERTEX
  5
176
  8
0
  6
CONTINUOUS
 62
     7
 10
129.54200234212
 20
211.8421018563856
 30
0.0
  0
VERTEX
  5
177
  8
0
  6
CONTINUOUS
 62
     7
 10
130.5360622081562
 20
212.9822281098782
 30
0.0
  0
VERTEX
  5
178
  8
0
  6
CONTINUOUS
 62
     7
 10
131.2917522615945
 20
214.2911216772078
 30
0.0
  0
VERTEX
  5
179
  8
0
  6
CONTINUOUS
 62
     7
 10
131.7821006276226
 20
215.7220659008241
 30
0.0
  0
VERTEX
  5
17A
  8
0
  6
CONTINUOUS
 62
     7
 10
131.9896059315926
 20
217.2239879258086
 30
0.0
  0
VERTEX
  5
17B
  8
0
  6
CONTINUOUS
 62
     7
 10
131.9068619531155
 20
218.7432815777101
 30
0.0
  0
VERTEX
  5
17C
  8
0
  6
CONTINUOUS
 62
     7
 10
131.5368219667763
 20
220.2257206589022
 30
0.0
  0
SEQEND
  5
1DA
  8
0
  6
CONTINUOUS
 62
     7
  0
LINE
  5
9B
  8
0
  6
CONTINUOUS
 62
     7
 10
117.2281761949752
 20
245.9738828541133
 30
0.0
 11
115.5177383854498
 21
247.9715873124521
 31
0.0
  0
LINE
  5
9C
  8
0
  6
CONTINUOUS
 62
     7
 10
96.06619813361108
 20
242.6797383368273
 30
0.0
 11
93.48091641867353
 21
242.1973079713543
 31
0.0
  0
POLYLINE
  5
9D
  8
0
  6
CONTINUOUS
 62
     7
 66
     1
 10
0.0
 20
0.0
 30
0.0
  0
VERTEX
  5
17D
  8
0
  6
CONTINUOUS
 62
     7
 10
96.0661981336111
 20
242.6797383368273
 30
0.0
  0
VERTEX
  5
17E
  8
0
  6
CONTINUOUS
 62
     7
 10
98.20253873788714
 20
243.3345548744794
 30
0.0
  0
VERTEX
  5
17F
  8
0
  6
CONTINUOUS
 62
     7
 10
100.1365657464619
 20
244.4511658885001
 30
0.0
  0
VERTEX
  5
180
  8
0
  6
CONTINUOUS
 62
     7
 10
101.7718238050248
 20
245.9738828541132
 30
0.0
  0
SEQEND
  5
1DB
  8
0
  6
CONTINUOUS
 62
     7
  0
LINE
  5
9E
  8
0
  6
CONTINUOUS
 62
     7
 10
115.5177383854498
 20
204.0284126875479
 30
0.0
 11
117.2281761949752
 21
206.0261171458867
 31
0.0
  0
POLYLINE
  5
9F
  8
0
  6
CONTINUOUS
 62
     7
 66
     1
 10
0.0
 20
0.0
 30
0.0
  0
VERTEX
  5
181
  8
0
  6
CONTINUOUS
 62
     7
 10
88.33802193863586
 20
222.7058554827141
 30
0.0
  0
VERTEX
  5
182
  8
0
  6
CONTINUOUS
 62
     7
 10
88.83910448434895
 20
224.8833889859794
 30
0.0
  0
VERTEX
  5
183
  8
0
  6
CONTINUOUS
 62
     7
 10
88.83910448434895
 20
227.1166110140206
 30
0.0
  0
VERTEX
  5
184
  8
0
  6
CONTINUOUS
 62
     7
 10
88.33802193863586
 20
229.2941445172859
 30
0.0
  0
SEQEND
  5
1DC
  8
0
  6
CONTINUOUS
 62
     7
  0
CIRCLE
  5
A0
  8
0
  6
CONTINUOUS
 62
     7
 10
109.5
 20
226.0
 30
0.0
 40
38.50000000000001
  0
ARC
  5
A1
  8
0
  6
CONTINUOUS
 62
     7
 10
109.4871672114741
 20
226.0048308422797
 30
0.0
 40
9.999999999999993
 50
0.5189111829389503
 51
270.518911182939
  0
ARC
  5
A2
  8
0
  6
CONTINUOUS
 62
     7
 10
109.4871672114741
 20
226.0048308422797
 30
0.0
 40
10.00000000000001
 50
270.518911182939
 51
0.5189111829389503
  0
CIRCLE
  5
A3
  8
0
  6
CONTINUOUS
 62
     7
 10
109.487167211474
 20
226.0048308423072
 30
0.0
 40
3.499999999999989
  0
ENDBLK
  8
0
  0
BLOCK
  8
0
  2
D_FRAME_VIEW_6718
 70
     0
 10
0.0
 20
0.0
 30
0.0
  0
LINE
  5
A8
  8
0
  6
CONTINUOUS
 62
     7
 10
142.2088606177419
 20
91.99984842620957
 30
0.0
 11
76.20886061774195
 21
91.99984842620957
 31
0.0
  0
LINE
  5
A9
  8
0
  6
CONTINUOUS
 62
     7
 10
104.241871382779
 20
138.5001515736166
 30
0.0
 11
114.7581286172209
 21
138.5001515736166
 31
0.0
  0
LINE
  5
AA
  8
0
  6
CONTINUOUS
 62
     7
 10
103.4822616145501
 20
137.0001515736166
 30
0.0
 11
115.5177383854498
 21
137.0001515736166
 31
0.0
  0
LINE
  5
AB
  8
0
  6
CONTINUOUS
 62
     7
 10
97.88894632750169
 20
138.5001515736166
 30
0.0
 11
104.1707418110617
 21
138.5001515736166
 31
0.0
  0
LINE
  5
AC
  8
0
  6
CONTINUOUS
 62
     7
 10
103.4111320428328
 20
137.0001515736166
 30
0.0
 11
97.70550637141918
 21
137.0001515736166
 31
0.0
  0
LINE
  5
AD
  8
0
  6
CONTINUOUS
 62
     7
 10
114.7581286172209
 20
138.5001515736166
 30
0.0
 11
114.8292581889382
 21
138.5001515736166
 31
0.0
  0
LINE
  5
AE
  8
0
  6
CONTINUOUS
 62
     7
 10
115.5177383854498
 20
137.0001515736166
 30
0.0
 11
115.5888679571671
 21
137.0001515736166
 31
0.0
  0
LINE
  5
AF
  8
0
  6
CONTINUOUS
 62
     7
 10
104.1707418110617
 20
138.5001515736166
 30
0.0
 11
104.241871382779
 21
138.5001515736166
 31
0.0
  0
LINE
  5
B0
  8
0
  6
CONTINUOUS
 62
     7
 10
103.4111320428329
 20
137.0001515736166
 30
0.0
 11
103.4822616145502
 21
137.0001515736166
 31
0.0
  0
LINE
  5
B1
  8
0
  6
CONTINUOUS
 62
     7
 10
114.8292581889382
 20
138.5001515736166
 30
0.0
 11
121.1110536724983
 21
138.5001515736166
 31
0.0
  0
LINE
  5
B2
  8
0
  6
CONTINUOUS
 62
     7
 10
121.2944936285808
 20
137.0001515736166
 30
0.0
 11
115.588867957167
 21
137.0001515736166
 31
0.0
  0
LINE
  5
B3
  8
0
  6
CONTINUOUS
 62
     7
 10
121.2185641473766
 20
138.5001515736166
 30
0.0
 11
126.8792385775922
 21
138.5001515736166
 31
0.0
  0
LINE
  5
B4
  8
0
  6
CONTINUOUS
 62
     7
 10
121.4020041034591
 20
137.0001515736166
 30
0.0
 11
127.879287452862
 21
137.0001515736166
 31
0.0
  0
LINE
  5
B5
  8
0
  6
CONTINUOUS
 62
     7
 10
121.1110536724983
 20
138.5001515736166
 30
0.0
 11
121.2185641473766
 21
138.5001515736166
 31
0.0
  0
LINE
  5
B6
  8
0
  6
CONTINUOUS
 62
     7
 10
121.2944936285808
 20
137.0001515736166
 30
0.0
 11
121.4020041034591
 21
137.0001515736166
 31
0.0
  0
LINE
  5
B7
  8
0
  6
CONTINUOUS
 62
     7
 10
97.78143585262333
 20
138.5001515736166
 30
0.0
 11
97.88894632750169
 21
138.5001515736166
 31
0.0
  0
LINE
  5
B8
  8
0
  6
CONTINUOUS
 62
     7
 10
97.59799589654085
 20
137.0001515736166
 30
0.0
 11
97.70550637141918
 21
137.0001515736166
 31
0.0
  0
LINE
  5
B9
  8
0
  6
CONTINUOUS
 62
     7
 10
92.1207125469684
 20
138.5001515736166
 30
0.0
 11
97.78143585262374
 21
138.5001515736166
 31
0.0
  0
LINE
  5
BA
  8
0
  6
CONTINUOUS
 62
     7
 10
91.12071254712247
 20
137.0001515736166
 30
0.0
 11
97.59799589654085
 21
137.0001515736166
 31
0.0
  0
LINE
  5
BB
  8
0
  6
CONTINUOUS
 62
     7
 10
71.0
 20
97.0001515736166
 30
0.0
 11
148.0
 21
97.0001515736166
 31
0.0
  0
LINE
  5
BC
  8
0
  6
CONTINUOUS
 62
     7
 10
72.01749181396724
 20
100.0001515736166
 30
0.0
 11
146.9825081860327
 21
100.0001515736166
 31
0.0
  0
LINE
  5
BD
  8
0
  6
CONTINUOUS
 62
     7
 10
84.61352543805134
 20
115.0001515736166
 30
0.0
 11
134.3864745619487
 21
115.0001515736166
 31
0.0
  0
LINE
  5
BE
  8
0
  6
CONTINUOUS
 62
     7
 10
103.4822616145502
 20
137.0001515736166
 30
0.0
 11
115.5177383854498
 21
137.0001515736166
 31
0.0
  0
LINE
  5
BF
  8
0
  6
CONTINUOUS
 62
     7
 10
115.5177383854498
 20
137.0001515736166
 30
0.0
 11
115.5888679571671
 21
137.0001515736166
 31
0.0
  0
LINE
  5
C0
  8
0
  6
CONTINUOUS
 62
     7
 10
103.4111320428329
 20
137.0001515736166
 30
0.0
 11
103.4822616145502
 21
137.0001515736166
 31
0.0
  0
LINE
  5
C1
  8
0
  6
CONTINUOUS
 62
     7
 10
121.2944936285808
 20
137.0001515736166
 30
0.0
 11
115.5888679571671
 21
137.0001515736166
 31
0.0
  0
LINE
  5
C2
  8
0
  6
CONTINUOUS
 62
     7
 10
103.4111320428329
 20
137.0001515736166
 30
0.0
 11
97.7055063714192
 21
137.0001515736166
 31
0.0
  0
LINE
  5
C3
  8
0
  6
CONTINUOUS
 62
     7
 10
121.2944936285808
 20
137.0001515736166
 30
0.0
 11
121.4020041034591
 21
137.0001515736166
 31
0.0
  0
LINE
  5
C4
  8
0
  6
CONTINUOUS
 62
     7
 10
97.59799589654087
 20
137.0001515736166
 30
0.0
 11
97.70550637141919
 21
137.0001515736166
 31
0.0
  0
LINE
  5
C5
  8
0
  6
CONTINUOUS
 62
     7
 10
121.4020041034591
 20
137.0001515736166
 30
0.0
 11
127.8792874530474
 21
137.0001515736166
 31
0.0
  0
LINE
  5
C6
  8
0
  6
CONTINUOUS
 62
     7
 10
91.12071254695259
 20
137.0001515736166
 30
0.0
 11
97.59799589654087
 21
137.0001515736166
 31
0.0
  0
LINE
  5
C7
  8
0
  6
CONTINUOUS
 62
     7
 10
118.9871672114754
 20
163.0001515732711
 30
0.0
 11
99.98716721147535
 21
163.000151573266
 31
0.0
  0
LINE
  5
C8
  8
0
  6
CONTINUOUS
 62
     7
 10
118.9871672114754
 20
163.0001515732711
 30
0.0
 11
118.986777600272
 21
163.0001515732711
 31
0.0
  0
LINE
  5
C9
  8
0
  6
CONTINUOUS
 62
     7
 10
118.9867776002706
 20
168.0001515732711
 30
0.0
 11
118.987167211474
 21
168.0001515732711
 31
0.0
  0
LINE
  5
CA
  8
0
  6
CONTINUOUS
 62
     7
 10
99.98716721147399
 20
168.000151573266
 30
0.0
 11
118.987167211474
 21
168.0001515732711
 31
0.0
  0
LINE
  5
CB
  8
0
  6
CONTINUOUS
 62
     7
 10
116.3796352114794
 20
148.0001515732704
 30
0.0
 11
109.5211227031005
 21
148.0001515732685
 31
0.0
  0
LINE
  5
CC
  8
0
  6
CONTINUOUS
 62
     7
 10
109.5211227031005
 20
148.0001515732685
 30
0.0
 11
102.5946992114794
 21
148.0001515732667
 31
0.0
  0
POLYLINE
  5
CD
  8
0
  6
CONTINUOUS
 62
     7
 66
     1
 10
0.0
 20
0.0
 30
0.0
  0
VERTEX
  5
187
  8
0
  6
CONTINUOUS
 62
     7
 10
116.392468
 20
144.7498742733748
 30
0.0
  0
VERTEX
  5
188
  8
0
  6
CONTINUOUS
 62
     7
 10
116.3680180441829
 20
144.5887951603137
 30
0.0
  0
VERTEX
  5
189
  8
0
  6
CONTINUOUS
 62
     7
 10
116.2941467389454
 20
144.426567726681
 30
0.0
  0
SEQEND
  5
1DD
  8
0
  6
CONTINUOUS
 62
     7
  0
ARC
  5
CE
  8
0
  6
CONTINUOUS
 62
     7
 10
108.8376642053547
 20
154.4019130085197
 30
0.0
 40
12.45418183846878
 50
278.7402607534561
 51
306.7777898333985
  0
ARC
  5
CF
  8
0
  6
CONTINUOUS
 62
     7
 10
118.5413394382335
 20
106.3712048112503
 30
0.0
 40
36.56522251735175
 50
102.3347907904024
 51
114.6790572183883
  0
ARC
  5
D0
  8
0
  6
CONTINUOUS
 62
     7
 10
109.5502357543979
 20
132.384964941679
 30
0.0
 40
12.84975811151624
 50
105.7895017175494
 51
119.1646457323754
  0
ARC
  5
D1
  8
0
  6
CONTINUOUS
 62
     7
 10
127.5313542736436
 20
83.58642986445919
 30
0.0
 40
62.87839585548564
 50
103.4123498616277
 51
112.6891336295342
  0
ARC
  5
D2
  8
0
  6
CONTINUOUS
 62
     7
 10
119.7211149989595
 20
67.52593557447162
 30
0.0
 40
78.42405968088688
 50
96.82943317199637
 51
100.0364673896809
  0
POLYLINE
  5
D3
  8
0
  6
CONTINUOUS
 62
     7
 66
     1
 10
0.0
 20
0.0
 30
0.0
  0
VERTEX
  5
18A
  8
0
  6
CONTINUOUS
 62
     7
 10
110.3953928555957
 20
145.3935414406859
 30
0.0
  0
VERTEX
  5
18B
  8
0
  6
CONTINUOUS
 62
     7
 10
110.5059783058131
 20
145.3785285448648
 30
0.0
  0
VERTEX
  5
18C
  8
0
  6
CONTINUOUS
 62
     7
 10
110.5969454359635
 20
145.3357707976739
 30
0.0
  0
VERTEX
  5
18D
  8
0
  6
CONTINUOUS
 62
     7
 10
110.5951427686245
 20
145.2340783708407
 30
0.0
  0
VERTEX
  5
18E
  8
0
  6
CONTINUOUS
 62
     7
 10
110.5109566008126
 20
145.1477943708153
 30
0.0
  0
VERTEX
  5
18F
  8
0
  6
CONTINUOUS
 62
     7
 10
110.387025566438
 20
145.06307947315
 30
0.0
  0
SEQEND
  5
1DE
  8
0
  6
CONTINUOUS
 62
     7
  0
ARC
  5
D4
  8
0
  6
CONTINUOUS
 62
     7
 10
260.1192125015457
 20
-218.9672813866466
 30
0.0
 40
393.6214316219124
 50
112.3582405350358
 51
113.0419588079985
  0
LINE
  5
D5
  8
0
  6
CONTINUOUS
 62
     7
 10
111.1077758335471
 20
138.7001446738997
 30
0.0
 11
111.2556116837179
 21
138.7424291039906
 31
0.0
  0
LINE
  5
D6
  8
0
  6
CONTINUOUS
 62
     7
 10
111.2556116837179
 20
138.7424291039906
 30
0.0
 11
111.4198565555728
 21
138.7897055217637
 31
0.0
  0
ARC
  5
D7
  8
0
  6
CONTINUOUS
 62
     7
 10
107.0292277702367
 20
157.0574504877596
 30
0.0
 40
18.78797826465867
 50
283.5146227980492
 51
297.5632335230835
  0
LINE
  5
D8
  8
0
  6
CONTINUOUS
 62
     7
 10
104.030994164105
 20
138.5001569196614
 30
0.0
 11
104.1273086149199
 21
138.5433332068167
 31
0.0
  0
LINE
  5
D9
  8
0
  6
CONTINUOUS
 62
     7
 10
104.1273086149199
 20
138.5433332068167
 30
0.0
 11
104.1937388978762
 21
138.5724229792957
 31
0.0
  0
ARC
  5
DA
  8
0
  6
CONTINUOUS
 62
     7
 10
-19.18434417460284
 20
541.5761312796898
 30
0.0
 40
421.4666538250788
 50
287.0217736324668
 51
288.5908561250161
  0
ARC
  5
DB
  8
0
  6
CONTINUOUS
 62
     7
 10
112.9098584465777
 20
146.8341289614863
 30
0.0
 40
5.249705401021187
 50
295.6537045624955
 51
302.4436640461207
  0
POLYLINE
  5
DC
  8
0
  6
CONTINUOUS
 62
     7
 66
     1
 10
0.0
 20
0.0
 30
0.0
  0
VERTEX
  5
190
  8
0
  6
CONTINUOUS
 62
     7
 10
102.6075320000047
 20
139.2505629953922
 30
0.0
  0
VERTEX
  5
191
  8
0
  6
CONTINUOUS
 62
     7
 10
102.6368503023306
 20
139.4265706207034
 30
0.0
  0
VERTEX
  5
192
  8
0
  6
CONTINUOUS
 62
     7
 10
102.7201014081179
 20
139.5962841194573
 30
0.0
  0
SEQEND
  5
1DF
  8
0
  6
CONTINUOUS
 62
     7
  0
ARC
  5
DD
  8
0
  6
CONTINUOUS
 62
     7
 10
110.40634135654
 20
129.0185448749615
 30
0.0
 40
13.07542932638417
 50
99.02073818750738
 51
126.0037667642582
  0
ARC
  5
DE
  8
0
  6
CONTINUOUS
 62
     7
 10
71.55676031823593
 20
278.721994743267
 30
0.0
 40
141.6532163092775
 50
285.0573379475813
 51
286.989037753701
  0
POLYLINE
  5
DF
  8
0
  6
CONTINUOUS
 62
     7
 66
     1
 10
0.0
 20
0.0
 30
0.0
  0
VERTEX
  5
193
  8
0
  6
CONTINUOUS
 62
     7
 10
102.6075320000087
 20
141.2507421604053
 30
0.0
  0
VERTEX
  5
194
  8
0
  6
CONTINUOUS
 62
     7
 10
102.6389965799042
 20
141.4330990990652
 30
0.0
  0
VERTEX
  5
195
  8
0
  6
CONTINUOUS
 62
     7
 10
102.7242747172499
 20
141.6025313287542
 30
0.0
  0
SEQEND
  5
1E0
  8
0
  6
CONTINUOUS
 62
     7
  0
ARC
  5
E0
  8
0
  6
CONTINUOUS
 62
     7
 10
107.5006370616399
 20
136.1396203880145
 30
0.0
 40
7.256516601742259
 50
101.5012435666002
 51
131.1640298738396
  0
LINE
  5
E1
  8
0
  6
CONTINUOUS
 62
     7
 10
102.607532
 20
148.0001515736166
 30
0.0
 11
116.392468
 21
148.0001515736166
 31
0.0
  0
ARC
  5
E2
  8
0
  6
CONTINUOUS
 62
     7
 10
109.8753296857602
 20
164.776705138679
 30
0.0
 40
20.26090836598197
 50
278.717802403396
 51
286.7858173393369
  0
POLYLINE
  5
E3
  8
0
  6
CONTINUOUS
 62
     7
 66
     1
 10
0.0
 20
0.0
 30
0.0
  0
VERTEX
  5
196
  8
0
  6
CONTINUOUS
 62
     7
 10
115.7265750470003
 20
145.3790935450502
 30
0.0
  0
VERTEX
  5
197
  8
0
  6
CONTINUOUS
 62
     7
 10
115.8482819865241
 20
145.3954199946299
 30
0.0
  0
VERTEX
  5
198
  8
0
  6
CONTINUOUS
 62
     7
 10
115.9371066932082
 20
145.3460427734035
 30
0.0
  0
VERTEX
  5
199
  8
0
  6
CONTINUOUS
 62
     7
 10
115.9407943545237
 20
145.2340783708407
 30
0.0
  0
VERTEX
  5
19A
  8
0
  6
CONTINUOUS
 62
     7
 10
115.8950881758196
 20
145.1175060170257
 30
0.0
  0
VERTEX
  5
19B
  8
0
  6
CONTINUOUS
 62
     7
 10
115.828468410054
 20
145.0142229801678
 30
0.0
  0
VERTEX
  5
19C
  8
0
  6
CONTINUOUS
 62
     7
 10
115.8077135852082
 20
144.9873880046189
 30
0.0
  0
SEQEND
  5
1E1
  8
0
  6
CONTINUOUS
 62
     7
  0
ARC
  5
E4
  8
0
  6
CONTINUOUS
 62
     7
 10
107.9069855598504
 20
155.1284572062125
 30
0.0
 40
12.90277419417073
 50
292.9890638874122
 51
305.8067425551892
  0
LINE
  5
E5
  8
0
  6
CONTINUOUS
 62
     7
 10
101.670762521666
 20
144.1824545646846
 30
0.0
 11
101.6089741924311
 21
144.0001515736166
 31
0.0
  0
LINE
  5
E6
  8
0
  6
CONTINUOUS
 62
     7
 10
102.8114939287478
 20
145.0048360857195
 30
0.0
 11
102.903573565935
 21
145.0574417383829
 31
0.0
  0
ARC
  5
E7
  8
0
  6
CONTINUOUS
 62
     7
 10
104.9422586030077
 20
140.6908090926291
 30
0.0
 40
4.819099225306243
 50
103.3804410951421
 51
115.0268392455432
  0
POLYLINE
  5
E8
  8
0
  6
CONTINUOUS
 62
     7
 66
     1
 10
0.0
 20
0.0
 30
0.0
  0
VERTEX
  5
19D
  8
0
  6
CONTINUOUS
 62
     7
 10
103.8270428227508
 20
145.3790935450501
 30
0.0
  0
VERTEX
  5
19E
  8
0
  6
CONTINUOUS
 62
     7
 10
103.9564983285642
 20
145.3952376484391
 30
0.0
  0
VERTEX
  5
19F
  8
0
  6
CONTINUOUS
 62
     7
 10
104.0574177327452
 20
145.3895402878531
 30
0.0
  0
VERTEX
  5
1A0
  8
0
  6
CONTINUOUS
 62
     7
 10
104.1497789424014
 20
145.3437241763332
 30
0.0
  0
VERTEX
  5
1A1
  8
0
  6
CONTINUOUS
 62
     7
 10
104.1556024815482
 20
145.2371620425824
 30
0.0
  0
VERTEX
  5
1A2
  8
0
  6
CONTINUOUS
 62
     7
 10
104.0887886383957
 20
145.1330234725347
 30
0.0
  0
VERTEX
  5
1A3
  8
0
  6
CONTINUOUS
 62
     7
 10
104.0110699345965
 20
145.0511066658962
 30
0.0
  0
SEQEND
  5
1E2
  8
0
  6
CONTINUOUS
 62
     7
  0
ARC
  5
E9
  8
0
  6
CONTINUOUS
 62
     7
 10
105.1094468357229
 20
142.7476444430316
 30
0.0
 40
2.551934565989557
 50
115.4935513564108
 51
168.6371971360991
  0
LINE
  5
EA
  8
0
  6
CONTINUOUS
 62
     7
 10
117.329237478334
 20
144.1824545646847
 30
0.0
 11
117.3910258075689
 21
144.0001515736166
 31
0.0
  0
ARC
  5
EB
  8
0
  6
CONTINUOUS
 62
     7
 10
76.70886061774195
 20
95.90961821535137
 30
0.0
 40
0.5000000000000004
 50
90.0
 51
180.0
  0
ARC
  5
EC
  8
0
  6
CONTINUOUS
 62
     7
 10
141.7088606177419
 20
95.90961821535137
 30
0.0
 40
0.5000000000000004
 50
0.0
 51
90.0
  0
LINE
  5
ED
  8
0
  6
CONTINUOUS
 62
     7
 10
141.7088606177419
 20
96.40961821535137
 30
0.0
 11
76.70886061774195
 21
96.40961821535137
 31
0.0
  0
LINE
  5
EE
  8
0
  6
CONTINUOUS
 62
     7
 10
142.2088606177419
 20
91.99984842620957
 30
0.0
 11
142.2088606177419
 21
95.90961821535137
 31
0.0
  0
LINE
  5
EF
  8
0
  6
CONTINUOUS
 62
     7
 10
76.20886061774195
 20
95.90961821535137
 30
0.0
 11
76.20886061774195
 21
91.99984842620957
 31
0.0
  0
ARC
  5
F0
  8
0
  6
CONTINUOUS
 62
     7
 10
126.8792874530474
 20
137.5001515736166
 30
0.0
 40
1.000000000000001
 50
0.0
 51
90.0
  0
LINE
  5
F1
  8
0
  6
CONTINUOUS
 62
     7
 10
127.8792874530474
 20
137.0001515736166
 30
0.0
 11
127.8792874530474
 21
137.5001515736166
 31
0.0
  0
ARC
  5
F2
  8
0
  6
CONTINUOUS
 62
     7
 10
92.12071254695259
 20
137.5001515736166
 30
0.0
 40
1.000000000000001
 50
90.0
 51
180.0
  0
LINE
  5
F3
  8
0
  6
CONTINUOUS
 62
     7
 10
91.12071254695259
 20
137.5001515736166
 30
0.0
 11
91.12071254695259
 21
137.0001515736166
 31
0.0
  0
LINE
  5
F4
  8
0
  6
CONTINUOUS
 62
     7
 10
148.0
 20
97.0001515736166
 30
0.0
 11
147.9824701090969
 21
99.00887810911405
 31
0.0
  0
LINE
  5
F5
  8
0
  6
CONTINUOUS
 62
     7
 10
71.01752989090306
 20
99.00887810911405
 30
0.0
 11
70.99999999999999
 21
97.0001515736166
 31
0.0
  0
ARC
  5
F6
  8
0
  6
CONTINUOUS
 62
     7
 10
72.01749181396724
 20
99.0001515736166
 30
0.0
 40
1.000000000000001
 50
90.0
 51
179.5000000000537
  0
ARC
  5
F7
  8
0
  6
CONTINUOUS
 62
     7
 10
146.9825081860328
 20
99.0001515736166
 30
0.0
 40
1.000000000000009
 50
0.4999999999463119
 51
90.0
  0
ARC
  5
F8
  8
0
  6
CONTINUOUS
 62
     7
 10
80.00434439470251
 20
96.5001515736166
 30
0.0
 40
0.5000000000000004
 50
0.4999999999998863
 51
90.0
  0
ARC
  5
F9
  8
0
  6
CONTINUOUS
 62
     7
 10
138.9956556052975
 20
96.5001515736166
 30
0.0
 40
0.5000000000000016
 50
90.0
 51
179.5000000000001
  0
LINE
  5
FA
  8
0
  6
CONTINUOUS
 62
     7
 10
80.5043253562346
 20
96.50451484136579
 30
0.0
 11
80.50515350654362
 21
96.40961821535137
 31
0.0
  0
LINE
  5
FB
  8
0
  6
CONTINUOUS
 62
     7
 10
138.4948464934564
 20
96.40961821535137
 30
0.0
 11
138.4956746437654
 21
96.50451484136579
 31
0.0
  0
ARC
  5
FC
  8
0
  6
CONTINUOUS
 62
     7
 10
82.00434439470251
 20
100.5001515736166
 30
0.0
 40
0.4999999999999974
 50
270.0
 51
359.5000000000537
  0
ARC
  5
FD
  8
0
  6
CONTINUOUS
 62
     7
 10
136.9956556052975
 20
100.5001515736166
 30
0.0
 40
0.5000000000000004
 50
180.4999999999464
 51
270.0
  0
LINE
  5
FE
  8
0
  6
CONTINUOUS
 62
     7
 10
136.4956746437654
 20
100.4957883058679
 30
0.0
 11
136.386398408077
 21
113.0176046446134
 31
0.0
  0
LINE
  5
FF
  8
0
  6
CONTINUOUS
 62
     7
 10
82.61360159192299
 20
113.0176046446134
 30
0.0
 11
82.5043253562346
 21
100.4957883058679
 31
0.0
  0
ARC
  5
100
  8
0
  6
CONTINUOUS
 62
     7
 10
84.61352543805134
 20
113.0001515736166
 30
0.0
 40
2.000000000000002
 50
90.0
 51
179.5
  0
ARC
  5
101
  8
0
  6
CONTINUOUS
 62
     7
 10
134.3864745619487
 20
113.0001515736166
 30
0.0
 40
1.999999999999992
 50
0.5000000000000322
 51
90.0
  0
LINE
  5
102
  8
0
  6
CONTINUOUS
 62
     7
 10
131.9963669309147
 20
115.0001515736166
 30
0.0
 11
127.8792874530474
 21
137.0001515736166
 31
0.0
  0
LINE
  5
103
  8
0
  6
CONTINUOUS
 62
     7
 10
91.1207125469526
 20
137.0001515736166
 30
0.0
 11
87.00363306908525
 21
115.0001515736166
 31
0.0
  0
ARC
  5
104
  8
0
  6
CONTINUOUS
 62
     7
 10
118.9871672114752
 20
163.5001515732711
 30
0.0
 40
0.5000000000000004
 50
270.0000000000155
 51
0.0000000000158593
  0
ARC
  5
105
  8
0
  6
CONTINUOUS
 62
     7
 10
99.98716721147521
 20
163.500151573266
 30
0.0
 40
0.5000000000000004
 50
180.0000000000151
 51
270.0000000000155
  0
LINE
  5
106
  8
0
  6
CONTINUOUS
 62
     7
 10
119.4871672114752
 20
163.5001515732712
 30
0.0
 11
119.4871672114741
 21
167.5001515732712
 31
0.0
  0
LINE
  5
107
  8
0
  6
CONTINUOUS
 62
     7
 10
99.48716721147413
 20
167.5001515732658
 30
0.0
 11
99.48716721147521
 21
163.5001515732658
 31
0.0
  0
ARC
  5
108
  8
0
  6
CONTINUOUS
 62
     7
 10
118.9871672114741
 20
167.5001515732711
 30
0.0
 40
0.5000000000000004
 50
0.0000000000159028
 51
90.0000000000155
  0
ARC
  5
109
  8
0
  6
CONTINUOUS
 62
     7
 10
99.98716721147413
 20
167.500151573266
 30
0.0
 40
0.5000000000000004
 50
90.0000000000155
 51
180.0000000000151
  0
LINE
  5
10A
  8
0
  6
CONTINUOUS
 62
     7
 10
116.3796352114794
 20
148.0001515732704
 30
0.0
 11
116.3796352114753
 21
163.0001515732704
 31
0.0
  0
LINE
  5
10B
  8
0
  6
CONTINUOUS
 62
     7
 10
102.5946992114753
 20
163.0001515732667
 30
0.0
 11
102.5946992114794
 21
148.0001515732667
 31
0.0
  0
ARC
  5
10C
  8
0
  6
CONTINUOUS
 62
     7
 10
114.0013443065787
 20
146.243490124221
 30
0.0
 40
4.218487781931746
 50
293.3903033190859
 51
320.7499401317548
  0
POLYLINE
  5
10D
  8
0
  6
CONTINUOUS
 62
     7
 66
     1
 10
0.0
 20
0.0
 30
0.0
  0
VERTEX
  5
1A4
  8
0
  6
CONTINUOUS
 62
     7
 10
117.2681074251604
 20
143.5744270126813
 30
0.0
  0
VERTEX
  5
1A5
  8
0
  6
CONTINUOUS
 62
     7
 10
117.3214537918397
 20
143.6790217603828
 30
0.0
  0
VERTEX
  5
1A6
  8
0
  6
CONTINUOUS
 62
     7
 10
117.3599249721145
 20
143.7851905650865
 30
0.0
  0
VERTEX
  5
1A7
  8
0
  6
CONTINUOUS
 62
     7
 10
117.3832085761282
 20
143.8924087409317
 30
0.0
  0
VERTEX
  5
1A8
  8
0
  6
CONTINUOUS
 62
     7
 10
117.3910258075689
 20
144.000151602048
 30
0.0
  0
SEQEND
  5
1E3
  8
0
  6
CONTINUOUS
 62
     7
  0
ARC
  5
10E
  8
0
  6
CONTINUOUS
 62
     7
 10
105.5073577838819
 20
134.9843265391749
 30
0.0
 40
5.124500108833509
 50
115.8366201322837
 51
136.6861064845287
  0
ARC
  5
10F
  8
0
  6
CONTINUOUS
 62
     7
 10
114.6738736959588
 20
141.7178508428572
 30
0.0
 40
3.375919032514236
 50
296.6259080485903
 51
319.1465761259277
  0
POLYLINE
  5
110
  8
0
  6
CONTINUOUS
 62
     7
 66
     1
 10
0.0
 20
0.0
 30
0.0
  0
VERTEX
  5
1A9
  8
0
  6
CONTINUOUS
 62
     7
 10
117.2273697750525
 20
139.509573892802
 30
0.0
  0
VERTEX
  5
1AA
  8
0
  6
CONTINUOUS
 62
     7
 10
117.3213116900268
 20
139.6783068487898
 30
0.0
  0
VERTEX
  5
1AB
  8
0
  6
CONTINUOUS
 62
     7
 10
117.3770898209441
 20
139.8571378543852
 30
0.0
  0
VERTEX
  5
1AC
  8
0
  6
CONTINUOUS
 62
     7
 10
117.3893437392001
 20
140.0450097403102
 30
0.0
  0
VERTEX
  5
1AD
  8
0
  6
CONTINUOUS
 62
     7
 10
117.3526072495115
 20
140.2382861013204
 30
0.0
  0
VERTEX
  5
1AE
  8
0
  6
CONTINUOUS
 62
     7
 10
117.3146805012531
 20
140.3359460760458
 30
0.0
  0
VERTEX
  5
1AF
  8
0
  6
CONTINUOUS
 62
     7
 10
117.2632792350869
 20
140.4336705174341
 30
0.0
  0
SEQEND
  5
1E4
  8
0
  6
CONTINUOUS
 62
     7
  0
ARC
  5
111
  8
0
  6
CONTINUOUS
 62
     7
 10
115.9093725844989
 20
139.5668606868777
 30
0.0
 40
1.607613915358892
 50
32.62853610812997
 51
55.21659061351593
  0
LINE
  5
112
  8
0
  6
CONTINUOUS
 62
     7
 10
116.8264773725179
 20
140.8872171950406
 30
0.0
 11
116.6514191972525
 21
141.0010524273921
 31
0.0
  0
ARC
  5
113
  8
0
  6
CONTINUOUS
 62
     7
 10
111.6476983048911
 20
147.7302453808905
 30
0.0
 40
8.389294765357635
 50
298.6614717158527
 51
310.6496236294655
  0
POLYLINE
  5
114
  8
0
  6
CONTINUOUS
 62
     7
 66
     1
 10
0.0
 20
0.0
 30
0.0
  0
VERTEX
  5
1B0
  8
0
  6
CONTINUOUS
 62
     7
 10
117.1127498047959
 20
141.3652254466369
 30
0.0
  0
VERTEX
  5
1B1
  8
0
  6
CONTINUOUS
 62
     7
 10
117.2324398309033
 20
141.516344980885
 30
0.0
  0
VERTEX
  5
1B2
  8
0
  6
CONTINUOUS
 62
     7
 10
117.2871675566059
 20
141.6069799997842
 30
0.0
  0
VERTEX
  5
1B3
  8
0
  6
CONTINUOUS
 62
     7
 10
117.3584882467355
 20
141.7796574873289
 30
0.0
  0
VERTEX
  5
1B4
  8
0
  6
CONTINUOUS
 62
     7
 10
117.3883161523435
 20
141.941701912724
 30
0.0
  0
VERTEX
  5
1B5
  8
0
  6
CONTINUOUS
 62
     7
 10
117.3851199436707
 20
142.0895317047952
 30
0.0
  0
VERTEX
  5
1B6
  8
0
  6
CONTINUOUS
 62
     7
 10
117.3530390844233
 20
142.2372975017371
 30
0.0
  0
VERTEX
  5
1B7
  8
0
  6
CONTINUOUS
 62
     7
 10
117.2845724050789
 20
142.3975522230915
 30
0.0
  0
VERTEX
  5
1B8
  8
0
  6
CONTINUOUS
 62
     7
 10
117.2317550331269
 20
142.4847271473332
 30
0.0
  0
VERTEX
  5
1B9
  8
0
  6
CONTINUOUS
 62
     7
 10
117.164050380119
 20
142.5758865258079
 30
0.0
  0
VERTEX
  5
1BA
  8
0
  6
CONTINUOUS
 62
     7
 10
117.0306120568743
 20
142.7187336867655
 30
0.0
  0
VERTEX
  5
1BB
  8
0
  6
CONTINUOUS
 62
     7
 10
116.9479490652212
 20
142.7922316060185
 30
0.0
  0
VERTEX
  5
1BC
  8
0
  6
CONTINUOUS
 62
     7
 10
116.8537701963799
 20
142.8666291303761
 30
0.0
  0
VERTEX
  5
1BD
  8
0
  6
CONTINUOUS
 62
     7
 10
116.6517759291579
 20
142.9992136258248
 30
0.0
  0
SEQEND
  5
1E5
  8
0
  6
CONTINUOUS
 62
     7
  0
ARC
  5
115
  8
0
  6
CONTINUOUS
 62
     7
 10
106.168253025138
 20
138.0384799959629
 30
0.0
 40
6.267974562888352
 50
117.3556366451166
 51
134.0419946059688
  0
POLYLINE
  5
116
  8
0
  6
CONTINUOUS
 62
     7
 66
     1
 10
0.0
 20
0.0
 30
0.0
  0
VERTEX
  5
1BE
  8
0
  6
CONTINUOUS
 62
     7
 10
101.8108484978609
 20
142.5440910429442
 30
0.0
  0
VERTEX
  5
1BF
  8
0
  6
CONTINUOUS
 62
     7
 10
101.7141019199649
 20
142.3950941614079
 30
0.0
  0
VERTEX
  5
1C0
  8
0
  6
CONTINUOUS
 62
     7
 10
101.6466190000302
 20
142.2362131680864
 30
0.0
  0
VERTEX
  5
1C1
  8
0
  6
CONTINUOUS
 62
     7
 10
101.6148800563293
 20
142.0895317047952
 30
0.0
  0
VERTEX
  5
1C2
  8
0
  6
CONTINUOUS
 62
     7
 10
101.6111744898943
 20
141.9488310312242
 30
0.0
  0
VERTEX
  5
1C3
  8
0
  6
CONTINUOUS
 62
     7
 10
101.6381426298081
 20
141.7914812413977
 30
0.0
  0
VERTEX
  5
1C4
  8
0
  6
CONTINUOUS
 62
     7
 10
101.7105658892795
 20
141.6112324726759
 30
0.0
  0
SEQEND
  5
1E6
  8
0
  6
CONTINUOUS
 62
     7
  0
ARC
  5
117
  8
0
  6
CONTINUOUS
 62
     7
 10
102.9211784880785
 20
142.2874229678915
 30
0.0
 40
1.386656572548101
 50
209.1856440761628
 51
233.0853045351169
  0
LINE
  5
118
  8
0
  6
CONTINUOUS
 62
     7
 10
102.0883174514269
 20
141.1787485595016
 30
0.0
 11
102.3501907092555
 21
141.0003620302489
 31
0.0
  0
ARC
  5
119
  8
0
  6
CONTINUOUS
 62
     7
 10
106.0039759016513
 20
136.351732894878
 30
0.0
 40
5.919082640354766
 50
116.8729276892062
 51
135.6463650459782
  0
POLYLINE
  5
11A
  8
0
  6
CONTINUOUS
 62
     7
 66
     1
 10
0.0
 20
0.0
 30
0.0
  0
VERTEX
  5
1C5
  8
0
  6
CONTINUOUS
 62
     7
 10
101.7716031649477
 20
140.4896744508883
 30
0.0
  0
VERTEX
  5
1C6
  8
0
  6
CONTINUOUS
 62
     7
 10
101.6776147588169
 20
140.3208324424611
 30
0.0
  0
VERTEX
  5
1C7
  8
0
  6
CONTINUOUS
 62
     7
 10
101.6223095378795
 20
140.1419643257005
 30
0.0
  0
VERTEX
  5
1C8
  8
0
  6
CONTINUOUS
 62
     7
 10
101.610913271395
 20
139.9541288270351
 30
0.0
  0
VERTEX
  5
1C9
  8
0
  6
CONTINUOUS
 62
     7
 10
101.6483173923182
 20
139.760961723122
 30
0.0
  0
VERTEX
  5
1CA
  8
0
  6
CONTINUOUS
 62
     7
 10
101.6863301017637
 20
139.6633837049702
 30
0.0
  0
VERTEX
  5
1CB
  8
0
  6
CONTINUOUS
 62
     7
 10
101.7376583652986
 20
139.5657594398427
 30
0.0
  0
SEQEND
  5
1E7
  8
0
  6
CONTINUOUS
 62
     7
  0
ARC
  5
11B
  8
0
  6
CONTINUOUS
 62
     7
 10
103.0845751960565
 20
140.425669305015
 30
0.0
 40
1.59800811174399
 50
212.5553141351682
 51
235.2346568372875
  0
LINE
  5
11C
  8
0
  6
CONTINUOUS
 62
     7
 10
102.1733641722602
 20
139.1129147981435
 30
0.0
 11
102.3485306607399
 21
138.9990762095818
 31
0.0
  0
POLYLINE
  5
11D
  8
0
  6
CONTINUOUS
 62
     7
 66
     1
 10
0.0
 20
0.0
 30
0.0
  0
VERTEX
  5
1CC
  8
0
  6
CONTINUOUS
 62
     7
 10
101.6089741924311
 20
144.000151602048
 30
0.0
  0
VERTEX
  5
1CD
  8
0
  6
CONTINUOUS
 62
     7
 10
101.6167914238718
 20
143.8924087409317
 30
0.0
  0
VERTEX
  5
1CE
  8
0
  6
CONTINUOUS
 62
     7
 10
101.6400750278855
 20
143.7851905650865
 30
0.0
  0
VERTEX
  5
1CF
  8
0
  6
CONTINUOUS
 62
     7
 10
101.6785462081603
 20
143.6790217603828
 30
0.0
  0
VERTEX
  5
1D0
  8
0
  6
CONTINUOUS
 62
     7
 10
101.7318925748396
 20
143.5744270126813
 30
0.0
  0
SEQEND
  5
1E8
  8
0
  6
CONTINUOUS
 62
     7
  0
ARC
  5
11E
  8
0
  6
CONTINUOUS
 62
     7
 10
103.0716532233109
 20
144.4180961135459
 30
0.0
 40
1.583267553809511
 50
212.1992893499025
 51
235.1430833998271
  0
LINE
  5
11F
  8
0
  6
CONTINUOUS
 62
     7
 10
102.1667699001869
 20
143.1188954675801
 30
0.0
 11
102.3491191895122
 21
142.9998980607269
 31
0.0
  0
LINE
  5
120
  8
0
  6
CONTINUOUS
 62
     7
 10
116.392468
 20
144.7498742733748
 30
0.0
 11
116.392468
 21
148.0001515736166
 31
0.0
  0
LINE
  5
121
  8
0
  6
CONTINUOUS
 62
     7
 10
102.607532
 20
139.2505612087296
 30
0.0
 11
102.607532
 21
139.1673089566001
 31
0.0
  0
LINE
  5
122
  8
0
  6
CONTINUOUS
 62
     7
 10
102.607532
 20
141.2507361631634
 30
0.0
 11
102.607532
 21
141.1672227012091
 31
0.0
  0
LINE
  5
123
  8
0
  6
CONTINUOUS
 62
     7
 10
102.607532
 20
143.2504288738584
 30
0.0
 11
102.607532
 21
143.1675847044781
 31
0.0
  0
LINE
  5
124
  8
0
  6
CONTINUOUS
 62
     7
 10
102.607532
 20
148.0001515736166
 30
0.0
 11
102.607532
 21
144.8820585314201
 31
0.0
  0
LINE
  5
125
  8
0
  6
CONTINUOUS
 62
     7
 10
115.4547797285684
 20
144.6636677415264
 30
0.0
 11
115.8084799988986
 21
144.9883206301748
 31
0.0
  0
ARC
  5
126
  8
0
  6
CONTINUOUS
 62
     7
 10
104.4527861837539
 20
141.5261353812095
 30
0.0
 40
3.846516183610372
 50
115.2501116230835
 51
136.3241356104766
  0
LINE
  5
127
  8
0
  6
CONTINUOUS
 62
     7
 10
117.3292378532842
 20
144.1824540759671
 30
0.0
 11
116.9149037453532
 21
144.5603340898677
 31
0.0
  0
LINE
  5
128
  8
0
  6
CONTINUOUS
 62
     7
 10
116.9149037453532
 20
144.5603340898677
 30
0.0
 11
116.3925518104901
 21
144.8820695414929
 31
0.0
  0
ENDBLK
  8
0
  0
ENDSEC
  0
SECTION
  2
ENTITIES
  0
INSERT
  5
A4
  8
0
  6
CONTINUOUS
 62
     7
  2
D_FRAME_VIEW_7343
 10
0.0
 20
0.0
 30
0.0
  0
INSERT
  5
129
  8
0
  6
CONTINUOUS
 62
     7
  2
D_FRAME_VIEW_6718
 10
0.0
 20
0.0
 30
0.0
  0
ENDSEC
  0
EOF
