  0
SECTION
  2
HEADER
  9
$ACADVER
  1
AC1006
  9
$DWGCODEPAGE
  3
ansi_932
  9
$INSBASE
 10
0.0
 20
0.0
 30
0.0
  9
$EXTMIN
 10
-1052.8530014558
 20
228.56331324815
  9
$EXTMAX
 10
-393.2655065201003
 20
883.3652223326999
  9
$LIMMIN
 10
0.0
 20
0.0
  9
$LIMMAX
 10
12.0
 20
9.0
  9
$ORTHOMODE
 70
     0
  9
$REGENMODE
 70
     1
  9
$FILLMODE
 70
     1
  9
$QTEXTMODE
 70
     0
  9
$MIRRTEXT
 70
     1
  9
$DRAGMODE
 70
     2
  9
$LTSCALE
 40
1.0
  9
$OSMODE
 70
    37
  9
$ATTMODE
 70
     1
  9
$TEXTSIZE
 40
0.2
  9
$TRACEWID
 40
0.05
  9
$TEXTSTYLE
  7
STANDARD
  9
$CLAYER
  8
0
  9
$CELTYPE
  6
BYLAYER
  9
$CECOLOR
 62
   256
  9
$DIMSCALE
 40
1.0
  9
$DIMASZ
 40
3.0
  9
$DIMEXO
 40
0.0625
  9
$DIMDLI
 40
0.38
  9
$DIMRND
 40
0.0
  9
$DIMDLE
 40
0.0
  9
$DIMEXE
 40
1.5
  9
$DIMTP
 40
0.0
  9
$DIMTM
 40
0.0
  9
$DIMTXT
 40
3.0
  9
$DIMCEN
 40
0.09
  9
$DIMTSZ
 40
0.0
  9
$DIMTOL
 70
     0
  9
$DIMLIM
 70
     0
  9
$DIMTIH
 70
     1
  9
$DIMTOH
 70
     1
  9
$DIMSE1
 70
     0
  9
$DIMSE2
 70
     0
  9
$DIMTAD
 70
     1
  9
$DIMZIN
 70
     0
  9
$DIMBLK
  1

  9
$DIMASO
 70
     1
  9
$DIMSHO
 70
     1
  9
$DIMPOST
  1

  9
$DIMAPOST
  1

  9
$DIMALT
 70
     0
  9
$DIMALTD
 70
     2
  9
$DIMALTF
 40
25.4
  9
$DIMLFAC
 40
1.0
  9
$DIMTOFL
 70
     0
  9
$DIMTVP
 40
0.0
  9
$DIMTIX
 70
     0
  9
$DIMSOXD
 70
     0
  9
$DIMSAH
 70
     0
  9
$DIMBLK1
  1

  9
$DIMBLK2
  1

  9
$LUNITS
 70
     2
  9
$LUPREC
 70
     4
  9
$SKETCHINC
 40
0.1
  9
$FILLETRAD
 40
0.5
  9
$AUNITS
 70
     0
  9
$AUPREC
 70
     0
  9
$MENU
  1
.
  9
$ELEVATION
 40
0.0
  9
$THICKNESS
 40
0.0
  9
$LIMCHECK
 70
     0
  9
$CHAMFERA
 40
0.0
  9
$CHAMFERB
 40
0.0
  9
$SKPOLY
 70
     0
  9
$TDCREATE
 40
2460119.593303009
  9
$TDUPDATE
 40
2460119.593303739
  9
$TDINDWG
 40
0.0000000116
  9
$TDUSRTIMER
 40
0.0000000116
  9
$USRTIMER
 70
     1
  9
$ANGBASE
 50
0.0
  9
$ANGDIR
 70
     0
  9
$PDMODE
 70
     0
  9
$PDSIZE
 40
0.0
  9
$PLINEWID
 40
0.0
  9
$COORDS
 70
     1
  9
$SPLFRAME
 70
     0
  9
$SPLINETYPE
 70
     6
  9
$SPLINESEGS
 70
     8
  9
$ATTDIA
 70
     0
  9
$ATTREQ
 70
     1
  9
$HANDLING
 70
     1
  9
$HANDSEED
  5
1F6
  9
$SURFTAB1
 70
     6
  9
$SURFTAB2
 70
     6
  9
$SURFTYPE
 70
     6
  9
$SURFU
 70
     6
  9
$SURFV
 70
     6
  9
$UCSNAME
  2

  9
$UCSORG
 10
0.0
 20
0.0
 30
0.0
  9
$UCSXDIR
 10
1.0
 20
0.0
 30
0.0
  9
$UCSYDIR
 10
0.0
 20
1.0
 30
0.0
  9
$USERI1
 70
     0
  9
$USERI2
 70
     0
  9
$USERI3
 70
     0
  9
$USERI4
 70
     0
  9
$USERI5
 70
     0
  9
$USERR1
 40
0.0
  9
$USERR2
 40
0.0
  9
$USERR3
 40
0.0
  9
$USERR4
 40
0.0
  9
$USERR5
 40
0.0
  9
$WORLDVIEW
 70
     1
  0
ENDSEC
  0
SECTION
  2
TABLES
  0
TABLE
  2
VPORT
 70
     1
  0
VPORT
  2
*ACTIVE
 70
     0
 10
0.0
 20
0.0
 11
1.0
 21
1.0
 12
-723.0592539879501
 22
555.964267790425
 13
0.0
 23
0.0
 14
0.5
 24
0.5
 15
0.5
 25
0.5
 16
0.0
 26
0.0
 36
1.0
 17
0.0
 27
0.0
 37
0.0
 40
654.8019090845498
 41
1.6
 42
50.0
 43
0.0
 44
0.0
 50
0.0
 51
0.0
 71
     0
 72
   100
 73
     1
 74
     3
 75
     0
 76
     0
 77
     0
 78
     0
  0
ENDTAB
  0
TABLE
  2
LTYPE
 70
     3
  0
LTYPE
  2
CONTINUOUS
 70
     0
  3
Solid line
 72
    65
 73
     0
 40
0.0
  0
LTYPE
  2
CENTER
 70
     0
  3

 72
    65
 73
     0
 40
0.0
  0
LTYPE
  2
DASHED
 70
     0
  3

 72
    65
 73
     0
 40
0.0
  0
ENDTAB
  0
TABLE
  2
LAYER
 70
     1
  0
LAYER
  2
0
 70
     0
 62
     7
  6
CONTINUOUS
  0
ENDTAB
  0
TABLE
  2
STYLE
 70
     2
  0
STYLE
  2
STANDARD
 70
     0
 40
0.0
 41
1.0
 50
0.0
 71
     0
 42
0.2
  3
txt
  4

  0
STYLE
  2
ＭＳ_ゴシック
 70
     0
 40
0.0
 41
1.0
 50
0.0
 71
     0
 42
0.2
  3
ＭＳ ゴシック.shx
  4

  0
ENDTAB
  0
TABLE
  2
VIEW
 70
     0
  0
ENDTAB
  0
TABLE
  2
UCS
 70
     0
  0
ENDTAB
  0
ENDSEC
  0
SECTION
  2
BLOCKS
  0
ENDSEC
  0
SECTION
  2
ENTITIES
  0
TEXT
  5
6F
  8
0
  6
CONTINUOUS
 62
     7
 10
-536.1819119669876
 20
362.4090909090909
 30
0.0
 40
10.0
  1
ＷＢ－１３Ａ
  0
LINE
  5
70
  8
0
  6
CONTINUOUS
 62
     7
 10
-1020.3530014558
 20
842.8900459492999
 30
0.0
 11
-1020.3530014558
 21
549.8900459492999
 31
0.0
  0
LINE
  5
71
  8
0
  6
CONTINUOUS
 62
     7
 10
-568.5655065201003
 20
846.701520698
 30
0.0
 11
-568.5655065201003
 21
582.8971936509499
 31
0.0
  0
LINE
  5
72
  8
0
  6
CONTINUOUS
 62
     7
 10
-520.0655065201003
 20
541.9062601063999
 30
0.0
 11
-489.7655065201004
 21
541.9062601063999
 31
0.0
  0
LINE
  5
73
  8
0
  6
CONTINUOUS
 62
     7
 10
-1003.0958537541
 20
585.2227710185
 30
0.0
 11
-697.6101491575001
 21
585.2227710185
 31
0.0
  0
LINE
  5
74
  8
0
  6
CENTER
 62
     1
 10
-850.3530014558
 20
883.3652223326999
 30
0.0
 11
-850.3530014558
 21
529.8900459493
 31
0.0
  0
LINE
  5
76
  8
0
  6
CONTINUOUS
 62
     7
 10
-1025.3530014558
 20
844.1344913356999
 30
0.0
 11
-1025.3530014558
 21
548.8900459492999
 31
0.0
  0
LINE
  5
77
  8
0
  6
CONTINUOUS
 62
     7
 10
-1016.0958537541
 20
551.147193651
 30
0.0
 11
-1016.0958537541
 21
841.6328982476
 31
0.0
  0
LINE
  5
78
  8
0
  6
CONTINUOUS
 62
     7
 10
-1010.0958537541
 20
584.1471936509998
 30
0.0
 11
-1010.0958537541
 21
834.6328982475999
 31
0.0
  0
LINE
  5
79
  8
0
  6
CONTINUOUS
 62
     7
 10
-1013.3530014558
 20
542.8900459493
 30
0.0
 11
-687.3530014558
 21
542.8900459493
 31
0.0
  0
LINE
  5
7A
  8
0
  6
CONTINUOUS
 62
     7
 10
-1014.0958537541
 20
553.147193651
 30
0.0
 11
-1014.0958537541
 21
839.6328982476
 31
0.0
  0
LINE
  5
7B
  8
0
  6
CONTINUOUS
 62
     7
 10
-1010.0958537541
 20
549.147193651
 30
0.0
 11
-690.6101491575002
 21
549.147193651
 31
0.0
  0
LINE
  5
7C
  8
0
  6
CENTER
 62
     1
 10
-1052.8530014558
 20
696.3900459493
 30
0.0
 11
-666.3530014558
 21
696.3900459493
 31
0.0
  0
LINE
  5
7D
  8
0
  6
CONTINUOUS
 62
     7
 10
-1019.0958537541
 20
841.6328982476
 30
0.0
 11
-1019.0958537541
 21
551.147193651
 31
0.0
  0
LINE
  5
7E
  8
0
  6
CONTINUOUS
 62
     7
 10
-1014.3281778392
 20
233.5633132481498
 30
0.0
 11
-865.3530014557996
 21
233.5633132481498
 31
0.0
  0
LINE
  5
7F
  8
0
  6
CONTINUOUS
 62
     7
 10
-1012.0958537541
 20
547.147193651
 30
0.0
 11
-688.6101491575002
 21
547.147193651
 31
0.0
  0
LINE
  5
80
  8
0
  6
CONTINUOUS
 62
     7
 10
-835.3530014558014
 20
233.5633132481498
 30
0.0
 11
-686.3778250723002
 21
233.5633132481498
 31
0.0
  0
LINE
  5
81
  8
0
  6
CONTINUOUS
 62
     7
 10
-1006.0958537541
 20
588.2227710185
 30
0.0
 11
-1006.0958537541
 21
832.6328982475999
 31
0.0
  0
LINE
  5
82
  8
0
  6
CONTINUOUS
 62
     7
 10
-1015.3530014558
 20
538.8900459493
 30
0.0
 11
-685.3530014558
 21
538.8900459493
 31
0.0
  0
LINE
  5
83
  8
0
  6
CONTINUOUS
 62
     7
 10
-1012.0958537541
 20
544.1471936509998
 30
0.0
 11
-688.6101491575002
 21
544.1471936509998
 31
0.0
  0
LINE
  5
84
  8
0
  6
CONTINUOUS
 62
     7
 10
-532.5655065201004
 20
542.6900459492998
 30
0.0
 11
-532.5655065201004
 21
605.3900459493001
 31
0.0
  0
LINE
  5
85
  8
0
  6
CONTINUOUS
 62
     7
 10
-520.0655065201003
 20
546.8563539265933
 30
0.0
 11
-403.2655065201003
 21
549.9148695658
 31
0.0
  0
LINE
  5
86
  8
0
  6
CONTINUOUS
 62
     7
 10
-1005.0958537541
 20
579.147193651
 30
0.0
 11
-695.6101491575001
 21
579.147193651
 31
0.0
  0
LINE
  5
87
  8
0
  6
CONTINUOUS
 62
     7
 10
-520.0655065201003
 20
603.3900459493
 30
0.0
 11
-520.0655065201003
 21
538.8900459493
 31
0.0
  0
LINE
  5
88
  8
0
  6
CONTINUOUS
 62
     7
 10
-685.3530014558
 20
854.1344913356999
 30
0.0
 11
-1015.3530014558
 21
854.1344913356999
 31
0.0
  0
ARC
  5
89
  8
0
  6
CONTINUOUS
 62
     7
 10
-679.3530014557999
 20
794.3900459491999
 30
0.0
 40
0.9999999999998899
 50
90.0
 51
180.0
  0
ARC
  5
8A
  8
0
  6
CONTINUOUS
 62
     7
 10
-688.6101491575001
 20
841.6328982476
 30
0.0
 40
3.999999999999893
 50
0.0
 51
90.0
  0
LINE
  5
8B
  8
0
  6
CONTINUOUS
 62
     7
 10
-681.6101491575004
 20
551.147193651
 30
0.0
 11
-681.6101491575004
 21
841.6328982476
 31
0.0
  0
LINE
  5
8C
  8
0
  6
CONTINUOUS
 62
     7
 10
-674.3530014558002
 20
800.8900459493
 30
0.0
 11
-674.3530014558002
 21
804.8900459492997
 31
0.0
  0
LINE
  5
8D
  8
0
  6
CONTINUOUS
 62
     7
 10
-690.6101491575001
 20
843.6328982476
 30
0.0
 11
-1010.0958537541
 21
843.6328982476
 31
0.0
  0
ARC
  5
8E
  8
0
  6
CONTINUOUS
 62
     7
 10
-685.3530014558
 20
844.1344913356999
 30
0.0
 40
10.00000000000001
 50
0.0
 51
90.0
  0
LINE
  5
8F
  8
0
  6
CONTINUOUS
 62
     7
 10
-688.6101491575001
 20
845.6328982476
 30
0.0
 11
-1012.0958537541
 21
845.6328982476
 31
0.0
  0
ARC
  5
90
  8
0
  6
CONTINUOUS
 62
     7
 10
-674.3530014558002
 20
804.3900459492999
 30
0.0
 40
0.9999999999998899
 50
90.0
 51
180.0
  0
LINE
  5
91
  8
0
  6
CONTINUOUS
 62
     7
 10
-659.8530014558
 20
765.3900459493
 30
0.0
 11
-659.8530014558
 21
770.8900459493
 31
0.0
  0
ARC
  5
92
  8
0
  6
CONTINUOUS
 62
     7
 10
-1005.0958537541
 20
834.6328982475999
 30
0.0
 40
4.999999999999893
 50
90.0
 51
180.0
  0
ARC
  5
93
  8
0
  6
CONTINUOUS
 62
     7
 10
-674.3530014558002
 20
801.3900459493
 30
0.0
 40
0.9999999999998899
 50
180.0
 51
270.0
  0
ARC
  5
94
  8
0
  6
CONTINUOUS
 62
     7
 10
-679.3530014557999
 20
801.3900459493
 30
0.0
 40
0.9999999999998899
 50
180.0
 51
270.0
  0
LINE
  5
95
  8
0
  6
CONTINUOUS
 62
     7
 10
-659.8530014558
 20
578.3900459492999
 30
0.0
 11
-659.8530014558
 21
583.8900459493
 31
0.0
  0
LINE
  5
96
  8
0
  6
CONTINUOUS
 62
     7
 10
-695.6101491575001
 20
839.6328982476
 30
0.0
 11
-1005.0958537541
 21
839.6328982476
 31
0.0
  0
ARC
  5
97
  8
0
  6
CONTINUOUS
 62
     7
 10
-679.3530014557999
 20
804.3900459492999
 30
0.0
 40
0.9999999999998899
 50
90.0
 51
180.0
  0
LINE
  5
98
  8
0
  6
CONTINUOUS
 62
     7
 10
-680.3530014558
 20
811.3900459493
 30
0.0
 11
-680.3530014558
 21
842.8900459492999
 31
0.0
  0
LINE
  5
99
  8
0
  6
CONTINUOUS
 62
     7
 10
-659.8530014558
 20
597.8900459493
 30
0.0
 11
-659.8530014558
 21
603.3900459493
 31
0.0
  0
ARC
  5
9A
  8
0
  6
CONTINUOUS
 62
     7
 10
-688.6101491575001
 20
551.147193651
 30
0.0
 40
3.999999999999893
 50
270.0
 51
0.0
  0
LINE
  5
9B
  8
0
  6
CONTINUOUS
 62
     7
 10
-697.6101491575001
 20
835.6328982476
 30
0.0
 11
-1003.0958537541
 21
835.6328982476
 31
0.0
  0
ARC
  5
9C
  8
0
  6
CONTINUOUS
 62
     7
 10
-697.6101491575001
 20
832.6328982475999
 30
0.0
 40
2.999999999999892
 50
0.0
 51
90.0
  0
LINE
  5
9D
  8
0
  6
CONTINUOUS
 62
     7
 10
-680.3530014558
 20
804.3900459492999
 30
0.0
 11
-680.3530014558
 21
801.3900459493
 31
0.0
  0
ARC
  5
9E
  8
0
  6
CONTINUOUS
 62
     7
 10
-690.6101491575001
 20
839.6328982476
 30
0.0
 40
4.000000000000004
 50
0.0
 51
90.0
  0
LINE
  5
9F
  8
0
  6
CONTINUOUS
 62
     7
 10
-659.8530014558
 20
810.3900459492999
 30
0.0
 11
-659.8530014558
 21
805.3900459493
 31
0.0
  0
LINE
  5
A0
  8
0
  6
CONTINUOUS
 62
     7
 10
-659.8530014558
 20
787.8900459492999
 30
0.0
 11
-659.8530014558
 21
793.3900459493
 31
0.0
  0
LINE
  5
A1
  8
0
  6
CONTINUOUS
 62
     7
 10
-675.3530014558
 20
811.3900459493
 30
0.0
 11
-675.3530014558
 21
844.1344913356999
 31
0.0
  0
ARC
  5
A2
  8
0
  6
CONTINUOUS
 62
     7
 10
-679.3530014557999
 20
811.3900459493
 30
0.0
 40
0.9999999999998899
 50
180.0
 51
270.0
  0
LINE
  5
A3
  8
0
  6
CONTINUOUS
 62
     7
 10
-680.5053868490003
 20
810.3900459492999
 30
0.0
 11
-659.8530014558002
 21
810.3900459492999
 31
0.0
  0
ARC
  5
A4
  8
0
  6
CONTINUOUS
 62
     7
 10
-695.6101491575001
 20
834.6328982475999
 30
0.0
 40
5.000000000000004
 50
0.0
 51
90.0
  0
LINE
  5
A5
  8
0
  6
CONTINUOUS
 62
     7
 10
-686.6101491575001
 20
553.147193651
 30
0.0
 11
-686.6101491575001
 21
839.6328982476
 31
0.0
  0
ARC
  5
A6
  8
0
  6
CONTINUOUS
 62
     7
 10
-690.6101491575001
 20
553.147193651
 30
0.0
 40
4.000000000000004
 50
270.0
 51
0.0
  0
ARC
  5
A7
  8
0
  6
CONTINUOUS
 62
     7
 10
-1012.0958537541
 20
841.6328982476
 30
0.0
 40
4.000000000000004
 50
90.0
 51
180.0
  0
LINE
  5
A8
  8
0
  6
CONTINUOUS
 62
     7
 10
-684.6101491575002
 20
551.147193651
 30
0.0
 11
-684.6101491575002
 21
841.6328982476
 31
0.0
  0
ARC
  5
A9
  8
0
  6
CONTINUOUS
 62
     7
 10
-687.3530014558
 20
549.8900459492999
 30
0.0
 40
7.000000000000006
 50
270.0
 51
0.0
  0
ARC
  5
AA
  8
0
  6
CONTINUOUS
 62
     7
 10
-1015.3530014558
 20
844.1344913356999
 30
0.0
 40
10.00000000000001
 50
90.0
 51
180.0
  0
LINE
  5
AB
  8
0
  6
CONTINUOUS
 62
     7
 10
-659.8530014558
 20
800.3900459492997
 30
0.0
 11
-659.8530014558
 21
793.3900459492999
 31
0.0
  0
ARC
  5
AC
  8
0
  6
CONTINUOUS
 62
     7
 10
-688.6101491575001
 20
551.147193651
 30
0.0
 40
6.999999999999784
 50
270.0
 51
0.0
  0
LINE
  5
AD
  8
0
  6
CONTINUOUS
 62
     7
 10
-659.8530014558
 20
793.3900459493
 30
0.0
 11
-675.3530014557999
 21
793.3900459493
 31
0.0
  0
ARC
  5
AE
  8
0
  6
CONTINUOUS
 62
     7
 10
-674.3530014558002
 20
811.3900459493
 30
0.0
 40
0.9999999999998899
 50
180.0
 51
270.0
  0
LINE
  5
AF
  8
0
  6
CONTINUOUS
 62
     7
 10
-674.3530014558002
 20
610.8900459492999
 30
0.0
 11
-674.3530014558002
 21
614.8900459492999
 31
0.0
  0
ARC
  5
B0
  8
0
  6
CONTINUOUS
 62
     7
 10
-687.3530014558
 20
842.8900459492999
 30
0.0
 40
7.000000000000006
 50
0.0
 51
90.0
  0
LINE
  5
B1
  8
0
  6
CONTINUOUS
 62
     7
 10
-675.3530014558
 20
801.3900459493
 30
0.0
 11
-675.3530014558
 21
804.3900459492999
 31
0.0
  0
ARC
  5
B2
  8
0
  6
CONTINUOUS
 62
     7
 10
-680.5053868490003
 20
811.3900459493
 30
0.0
 40
0.9999999999998899
 50
180.0
 51
270.0
  0
ARC
  5
B3
  8
0
  6
CONTINUOUS
 62
     7
 10
-674.3530014558002
 20
794.3900459492999
 30
0.0
 40
0.9999999999998899
 50
90.0
 51
180.0
  0
LINE
  5
B4
  8
0
  6
CONTINUOUS
 62
     7
 10
-680.5053868490003
 20
795.3900459493
 30
0.0
 11
-668.3530014558002
 21
795.3900459493
 31
0.0
  0
LINE
  5
B5
  8
0
  6
CONTINUOUS
 62
     7
 10
-681.5053868490002
 20
794.3900459494
 30
0.0
 11
-681.5053868490002
 21
793.3900459493
 31
0.0
  0
ARC
  5
B6
  8
0
  6
CONTINUOUS
 62
     7
 10
-685.3530014558
 20
548.8900459492997
 30
0.0
 40
10.00000000000001
 50
270.0
 51
0.0
  0
ARC
  5
B7
  8
0
  6
CONTINUOUS
 62
     7
 10
-1003.0958537541
 20
832.6328982475999
 30
0.0
 40
2.999999999999892
 50
90.0
 51
180.0
  0
ARC
  5
B8
  8
0
  6
CONTINUOUS
 62
     7
 10
-1010.0958537541
 20
839.6328982476
 30
0.0
 40
4.000000000000004
 50
90.0
 51
180.0
  0
ARC
  5
B9
  8
0
  6
CONTINUOUS
 62
     7
 10
-688.6101491575001
 20
841.6328982476
 30
0.0
 40
6.999999999999784
 50
0.0
 51
90.0
  0
LINE
  5
BA
  8
0
  6
CONTINUOUS
 62
     7
 10
-1027.1380377698
 20
668.0830228480999
 30
0.0
 11
-1041.1754469847
 21
669.6005806010999
 31
0.0
  0
ARC
  5
BB
  8
0
  6
CONTINUOUS
 62
     7
 10
-663.1030014558
 20
804.3900459492999
 30
0.0
 40
0.9999999999998899
 50
90.0
 51
180.0
  0
ARC
  5
BC
  8
0
  6
CONTINUOUS
 62
     7
 10
-1040.8530014558
 20
672.5832017437998
 30
0.0
 40
2.999999999999892
 50
180.0
 51
263.8298249049
  0
LINE
  5
BD
  8
0
  6
CONTINUOUS
 62
     7
 10
-659.8530014558
 20
610.3900459492999
 30
0.0
 11
-659.8530014558
 21
603.3900459493
 31
0.0
  0
LINE
  5
BE
  8
0
  6
CONTINUOUS
 62
     7
 10
-675.3530014558
 20
611.3900459493
 30
0.0
 11
-675.3530014558
 21
614.3900459492999
 31
0.0
  0
ARC
  5
BF
  8
0
  6
CONTINUOUS
 62
     7
 10
-671.6030014558
 20
614.3900459492999
 30
0.0
 40
0.9999999999998899
 50
90.0
 51
180.0
  0
ARC
  5
C0
  8
0
  6
CONTINUOUS
 62
     7
 10
-663.1030014558
 20
611.3900459493
 30
0.0
 40
0.9999999999998899
 50
180.0
 51
270.0
  0
LINE
  5
C1
  8
0
  6
CONTINUOUS
 62
     7
 10
-680.5053868490003
 20
605.3900459493001
 30
0.0
 11
-668.3530014558002
 21
605.3900459493001
 31
0.0
  0
LINE
  5
C2
  8
0
  6
CONTINUOUS
 62
     7
 10
-1013.3530014558
 20
849.8900459493
 30
0.0
 11
-687.3530014558
 21
849.8900459493
 31
0.0
  0
LINE
  5
C3
  8
0
  6
CONTINUOUS
 62
     7
 10
-679.3530014557999
 20
615.3900459492997
 30
0.0
 11
-659.8530014558
 21
615.3900459492997
 31
0.0
  0
LINE
  5
C4
  8
0
  6
CONTINUOUS
 62
     7
 10
-675.3530014558
 20
765.3900459493
 30
0.0
 11
-659.8530014558002
 21
765.3900459493
 31
0.0
  0
LINE
  5
C5
  8
0
  6
CONTINUOUS
 62
     7
 10
-659.8530014558
 20
603.3900459493
 30
0.0
 11
-675.3530014557999
 21
603.3900459493
 31
0.0
  0
ARC
  5
C6
  8
0
  6
CONTINUOUS
 62
     7
 10
-674.3530014558002
 20
614.3900459492999
 30
0.0
 40
0.9999999999998899
 50
90.0
 51
180.0
  0
ARC
  5
C7
  8
0
  6
CONTINUOUS
 62
     7
 10
-1012.0958537541
 20
841.6328982476
 30
0.0
 40
6.999999999999895
 50
90.0
 51
180.0
  0
ARC
  5
C8
  8
0
  6
CONTINUOUS
 62
     7
 10
-679.3530014557999
 20
614.3900459492999
 30
0.0
 40
0.9999999999998899
 50
90.0
 51
180.0
  0
LINE
  5
C9
  8
0
  6
CONTINUOUS
 62
     7
 10
-675.3530014558
 20
787.8900459492999
 30
0.0
 11
-659.8530014558002
 21
787.8900459492999
 31
0.0
  0
CIRCLE
  5
CA
  8
0
  6
CONTINUOUS
 62
     7
 10
-1034.3530014558
 20
679.3900459492999
 30
0.0
 40
4.000000000000004
  0
LINE
  5
CB
  8
0
  6
CONTINUOUS
 62
     7
 10
-690.6101491575001
 20
584.1471936509998
 30
0.0
 11
-690.6101491575001
 21
834.6328982475999
 31
0.0
  0
ARC
  5
CC
  8
0
  6
CONTINUOUS
 62
     7
 10
-663.1030014558
 20
614.3900459492999
 30
0.0
 40
0.9999999999998899
 50
90.0
 51
180.0
  0
LINE
  5
CD
  8
0
  6
CONTINUOUS
 62
     7
 10
-675.3530014558
 20
800.8900459493
 30
0.0
 11
-674.3530014558002
 21
800.8900459493
 31
0.0
  0
LINE
  5
CE
  8
0
  6
CONTINUOUS
 62
     7
 10
-674.3530014558002
 20
804.8900459492997
 30
0.0
 11
-675.3530014558
 21
804.8900459492997
 31
0.0
  0
LINE
  5
CF
  8
0
  6
CONTINUOUS
 62
     7
 10
-679.3530014557999
 20
610.3900459492999
 30
0.0
 11
-659.8530014558
 21
610.3900459492999
 31
0.0
  0
ARC
  5
D0
  8
0
  6
CONTINUOUS
 62
     7
 10
-671.6030014558
 20
611.3900459493
 30
0.0
 40
0.9999999999998899
 50
180.0
 51
270.0
  0
LINE
  5
D1
  8
0
  6
CONTINUOUS
 62
     7
 10
-675.3530014558
 20
621.3900459492997
 30
0.0
 11
-675.3530014558
 21
794.3900459492999
 31
0.0
  0
LINE
  5
D2
  8
0
  6
CONTINUOUS
 62
     7
 10
-664.1030014557999
 20
801.3900459493
 30
0.0
 11
-664.1030014557999
 21
804.3900459492999
 31
0.0
  0
LINE
  5
D3
  8
0
  6
CONTINUOUS
 62
     7
 10
-672.6030014557999
 20
611.3900459493
 30
0.0
 11
-672.6030014557999
 21
614.3900459492999
 31
0.0
  0
ARC
  5
D4
  8
0
  6
CONTINUOUS
 62
     7
 10
-1013.3530014558
 20
842.8900459492999
 30
0.0
 40
6.999999999999895
 50
90.0
 51
180.0
  0
ARC
  5
D5
  8
0
  6
CONTINUOUS
 62
     7
 10
-674.3530014558002
 20
611.3900459493
 30
0.0
 40
0.9999999999998899
 50
180.0
 51
270.0
  0
LINE
  5
D6
  8
0
  6
CONTINUOUS
 62
     7
 10
-680.3530014558
 20
604.3900459491997
 30
0.0
 11
-680.3530014558
 21
549.8900459492999
 31
0.0
  0
LINE
  5
D7
  8
0
  6
CONTINUOUS
 62
     7
 10
-679.3530014557999
 20
800.3900459492997
 30
0.0
 11
-659.8530014558
 21
800.3900459492997
 31
0.0
  0
LINE
  5
D8
  8
0
  6
CONTINUOUS
 62
     7
 10
-664.1030014557999
 20
770.8900459493
 30
0.0
 11
-664.1030014557999
 21
787.8900459492999
 31
0.0
  0
LINE
  5
D9
  8
0
  6
CONTINUOUS
 62
     7
 10
-674.3530014558002
 20
614.8900459492999
 30
0.0
 11
-675.3530014558
 21
614.8900459492999
 31
0.0
  0
ARC
  5
DA
  8
0
  6
CONTINUOUS
 62
     7
 10
-697.6101491575001
 20
588.2227710185
 30
0.0
 40
2.999999999999892
 50
270.0
 51
0.0
  0
ARC
  5
DB
  8
0
  6
CONTINUOUS
 62
     7
 10
-679.3530014557999
 20
621.3900459492997
 30
0.0
 40
0.9999999999998899
 50
180.0
 51
270.0
  0
LINE
  5
DC
  8
0
  6
CONTINUOUS
 62
     7
 10
-680.3530014558
 20
611.3900459493
 30
0.0
 11
-680.3530014558
 21
614.3900459492999
 31
0.0
  0
LINE
  5
DD
  8
0
  6
CONTINUOUS
 62
     7
 10
-1027.1380377698
 20
724.6970690504999
 30
0.0
 11
-1041.1754469847
 21
723.1795112974996
 31
0.0
  0
LINE
  5
DE
  8
0
  6
CONTINUOUS
 62
     7
 10
-675.3530014558
 20
604.3900459492999
 30
0.0
 11
-675.3530014558
 21
548.8900459492997
 31
0.0
  0
LINE
  5
DF
  8
0
  6
CONTINUOUS
 62
     7
 10
-680.3530014558
 20
621.3900459492997
 30
0.0
 11
-680.3530014558
 21
794.3900459491999
 31
0.0
  0
LINE
  5
E0
  8
0
  6
CONTINUOUS
 62
     7
 10
-672.6030014557999
 20
801.3900459493
 30
0.0
 11
-672.6030014557999
 21
804.3900459492999
 31
0.0
  0
ARC
  5
E1
  8
0
  6
CONTINUOUS
 62
     7
 10
-1027.3530014558
 20
666.0946087529998
 30
0.0
 40
2.000000000000002
 50
0.0
 51
83.82982490499997
  0
ARC
  5
E2
  8
0
  6
CONTINUOUS
 62
     7
 10
-674.3530014558002
 20
604.3900459492999
 30
0.0
 40
0.9999999999998899
 50
90.0
 51
180.0
  0
ARC
  5
E3
  8
0
  6
CONTINUOUS
 62
     7
 10
-680.5053868490003
 20
604.3900459494997
 30
0.0
 40
0.9999999999998899
 50
90.0
 51
180.0
  0
ARC
  5
E4
  8
0
  6
CONTINUOUS
 62
     7
 10
-679.3530014557999
 20
604.3900459491997
 30
0.0
 40
0.9999999999998899
 50
90.0
 51
180.0
  0
LINE
  5
E5
  8
0
  6
CONTINUOUS
 62
     7
 10
-1012.0958537541
 20
848.6328982475999
 30
0.0
 11
-688.6101491575002
 21
848.6328982475999
 31
0.0
  0
LINE
  5
E6
  8
0
  6
CONTINUOUS
 62
     7
 10
-659.8530014558
 20
805.3900459493
 30
0.0
 11
-679.3530014557999
 21
805.3900459493
 31
0.0
  0
LINE
  5
E7
  8
0
  6
CONTINUOUS
 62
     7
 10
-659.8530014558
 20
620.3900459492999
 30
0.0
 11
-659.8530014558
 21
615.3900459492997
 31
0.0
  0
ARC
  5
E8
  8
0
  6
CONTINUOUS
 62
     7
 10
-1027.3530014558
 20
726.6854831455997
 30
0.0
 40
2.000000000000002
 50
276.170175095
 51
0.0
  0
ARC
  5
E9
  8
0
  6
CONTINUOUS
 62
     7
 10
-663.1030014558
 20
801.3900459493
 30
0.0
 40
0.9999999999998899
 50
180.0
 51
270.0
  0
LINE
  5
EA
  8
0
  6
CONTINUOUS
 62
     7
 10
-659.8530014558
 20
770.8900459493
 30
0.0
 11
-675.3530014557999
 21
770.8900459493
 31
0.0
  0
LINE
  5
EB
  8
0
  6
CONTINUOUS
 62
     7
 10
-675.3530014558
 20
610.8900459492999
 30
0.0
 11
-674.3530014558002
 21
610.8900459492999
 31
0.0
  0
LINE
  5
EC
  8
0
  6
CONTINUOUS
 62
     7
 10
-1043.8530014558
 20
672.5832017437998
 30
0.0
 11
-1043.8530014558
 21
720.1968901547997
 31
0.0
  0
ARC
  5
ED
  8
0
  6
CONTINUOUS
 62
     7
 10
-671.6030014558
 20
804.3900459492999
 30
0.0
 40
0.9999999999998899
 50
90.0
 51
180.0
  0
ARC
  5
EE
  8
0
  6
CONTINUOUS
 62
     7
 10
-695.6101491575001
 20
584.1471936509998
 30
0.0
 40
5.000000000000004
 50
270.0
 51
0.0
  0
ARC
  5
EF
  8
0
  6
CONTINUOUS
 62
     7
 10
-680.5053868490003
 20
621.3900459492997
 30
0.0
 40
0.9999999999998899
 50
180.0
 51
270.0
  0
ARC
  5
F0
  8
0
  6
CONTINUOUS
 62
     7
 10
-671.6030014558
 20
801.3900459493
 30
0.0
 40
0.9999999999998899
 50
180.0
 51
270.0
  0
LINE
  5
F1
  8
0
  6
CONTINUOUS
 62
     7
 10
-694.6101491575002
 20
588.2227710185
 30
0.0
 11
-694.6101491575002
 21
832.6328982475999
 31
0.0
  0
LINE
  5
F2
  8
0
  6
CONTINUOUS
 62
     7
 10
-672.6030014557999
 20
770.8900459493
 30
0.0
 11
-672.6030014557999
 21
787.8900459492999
 31
0.0
  0
LINE
  5
F3
  8
0
  6
CONTINUOUS
 62
     7
 10
-680.5053868490003
 20
620.3900459492999
 30
0.0
 11
-659.8530014558002
 21
620.3900459492999
 31
0.0
  0
LINE
  5
F4
  8
0
  6
CONTINUOUS
 62
     7
 10
-675.3530014558
 20
597.8900459493
 30
0.0
 11
-659.8530014558002
 21
597.8900459493
 31
0.0
  0
ARC
  5
F5
  8
0
  6
CONTINUOUS
 62
     7
 10
-1040.8530014558
 20
720.1968901547996
 30
0.0
 40
2.999999999999892
 50
96.17017509509999
 51
180.0
  0
LINE
  5
F6
  8
0
  6
CONTINUOUS
 62
     7
 10
-664.1030014557999
 20
611.3900459493
 30
0.0
 11
-664.1030014557999
 21
614.3900459492999
 31
0.0
  0
ARC
  5
F7
  8
0
  6
CONTINUOUS
 62
     7
 10
-680.5053868490003
 20
794.3900459494
 30
0.0
 40
0.9999999999998899
 50
90.0
 51
180.0
  0
ARC
  5
F8
  8
0
  6
CONTINUOUS
 62
     7
 10
-679.3530014557999
 20
611.3900459493
 30
0.0
 40
0.9999999999998899
 50
180.0
 51
270.0
  0
ARC
  5
F9
  8
0
  6
CONTINUOUS
 62
     7
 10
-674.3530014558002
 20
621.3900459492997
 30
0.0
 40
0.9999999999998899
 50
180.0
 51
270.0
  0
LINE
  5
FA
  8
0
  6
CONTINUOUS
 62
     7
 10
-1017.3866934785
 20
350.3633132481498
 30
0.0
 11
-1043.3530014558
 21
350.3633132481498
 31
0.0
  0
LINE
  5
FB
  8
0
  6
CONTINUOUS
 62
     7
 10
-1006.1837217197
 20
400.4754452825498
 30
0.0
 11
-1007.5958537541
 21
399.0633132481498
 31
0.0
  0
LINE
  5
FC
  8
0
  6
CONTINUOUS
 62
     7
 10
-683.0872813532
 20
322.7415182068498
 30
0.0
 11
-664.1030014557999
 21
333.7020973160498
 31
0.0
  0
LINE
  5
FD
  8
0
  6
CONTINUOUS
 62
     7
 10
-660.4771493386005
 20
344.2603358362499
 30
0.0
 11
-681.505386849
 21
396.0633132481499
 31
0.0
  0
ARC
  5
FE
  8
0
  6
CONTINUOUS
 62
     7
 10
-1005.9715896854
 20
400.06331324815
 30
0.0
 40
0.299999999999967
 50
90.0
 51
135.0000000003
  0
LINE
  5
FF
  8
0
  6
CONTINUOUS
 62
     7
 10
-675.3530014558
 20
578.3900459492999
 30
0.0
 11
-659.8530014558002
 21
578.3900459492999
 31
0.0
  0
LINE
  5
100
  8
0
  6
CONTINUOUS
 62
     7
 10
-1020.3460215564
 20
363.2631914135497
 30
0.0
 11
-1019.1632578585
 21
397.1331122415497
 31
0.0
  0
ARC
  5
101
  8
0
  6
CONTINUOUS
 62
     7
 10
-682.0872813532001
 20
321.0094673992498
 30
0.0
 40
1.99999999999978
 50
120.0
 51
178.5
  0
LINE
  5
102
  8
0
  6
CONTINUOUS
 62
     7
 10
-694.5222811918003
 20
400.4754452825498
 30
0.0
 11
-693.1101491575001
 21
399.0633132481498
 31
0.0
  0
LINE
  5
103
  8
0
  6
CONTINUOUS
 62
     7
 10
-519.2655065201004
 20
793.3900459493
 30
0.0
 11
-519.2655065201004
 21
787.8900459492999
 31
0.0
  0
LINE
  5
104
  8
0
  6
CONTINUOUS
 62
     7
 10
-1017.3866934785
 20
350.3633132481498
 30
0.0
 11
-1014.3281778392
 21
233.5633132481498
 31
0.0
  0
ARC
  5
105
  8
0
  6
CONTINUOUS
 62
     7
 10
-1042.3530014558
 20
346.3633132481498
 30
0.0
 40
0.9999999999998899
 50
180.0
 51
270.0
  0
LINE
  5
106
  8
0
  6
CONTINUOUS
 62
     7
 10
-675.3530014558004
 20
350.5633132481499
 30
0.0
 11
-1043.8530014558
 21
350.5633132481499
 31
0.0
  0
ARC
  5
107
  8
0
  6
CONTINUOUS
 62
     7
 10
-677.7208886240002
 20
361.0633132481498
 30
0.0
 40
1.99999999999978
 50
2.0
 51
90.0
  0
LINE
  5
108
  8
0
  6
CONTINUOUS
 62
     7
 10
-678.3692156129001
 20
350.5633132481499
 30
0.0
 11
-678.3692156129001
 21
350.3633132481499
 31
0.0
  0
LINE
  5
109
  8
0
  6
CENTER
 62
     1
 10
-575.0655065201003
 20
696.3900459493
 30
0.0
 11
-393.2655065201003
 21
696.3900459493
 31
0.0
  0
LINE
  5
10A
  8
0
  6
CONTINUOUS
 62
     7
 10
-1022.9851142875
 20
363.0633132481497
 30
0.0
 11
-677.7208886240003
 21
363.0633132481497
 31
0.0
  0
LINE
  5
10B
  8
0
  6
CONTINUOUS
 62
     7
 10
-1042.8530014558
 20
355.5633132481499
 30
0.0
 11
-1025.2482391473
 21
355.5633132481499
 31
0.0
  0
LINE
  5
10C
  8
0
  6
CONTINUOUS
 62
     7
 10
-664.1030014557999
 20
583.8900459509001
 30
0.0
 11
-664.1030014557999
 21
597.8900459493001
 31
0.0
  0
ARC
  5
10D
  8
0
  6
CONTINUOUS
 62
     7
 10
-1022.9851142875
 20
361.0633132481498
 30
0.0
 40
2.000000000000002
 50
90.0
 51
178.0
  0
LINE
  5
10E
  8
0
  6
CONTINUOUS
 62
     7
 10
-675.72210697
 20
361.1331122415497
 30
0.0
 11
-675.3530014558004
 21
350.5633132481498
 31
0.0
  0
ARC
  5
10F
  8
0
  6
CONTINUOUS
 62
     7
 10
-694.7344132262001
 20
400.2633132481498
 30
0.0
 40
0.3000000000003
 50
44.9999999998
 51
90.0
  0
LINE
  5
110
  8
0
  6
CONTINUOUS
 62
     7
 10
-490.7655065201004
 20
765.3900459493
 30
0.0
 11
-490.7655065201004
 21
770.8900459493
 31
0.0
  0
ARC
  5
111
  8
0
  6
CONTINUOUS
 62
     7
 10
-683.5415267070998
 20
397.0633132481498
 30
0.0
 40
1.99999999999978
 50
2.0
 51
90.0
  0
LINE
  5
112
  8
0
  6
CONTINUOUS
 62
     7
 10
-519.2655065201004
 20
770.8900459493
 30
0.0
 11
-519.2655065201004
 21
765.3900459493
 31
0.0
  0
LINE
  5
113
  8
0
  6
CONTINUOUS
 62
     7
 10
-680.3599813551001
 20
363.2631914135497
 30
0.0
 11
-681.5427450531
 21
397.1331122415497
 31
0.0
  0
LINE
  5
114
  8
0
  6
CONTINUOUS
 62
     7
 10
-489.7655065201003
 20
541.9062601063999
 30
0.0
 11
-489.7655065201003
 21
547.6497873500998
 31
0.0
  0
LINE
  5
115
  8
0
  6
CONTINUOUS
 62
     7
 10
-1017.1644762045
 20
399.0633132481498
 30
0.0
 11
-683.5415267070998
 21
399.0633132481498
 31
0.0
  0
LINE
  5
116
  8
0
  6
CONTINUOUS
 62
     7
 10
-659.8530014558
 20
583.8900459493
 30
0.0
 11
-675.3530014557999
 21
583.8900459493
 31
0.0
  0
CIRCLE
  5
117
  8
0
  6
CONTINUOUS
 62
     7
 10
-668.3530014558004
 20
341.0633132481498
 30
0.0
 40
4.350000000000187
  0
LINE
  5
118
  8
0
  6
CONTINUOUS
 62
     7
 10
-1033.1814285805
 20
345.3633132481497
 30
0.0
 11
-1042.3530014558
 21
345.3633132481497
 31
0.0
  0
ARC
  5
119
  8
0
  6
CONTINUOUS
 62
     7
 10
-1018.8282257694
 20
329.01011043705
 30
0.0
 40
2.000000000000002
 50
1.5
 51
45.0
  0
ARC
  5
11A
  8
0
  6
CONTINUOUS
 62
     7
 10
-1042.8530014558
 20
354.5633132481498
 30
0.0
 40
0.9999999999998899
 50
90.0
 51
180.0
  0
LINE
  5
11B
  8
0
  6
CONTINUOUS
 62
     7
 10
-1017.4140122071
 20
330.4243239994497
 30
0.0
 11
-1031.7672150182
 21
344.7775268105497
 31
0.0
  0
LINE
  5
11C
  8
0
  6
CONTINUOUS
 62
     7
 10
-403.2655065201003
 20
874.3754787429998
 30
0.0
 11
-403.2655065201003
 21
549.9148695658
 31
0.0
  0
ARC
  5
11D
  8
0
  6
CONTINUOUS
 62
     7
 10
-1033.1814285805
 20
343.3633132481497
 30
0.0
 40
2.000000000000002
 50
45.0
 51
90.0
  0
LINE
  5
11E
  8
0
  6
CONTINUOUS
 62
     7
 10
-672.6030014557999
 20
583.8900459509001
 30
0.0
 11
-672.6030014557999
 21
597.8900459493001
 31
0.0
  0
ARC
  5
11F
  8
0
  6
CONTINUOUS
 62
     7
 10
-668.3530014558004
 20
341.0633132481498
 30
0.0
 40
8.500000000000174
 50
300.0
 51
90.0
  0
LINE
  5
120
  8
0
  6
CONTINUOUS
 62
     7
 10
-490.7655065201004
 20
787.8900459492999
 30
0.0
 11
-490.7655065201004
 21
793.3900459493
 31
0.0
  0
LINE
  5
121
  8
0
  6
CONTINUOUS
 62
     7
 10
-1043.3530014558
 20
346.3633132481498
 30
0.0
 11
-1043.3530014558
 21
350.3633132481498
 31
0.0
  0
LINE
  5
122
  8
0
  6
CONTINUOUS
 62
     7
 10
-677.3692156129002
 20
349.56331324815
 30
0.0
 11
-668.3530014558003
 21
349.56331324815
 31
0.0
  0
ARC
  5
123
  8
0
  6
CONTINUOUS
 62
     7
 10
-677.3692156129002
 20
350.5633132481499
 30
0.0
 40
0.9999999999998899
 50
180.0
 51
270.0
  0
ARC
  5
124
  8
0
  6
CONTINUOUS
 62
     7
 10
-1017.1644762045
 20
397.0633132481498
 30
0.0
 40
2.000000000000002
 50
90.0
 51
178.0
  0
LINE
  5
125
  8
0
  6
CONTINUOUS
 62
     7
 10
-1020.3460215564
 20
363.2631914135497
 30
0.0
 11
-1020.5530014558
 21
363.0633132481497
 31
0.0
  0
LINE
  5
126
  8
0
  6
CONTINUOUS
 62
     7
 10
-683.3140722488001
 20
350.5633132481499
 30
0.0
 11
-686.3778250723002
 21
233.5633132481499
 31
0.0
  0
LINE
  5
127
  8
0
  6
CONTINUOUS
 62
     7
 10
-1024.9838959416
 20
361.1331122415497
 30
0.0
 11
-1025.3530014558
 21
350.5633132481498
 31
0.0
  0
LINE
  5
128
  8
0
  6
CONTINUOUS
 62
     7
 10
-680.1530014557999
 20
363.0633132481497
 30
0.0
 11
-680.3599813551002
 21
363.2631914135497
 31
0.0
  0
LINE
  5
129
  8
0
  6
CENTER
 62
     1
 10
-850.3530014558002
 20
421.4366867518498
 30
0.0
 11
-850.3530014558002
 21
228.56331324815
 31
0.0
  0
LINE
  5
12A
  8
0
  6
CONTINUOUS
 62
     7
 10
-694.7344132262001
 20
400.5633132481499
 30
0.0
 11
-1005.9715896854
 21
400.5633132481499
 31
0.0
  0
LINE
  5
12B
  8
0
  6
CONTINUOUS
 62
     7
 10
-1043.8530014558
 20
354.5633132481498
 30
0.0
 11
-1043.8530014558
 21
350.5633132481498
 31
0.0
  0
LINE
  5
12C
  8
0
  6
CONTINUOUS
 62
     7
 10
-520.0655065201003
 20
770.8900459493
 30
0.0
 11
-490.7655065201004
 21
770.8900459493
 31
0.0
  0
LINE
  5
12D
  8
0
  6
CONTINUOUS
 62
     7
 10
-513.0655065201004
 20
854.1344913356999
 30
0.0
 11
-513.0655065201004
 21
822.3900459492999
 31
0.0
  0
LINE
  5
12E
  8
0
  6
CONTINUOUS
 62
     7
 10
-502.0655065201004
 20
810.3900459492999
 30
0.0
 11
-502.0655065201004
 21
805.3900459493
 31
0.0
  0
LINE
  5
12F
  8
0
  6
CONTINUOUS
 62
     7
 10
-532.5655065201004
 20
620.3900459492999
 30
0.0
 11
-532.5655065201004
 21
795.3900459493
 31
0.0
  0
LINE
  5
130
  8
0
  6
CONTINUOUS
 62
     7
 10
-520.0655065201003
 20
793.3900459493
 30
0.0
 11
-490.7655065201004
 21
793.3900459493
 31
0.0
  0
LINE
  5
131
  8
0
  6
CONTINUOUS
 62
     7
 10
-520.0655065201003
 20
578.3900459491999
 30
0.0
 11
-490.7655065201004
 21
578.3900459491999
 31
0.0
  0
LINE
  5
132
  8
0
  6
CONTINUOUS
 62
     7
 10
-506.3155065201005
 20
770.8900459493
 30
0.0
 11
-506.3155065201005
 21
787.8900459492999
 31
0.0
  0
LINE
  5
133
  8
0
  6
CONTINUOUS
 62
     7
 10
-519.2655065201004
 20
578.3900459491999
 30
0.0
 11
-519.2655065201004
 21
583.8900459507998
 31
0.0
  0
LINE
  5
134
  8
0
  6
CONTINUOUS
 62
     7
 10
-490.7655065201004
 20
597.8900459491999
 30
0.0
 11
-490.7655065201004
 21
603.3900459493001
 31
0.0
  0
LINE
  5
135
  8
0
  6
CONTINUOUS
 62
     7
 10
-520.0655065201003
 20
621.3900459492997
 30
0.0
 11
-520.0655065201003
 21
795.3900459493
 31
0.0
  0
LINE
  5
136
  8
0
  6
CONTINUOUS
 62
     7
 10
-502.0655065201004
 20
800.3900459492997
 30
0.0
 11
-502.0655065201004
 21
793.3900459492999
 31
0.0
  0
LINE
  5
137
  8
0
  6
CONTINUOUS
 62
     7
 10
-520.0655065201003
 20
787.8900459492999
 30
0.0
 11
-490.7655065201004
 21
787.8900459492999
 31
0.0
  0
LINE
  5
138
  8
0
  6
CONTINUOUS
 62
     7
 10
-490.7655065201004
 20
603.3900459493
 30
0.0
 11
-520.0655065201003
 21
603.3900459493
 31
0.0
  0
LINE
  5
139
  8
0
  6
CONTINUOUS
 62
     7
 10
-506.3155065201005
 20
583.8900459507998
 30
0.0
 11
-506.3155065201005
 21
597.8900459491998
 31
0.0
  0
LINE
  5
13A
  8
0
  6
CONTINUOUS
 62
     7
 10
-568.5655065201003
 20
837.1328982475999
 30
0.0
 11
-569.9776385544002
 21
835.7207662132
 31
0.0
  0
LINE
  5
13B
  8
0
  6
CONTINUOUS
 62
     7
 10
-513.0655065201004
 20
845.7404365209999
 30
0.0
 11
-403.2655065201003
 21
842.8652223326998
 31
0.0
  0
LINE
  5
13C
  8
0
  6
CONTINUOUS
 62
     7
 10
-502.0655065201004
 20
620.3900459492999
 30
0.0
 11
-502.0655065201004
 21
615.3900459492997
 31
0.0
  0
LINE
  5
13D
  8
0
  6
CONTINUOUS
 62
     7
 10
-565.5655065201004
 20
620.3900459492999
 30
0.0
 11
-502.0655065201003
 21
620.3900459492999
 31
0.0
  0
LINE
  5
13E
  8
0
  6
CONTINUOUS
 62
     7
 10
-514.8155065201004
 20
583.8900459507998
 30
0.0
 11
-514.8155065201004
 21
597.8900459491998
 31
0.0
  0
LINE
  5
13F
  8
0
  6
CONTINUOUS
 62
     7
 10
-490.7655065201004
 20
578.3900459491999
 30
0.0
 11
-490.7655065201004
 21
583.8900459489997
 31
0.0
  0
LINE
  5
140
  8
0
  6
CONTINUOUS
 62
     7
 10
-510.5655065201003
 20
605.3900459493001
 30
0.0
 11
-565.5655065201004
 21
605.3900459493001
 31
0.0
  0
LINE
  5
141
  8
0
  6
CONTINUOUS
 62
     7
 10
-520.0655065201003
 20
765.3900459493
 30
0.0
 11
-490.7655065201004
 21
765.3900459493
 31
0.0
  0
LINE
  5
142
  8
0
  6
CONTINUOUS
 62
     7
 10
-502.0655065201004
 20
610.3900459492999
 30
0.0
 11
-502.0655065201004
 21
603.3900459493
 31
0.0
  0
LINE
  5
143
  8
0
  6
CONTINUOUS
 62
     7
 10
-506.3155065201005
 20
610.3900459492999
 30
0.0
 11
-506.3155065201005
 21
615.3900459492997
 31
0.0
  0
LINE
  5
144
  8
0
  6
CONTINUOUS
 62
     7
 10
-514.8155065201004
 20
610.3900459492999
 30
0.0
 11
-514.8155065201004
 21
615.3900459492997
 31
0.0
  0
LINE
  5
145
  8
0
  6
CONTINUOUS
 62
     7
 10
-520.0655065201003
 20
597.8900459491999
 30
0.0
 11
-490.7655065201004
 21
597.8900459491999
 31
0.0
  0
LINE
  5
146
  8
0
  6
CONTINUOUS
 62
     7
 10
-490.7655065201004
 20
583.8900459489997
 30
0.0
 11
-520.0655065201003
 21
583.8900459490999
 31
0.0
  0
ARC
  5
147
  8
0
  6
CONTINUOUS
 62
     7
 10
-513.0655065201004
 20
815.3900459493
 30
0.0
 40
6.999999999999895
 50
90.0
 51
180.0
  0
LINE
  5
148
  8
0
  6
CONTINUOUS
 62
     7
 10
-514.8155065201004
 20
800.3900459492997
 30
0.0
 11
-514.8155065201004
 21
805.3900459492999
 31
0.0
  0
LINE
  5
149
  8
0
  6
CONTINUOUS
 62
     7
 10
-525.0655065201004
 20
805.3900459493
 30
0.0
 11
-525.0655065201004
 21
800.3900459492999
 31
0.0
  0
LINE
  5
14A
  8
0
  6
CONTINUOUS
 62
     7
 10
-519.2655065201004
 20
603.3900459498
 30
0.0
 11
-519.2655065201004
 21
597.8900459491999
 31
0.0
  0
LINE
  5
14B
  8
0
  6
CONTINUOUS
 62
     7
 10
-514.8155065201004
 20
770.8900459493
 30
0.0
 11
-514.8155065201004
 21
787.8900459492999
 31
0.0
  0
ARC
  5
14C
  8
0
  6
CONTINUOUS
 62
     7
 10
-519.0655065201004
 20
621.3900459492997
 30
0.0
 40
0.9999999999998899
 50
180.0
 51
270.0
  0
ARC
  5
14D
  8
0
  6
CONTINUOUS
 62
     7
 10
-530.5655065201003
 20
851.5221587809998
 30
0.0
 40
2.000000000000002
 50
92.0
 51
180.0
  0
LINE
  5
14E
  8
0
  6
CONTINUOUS
 62
     7
 10
-532.5655065201004
 20
610.3900459492999
 30
0.0
 11
-532.5655065201004
 21
615.3900459492997
 31
0.0
  0
LINE
  5
14F
  8
0
  6
CONTINUOUS
 62
     7
 10
-532.7653846855004
 20
849.8830660498999
 30
0.0
 11
-566.6353055135004
 21
848.7003023519999
 31
0.0
  0
LINE
  5
150
  8
0
  6
CONTINUOUS
 62
     7
 10
-502.0655065201004
 20
805.3900459493
 30
0.0
 11
-565.5655065201005
 21
805.3900459493
 31
0.0
  0
LINE
  5
151
  8
0
  6
CONTINUOUS
 62
     7
 10
-520.0655065201003
 20
811.3900459493
 30
0.0
 11
-520.0655065201003
 21
815.3900459493
 31
0.0
  0
LINE
  5
152
  8
0
  6
CONTINUOUS
 62
     7
 10
-532.5655065201004
 20
800.3900459492997
 30
0.0
 11
-532.5655065201004
 21
805.3900459492999
 31
0.0
  0
ARC
  5
153
  8
0
  6
CONTINUOUS
 62
     7
 10
-519.0655065201004
 20
811.3900459493
 30
0.0
 40
0.9999999999998899
 50
180.0
 51
270.0
  0
LINE
  5
154
  8
0
  6
CONTINUOUS
 62
     7
 10
-532.5655065201004
 20
810.3900459492999
 30
0.0
 11
-532.5655065201004
 21
851.5221587809998
 31
0.0
  0
LINE
  5
155
  8
0
  6
CONTINUOUS
 62
     7
 10
-565.5655065201004
 20
610.3900459492999
 30
0.0
 11
-502.0655065201003
 21
610.3900459492999
 31
0.0
  0
LINE
  5
156
  8
0
  6
CONTINUOUS
 62
     7
 10
-525.0655065201004
 20
615.3900459492997
 30
0.0
 11
-525.0655065201004
 21
610.3900459492999
 31
0.0
  0
ARC
  5
157
  8
0
  6
CONTINUOUS
 62
     7
 10
-569.7655065201004
 20
835.5086341788997
 30
0.0
 40
0.299999999999967
 50
134.9999999999
 51
180.0
  0
ARC
  5
158
  8
0
  6
CONTINUOUS
 62
     7
 10
-566.5655065201003
 20
846.701520698
 30
0.0
 40
2.000000000000002
 50
92.0
 51
180.0
  0
LINE
  5
159
  8
0
  6
CONTINUOUS
 62
     7
 10
-532.7653846855004
 20
849.8830660498999
 30
0.0
 11
-532.5655065201004
 21
850.0900459492999
 31
0.0
  0
LINE
  5
15A
  8
0
  6
CONTINUOUS
 62
     7
 10
-530.6353055135003
 20
853.5209404350999
 30
0.0
 11
-513.0655065201004
 21
854.1344913356999
 31
0.0
  0
LINE
  5
15B
  8
0
  6
CONTINUOUS
 62
     7
 10
-565.5655065201004
 20
810.3900459492999
 30
0.0
 11
-502.0655065201003
 21
810.3900459492999
 31
0.0
  0
LINE
  5
15C
  8
0
  6
CONTINUOUS
 62
     7
 10
-565.5655065201004
 20
800.3900459492997
 30
0.0
 11
-502.0655065201003
 21
800.3900459492997
 31
0.0
  0
LINE
  5
15D
  8
0
  6
CONTINUOUS
 62
     7
 10
-506.3155065201005
 20
800.3900459492997
 30
0.0
 11
-506.3155065201005
 21
805.3900459492999
 31
0.0
  0
LINE
  5
15E
  8
0
  6
CONTINUOUS
 62
     7
 10
-510.5655065201003
 20
795.3900459493
 30
0.0
 11
-565.5655065201004
 21
795.3900459493
 31
0.0
  0
LINE
  5
15F
  8
0
  6
CONTINUOUS
 62
     7
 10
-502.0655065201004
 20
615.3900459492997
 30
0.0
 11
-565.5655065201005
 21
615.3900459492997
 31
0.0
  0
LINE
  5
160
  8
0
  6
CONTINUOUS
 62
     7
 10
-532.5655065201004
 20
610.3900459492999
 30
0.0
 11
-532.5655065201004
 21
615.3900459492997
 31
0.0
  0
LINE
  5
161
  8
0
  6
CONTINUOUS
 62
     7
 10
-530.6353055135003
 20
539.2591514634996
 30
0.0
 11
-520.0655065201003
 21
538.8900459493
 31
0.0
  0
LINE
  5
162
  8
0
  6
CONTINUOUS
 62
     7
 10
-532.7653846855004
 20
542.8970258486
 30
0.0
 11
-566.6353055135004
 21
544.0797895466
 31
0.0
  0
LINE
  5
163
  8
0
  6
CONTINUOUS
 62
     7
 10
-570.0655065201004
 20
835.5086341788997
 30
0.0
 11
-570.0655065201004
 21
585.2380263422998
 31
0.0
  0
ARC
  5
164
  8
0
  6
CONTINUOUS
 62
     7
 10
-530.5655065201003
 20
541.2579331174998
 30
0.0
 40
2.000000000000002
 50
180.0
 51
267.9999999999999
  0
ARC
  5
165
  8
0
  6
CONTINUOUS
 62
     7
 10
-566.5655065201003
 20
546.0785712006001
 30
0.0
 40
2.000000000000002
 50
180.0
 51
267.9999999999999
  0
LINE
  5
166
  8
0
  6
CONTINUOUS
 62
     7
 10
-1027.5530014558
 20
426.2633132481499
 30
0.0
 11
-673.1530014557998
 21
426.2633132481499
 31
0.0
  0
LINE
  5
167
  8
0
  6
CONTINUOUS
 62
     7
 10
-532.5655065201004
 20
541.2579331174998
 30
0.0
 11
-532.5655065201004
 21
542.8970258485999
 31
0.0
  0
LINE
  5
168
  8
0
  6
CONTINUOUS
 62
     7
 10
-673.3530014558002
 20
428.5633132481498
 30
0.0
 11
-1027.3530014558
 21
428.5633132481498
 31
0.0
  0
ARC
  5
169
  8
0
  6
CONTINUOUS
 62
     7
 10
-673.3530014558002
 20
421.5633132481498
 30
0.0
 40
7.000000000000117
 50
0.0
 51
90.0
  0
ARC
  5
16A
  8
0
  6
CONTINUOUS
 62
     7
 10
-1031.0530014558
 20
236.8633132481497
 30
0.0
 40
0.9999999999998899
 50
180.0
 51
270.0
  0
LINE
  5
16B
  8
0
  6
CONTINUOUS
 62
     7
 10
-669.6530014558
 20
235.8633132481498
 30
0.0
 11
-677.1030014558004
 21
235.8633132481498
 31
0.0
  0
ARC
  5
16C
  8
0
  6
CONTINUOUS
 62
     7
 10
-669.6530014558
 20
236.8633132481497
 30
0.0
 40
0.9999999999998899
 50
270.0
 51
0.0
  0
LINE
  5
16D
  8
0
  6
CONTINUOUS
 62
     7
 10
-1041.8530014558
 20
686.1968901547997
 30
0.0
 11
-1041.8530014558
 21
672.5832017437998
 31
0.0
  0
ARC
  5
16E
  8
0
  6
CONTINUOUS
 62
     7
 10
-1027.3530014558
 20
421.5633132481498
 30
0.0
 40
6.999999999999895
 50
90.0
 51
180.0
  0
ARC
  5
16F
  8
0
  6
CONTINUOUS
 62
     7
 10
-566.3655065201003
 20
579.0563609597
 30
0.0
 40
0.299999999999967
 50
0.0
 51
33.690067526
  0
LINE
  5
170
  8
0
  6
CONTINUOUS
 62
     7
 10
-570.0151216084001
 20
585.0716162833997
 30
0.0
 11
-566.1158914318003
 21
579.2227710184998
 31
0.0
  0
ARC
  5
171
  8
0
  6
CONTINUOUS
 62
     7
 10
-569.7655065201004
 20
585.2380263422998
 30
0.0
 40
0.299999999999967
 50
180.0
 51
213.690067526
  0
LINE
  5
172
  8
0
  6
CONTINUOUS
 62
     7
 10
-1026.2455196128
 20
688.7819040873999
 30
0.0
 11
-1040.9604832988
 21
687.1910972024
 31
0.0
  0
ARC
  5
173
  8
0
  6
CONTINUOUS
 62
     7
 10
-1040.8530014558
 20
686.1968901547997
 30
0.0
 40
2.999999999999892
 50
96.17017509499999
 51
180.0
  0
LINE
  5
174
  8
0
  6
CONTINUOUS
 62
     7
 10
-1027.1380377698
 20
690.6970690504999
 30
0.0
 11
-1041.1754469847
 21
689.1795112974999
 31
0.0
  0
ARC
  5
175
  8
0
  6
CONTINUOUS
 62
     7
 10
-1040.8530014558
 20
672.5832017437998
 30
0.0
 40
0.9999999999998899
 50
180.0
 51
263.829824905
  0
ARC
  5
176
  8
0
  6
CONTINUOUS
 62
     7
 10
-1026.3530014558
 20
669.0039807636998
 30
0.0
 40
0.9999999999998899
 50
0.0
 51
83.82982490499997
  0
ARC
  5
177
  8
0
  6
CONTINUOUS
 62
     7
 10
-1027.5530014558
 20
421.76331324815
 30
0.0
 40
4.499999999999948
 50
90.0
 51
180.0
  0
LINE
  5
178
  8
0
  6
CONTINUOUS
 62
     7
 10
-1031.0530014558
 20
235.8633132481498
 30
0.0
 11
-1023.6030014558
 21
235.8633132481498
 31
0.0
  0
ARC
  5
179
  8
0
  6
CONTINUOUS
 62
     7
 10
-1026.3530014558
 20
689.7761111348999
 30
0.0
 40
0.9999999999998899
 50
276.170175095
 51
0.0
  0
LINE
  5
17A
  8
0
  6
CONTINUOUS
 62
     7
 10
-532.5655065201004
 20
542.6900459492998
 30
0.0
 11
-532.7653846855004
 21
542.8970258485999
 31
0.0
  0
LINE
  5
17B
  8
0
  6
CONTINUOUS
 62
     7
 10
-566.0655065201004
 20
579.0563609597
 30
0.0
 11
-566.0655065201004
 21
549.1471936510001
 31
0.0
  0
LINE
  5
17C
  8
0
  6
CONTINUOUS
 62
     7
 10
-1040.9604832988
 20
671.5889946962
 30
0.0
 11
-1026.2455196128
 21
669.9981878111997
 31
0.0
  0
LINE
  5
17D
  8
0
  6
CONTINUOUS
 62
     7
 10
-568.5655065201003
 20
547.147193651
 30
0.0
 11
-566.0655065201004
 21
549.147193651
 31
0.0
  0
ARC
  5
17E
  8
0
  6
DASHED
 62
     7
 10
-1020.4837147182
 20
359.5633132481497
 30
0.0
 40
0.9999999999998899
 50
90.0
 51
172.0000000018
  0
ARC
  5
180
  8
0
  6
CONTINUOUS
 62
     7
 10
-1027.3530014558
 20
692.6854831455997
 30
0.0
 40
2.000000000000002
 50
276.1701750951
 51
0.0
  0
ARC
  5
181
  8
0
  6
CONTINUOUS
 62
     7
 10
-1040.8530014558
 20
686.1968901547997
 30
0.0
 40
0.9999999999998899
 50
96.17017509509999
 51
180.0
  0
LINE
  5
182
  8
0
  6
CONTINUOUS
 62
     7
 10
-568.5655065201003
 20
582.8971936509998
 30
0.0
 11
-568.5655065201003
 21
546.0785712006
 31
0.0
  0
ARC
  5
183
  8
0
  6
DASHED
 62
     7
 10
-680.2222881935999
 20
359.5633132477498
 30
0.0
 40
0.9999999999998899
 50
8.0
 51
90.0
  0
ARC
  5
184
  8
0
  6
CONTINUOUS
 62
     7
 10
-680.6030014558
 20
236.8633132481497
 30
0.0
 40
0.9999999999998899
 50
270.0
 51
0.0
  0
LINE
  5
185
  8
0
  6
CONTINUOUS
 62
     7
 10
-1023.6030014558
 20
336.6133132481496
 30
0.0
 11
-1023.6030014558
 21
233.5633132481498
 31
0.0
  0
LINE
  5
186
  8
0
  6
CONTINUOUS
 62
     7
 10
-1014.925216851
 20
256.3633132481498
 30
0.0
 11
-1021.1030014558
 21
256.3633132481498
 31
0.0
  0
ARC
  5
187
  8
0
  6
CONTINUOUS
 62
     7
 10
-1020.1030014558
 20
236.8633132481497
 30
0.0
 40
0.9999999999998899
 50
180.0
 51
270.0
  0
LINE
  5
188
  8
0
  6
CONTINUOUS
 62
     7
 10
-679.6030014558002
 20
236.8633132481497
 30
0.0
 11
-679.6030014558002
 21
256.3633132481498
 31
0.0
  0
LINE
  5
189
  8
0
  6
CONTINUOUS
 62
     7
 10
-1021.1030014558
 20
236.8633132481497
 30
0.0
 11
-1021.1030014558
 21
256.3633132481498
 31
0.0
  0
LINE
  5
18A
  8
0
  6
CONTINUOUS
 62
     7
 10
-666.3530014558
 20
421.5633132481498
 30
0.0
 11
-666.3530014558
 21
358.7354735814497
 31
0.0
  0
LINE
  5
18B
  8
0
  6
CONTINUOUS
 62
     7
 10
-511.4655065201003
 20
857.3652223326998
 30
0.0
 11
-598.4655065201003
 21
857.3652223326998
 31
0.0
  0
ARC
  5
18C
  8
0
  6
CONTINUOUS
 62
     7
 10
-808.4212616448001
 20
854.3652223326998
 30
0.0
 40
2.999999999999892
 50
90.0
 51
155.5560452196
  0
LINE
  5
18D
  8
0
  6
CONTINUOUS
 62
     7
 10
-595.1447581520005
 20
864.5355171208
 30
0.0
 11
-403.4655065201006
 21
874.3652223326999
 31
0.0
  0
LINE
  5
18E
  8
0
  6
CONTINUOUS
 62
     7
 10
-677.1030014558
 20
857.3652223326998
 30
0.0
 11
-677.1030014558
 21
849.7858186134998
 31
0.0
  0
LINE
  5
18F
  8
0
  6
CONTINUOUS
 62
     7
 10
-1021.1030014558
 20
852.3160254216997
 30
0.0
 11
-1021.1030014558
 21
857.3652223326998
 31
0.0
  0
LINE
  5
190
  8
0
  6
CONTINUOUS
 62
     7
 10
-780.8529999223
 20
320.5633132481498
 30
0.0
 11
-780.3529999223003
 21
322.5633163543498
 31
0.0
  0
LINE
  5
191
  8
0
  6
CONTINUOUS
 62
     7
 10
-668.6530014558001
 20
364.4015142083496
 30
0.0
 11
-668.6530014558001
 21
421.7633132481499
 31
0.0
  0
LINE
  5
192
  8
0
  6
CONTINUOUS
 62
     7
 10
-785.3530014583
 20
320.5633132481498
 30
0.0
 11
-772.3530014565002
 21
320.5633132481498
 31
0.0
  0
LINE
  5
193
  8
0
  6
CONTINUOUS
 62
     7
 10
-759.3530014561996
 20
317.5633132481498
 30
0.0
 11
-772.3530014565002
 21
317.5633132481498
 31
0.0
  0
ARC
  5
194
  8
0
  6
CONTINUOUS
 62
     7
 10
-594.9655065201006
 20
861.0401102986997
 30
0.0
 40
3.50000000000017
 50
92.93567344639999
 51
180.0
  0
LINE
  5
195
  8
0
  6
CONTINUOUS
 62
     7
 10
-511.4655065201003
 20
857.3652223326998
 30
0.0
 11
-511.4655065201003
 21
845.6985390465
 31
0.0
  0
LINE
  5
196
  8
0
  6
CONTINUOUS
 62
     7
 10
-1034.3530014558
 20
233.5633132481498
 30
0.0
 11
-1014.3281778392
 21
233.5633132481498
 31
0.0
  0
LINE
  5
197
  8
0
  6
CONTINUOUS
 62
     7
 10
-759.3530014546998
 20
320.5633132481498
 30
0.0
 11
-772.3530014565
 21
320.5633132481498
 31
0.0
  0
LINE
  5
198
  8
0
  6
CONTINUOUS
 62
     7
 10
-764.3530014565
 20
322.5633224908497
 30
0.0
 11
-763.8530014564998
 21
320.5633254787496
 31
0.0
  0
LINE
  5
199
  8
0
  6
CONTINUOUS
 62
     7
 10
-1031.3530014558
 20
874.3652223326999
 30
0.0
 11
-669.3530014558
 21
874.3652223326999
 31
0.0
  0
LINE
  5
19A
  8
0
  6
CONTINUOUS
 62
     7
 10
-513.0655065201004
 20
845.7404365209999
 30
0.0
 11
-403.2655065201003
 21
842.8652223326998
 31
0.0
  0
ARC
  5
19B
  8
0
  6
CONTINUOUS
 62
     7
 10
-1031.3530014558
 20
871.3652223326998
 30
0.0
 40
2.999999999999892
 50
90.0
 51
180.0
  0
LINE
  5
19C
  8
0
  6
CONTINUOUS
 62
     7
 10
-666.3530014558
 20
332.4030592103498
 30
0.0
 11
-666.3530014558
 21
233.5633132481499
 31
0.0
  0
LINE
  5
19D
  8
0
  6
CONTINUOUS
 62
     7
 10
-686.3778250723002
 20
233.5633132481498
 30
0.0
 11
-666.3530014558
 21
233.5633132481498
 31
0.0
  0
LINE
  5
19E
  8
0
  6
CONTINUOUS
 62
     7
 10
-1023.6030014558
 20
857.3652223326998
 30
0.0
 11
-1023.6030014558
 21
849.7858186134998
 31
0.0
  0
LINE
  5
19F
  8
0
  6
CONTINUOUS
 62
     7
 10
-666.3530014558002
 20
857.3652223326998
 30
0.0
 11
-1034.3530014558
 21
857.3652223326998
 31
0.0
  0
LINE
  5
1A0
  8
0
  6
CONTINUOUS
 62
     7
 10
-680.6030014558
 20
235.8633132481498
 30
0.0
 11
-686.3175974526997
 21
235.8633132481498
 31
0.0
  0
ARC
  5
1A1
  8
0
  6
CONTINUOUS
 62
     7
 10
-785.3530014583
 20
332.5633132481498
 30
0.0
 40
12.00000000000001
 50
180.0000000003
 51
270.0
  0
LINE
  5
1A2
  8
0
  6
CONTINUOUS
 62
     7
 10
-1032.0530014558
 20
236.8633132481497
 30
0.0
 11
-1032.0530014558
 21
345.0633132481498
 31
0.0
  0
LINE
  5
1A3
  8
0
  6
CONTINUOUS
 62
     7
 10
-785.3530014568003
 20
317.5633132481498
 30
0.0
 11
-772.3530014565002
 21
317.5633132481498
 31
0.0
  0
LINE
  5
1A4
  8
0
  6
CONTINUOUS
 62
     7
 10
-1020.1030014558
 20
235.8633132481498
 30
0.0
 11
-1014.3884054588
 21
235.8633132481498
 31
0.0
  0
LINE
  5
1A5
  8
0
  6
CONTINUOUS
 62
     7
 10
-677.1030014558003
 20
233.5633132481498
 30
0.0
 11
-677.1030014558003
 21
326.1965438165497
 31
0.0
  0
LINE
  5
1A6
  8
0
  6
CONTINUOUS
 62
     7
 10
-889.5536418343002
 20
855.6066311655999
 30
0.0
 11
-888.8844873662
 21
854.1344913356999
 31
0.0
  0
LINE
  5
1A7
  8
0
  6
CONTINUOUS
 62
     7
 10
-811.8215155453
 20
854.1344913356999
 30
0.0
 11
-811.1523610772001
 21
855.6066311655999
 31
0.0
  0
LINE
  5
1A8
  8
0
  6
CONTINUOUS
 62
     7
 10
-785.3530014114002
 20
322.5633132481497
 30
0.0
 11
-772.3530014565002
 21
322.5633133071499
 31
0.0
  0
ARC
  5
1A9
  8
0
  6
CONTINUOUS
 62
     7
 10
-785.3530014568003
 20
332.5633132021499
 30
0.0
 40
9.999999999999787
 50
180.0
 51
270.00000026
  0
LINE
  5
1AA
  8
0
  6
CONTINUOUS
 62
     7
 10
-1034.3530014558
 20
345.3633132481497
 30
0.0
 11
-1034.3530014558
 21
233.5633132481498
 31
0.0
  0
ARC
  5
1AB
  8
0
  6
CONTINUOUS
 62
     7
 10
-785.3530014568003
 20
332.5633132481498
 30
0.0
 40
15.00000000000012
 50
180.0
 51
270.0
  0
LINE
  5
1AC
  8
0
  6
CONTINUOUS
 62
     7
 10
-759.3530014559002
 20
322.5633132481497
 30
0.0
 11
-772.3530014565001
 21
322.5633133071499
 31
0.0
  0
ARC
  5
1AD
  8
0
  6
CONTINUOUS
 62
     7
 10
-759.3530014561996
 20
332.5633132481498
 30
0.0
 40
15.00000000000023
 50
270.0
 51
0.0
  0
LINE
  5
1AE
  8
0
  6
CONTINUOUS
 62
     7
 10
-1032.0530014558
 20
355.5633132481499
 30
0.0
 11
-1032.0530014558
 21
421.7633132481499
 31
0.0
  0
ARC
  5
1AF
  8
0
  6
CONTINUOUS
 62
     7
 10
-669.3530014557999
 20
871.3652223326998
 30
0.0
 40
2.999999999999781
 50
0.0
 51
90.0
  0
LINE
  5
1B0
  8
0
  6
CONTINUOUS
 62
     7
 10
-1034.3530014558
 20
421.5633132481498
 30
0.0
 11
-1034.3530014558
 21
355.56331324815
 31
0.0
  0
ARC
  5
1B1
  8
0
  6
CONTINUOUS
 62
     7
 10
-759.3530014546998
 20
332.5633132481498
 30
0.0
 40
11.99999999999979
 50
270.0
 51
0.0
  0
LINE
  5
1B2
  8
0
  6
CONTINUOUS
 62
     7
 10
-685.7807860604997
 20
256.3633132481498
 30
0.0
 11
-679.6030014558002
 21
256.3633132481498
 31
0.0
  0
LINE
  5
1B3
  8
0
  6
CONTINUOUS
 62
     7
 10
-1031.3530014558
 20
864.3652223326999
 30
0.0
 11
-669.3530014558
 21
864.3652223326999
 31
0.0
  0
LINE
  5
1B4
  8
0
  6
CONTINUOUS
 62
     7
 10
-679.6030014558
 20
852.3160254216997
 30
0.0
 11
-679.6030014558
 21
857.3652223326998
 31
0.0
  0
LINE
  5
1B5
  8
0
  6
CONTINUOUS
 62
     7
 10
-797.3530014568003
 20
332.5633132480498
 30
0.0
 11
-797.3530014568003
 21
350.5633132481498
 31
0.0
  0
ARC
  5
1B6
  8
0
  6
CONTINUOUS
 62
     7
 10
-673.1530014557995
 20
421.9633132481498
 30
0.0
 40
4.50000000000006
 50
0.0
 51
90.0
  0
LINE
  5
1B7
  8
0
  6
CONTINUOUS
 62
     7
 10
-749.3530014561996
 20
332.5633132021499
 30
0.0
 11
-749.3530014561996
 21
350.5633132481498
 31
0.0
  0
LINE
  5
1B8
  8
0
  6
CONTINUOUS
 62
     7
 10
-668.6530014558001
 20
236.8633132481497
 30
0.0
 11
-668.6530014558001
 21
331.0751535911498
 31
0.0
  0
ARC
  5
1B9
  8
0
  6
CONTINUOUS
 62
     7
 10
-892.2847412667003
 20
854.3652223326998
 30
0.0
 40
2.999999999999892
 50
24.4439547804
 51
90.0
  0
LINE
  5
1BA
  8
0
  6
CONTINUOUS
 62
     7
 10
-598.4655065201003
 20
861.0401102986997
 30
0.0
 11
-598.4655065201003
 21
857.3652223326998
 31
0.0
  0
LINE
  5
1BB
  8
0
  6
CONTINUOUS
 62
     7
 10
-1034.3530014558
 20
871.3652223326998
 30
0.0
 11
-1034.3530014558
 21
857.3652223326998
 31
0.0
  0
ARC
  5
1BC
  8
0
  6
CONTINUOUS
 62
     7
 10
-669.3530014557999
 20
861.3652223326998
 30
0.0
 40
2.999999999999781
 50
0.0
 51
90.0
  0
ARC
  5
1BD
  8
0
  6
CONTINUOUS
 62
     7
 10
-1031.3530014558
 20
861.3652223326998
 30
0.0
 40
2.999999999999892
 50
90.0
 51
180.0
  0
LINE
  5
1BE
  8
0
  6
CONTINUOUS
 62
     7
 10
-666.3530014558002
 20
871.3652223326998
 30
0.0
 11
-666.3530014558002
 21
857.3652223326998
 31
0.0
  0
LINE
  5
1BF
  8
0
  6
CONTINUOUS
 62
     7
 10
-800.3530014568
 20
332.5633132481498
 30
0.0
 11
-800.3530014568
 21
350.5633132481498
 31
0.0
  0
LINE
  5
1C0
  8
0
  6
CONTINUOUS
 62
     7
 10
-744.3530014562
 20
332.5633132481498
 30
0.0
 11
-744.3530014562
 21
350.5633132481498
 31
0.0
  0
ARC
  5
1C1
  8
0
  6
CONTINUOUS
 62
     7
 10
-759.3530014561996
 20
332.5633132021499
 30
0.0
 40
10.00000000000001
 50
270.0000000017
 51
0.0
  0
LINE
  5
1C2
  8
0
  6
CONTINUOUS
 62
     7
 10
-785.3530014565001
 20
322.5633102599496
 30
0.0
 11
-784.8530014564999
 21
320.5633132478495
 31
0.0
  0
LINE
  5
1C3
  8
0
  6
CONTINUOUS
 62
     7
 10
-795.3530014568
 20
332.5633132021499
 30
0.0
 11
-795.3530014568
 21
350.5633132481498
 31
0.0
  0
LINE
  5
1C4
  8
0
  6
CONTINUOUS
 62
     7
 10
-747.3530014561996
 20
332.5633132480498
 30
0.0
 11
-747.3530014561996
 21
350.5633132481498
 31
0.0
  0
LINE
  5
1C5
  8
0
  6
CONTINUOUS
 62
     7
 10
-903.3530014548
 20
332.5633132480498
 30
0.0
 11
-903.3530014548
 21
350.5633132481498
 31
0.0
  0
ARC
  5
1C6
  8
0
  6
CONTINUOUS
 62
     7
 10
-1012.0958537541
 20
551.147193651
 30
0.0
 40
6.999999999999895
 50
180.0
 51
270.0
  0
ARC
  5
1C7
  8
0
  6
CONTINUOUS
 62
     7
 10
-1003.0958537541
 20
588.2227710185
 30
0.0
 40
2.999999999999892
 50
180.0
 51
270.0
  0
ARC
  5
1C8
  8
0
  6
CONTINUOUS
 62
     7
 10
-941.3530014553004
 20
332.5633132481498
 30
0.0
 40
15.00000000000023
 50
180.0
 51
270.0
  0
ARC
  5
1C9
  8
0
  6
CONTINUOUS
 62
     7
 10
-1015.3530014558
 20
548.8900459492997
 30
0.0
 40
10.00000000000001
 50
180.0
 51
270.0
  0
LINE
  5
1CA
  8
0
  6
CONTINUOUS
 62
     7
 10
-941.3530014569003
 20
320.5633132481498
 30
0.0
 11
-928.3530014550001
 21
320.5633132481498
 31
0.0
  0
ARC
  5
1CB
  8
0
  6
CONTINUOUS
 62
     7
 10
-915.3530014548
 20
332.5633132021499
 30
0.0
 40
9.999999999999787
 50
269.99999974
 51
0.0
  0
LINE
  5
1CC
  8
0
  6
CONTINUOUS
 62
     7
 10
-915.3530014548
 20
317.5633132481498
 30
0.0
 11
-928.3530014550001
 21
317.5633132481498
 31
0.0
  0
ARC
  5
1CD
  8
0
  6
CONTINUOUS
 62
     7
 10
-915.3530014548
 20
332.5633132481498
 30
0.0
 40
15.00000000000012
 50
270.0
 51
0.0
  0
LINE
  5
1CE
  8
0
  6
CONTINUOUS
 62
     7
 10
-956.3530014552999
 20
332.5633132481498
 30
0.0
 11
-956.3530014552999
 21
350.5633132481498
 31
0.0
  0
ARC
  5
1CF
  8
0
  6
CONTINUOUS
 62
     7
 10
-941.3530014553004
 20
332.5633132021499
 30
0.0
 40
9.999999999999897
 50
180.0
 51
269.9999999983
  0
LINE
  5
1D0
  8
0
  6
CONTINUOUS
 62
     7
 10
-936.3530014550003
 20
322.5633224908497
 30
0.0
 11
-936.8530014549999
 21
320.5633254787496
 31
0.0
  0
LINE
  5
1D1
  8
0
  6
CONTINUOUS
 62
     7
 10
-900.3530014548003
 20
332.5633132481498
 30
0.0
 11
-900.3530014548003
 21
350.5633132481498
 31
0.0
  0
LINE
  5
1D2
  8
0
  6
CONTINUOUS
 62
     7
 10
-915.3530015001002
 20
322.5633132481497
 30
0.0
 11
-928.3530014550001
 21
322.5633133071499
 31
0.0
  0
ARC
  5
1D3
  8
0
  6
CONTINUOUS
 62
     7
 10
-941.3530014569003
 20
332.5633132481498
 30
0.0
 40
11.9999999999999
 50
180.0000000003
 51
270.0
  0
LINE
  5
1D4
  8
0
  6
CONTINUOUS
 62
     7
 10
-919.8530029891999
 20
320.5633132481498
 30
0.0
 11
-920.3530029892
 21
322.5633163543498
 31
0.0
  0
ARC
  5
1D5
  8
0
  6
CONTINUOUS
 62
     7
 10
-1005.0958537541
 20
584.1471936509998
 30
0.0
 40
4.999999999999893
 50
180.0
 51
270.0
  0
ARC
  5
1D6
  8
0
  6
CONTINUOUS
 62
     7
 10
-915.3530014531999
 20
332.5633132481498
 30
0.0
 40
12.00000000000001
 50
270.0
 51
0.0
  0
LINE
  5
1D7
  8
0
  6
CONTINUOUS
 62
     7
 10
-940.8530014549999
 20
320.5633193425497
 30
0.0
 11
-941.3530014550001
 21
322.56332244865
 31
0.0
  0
ARC
  5
1D8
  8
0
  6
CONTINUOUS
 62
     7
 10
-1010.0958537541
 20
553.147193651
 30
0.0
 40
4.000000000000004
 50
180.0
 51
270.0
  0
LINE
  5
1D9
  8
0
  6
CONTINUOUS
 62
     7
 10
-941.3530014553004
 20
317.5633132481498
 30
0.0
 11
-928.3530014550003
 21
317.5633132481498
 31
0.0
  0
LINE
  5
1DA
  8
0
  6
CONTINUOUS
 62
     7
 10
-951.3530014553
 20
332.5633132021499
 30
0.0
 11
-951.3530014553
 21
350.5633132481498
 31
0.0
  0
LINE
  5
1DB
  8
0
  6
CONTINUOUS
 62
     7
 10
-915.3530014531999
 20
320.5633132481498
 30
0.0
 11
-928.3530014550001
 21
320.5633132481498
 31
0.0
  0
LINE
  5
1DC
  8
0
  6
CONTINUOUS
 62
     7
 10
-953.3530014553003
 20
332.5633132480498
 30
0.0
 11
-953.3530014553003
 21
350.5633132481498
 31
0.0
  0
LINE
  5
1DD
  8
0
  6
CONTINUOUS
 62
     7
 10
-941.3530014556002
 20
322.5633132481497
 30
0.0
 11
-928.3530014550003
 21
322.5633133071499
 31
0.0
  0
LINE
  5
1DE
  8
0
  6
CONTINUOUS
 62
     7
 10
-759.8530014565
 20
320.5633193425497
 30
0.0
 11
-759.3530014564999
 21
322.56332244865
 31
0.0
  0
ARC
  5
1DF
  8
0
  6
CONTINUOUS
 62
     7
 10
-1012.0958537541
 20
551.147193651
 30
0.0
 40
4.000000000000004
 50
180.0
 51
270.0
  0
LINE
  5
1E0
  8
0
  6
CONTINUOUS
 62
     7
 10
-915.3530014550003
 20
322.5633102599496
 30
0.0
 11
-915.853001455
 21
320.5633132478495
 31
0.0
  0
ARC
  5
1E1
  8
0
  6
CONTINUOUS
 62
     7
 10
-1013.3530014558
 20
549.8900459492999
 30
0.0
 40
6.999999999999895
 50
180.0
 51
270.0
  0
LINE
  5
1E2
  8
0
  6
CONTINUOUS
 62
     7
 10
-905.3530014548003
 20
332.5633132021499
 30
0.0
 11
-905.3530014548003
 21
350.5633132481498
 31
0.0
  0
CIRCLE
  5
1E3
  8
0
  6
CONTINUOUS
 62
     7
 10
-730.3530032538501
 20
275.0734942514857
 30
0.0
 40
15.25000519650254
  0
CIRCLE
  5
1E4
  8
0
  6
CONTINUOUS
 62
     7
 10
-970.3530032538503
 20
275.0734942514857
 30
0.0
 40
15.25000519650255
  0
CIRCLE
  5
1E5
  8
0
  6
CONTINUOUS
 62
     9
 10
-730.3529346207905
 20
275.0659747201986
 30
0.0
 40
17.23717703565074
  0
CIRCLE
  5
1E6
  8
0
  6
CONTINUOUS
 62
     9
 10
-910.3529219079828
 20
275.0661391910238
 30
0.0
 40
13.73716383801445
  0
CIRCLE
  5
1E7
  8
0
  6
CONTINUOUS
 62
     9
 10
-970.3529346207911
 20
275.0659747200764
 30
0.0
 40
17.23717703565114
  0
CIRCLE
  5
1E8
  8
0
  6
CONTINUOUS
 62
     9
 10
-850.3529219079834
 20
275.0661391910017
 30
0.0
 40
13.73716383801513
  0
CIRCLE
  5
1E9
  8
0
  6
CONTINUOUS
 62
     9
 10
-790.352921907984
 20
275.0661391909863
 30
0.0
 40
13.73716383801581
  0
CIRCLE
  5
1EA
  8
0
  6
CONTINUOUS
 62
     7
 10
-910.3530028411831
 20
275.0711576277689
 30
0.0
 40
11.75000400386274
  0
CIRCLE
  5
1EB
  8
0
  6
CONTINUOUS
 62
     7
 10
-850.3530028411831
 20
275.0711576277693
 30
0.0
 40
11.75000400386274
  0
CIRCLE
  5
1EC
  8
0
  6
CONTINUOUS
 62
     7
 10
-790.3530028411831
 20
275.0711576277686
 30
0.0
 40
11.75000400386263
  0
LINE
  5
1ED
  8
0
  6
CONTINUOUS
 62
     7
 10
-850.3530014558005
 20
236.5633132481497
 30
0.0
 11
-835.3530014558008
 21
233.5633132481497
 31
0.0
  0
LINE
  5
1EE
  8
0
  6
CONTINUOUS
 62
     7
 10
-865.3530014558002
 20
233.5633132481497
 30
0.0
 11
-850.3530014558005
 21
236.5633132481497
 31
0.0
  0
ENDSEC
  0
EOF
