  0
SECTION
  2
HEADER
  9
$ACADVER
  1
AC1006
  9
$DWGCODEPAGE
  3
ansi_932
  9
$INSBASE
 10
0.0
 20
0.0
 30
0.0
  9
$EXTMIN
 10
367.5707584939
 20
476.9270590378
  9
$EXTMAX
 10
1450.000000000001
 20
934.6469081808
  9
$LIMMIN
 10
0.0
 20
0.0
  9
$LIMMAX
 10
12.0
 20
9.0
  9
$ORTHOMODE
 70
     0
  9
$REGENMODE
 70
     1
  9
$FILLMODE
 70
     1
  9
$QTEXTMODE
 70
     0
  9
$MIRRTEXT
 70
     1
  9
$DRAGMODE
 70
     2
  9
$LTSCALE
 40
1.0
  9
$OSMODE
 70
    37
  9
$ATTMODE
 70
     1
  9
$TEXTSIZE
 40
0.2
  9
$TRACEWID
 40
0.05
  9
$TEXTSTYLE
  7
STANDARD
  9
$CLAYER
  8
0
  9
$CELTYPE
  6
BYLAYER
  9
$CECOLOR
 62
   256
  9
$DIMSCALE
 40
1.0
  9
$DIMASZ
 40
3.0
  9
$DIMEXO
 40
0.0625
  9
$DIMDLI
 40
0.38
  9
$DIMRND
 40
0.0
  9
$DIMDLE
 40
0.0
  9
$DIMEXE
 40
1.5
  9
$DIMTP
 40
0.0
  9
$DIMTM
 40
0.0
  9
$DIMTXT
 40
4.0
  9
$DIMCEN
 40
0.09
  9
$DIMTSZ
 40
0.0
  9
$DIMTOL
 70
     0
  9
$DIMLIM
 70
     0
  9
$DIMTIH
 70
     1
  9
$DIMTOH
 70
     1
  9
$DIMSE1
 70
     0
  9
$DIMSE2
 70
     0
  9
$DIMTAD
 70
     1
  9
$DIMZIN
 70
     0
  9
$DIMBLK
  1

  9
$DIMASO
 70
     1
  9
$DIMSHO
 70
     1
  9
$DIMPOST
  1

  9
$DIMAPOST
  1

  9
$DIMALT
 70
     0
  9
$DIMALTD
 70
     2
  9
$DIMALTF
 40
25.4
  9
$DIMLFAC
 40
1.0
  9
$DIMTOFL
 70
     0
  9
$DIMTVP
 40
0.0
  9
$DIMTIX
 70
     0
  9
$DIMSOXD
 70
     0
  9
$DIMSAH
 70
     0
  9
$DIMBLK1
  1

  9
$DIMBLK2
  1

  9
$LUNITS
 70
     2
  9
$LUPREC
 70
     4
  9
$SKETCHINC
 40
0.1
  9
$FILLETRAD
 40
0.5
  9
$AUNITS
 70
     0
  9
$AUPREC
 70
     0
  9
$MENU
  1
.
  9
$ELEVATION
 40
0.0
  9
$THICKNESS
 40
0.0
  9
$LIMCHECK
 70
     0
  9
$CHAMFERA
 40
0.0
  9
$CHAMFERB
 40
0.0
  9
$SKPOLY
 70
     0
  9
$TDCREATE
 40
2459724.548256713
  9
$TDUPDATE
 40
2459724.548257535
  9
$TDINDWG
 40
0.0000000116
  9
$TDUSRTIMER
 40
0.0000000116
  9
$USRTIMER
 70
     1
  9
$ANGBASE
 50
0.0
  9
$ANGDIR
 70
     0
  9
$PDMODE
 70
     0
  9
$PDSIZE
 40
0.0
  9
$PLINEWID
 40
0.0
  9
$COORDS
 70
     1
  9
$SPLFRAME
 70
     0
  9
$SPLINETYPE
 70
     6
  9
$SPLINESEGS
 70
     8
  9
$ATTDIA
 70
     0
  9
$ATTREQ
 70
     1
  9
$HANDLING
 70
     1
  9
$HANDSEED
  5
54E
  9
$SURFTAB1
 70
     6
  9
$SURFTAB2
 70
     6
  9
$SURFTYPE
 70
     6
  9
$SURFU
 70
     6
  9
$SURFV
 70
     6
  9
$UCSNAME
  2

  9
$UCSORG
 10
0.0
 20
0.0
 30
0.0
  9
$UCSXDIR
 10
1.0
 20
0.0
 30
0.0
  9
$UCSYDIR
 10
0.0
 20
1.0
 30
0.0
  9
$USERI1
 70
     0
  9
$USERI2
 70
     0
  9
$USERI3
 70
     0
  9
$USERI4
 70
     0
  9
$USERI5
 70
     0
  9
$USERR1
 40
0.0
  9
$USERR2
 40
0.0
  9
$USERR3
 40
0.0
  9
$USERR4
 40
0.0
  9
$USERR5
 40
0.0
  9
$WORLDVIEW
 70
     1
  0
ENDSEC
  0
SECTION
  2
TABLES
  0
TABLE
  2
VPORT
 70
     1
  0
VPORT
  2
*ACTIVE
 70
     0
 10
0.0
 20
0.0
 11
1.0
 21
1.0
 12
908.7853792469506
 22
705.7869836093
 13
0.0
 23
0.0
 14
0.5
 24
0.5
 15
0.5
 25
0.5
 16
0.0
 26
0.0
 36
1.0
 17
0.0
 27
0.0
 37
0.0
 40
457.719849143
 41
1.6
 42
50.0
 43
0.0
 44
0.0
 50
0.0
 51
0.0
 71
     0
 72
   100
 73
     1
 74
     3
 75
     0
 76
     0
 77
     0
 78
     0
  0
ENDTAB
  0
TABLE
  2
LTYPE
 70
     3
  0
LTYPE
  2
CONTINUOUS
 70
     0
  3
Solid line
 72
    65
 73
     0
 40
0.0
  0
LTYPE
  2
CENTER
 70
     0
  3

 72
    65
 73
     0
 40
0.0
  0
LTYPE
  2
DOT
 70
     0
  3

 72
    65
 73
     0
 40
0.0
  0
ENDTAB
  0
TABLE
  2
LAYER
 70
     2
  0
LAYER
  2
0
 70
     0
 62
     7
  6
CONTINUOUS
  0
LAYER
  2
1
 70
     0
 62
     7
  6
CONTINUOUS
  0
ENDTAB
  0
TABLE
  2
STYLE
 70
     2
  0
STYLE
  2
STANDARD
 70
     0
 40
0.0
 41
1.0
 50
0.0
 71
     0
 42
0.2
  3
txt
  4

  0
STYLE
  2
ＭＳ_ゴシック
 70
     0
 40
0.0
 41
1.0
 50
0.0
 71
     0
 42
0.2
  3
ＭＳ ゴシック.shx
  4

  0
ENDTAB
  0
TABLE
  2
VIEW
 70
     0
  0
ENDTAB
  0
TABLE
  2
UCS
 70
     0
  0
ENDTAB
  0
ENDSEC
  0
SECTION
  2
BLOCKS
  0
ENDSEC
  0
SECTION
  2
ENTITIES
  0
LINE
  5
70
  8
0
  6
CONTINUOUS
 62
     9
 10
1422.3842442028
 20
792.4369216964001
 30
0.0
 11
1424.8842442028
 21
794.9369216964001
 31
0.0
  0
LINE
  5
71
  8
0
  6
CONTINUOUS
 62
     9
 10
1422.3842442028
 20
788.1942810093001
 30
0.0
 11
1424.8842442028
 21
790.6942810093001
 31
0.0
  0
LINE
  5
72
  8
0
  6
CONTINUOUS
 62
     9
 10
1422.3842442028
 20
783.9516403222
 30
0.0
 11
1424.8842442028
 21
786.4516403222001
 31
0.0
  0
LINE
  5
73
  8
0
  6
CONTINUOUS
 62
     9
 10
1422.3842442028
 20
779.7089996349999
 30
0.0
 11
1424.8842442028
 21
782.2089996349999
 31
0.0
  0
LINE
  5
74
  8
0
  6
CONTINUOUS
 62
     9
 10
1426.5974476382
 20
779.6795623833
 30
0.0
 11
1428.5974476384
 21
781.6795623835
 31
0.0
  0
LINE
  5
75
  8
0
  6
CONTINUOUS
 62
     9
 10
1422.3842442028
 20
775.4663589479
 30
0.0
 11
1424.8842442028
 21
777.9663589479
 31
0.0
  0
LINE
  5
76
  8
0
  6
CONTINUOUS
 62
     9
 10
1422.3842442028
 20
771.2237182608001
 30
0.0
 11
1424.8842442028
 21
773.7237182608001
 31
0.0
  0
LINE
  5
77
  8
0
  6
CONTINUOUS
 62
     9
 10
1422.3842442028
 20
766.9810775737
 30
0.0
 11
1424.8842442028
 21
769.4810775737
 31
0.0
  0
LINE
  5
78
  8
0
  6
CONTINUOUS
 62
     9
 10
1341.8842442028
 20
686.4810775737001
 30
0.0
 11
1343.5620562445
 21
688.1588896153002
 31
0.0
  0
LINE
  5
79
  8
0
  6
CONTINUOUS
 62
     9
 10
1422.3842442028
 20
762.7384368866002
 30
0.0
 11
1424.8842442028
 21
765.2384368866002
 31
0.0
  0
LINE
  5
7A
  8
0
  6
CONTINUOUS
 62
     9
 10
1345.3506766233
 20
685.7048693071001
 30
0.0
 11
1347.9187818054
 21
688.2729744892001
 31
0.0
  0
LINE
  5
7B
  8
0
  6
CONTINUOUS
 62
     9
 10
1342.3253696998
 20
682.6795623835001
 30
0.0
 11
1344.3842442028
 21
684.7384368866001
 31
0.0
  0
LINE
  5
7C
  8
0
  6
CONTINUOUS
 62
     9
 10
1422.3842442028
 20
758.4957961994002
 30
0.0
 11
1424.8842442028
 21
760.9957961994002
 31
0.0
  0
LINE
  5
7D
  8
0
  6
CONTINUOUS
 62
     9
 10
1349.7074021843
 20
685.8189541809
 30
0.0
 11
1352.2755073664
 21
688.387059363
 31
0.0
  0
LINE
  5
7E
  8
0
  6
CONTINUOUS
 62
     9
 10
1422.3842442028
 20
754.2531555123
 30
0.0
 11
1424.8842442028
 21
756.7531555123
 31
0.0
  0
LINE
  5
7F
  8
0
  6
CONTINUOUS
 62
     9
 10
1354.0641277452
 20
685.9330390547001
 30
0.0
 11
1356.6322329274
 21
688.5011442369001
 31
0.0
  0
LINE
  5
80
  8
0
  6
CONTINUOUS
 62
     9
 10
1422.3842442028
 20
750.0105148252001
 30
0.0
 11
1424.8842442028
 21
752.5105148252001
 31
0.0
  0
LINE
  5
81
  8
0
  6
CONTINUOUS
 62
     9
 10
1358.4208533062
 20
686.0471239286001
 30
0.0
 11
1360.9889584883
 21
688.6152291107
 31
0.0
  0
LINE
  5
82
  8
0
  6
CONTINUOUS
 62
     9
 10
1426.2959324482
 20
749.6795623835001
 30
0.0
 11
1428.2959324482
 21
751.6795623835001
 31
0.0
  0
LINE
  5
83
  8
0
  6
CONTINUOUS
 62
     9
 10
1422.3842442028
 20
745.7678741381001
 30
0.0
 11
1424.8842442028
 21
748.2678741381002
 31
0.0
  0
LINE
  5
84
  8
0
  6
CONTINUOUS
 62
     9
 10
1362.7775788672
 20
686.1612088024002
 30
0.0
 11
1365.3456840493
 21
688.7293139845001
 31
0.0
  0
LINE
  5
85
  8
0
  6
CONTINUOUS
 62
     9
 10
1422.3842442028
 20
741.5252334510001
 30
0.0
 11
1424.8842442028
 21
744.0252334510001
 31
0.0
  0
LINE
  5
86
  8
0
  6
CONTINUOUS
 62
     9
 10
1367.1343044281
 20
686.2752936763002
 30
0.0
 11
1369.7024096102
 21
688.8433988584002
 31
0.0
  0
LINE
  5
87
  8
0
  6
CONTINUOUS
 62
     9
 10
1422.3842442028
 20
737.2825927638002
 30
0.0
 11
1424.8842442028
 21
739.7825927638002
 31
0.0
  0
LINE
  5
88
  8
0
  6
CONTINUOUS
 62
     9
 10
1371.4910299891
 20
686.3893785501002
 30
0.0
 11
1374.0591351712
 21
688.9574837322002
 31
0.0
  0
LINE
  5
89
  8
0
  6
CONTINUOUS
 62
     9
 10
1422.3842442028
 20
733.0399520767003
 30
0.0
 11
1424.8842442028
 21
735.5399520767003
 31
0.0
  0
LINE
  5
8A
  8
0
  6
CONTINUOUS
 62
     9
 10
1375.84775555
 20
686.5034634239001
 30
0.0
 11
1378.4158607321
 21
689.0715686060001
 31
0.0
  0
LINE
  5
8B
  8
0
  6
CONTINUOUS
 62
     9
 10
1422.3842442028
 20
728.7973113896002
 30
0.0
 11
1424.8842442028
 21
731.2973113896002
 31
0.0
  0
LINE
  5
8C
  8
0
  6
CONTINUOUS
 62
     9
 10
1380.204481111
 20
686.6175482978001
 30
0.0
 11
1382.7725862931
 21
689.1856534799001
 31
0.0
  0
LINE
  5
8D
  8
0
  6
CONTINUOUS
 62
     9
 10
1422.3842442028
 20
724.5546707025001
 30
0.0
 11
1425.0091358838
 21
727.1795623835001
 31
0.0
  0
LINE
  5
8E
  8
0
  6
CONTINUOUS
 62
     9
 10
1384.5612066719
 20
686.7316331716002
 30
0.0
 11
1387.1293118541
 21
689.2997383537001
 31
0.0
  0
LINE
  5
8F
  8
0
  6
CONTINUOUS
 62
     9
 10
1388.9179322329
 20
686.8457180455001
 30
0.0
 11
1391.486037415
 21
689.4138232276001
 31
0.0
  0
LINE
  5
90
  8
0
  6
CONTINUOUS
 62
     9
 10
1422.3842442028
 20
716.0693893282001
 30
0.0
 11
1425.4393307304
 21
719.1244758559001
 31
0.0
  0
LINE
  5
91
  8
0
  6
CONTINUOUS
 62
     9
 10
1393.2746577939
 20
686.9598029193002
 30
0.0
 11
1395.842762976
 21
689.5279081014002
 31
0.0
  0
LINE
  5
92
  8
0
  6
CONTINUOUS
 62
     9
 10
1426.7370579452
 20
716.1795623835001
 30
0.0
 11
1427.3842442028
 21
716.8267486411002
 31
0.0
  0
LINE
  5
93
  8
0
  6
CONTINUOUS
 62
     9
 10
1422.3842442028
 20
711.8267486411002
 30
0.0
 11
1424.8842442028
 21
714.3267486411002
 31
0.0
  0
LINE
  5
94
  8
0
  6
CONTINUOUS
 62
     9
 10
1397.6313833548
 20
687.0738877931001
 30
0.0
 11
1400.1994885369
 21
689.6419929752001
 31
0.0
  0
LINE
  5
95
  8
0
  6
CONTINUOUS
 62
     9
 10
1422.3842442028
 20
707.5841079540003
 30
0.0
 11
1424.8842442028
 21
710.0841079540003
 31
0.0
  0
LINE
  5
96
  8
0
  6
CONTINUOUS
 62
     9
 10
1401.9881089158
 20
687.1879726670002
 30
0.0
 11
1404.5562140979
 21
689.7560778491002
 31
0.0
  0
LINE
  5
97
  8
0
  6
CONTINUOUS
 62
     9
 10
1425.2223393194
 20
706.1795623835001
 30
0.0
 11
1427.2223393194
 21
708.1795623835001
 31
0.0
  0
LINE
  5
98
  8
0
  6
CONTINUOUS
 62
     9
 10
1406.3448344767
 20
687.3020575408001
 30
0.0
 11
1408.9129396588
 21
689.8701627229001
 31
0.0
  0
LINE
  5
99
  8
0
  6
CONTINUOUS
 62
     9
 10
1427.8842442028
 20
704.5988265798001
 30
0.0
 11
1428.3842442028
 21
705.0988265798001
 31
0.0
  0
LINE
  5
9A
  8
0
  6
CONTINUOUS
 62
     9
 10
1422.3842442028
 20
699.0988265798001
 30
0.0
 11
1424.4649800066
 21
701.1795623835001
 31
0.0
  0
LINE
  5
9B
  8
0
  6
CONTINUOUS
 62
     9
 10
1410.7015600377
 20
687.4161424146001
 30
0.0
 11
1413.2696652198
 21
689.9842475967001
 31
0.0
  0
LINE
  5
9C
  8
0
  6
CONTINUOUS
 62
     9
 10
1426.7076206937
 20
699.1795623835001
 30
0.0
 11
1428.3842442028
 21
700.8561858926001
 31
0.0
  0
LINE
  5
9D
  8
0
  6
CONTINUOUS
 62
     9
 10
1422.3842442028
 20
694.8561858926001
 30
0.0
 11
1424.8842442028
 21
697.3561858926001
 31
0.0
  0
LINE
  5
9E
  8
0
  6
CONTINUOUS
 62
     9
 10
1415.0582855986
 20
687.5302272885001
 30
0.0
 11
1417.6263907808
 21
690.0983324706001
 31
0.0
  0
LINE
  5
9F
  8
0
  6
CONTINUOUS
 62
     9
 10
1422.3842442028
 20
690.6135452055001
 30
0.0
 11
1424.8842442028
 21
693.1135452055001
 31
0.0
  0
LINE
  5
A0
  8
0
  6
CONTINUOUS
 62
     9
 10
1419.4150111596
 20
687.6443121623001
 30
0.0
 11
1421.9831163417
 21
690.2124173444001
 31
0.0
  0
LINE
  5
A1
  8
0
  6
CONTINUOUS
 62
     9
 10
1423.7717367206
 20
687.7583970362001
 30
0.0
 11
1426.3398419027
 21
690.3265022183001
 31
0.0
  0
LINE
  5
A2
  8
0
  6
CONTINUOUS
 62
     9
 10
1428.1284622815
 20
687.8724819100003
 30
0.0
 11
1430.6965674636
 21
690.4405870921003
 31
0.0
  0
LINE
  5
A3
  8
0
  6
CONTINUOUS
 62
     9
 10
1432.4851878425
 20
687.9865667838002
 30
0.0
 11
1433.8842442028
 21
689.3856231442002
 31
0.0
  0
LINE
  5
A4
  8
0
  6
CONTINUOUS
 62
     7
 10
1341.8842442028
 20
907.0983933039001
 30
0.0
 11
1344.3842442028
 21
909.5983933039001
 31
0.0
  0
LINE
  5
A5
  8
0
  6
CONTINUOUS
 62
     7
 10
1344.211714829
 20
905.1832232429
 30
0.0
 11
1346.6487556504
 21
907.6202640643
 31
0.0
  0
LINE
  5
A6
  8
0
  6
CONTINUOUS
 62
     7
 10
1348.3460930132
 20
905.0749607401001
 30
0.0
 11
1350.7831338347
 21
907.5120015615001
 31
0.0
  0
LINE
  5
A7
  8
0
  6
CONTINUOUS
 62
     7
 10
1352.4804711975
 20
904.9666982372001
 30
0.0
 11
1354.9175120189
 21
907.4037390586001
 31
0.0
  0
LINE
  5
A8
  8
0
  6
CONTINUOUS
 62
     7
 10
1356.6148493817
 20
904.8584357343
 30
0.0
 11
1359.0518902032
 21
907.2954765557
 31
0.0
  0
LINE
  5
A9
  8
0
  6
CONTINUOUS
 62
     7
 10
1360.749227566
 20
904.7501732315001
 30
0.0
 11
1363.1862683874
 21
907.1872140529001
 31
0.0
  0
LINE
  5
AA
  8
0
  6
CONTINUOUS
 62
     7
 10
1364.8836057502
 20
904.6419107286001
 30
0.0
 11
1367.3206465717
 21
907.07895155
 31
0.0
  0
LINE
  5
AB
  8
0
  6
CONTINUOUS
 62
     7
 10
1369.0179839345
 20
904.5336482257001
 30
0.0
 11
1371.4550247559
 21
906.9706890471001
 31
0.0
  0
LINE
  5
AC
  8
0
  6
CONTINUOUS
 62
     7
 10
1373.1523621187
 20
904.4253857228001
 30
0.0
 11
1375.5894029402
 21
906.8624265443001
 31
0.0
  0
LINE
  5
AD
  8
0
  6
CONTINUOUS
 62
     7
 10
1377.286740303
 20
904.31712322
 30
0.0
 11
1379.7237811244
 21
906.7541640414
 31
0.0
  0
LINE
  5
AE
  8
0
  6
CONTINUOUS
 62
     7
 10
1381.4211184872
 20
904.2088607171
 30
0.0
 11
1383.8581593087
 21
906.6459015385
 31
0.0
  0
LINE
  5
AF
  8
0
  6
CONTINUOUS
 62
     7
 10
1385.5554966715
 20
904.1005982142001
 30
0.0
 11
1387.9925374929
 21
906.5376390356001
 31
0.0
  0
LINE
  5
B0
  8
0
  6
CONTINUOUS
 62
     7
 10
1389.6898748557
 20
903.9923357114001
 30
0.0
 11
1392.1269156771
 21
906.4293765328001
 31
0.0
  0
LINE
  5
B1
  8
0
  6
CONTINUOUS
 62
     7
 10
1393.82425304
 20
903.8840732085
 30
0.0
 11
1396.2612938614
 21
906.3211140299
 31
0.0
  0
LINE
  5
B2
  8
0
  6
CONTINUOUS
 62
     7
 10
1397.9586312242
 20
903.7758107056
 30
0.0
 11
1400.3956720456
 21
906.212851527
 31
0.0
  0
LINE
  5
B3
  8
0
  6
CONTINUOUS
 62
     7
 10
1402.0930094085
 20
903.6675482027999
 30
0.0
 11
1404.5300502299
 21
906.1045890242
 31
0.0
  0
LINE
  5
B4
  8
0
  6
CONTINUOUS
 62
     7
 10
1406.2273875927
 20
903.5592856999001
 30
0.0
 11
1408.6644284141
 21
905.9963265213001
 31
0.0
  0
LINE
  5
B5
  8
0
  6
CONTINUOUS
 62
     7
 10
1410.361765777
 20
903.4510231970002
 30
0.0
 11
1412.7988065984
 21
905.8880640184002
 31
0.0
  0
LINE
  5
B6
  8
0
  6
CONTINUOUS
 62
     7
 10
1414.4961439612
 20
903.3427606941
 30
0.0
 11
1416.9331847826
 21
905.7798015156
 31
0.0
  0
LINE
  5
B7
  8
0
  6
CONTINUOUS
 62
     7
 10
1418.6305221455
 20
903.2344981913001
 30
0.0
 11
1421.0675629669
 21
905.6715390127001
 31
0.0
  0
LINE
  5
B8
  8
0
  6
CONTINUOUS
 62
     7
 10
1422.3842442028
 20
902.7455795615
 30
0.0
 11
1425.2019411511
 21
905.5632765098
 31
0.0
  0
LINE
  5
B9
  8
0
  6
CONTINUOUS
 62
     7
 10
1426.899278514
 20
903.0179731855001
 30
0.0
 11
1429.3363193354
 21
905.4550140069
 31
0.0
  0
LINE
  5
BA
  8
0
  6
CONTINUOUS
 62
     7
 10
1422.3842442028
 20
898.5029388744001
 30
0.0
 11
1424.8842442028
 21
901.0029388744002
 31
0.0
  0
LINE
  5
BB
  8
0
  6
CONTINUOUS
 62
     7
 10
1431.0336566982
 20
902.9097106827
 30
0.0
 11
1433.4706975196
 21
905.3467515041001
 31
0.0
  0
LINE
  5
BC
  8
0
  6
CONTINUOUS
 62
     7
 10
1422.3842442028
 20
894.2602981873
 30
0.0
 11
1424.8842442028
 21
896.7602981873
 31
0.0
  0
LINE
  5
BD
  8
0
  6
CONTINUOUS
 62
     7
 10
1424.5461490862
 20
892.1795623835
 30
0.0
 11
1426.5461490862
 21
894.1795623835
 31
0.0
  0
LINE
  5
BE
  8
0
  6
CONTINUOUS
 62
     7
 10
1427.8842442028
 20
891.275016813
 30
0.0
 11
1428.3842442028
 21
891.775016813
 31
0.0
  0
LINE
  5
BF
  8
0
  6
CONTINUOUS
 62
     7
 10
1422.3842442028
 20
885.775016813
 30
0.0
 11
1423.7887897733
 21
887.1795623835
 31
0.0
  0
LINE
  5
C0
  8
0
  6
CONTINUOUS
 62
     7
 10
1426.0314304604
 20
885.1795623835
 30
0.0
 11
1428.3842442028
 21
887.5323761259
 31
0.0
  0
LINE
  5
C1
  8
0
  6
CONTINUOUS
 62
     7
 10
1422.3842442028
 20
881.5323761259001
 30
0.0
 11
1424.8842442028
 21
884.0323761259001
 31
0.0
  0
LINE
  5
C2
  8
0
  6
CONTINUOUS
 62
     7
 10
1422.3842442028
 20
877.2897354388001
 30
0.0
 11
1424.8842442028
 21
879.7897354388001
 31
0.0
  0
LINE
  5
C3
  8
0
  6
CONTINUOUS
 62
     7
 10
1423.5167118347
 20
874.1795623835001
 30
0.0
 11
1426.5167118347
 21
877.1795623835001
 31
0.0
  0
LINE
  5
C4
  8
0
  6
CONTINUOUS
 62
     7
 10
1422.3842442028
 20
868.8044540645001
 30
0.0
 11
1422.7593525218
 21
869.1795623835001
 31
0.0
  0
LINE
  5
C5
  8
0
  6
CONTINUOUS
 62
     7
 10
1422.3842442028
 20
864.5618133774
 30
0.0
 11
1426.1931187059
 21
868.3706878805
 31
0.0
  0
LINE
  5
C6
  8
0
  6
CONTINUOUS
 62
     7
 10
1422.3842442028
 20
860.3191726903
 30
0.0
 11
1424.8842442028
 21
862.8191726903
 31
0.0
  0
LINE
  5
C7
  8
0
  6
CONTINUOUS
 62
     7
 10
1422.3842442028
 20
856.0765320032001
 30
0.0
 11
1424.8842442028
 21
858.5765320032001
 31
0.0
  0
LINE
  5
C8
  8
0
  6
CONTINUOUS
 62
     7
 10
1422.3842442028
 20
851.8338913161
 30
0.0
 11
1424.8842442028
 21
854.3338913161
 31
0.0
  0
LINE
  5
C9
  8
0
  6
CONTINUOUS
 62
     7
 10
1422.3842442028
 20
847.5912506289
 30
0.0
 11
1424.8842442028
 21
850.0912506289
 31
0.0
  0
LINE
  5
CA
  8
0
  6
CONTINUOUS
 62
     7
 10
1422.3842442028
 20
843.3486099418001
 30
0.0
 11
1424.8842442028
 21
845.8486099418001
 31
0.0
  0
LINE
  5
CB
  8
0
  6
CONTINUOUS
 62
     7
 10
1424.9578373316
 20
841.6795623835001
 30
0.0
 11
1426.9578373316
 21
843.6795623835001
 31
0.0
  0
LINE
  5
CC
  8
0
  6
CONTINUOUS
 62
     7
 10
1422.3842442028
 20
839.1059692547001
 30
0.0
 11
1424.8842442028
 21
841.6059692547
 31
0.0
  0
LINE
  5
CD
  8
0
  6
CONTINUOUS
 62
     7
 10
1422.3842442028
 20
834.8633285676
 30
0.0
 11
1424.8842442028
 21
837.3633285676
 31
0.0
  0
LINE
  5
CE
  8
0
  6
CONTINUOUS
 62
     7
 10
1422.3842442028
 20
830.6206878805001
 30
0.0
 11
1424.8842442028
 21
833.1206878805001
 31
0.0
  0
LINE
  5
CF
  8
0
  6
CONTINUOUS
 62
     7
 10
1422.3842442028
 20
826.3780471933001
 30
0.0
 11
1424.8842442028
 21
828.8780471933001
 31
0.0
  0
LINE
  5
D0
  8
0
  6
CONTINUOUS
 62
     7
 10
1422.3842442028
 20
822.1354065062
 30
0.0
 11
1424.8842442028
 21
824.6354065062
 31
0.0
  0
LINE
  5
D1
  8
0
  6
CONTINUOUS
 62
     7
 10
1422.3842442028
 20
817.8927658191001
 30
0.0
 11
1424.8842442028
 21
820.3927658191001
 31
0.0
  0
LINE
  5
D2
  8
0
  6
CONTINUOUS
 62
     7
 10
1422.3842442028
 20
813.6501251320001
 30
0.0
 11
1424.8842442028
 21
816.1501251320001
 31
0.0
  0
LINE
  5
D3
  8
0
  6
CONTINUOUS
 62
     7
 10
1422.3842442028
 20
809.4074844449
 30
0.0
 11
1426.6563221416
 21
813.6795623837
 31
0.0
  0
LINE
  5
D4
  8
0
  6
CONTINUOUS
 62
     7
 10
1422.3842442028
 20
805.1648437576999
 30
0.0
 11
1424.8842442028
 21
807.6648437576999
 31
0.0
  0
LINE
  5
D5
  8
0
  6
CONTINUOUS
 62
     7
 10
1422.3842442028
 20
800.9222030706002
 30
0.0
 11
1424.8842442028
 21
803.4222030706001
 31
0.0
  0
LINE
  5
D6
  8
0
  6
CONTINUOUS
 62
     7
 10
1422.3842442028
 20
796.6795623835
 30
0.0
 11
1424.8842442028
 21
799.1795623835
 31
0.0
  0
LINE
  5
D7
  8
0
  6
CONTINUOUS
 62
     9
 10
1407.5842442028
 20
879.5541092532001
 30
0.0
 11
1411.6985977664
 21
881.9295323907002
 31
0.0
  0
LINE
  5
D8
  8
0
  6
CONTINUOUS
 62
     9
 10
1407.5842442028
 20
876.0900076380001
 30
0.0
 11
1417.6985977664
 21
881.9295323907002
 31
0.0
  0
LINE
  5
D9
  8
0
  6
CONTINUOUS
 62
     9
 10
1418.3842442028
 20
878.8612889301002
 30
0.0
 11
1422.3842442028
 21
881.1706900069001
 31
0.0
  0
LINE
  5
DA
  8
0
  6
CONTINUOUS
 62
     9
 10
1407.3842442028
 20
872.5104359691001
 30
0.0
 11
1418.3842442028
 21
878.8612889301002
 31
0.0
  0
LINE
  5
DB
  8
0
  6
CONTINUOUS
 62
     9
 10
1418.3842442028
 20
875.397187315
 30
0.0
 11
1422.3842442028
 21
877.7065883918
 31
0.0
  0
LINE
  5
DC
  8
0
  6
CONTINUOUS
 62
     9
 10
1407.3842442028
 20
869.0463343539
 30
0.0
 11
1418.3842442028
 21
875.397187315
 31
0.0
  0
LINE
  5
DD
  8
0
  6
CONTINUOUS
 62
     9
 10
1421.842243255
 20
873.9295623835001
 30
0.0
 11
1422.3842442028
 21
874.2424867766001
 31
0.0
  0
LINE
  5
DE
  8
0
  6
CONTINUOUS
 62
     9
 10
1407.3842442028
 20
865.5822327388001
 30
0.0
 11
1421.842243255
 21
873.9295623835001
 31
0.0
  0
LINE
  5
DF
  8
0
  6
CONTINUOUS
 62
     9
 10
1407.3842442028
 20
862.1181311236
 30
0.0
 11
1422.3842442028
 21
870.7783851615001
 31
0.0
  0
LINE
  5
E0
  8
0
  6
CONTINUOUS
 62
     9
 10
1407.3842442028
 20
858.6540295085
 30
0.0
 11
1422.3842442028
 21
867.3142835463
 31
0.0
  0
LINE
  5
E1
  8
0
  6
CONTINUOUS
 62
     9
 10
1407.3842442028
 20
855.1899278934
 30
0.0
 11
1422.3842442028
 21
863.8501819312
 31
0.0
  0
LINE
  5
E2
  8
0
  6
CONTINUOUS
 62
     9
 10
1407.3842442028
 20
851.7258262782001
 30
0.0
 11
1422.3842442028
 21
860.3860803161001
 31
0.0
  0
LINE
  5
E3
  8
0
  6
CONTINUOUS
 62
     9
 10
1407.3842442028
 20
848.2617246631
 30
0.0
 11
1422.3842442028
 21
856.9219787009
 31
0.0
  0
LINE
  5
E4
  8
0
  6
CONTINUOUS
 62
     9
 10
1407.3842442028
 20
844.797623048
 30
0.0
 11
1422.3842442028
 21
853.4578770858
 31
0.0
  0
LINE
  5
E5
  8
0
  6
CONTINUOUS
 62
     9
 10
1407.3842442028
 20
841.3335214328001
 30
0.0
 11
1422.3842442028
 21
849.9937754707001
 31
0.0
  0
LINE
  5
E6
  8
0
  6
CONTINUOUS
 62
     9
 10
1407.3842442028
 20
837.8694198177
 30
0.0
 11
1422.3842442028
 21
846.5296738554999
 31
0.0
  0
LINE
  5
E7
  8
0
  6
CONTINUOUS
 62
     9
 10
1407.3842442028
 20
834.4053182025001
 30
0.0
 11
1422.3842442028
 21
843.0655722404001
 31
0.0
  0
LINE
  5
E8
  8
0
  6
CONTINUOUS
 62
     9
 10
1407.3842442028
 20
830.9412165874
 30
0.0
 11
1422.3842442028
 21
839.6014706252001
 31
0.0
  0
LINE
  5
E9
  8
0
  6
CONTINUOUS
 62
     9
 10
1407.3842442028
 20
827.4771149723
 30
0.0
 11
1422.3842442028
 21
836.1373690101001
 31
0.0
  0
LINE
  5
EA
  8
0
  6
CONTINUOUS
 62
     9
 10
1407.3842442028
 20
824.0130133571
 30
0.0
 11
1422.3842442028
 21
832.673267395
 31
0.0
  0
LINE
  5
EB
  8
0
  6
CONTINUOUS
 62
     9
 10
1407.3842442028
 20
820.5489117420001
 30
0.0
 11
1422.3842442028
 21
829.2091657798001
 31
0.0
  0
LINE
  5
EC
  8
0
  6
CONTINUOUS
 62
     9
 10
1407.3842442028
 20
817.0848101268
 30
0.0
 11
1422.3842442028
 21
825.7450641647
 31
0.0
  0
LINE
  5
ED
  8
0
  6
CONTINUOUS
 62
     9
 10
1407.3842442028
 20
813.6207085117001
 30
0.0
 11
1422.3842442028
 21
822.2809625496001
 31
0.0
  0
LINE
  5
EE
  8
0
  6
CONTINUOUS
 62
     9
 10
1407.3842442028
 20
810.1566068966001
 30
0.0
 11
1422.3842442028
 21
818.8168609344001
 31
0.0
  0
LINE
  5
EF
  8
0
  6
CONTINUOUS
 62
     9
 10
1407.3842442028
 20
806.6925052814
 30
0.0
 11
1422.3842442028
 21
815.3527593192999
 31
0.0
  0
LINE
  5
F0
  8
0
  6
CONTINUOUS
 62
     9
 10
1407.3842442028
 20
803.2284036663001
 30
0.0
 11
1422.3842442028
 21
811.8886577041001
 31
0.0
  0
LINE
  5
F1
  8
0
  6
CONTINUOUS
 62
     9
 10
1407.3842442028
 20
799.7643020512002
 30
0.0
 11
1422.3842442028
 21
808.4245560890001
 31
0.0
  0
LINE
  5
F2
  8
0
  6
CONTINUOUS
 62
     9
 10
1408.0413183703
 20
796.6795623835
 30
0.0
 11
1422.3842442028
 21
804.9604544739
 31
0.0
  0
LINE
  5
F3
  8
0
  6
CONTINUOUS
 62
     9
 10
1407.3842442028
 20
796.300200436
 30
0.0
 11
1408.0413183703
 21
796.6795623835
 31
0.0
  0
LINE
  5
F4
  8
0
  6
CONTINUOUS
 62
     9
 10
1414.0413183703
 20
796.6795623835
 30
0.0
 11
1422.3842442028
 21
801.4963528587
 31
0.0
  0
LINE
  5
F5
  8
0
  6
CONTINUOUS
 62
     9
 10
1407.3842442028
 20
792.8360988209001
 30
0.0
 11
1414.0413183703
 21
796.6795623835001
 31
0.0
  0
LINE
  5
F6
  8
0
  6
CONTINUOUS
 62
     9
 10
1420.0413183703
 20
796.6795623835
 30
0.0
 11
1422.3842442028
 21
798.0322512436
 31
0.0
  0
LINE
  5
F7
  8
0
  6
CONTINUOUS
 62
     9
 10
1407.3842442028
 20
789.3719972057002
 30
0.0
 11
1420.0413183703
 21
796.6795623835001
 31
0.0
  0
LINE
  5
F8
  8
0
  6
CONTINUOUS
 62
     9
 10
1407.3842442028
 20
785.9078955906
 30
0.0
 11
1422.3842442028
 21
794.5681496285001
 31
0.0
  0
LINE
  5
F9
  8
0
  6
CONTINUOUS
 62
     9
 10
1407.3842442028
 20
782.4437939755001
 30
0.0
 11
1422.3842442028
 21
791.1040480133001
 31
0.0
  0
LINE
  5
FA
  8
0
  6
CONTINUOUS
 62
     9
 10
1407.3842442028
 20
778.9796923603
 30
0.0
 11
1422.3842442028
 21
787.6399463982
 31
0.0
  0
LINE
  5
FB
  8
0
  6
CONTINUOUS
 62
     9
 10
1407.3842442028
 20
775.5155907452
 30
0.0
 11
1422.3842442028
 21
784.175844783
 31
0.0
  0
LINE
  5
FC
  8
0
  6
CONTINUOUS
 62
     9
 10
1407.3842442028
 20
772.0514891301001
 30
0.0
 11
1422.3842442028
 21
780.7117431679001
 31
0.0
  0
LINE
  5
FD
  8
0
  6
CONTINUOUS
 62
     9
 10
1407.3842442028
 20
768.5873875149002
 30
0.0
 11
1422.3842442028
 21
777.2476415528001
 31
0.0
  0
LINE
  5
FE
  8
0
  6
CONTINUOUS
 62
     9
 10
1407.3842442028
 20
765.1232858998002
 30
0.0
 11
1422.3842442028
 21
773.7835399376003
 31
0.0
  0
LINE
  5
FF
  8
0
  6
CONTINUOUS
 62
     9
 10
1407.3842442028
 20
761.6591842846001
 30
0.0
 11
1422.3842442028
 21
770.3194383225001
 31
0.0
  0
LINE
  5
100
  8
0
  6
CONTINUOUS
 62
     9
 10
1407.3842442028
 20
758.1950826695002
 30
0.0
 11
1422.3842442028
 21
766.8553367074
 31
0.0
  0
LINE
  5
101
  8
0
  6
CONTINUOUS
 62
     9
 10
1407.3842442028
 20
754.7309810544001
 30
0.0
 11
1422.3842442028
 21
763.3912350922001
 31
0.0
  0
LINE
  5
102
  8
0
  6
CONTINUOUS
 62
     9
 10
1407.3842442028
 20
751.2668794392001
 30
0.0
 11
1422.3842442028
 21
759.9271334771001
 31
0.0
  0
LINE
  5
103
  8
0
  6
CONTINUOUS
 62
     9
 10
1407.3842442028
 20
747.8027778241001
 30
0.0
 11
1422.3842442028
 21
756.4630318619
 31
0.0
  0
LINE
  5
104
  8
0
  6
CONTINUOUS
 62
     9
 10
1407.3842442028
 20
744.3386762090001
 30
0.0
 11
1422.3842442028
 21
752.9989302468001
 31
0.0
  0
LINE
  5
105
  8
0
  6
CONTINUOUS
 62
     9
 10
1407.3842442028
 20
740.8745745938
 30
0.0
 11
1422.3842442028
 21
749.5348286317001
 31
0.0
  0
LINE
  5
106
  8
0
  6
CONTINUOUS
 62
     9
 10
1407.3842442028
 20
737.4104729787001
 30
0.0
 11
1422.3842442028
 21
746.0707270165001
 31
0.0
  0
LINE
  5
107
  8
0
  6
CONTINUOUS
 62
     9
 10
1407.3842442028
 20
733.9463713635002
 30
0.0
 11
1422.3842442028
 21
742.6066254014003
 31
0.0
  0
LINE
  5
108
  8
0
  6
CONTINUOUS
 62
     9
 10
1407.3842442028
 20
730.4822697484001
 30
0.0
 11
1422.3842442028
 21
739.1425237862001
 31
0.0
  0
LINE
  5
109
  8
0
  6
CONTINUOUS
 62
     9
 10
1407.3842442028
 20
727.0181681333003
 30
0.0
 11
1422.3842442028
 21
735.6784221711001
 31
0.0
  0
LINE
  5
10A
  8
0
  6
CONTINUOUS
 62
     9
 10
1407.3842442028
 20
723.5540665181001
 30
0.0
 11
1422.3842442028
 21
732.2143205560001
 31
0.0
  0
LINE
  5
10B
  8
0
  6
CONTINUOUS
 62
     9
 10
1407.3842442028
 20
720.0899649030001
 30
0.0
 11
1422.3842442028
 21
728.7502189408001
 31
0.0
  0
LINE
  5
10C
  8
0
  6
CONTINUOUS
 62
     9
 10
1407.5842442028
 20
716.7413333417
 30
0.0
 11
1422.3842442028
 21
725.2861173257002
 31
0.0
  0
LINE
  5
10D
  8
0
  6
CONTINUOUS
 62
     9
 10
1407.5842442028
 20
713.2772317266001
 30
0.0
 11
1422.3842442028
 21
721.8220157106001
 31
0.0
  0
LINE
  5
10E
  8
0
  6
CONTINUOUS
 62
     9
 10
1418.3842442028
 20
716.0485130187001
 30
0.0
 11
1422.3842442028
 21
718.3579140954001
 31
0.0
  0
LINE
  5
10F
  8
0
  6
CONTINUOUS
 62
     9
 10
1410.3840389742
 20
711.4295923764001
 30
0.0
 11
1418.3842442028
 21
716.0485130187001
 31
0.0
  0
LINE
  5
110
  8
0
  6
CONTINUOUS
 62
     9
 10
1418.3842442028
 20
712.5844114035001
 30
0.0
 11
1422.3842442028
 21
714.8938124803001
 31
0.0
  0
LINE
  5
111
  8
0
  6
CONTINUOUS
 62
     9
 10
1416.3840389742
 20
711.4295923764001
 30
0.0
 11
1418.3842442028
 21
712.5844114035001
 31
0.0
  0
LINE
  5
112
  8
0
  6
CONTINUOUS
 62
     7
 10
1212.8398139436
 20
722.1017366967001
 30
0.0
 11
1212.8398139436
 21
711.9295623835001
 31
0.0
  0
LINE
  5
113
  8
0
  6
CONTINUOUS
 62
     7
 10
1162.8398139436
 20
881.4295623835001
 30
0.0
 11
1162.8398139436
 21
796.6795623835
 31
0.0
  0
LINE
  5
114
  8
0
  6
CENTER
 62
     1
 10
1285.0
 20
796.9295623835001
 30
0.0
 11
1125.0
 21
796.9295623835001
 31
0.0
  0
LINE
  5
116
  8
0
  6
CENTER
 62
     1
 10
1330.000000000001
 20
796.6795623834937
 30
0.0
 11
1450.000000000001
 21
796.6795623835608
 31
0.0
  0
LINE
  5
117
  8
0
  6
CONTINUOUS
 62
     7
 10
1182.8398139436
 20
796.6795623835
 30
0.0
 11
1182.8398139436
 21
881.4295623835001
 31
0.0
  0
LINE
  5
118
  8
0
  6
CENTER
 62
     1
 10
1212.8398139435
 20
674.2500000000001
 30
0.0
 11
1212.8398139435
 21
919.25
 31
0.0
  0
TEXT
  5
119
  8
0
  6
CONTINUOUS
 62
     7
 10
1255.019694885582
 20
648.2565899712394
 30
0.0
 40
9.0
  1
%%U蓋開口状態
  0
LINE
  5
11A
  8
0
  6
CONTINUOUS
 62
     7
 10
1222.8398139436
 20
796.6795623835
 30
0.0
 11
1222.8398139436
 21
881.4295623835001
 31
0.0
  0
LINE
  5
11B
  8
0
  6
CONTINUOUS
 62
     7
 10
1249.0898139431
 20
886.3293574332
 30
0.0
 11
1249.0898139431
 21
881.9294324145003
 31
0.0
  0
LINE
  5
11C
  8
0
  6
CONTINUOUS
 62
     7
 10
1256.58981394275
 20
886.3294324153198
 30
0.0
 11
1256.5898160318
 21
881.9292824502003
 31
0.0
  0
LINE
  5
11D
  8
0
  6
CONTINUOUS
 62
     7
 10
1422.3842442028
 20
903.1362035199
 30
0.0
 11
1422.3842442028
 21
796.6795623835001
 31
0.0
  0
LINE
  5
11E
  8
0
  6
CONTINUOUS
 62
     7
 10
1424.8842442028
 20
903.0707387159999
 30
0.0
 11
1433.8842442028
 21
902.8350654218
 31
0.0
  0
LINE
  5
11F
  8
0
  6
CONTINUOUS
 62
     7
 10
1424.8842442028
 20
894.1795623835
 30
0.0
 11
1433.3842442028
 21
894.1795623835
 31
0.0
  0
ARC
  5
120
  8
0
  6
CONTINUOUS
 62
     7
 10
1264.0898139436
 20
718.4295623835001
 30
0.0
 40
0.9999999999998899
 50
90.0
 51
180.0
  0
LINE
  5
121
  8
0
  6
CONTINUOUS
 62
     7
 10
1404.9842442028
 20
708.7527000714001
 30
0.0
 11
1404.9842442028
 21
707.0296673576001
 31
0.0
  0
LINE
  5
122
  8
0
  6
CONTINUOUS
 62
     7
 10
1405.3842386639
 20
711.4295923764001
 30
0.0
 11
1405.3842501823
 21
702.2797673321
 31
0.0
  0
LINE
  5
123
  8
0
  6
CONTINUOUS
 62
     7
 10
1341.8842442028
 20
910.6795623835001
 30
0.0
 11
1344.3842442028
 21
910.6795623835001
 31
0.0
  0
LINE
  5
124
  8
0
  6
CONTINUOUS
 62
     7
 10
1433.3842442028
 20
894.1795623835
 30
0.0
 11
1433.3842442028
 21
885.1795623835
 31
0.0
  0
LINE
  5
125
  8
0
  6
CONTINUOUS
 62
     7
 10
1433.3842442028
 20
885.1795623835
 30
0.0
 11
1424.8842442028
 21
885.1795623835
 31
0.0
  0
LINE
  5
126
  8
0
  6
CONTINUOUS
 62
     7
 10
1424.8842442028
 20
894.1795623835
 30
0.0
 11
1424.8842442028
 21
903.0707387159999
 31
0.0
  0
LINE
  5
127
  8
0
  6
CONTINUOUS
 62
     7
 10
1424.8842442028
 20
877.1795623835001
 30
0.0
 11
1427.3842442028
 21
877.1795623835001
 31
0.0
  0
LINE
  5
128
  8
0
  6
CONTINUOUS
 62
     7
 10
1405.9842442028
 20
717.6296673576
 30
0.0
 11
1405.9842442028
 21
711.4295923764001
 31
0.0
  0
LINE
  5
129
  8
0
  6
CONTINUOUS
 62
     7
 10
1427.3842442028
 20
877.1795623835001
 30
0.0
 11
1427.3842442028
 21
866.1795623835001
 31
0.0
  0
LINE
  5
12A
  8
0
  6
CONTINUOUS
 62
     7
 10
1422.3842442028
 20
887.1795623835001
 30
0.0
 11
1427.8842442028
 21
887.1795623835001
 31
0.0
  0
LINE
  5
12B
  8
0
  6
CONTINUOUS
 62
     7
 10
1427.8842442028
 20
892.1795623835
 30
0.0
 11
1422.3842442028
 21
892.1795623835
 31
0.0
  0
LINE
  5
12C
  8
0
  6
CONTINUOUS
 62
     7
 10
1427.3842442028
 20
866.1795623835
 30
0.0
 11
1424.8842442028
 21
866.1795623835
 31
0.0
  0
LINE
  5
12D
  8
0
  6
CONTINUOUS
 62
     7
 10
1256.589813945
 20
707.0296923516003
 30
0.0
 11
1256.4398139436
 21
707.0296953509002
 31
0.0
  0
LINE
  5
12E
  8
0
  6
DOT
 62
     7
 10
1422.3842442028
 20
719.4295623835001
 30
0.0
 11
1418.3842442028
 21
719.4295623835001
 31
0.0
  0
ARC
  5
130
  8
0
  6
CONTINUOUS
 62
     7
 10
1252.8398139435
 20
707.0297673338001
 30
0.0
 40
3.749999999999698
 50
179.9988543576
 51
359.9988543576001
  0
ARC
  5
131
  8
0
  6
DOT
 62
     9
 10
1406.4842442028
 20
708.7527000714001
 30
0.0
 40
1.500000000000057
 50
95.0000000001
 51
137.1667659254
  0
LINE
  5
132
  8
0
  6
CONTINUOUS
 62
     7
 10
1426.8842442028
 20
867.6795623835
 30
0.0
 11
1426.8842442028
 21
875.6795623835
 31
0.0
  0
LINE
  5
133
  8
0
  6
CONTINUOUS
 62
     7
 10
1407.3842442028
 20
841.6795623835001
 30
0.0
 11
1372.3842442028
 21
841.6795623835001
 31
0.0
  0
LINE
  5
134
  8
0
  6
CONTINUOUS
 62
     7
 10
1372.3842442028
 20
841.6795623835001
 30
0.0
 11
1372.3842442028
 21
843.6795623835001
 31
0.0
  0
LINE
  5
135
  8
0
  6
CONTINUOUS
 62
     7
 10
1372.3842442028
 20
843.6795623835
 30
0.0
 11
1407.3842442028
 21
843.6795623835
 31
0.0
  0
LINE
  5
136
  8
0
  6
CONTINUOUS
 62
     7
 10
1248.0898139418
 20
707.0295973743002
 30
0.0
 11
1248.0898139418
 21
711.4297673346002
 31
0.0
  0
ARC
  5
137
  8
0
  6
DOT
 62
     9
 10
1406.7842442028
 20
711.2297423405001
 30
0.0
 40
0.7999999999999119
 50
180.0
 51
270.0
  0
ARC
  5
138
  8
0
  6
CONTINUOUS
 62
     7
 10
1406.4842442028
 20
705.3066346438001
 30
0.0
 40
1.500000000000057
 50
180.0
 51
222.8336220575
  0
LINE
  5
139
  8
0
  6
CONTINUOUS
 62
     7
 10
1428.3842442028
 20
885.1795623835
 30
0.0
 11
1428.3842442028
 21
894.1795623835
 31
0.0
  0
LINE
  5
13A
  8
0
  6
CONTINUOUS
 62
     7
 10
1407.5842442028
 20
717.6296673576
 30
0.0
 11
1405.9842442028
 21
717.6296673576
 31
0.0
  0
LINE
  5
13B
  8
0
  6
CONTINUOUS
 62
     7
 10
1263.0898139435
 20
718.4295623835001
 30
0.0
 11
1263.0898139435
 21
711.4295623835001
 31
0.0
  0
LINE
  5
13C
  8
0
  6
CONTINUOUS
 62
     7
 10
1407.3842442028
 20
717.6296673576
 30
0.0
 11
1407.3842442028
 21
796.6795623835001
 31
0.0
  0
LINE
  5
13D
  8
0
  6
DOT
 62
     9
 10
1407.0806919869
 20
710.3106122472002
 30
0.0
 11
1406.3535105887
 21
710.2469921186002
 31
0.0
  0
LINE
  5
13E
  8
0
  6
CONTINUOUS
 62
     7
 10
1427.8842442028
 20
887.1795623835001
 30
0.0
 11
1427.8842442028
 21
892.1795623835001
 31
0.0
  0
LINE
  5
13F
  8
0
  6
CONTINUOUS
 62
     7
 10
1424.8842442028
 20
877.1795623835001
 30
0.0
 11
1424.8842442028
 21
885.1795623835001
 31
0.0
  0
LINE
  5
140
  8
0
  6
CONTINUOUS
 62
     7
 10
1424.8842442028
 20
843.6795623835
 30
0.0
 11
1431.8842442028
 21
843.6795623835
 31
0.0
  0
LINE
  5
141
  8
0
  6
CONTINUOUS
 62
     7
 10
1265.0898139435
 20
709.4295623835001
 30
0.0
 11
1257.5898139443
 21
709.4295629077001
 31
0.0
  0
LINE
  5
142
  8
0
  6
DOT
 62
     9
 10
1405.9842442028
 20
711.4295923764001
 30
0.0
 11
1405.9842442028
 21
711.2297423405001
 31
0.0
  0
ARC
  5
143
  8
0
  6
CONTINUOUS
 62
     7
 10
1408.3842442028
 20
712.2297423407001
 30
0.0
 40
0.7999999999999119
 50
180.0
 51
270.0
  0
LINE
  5
144
  8
0
  6
CONTINUOUS
 62
     7
 10
1257.5898139443
 20
707.0296723564002
 30
0.0
 11
1257.5898139443
 21
711.4296723573001
 31
0.0
  0
LINE
  5
145
  8
0
  6
DOT
 62
     9
 10
1407.3842442028
 20
711.4295623835002
 30
0.0
 11
1407.3842442028
 21
717.6296673576002
 31
0.0
  0
ARC
  5
146
  8
0
  6
CONTINUOUS
 62
     7
 10
1406.4842442028
 20
708.7527000714001
 30
0.0
 40
1.500000000000057
 50
137.1667659254
 51
180.0
  0
LINE
  5
147
  8
0
  6
DOT
 62
     9
 10
1409.1842442028
 20
703.2796673572002
 30
0.0
 11
1409.1842442028
 21
710.6297423081
 31
0.0
  0
LINE
  5
148
  8
0
  6
CONTINUOUS
 62
     7
 10
1344.3842442028
 20
907.6795623835001
 30
0.0
 11
1433.8842442028
 21
905.3359224031001
 31
0.0
  0
LINE
  5
149
  8
0
  6
CONTINUOUS
 62
     7
 10
1424.8842442028
 20
776.6795623835
 30
0.0
 11
1433.8842442028
 21
776.6795623835
 31
0.0
  0
ARC
  5
14A
  8
0
  6
CONTINUOUS
 62
     7
 10
1252.8398139435
 20
707.0297673338001
 30
0.0
 40
4.750000001700005
 50
180.0
 51
359.9988543576001
  0
LINE
  5
14B
  8
0
  6
CONTINUOUS
 62
     7
 10
1256.4398139436
 20
707.0296953509
 30
0.0
 11
1256.4398139436
 21
711.4296953518001
 31
0.0
  0
LINE
  5
14C
  8
0
  6
CONTINUOUS
 62
     7
 10
1249.2398139435
 20
711.4298393175001
 30
0.0
 11
1249.2398139435
 21
707.0298393166001
 31
0.0
  0
ARC
  5
14D
  8
0
  6
DOT
 62
     9
 10
1406.4842442028
 20
705.3066346438001
 30
0.0
 40
1.500000000000057
 50
222.8336220575
 51
264.9999999999
  0
LINE
  5
14E
  8
0
  6
DOT
 62
     9
 10
1407.5842442028
 20
703.2796673572002
 30
0.0
 11
1409.1842442028
 21
703.2796673572002
 31
0.0
  0
ARC
  5
14F
  8
0
  6
DOT
 62
     9
 10
1407.2842442028
 20
704.0320599079002
 30
0.0
 40
0.300000000000189
 50
264.9999999999
 51
0.0
  0
ARC
  5
150
  8
0
  6
DOT
 62
     9
 10
1407.1068387097
 20
710.0117538378003
 30
0.0
 40
0.300000000000189
 50
49.8201514435
 51
95.0000000001
  0
LINE
  5
151
  8
0
  6
DOT
 62
     9
 10
1407.5842442028
 20
709.6297423405001
 30
0.0
 11
1407.5842442028
 21
703.2796673572002
 31
0.0
  0
ARC
  5
152
  8
0
  6
CONTINUOUS
 62
     7
 10
1264.0898139435
 20
718.4295623835001
 30
0.0
 40
0.9999999999998899
 50
0.0
 51
90.0
  0
ARC
  5
153
  8
0
  6
DOT
 62
     9
 10
1406.7842442028
 20
709.6297423405001
 30
0.0
 40
0.7999999999999119
 50
0.0
 51
90.0
  0
LINE
  5
154
  8
0
  6
CONTINUOUS
 62
     7
 10
1404.9842442028
 20
705.3066346438001
 30
0.0
 11
1404.9842442028
 21
707.0296673576001
 31
0.0
  0
ARC
  5
155
  8
0
  6
DOT
 62
     9
 10
1408.3842442028
 20
710.6297423081002
 30
0.0
 40
0.7999999999999119
 50
0.0
 51
90.0000000062
  0
LINE
  5
156
  8
0
  6
CONTINUOUS
 62
     7
 10
1433.8842442028
 20
766.6795623835
 30
0.0
 11
1424.8842442028
 21
766.6795623835
 31
0.0
  0
LINE
  5
157
  8
0
  6
CONTINUOUS
 62
     7
 10
1407.5842442028
 20
712.2297423407001
 30
0.0
 11
1407.5842442028
 21
717.6296673576
 31
0.0
  0
LINE
  5
158
  8
0
  6
CONTINUOUS
 62
     7
 10
1344.3842442028
 20
910.6795623835001
 30
0.0
 11
1344.3842442028
 21
907.6795623835001
 31
0.0
  0
LINE
  5
159
  8
0
  6
CONTINUOUS
 62
     7
 10
1341.8842442028
 20
905.2441702062001
 30
0.0
 11
1422.3842442028
 21
903.1362035199
 31
0.0
  0
LINE
  5
15A
  8
0
  6
CONTINUOUS
 62
     7
 10
1249.2398139435
 20
707.0298393166001
 30
0.0
 11
1249.0898139435
 21
707.0298558298001
 31
0.0
  0
LINE
  5
15B
  8
0
  6
DOT
 62
     7
 10
1418.3842442028
 20
719.4295623835001
 30
0.0
 11
1418.3842442028
 21
711.4295923764001
 31
0.0
  0
LINE
  5
15C
  8
0
  6
CONTINUOUS
 62
     7
 10
1265.0898139435
 20
718.4295623835001
 30
0.0
 11
1265.0898139435
 21
709.4295623835001
 31
0.0
  0
LINE
  5
15D
  8
0
  6
DOT
 62
     9
 10
1407.25809748
 20
703.7332014985001
 30
0.0
 11
1406.3535105887
 21
703.8123425967001
 31
0.0
  0
LINE
  5
15E
  8
0
  6
CONTINUOUS
 62
     7
 10
1424.8842442028
 20
811.6795623835001
 30
0.0
 11
1431.8842442028
 21
811.6795623835001
 31
0.0
  0
CIRCLE
  5
15F
  8
0
  6
CONTINUOUS
 62
     7
 10
1252.8398139435
 20
707.0297673338001
 30
0.0
 40
3.200000000000092
  0
LINE
  5
160
  8
0
  6
CONTINUOUS
 62
     7
 10
1242.8398139435
 20
796.6795623835
 30
0.0
 11
1242.8398139435
 21
711.9295623835
 31
0.0
  0
LINE
  5
161
  8
0
  6
CONTINUOUS
 62
     7
 10
1428.8842442028
 20
841.6795623835001
 30
0.0
 11
1428.8842442028
 21
843.6795623835001
 31
0.0
  0
LINE
  5
162
  8
0
  6
CONTINUOUS
 62
     7
 10
1405.3842386639
 20
881.9295323907
 30
0.0
 11
1405.3842501823
 21
891.079357435
 31
0.0
  0
LINE
  5
163
  8
0
  6
DOT
 62
     7
 10
1418.3842442028
 20
873.9295623835001
 30
0.0
 11
1418.3842442028
 21
881.9295323907002
 31
0.0
  0
LINE
  5
164
  8
0
  6
CONTINUOUS
 62
     7
 10
1425.3842442028
 20
869.1795623835
 30
0.0
 11
1426.8842442028
 21
867.6795623835
 31
0.0
  0
LINE
  5
165
  8
0
  6
CONTINUOUS
 62
     7
 10
1252.2398139435
 20
707.6297673338001
 30
0.0
 11
1252.2398139435
 21
709.4566995537001
 31
0.0
  0
LINE
  5
166
  8
0
  6
DOT
 62
     7
 10
1256.5898160318
 20
711.4298423168001
 30
0.0
 11
1249.0898139431
 21
711.4296923525001
 31
0.0
  0
LINE
  5
167
  8
0
  6
CONTINUOUS
 62
     7
 10
1422.3842442028
 20
869.1795623835
 30
0.0
 11
1425.3842442028
 21
869.1795623835
 31
0.0
  0
LINE
  5
168
  8
0
  6
CONTINUOUS
 62
     7
 10
1262.8398139435
 20
721.9295623835002
 30
0.0
 11
1212.8398139435
 21
721.9295623835002
 31
0.0
  0
LINE
  5
169
  8
0
  6
CONTINUOUS
 62
     7
 10
1424.8842442028
 20
813.6795623835001
 30
0.0
 11
1424.8842442028
 21
841.6795623835001
 31
0.0
  0
LINE
  5
16A
  8
0
  6
CONTINUOUS
 62
     7
 10
1422.3842442028
 20
881.9295323907
 30
0.0
 11
1405.3842442028
 21
881.9295323907
 31
0.0
  0
LINE
  5
16B
  8
0
  6
CONTINUOUS
 62
     7
 10
1427.3842442028
 20
867.6795623835
 30
0.0
 11
1426.8842442028
 21
867.6795623835
 31
0.0
  0
LINE
  5
16C
  8
0
  6
CONTINUOUS
 62
     7
 10
1405.3842442028
 20
891.0793574350001
 30
0.0
 11
1421.3842442028
 21
891.0793574350001
 31
0.0
  0
LINE
  5
16D
  8
0
  6
CONTINUOUS
 62
     7
 10
1426.8842442028
 20
875.6795623835
 30
0.0
 11
1427.3842442028
 21
875.6795623835
 31
0.0
  0
LINE
  5
16E
  8
0
  6
CONTINUOUS
 62
     7
 10
1431.8842442028
 20
811.6795623835001
 30
0.0
 11
1431.8842442028
 21
813.6795623835001
 31
0.0
  0
LINE
  5
16F
  8
0
  6
CENTER
 62
     1
 10
1419.3842442028
 20
871.6795623835001
 30
0.0
 11
1430.3842442028
 21
871.6795623835001
 31
0.0
  0
LINE
  5
170
  8
0
  6
CONTINUOUS
 62
     7
 10
1427.3842442028
 20
873.6795623835
 30
0.0
 11
1431.8842442028
 21
873.6795623835
 31
0.0
  0
LINE
  5
171
  8
0
  6
CONTINUOUS
 62
     7
 10
1424.8842442028
 20
816.6795623835002
 30
0.0
 11
1433.8842442028
 21
816.6795623835002
 31
0.0
  0
LINE
  5
172
  8
0
  6
CONTINUOUS
 62
     7
 10
1433.8842442028
 20
826.6795623835001
 30
0.0
 11
1424.8842442028
 21
826.6795623835001
 31
0.0
  0
LINE
  5
173
  8
0
  6
CONTINUOUS
 62
     7
 10
1252.8398139435
 20
796.6795623835
 30
0.0
 11
1252.8398139435
 21
717.6297673338
 31
0.0
  0
ARC
  5
174
  8
0
  6
CONTINUOUS
 62
     7
 10
1252.8398139435
 20
707.0297673338001
 30
0.0
 40
3.749999999999698
 50
179.9988543576
 51
359.9988543576001
  0
LINE
  5
175
  8
0
  6
CONTINUOUS
 62
     7
 10
1425.3842442028
 20
874.1795623835001
 30
0.0
 11
1422.3842442028
 21
874.1795623835001
 31
0.0
  0
LINE
  5
176
  8
0
  6
CONTINUOUS
 62
     7
 10
1424.8842442028
 20
843.6795623835
 30
0.0
 11
1424.8842442028
 21
866.1795623835
 31
0.0
  0
LINE
  5
177
  8
0
  6
CONTINUOUS
 62
     7
 10
1428.8842442028
 20
811.6795623835001
 30
0.0
 11
1428.8842442028
 21
813.6795623835001
 31
0.0
  0
LINE
  5
178
  8
0
  6
CONTINUOUS
 62
     7
 10
1431.8842442028
 20
875.6795623835
 30
0.0
 11
1427.3842442028
 21
875.6795623835
 31
0.0
  0
ARC
  5
179
  8
0
  6
CONTINUOUS
 62
     7
 10
1252.8398139435
 20
707.0297673338001
 30
0.0
 40
2.499999999999947
 50
346.1134596374
 51
13.88654036259999
  0
LINE
  5
17A
  8
0
  6
CONTINUOUS
 62
     7
 10
1253.4398139435
 20
707.6297673338001
 30
0.0
 11
1255.2667461634
 21
707.6297673338001
 31
0.0
  0
LINE
  5
17B
  8
0
  6
CONTINUOUS
 62
     7
 10
1249.2398139435
 20
707.0298393166001
 30
0.0
 11
1249.0898139435
 21
707.0298558298001
 31
0.0
  0
LINE
  5
17C
  8
0
  6
CONTINUOUS
 62
     7
 10
1418.3842442028
 20
873.9295623835001
 30
0.0
 11
1418.3842442028
 21
881.9295323907002
 31
0.0
  0
LINE
  5
17D
  8
0
  6
CENTER
 62
     1
 10
1403.9308799234
 20
886.3294574094
 30
0.0
 11
1424.6327970819
 21
886.3294574094
 31
0.0
  0
LINE
  5
17E
  8
0
  6
CONTINUOUS
 62
     7
 10
1431.8842442028
 20
841.6795623835001
 30
0.0
 11
1424.8842442028
 21
841.6795623835001
 31
0.0
  0
LINE
  5
17F
  8
0
  6
CONTINUOUS
 62
     7
 10
1212.8398139435
 20
711.9295623835001
 30
0.0
 11
1249.0898139431
 21
711.9295623835001
 31
0.0
  0
LINE
  5
180
  8
0
  6
CONTINUOUS
 62
     7
 10
1255.2667461634
 20
706.4297673338001
 30
0.0
 11
1253.4398139435
 21
706.4297673338001
 31
0.0
  0
LINE
  5
181
  8
0
  6
CONTINUOUS
 62
     7
 10
1253.4398139435
 20
706.4297673338001
 30
0.0
 11
1253.4398139435
 21
704.6028351138001
 31
0.0
  0
LINE
  5
182
  8
0
  6
DOT
 62
     7
 10
1422.3842442028
 20
873.9295623835001
 30
0.0
 11
1418.3842442028
 21
873.9295623835001
 31
0.0
  0
ARC
  5
183
  8
0
  6
CONTINUOUS
 62
     7
 10
1252.8398139435
 20
707.0297673338001
 30
0.0
 40
2.499999999999947
 50
256.1134596374
 51
283.8865403626
  0
LINE
  5
184
  8
0
  6
CONTINUOUS
 62
     7
 10
1431.8842442028
 20
873.6795623835
 30
0.0
 11
1431.8842442028
 21
875.6795623835
 31
0.0
  0
LINE
  5
185
  8
0
  6
CONTINUOUS
 62
     7
 10
1431.8842442028
 20
843.6795623835
 30
0.0
 11
1431.8842442028
 21
841.6795623835
 31
0.0
  0
LINE
  5
186
  8
0
  6
CONTINUOUS
 62
     7
 10
1256.5898139449
 20
707.0296923516003
 30
0.0
 11
1256.4398139435
 21
707.0296953509002
 31
0.0
  0
ARC
  5
187
  8
0
  6
CONTINUOUS
 62
     7
 10
1252.8398139435
 20
707.0297673338001
 30
0.0
 40
2.499999999999947
 50
76.1134596374
 51
103.8865403626
  0
LINE
  5
188
  8
0
  6
CONTINUOUS
 62
     7
 10
1252.2398139435
 20
706.4297673338001
 30
0.0
 11
1250.4128817236
 21
706.4297673338001
 31
0.0
  0
LINE
  5
189
  8
0
  6
CONTINUOUS
 62
     7
 10
1422.3842442028
 20
873.9295623835001
 30
0.0
 11
1418.3842442028
 21
873.9295623835001
 31
0.0
  0
LINE
  5
18A
  8
0
  6
CONTINUOUS
 62
     7
 10
1425.3842442028
 20
869.1795623835
 30
0.0
 11
1425.3842442028
 21
874.1795623835
 31
0.0
  0
LINE
  5
18B
  8
0
  6
CONTINUOUS
 62
     7
 10
1407.3842442028
 20
881.9295323907
 30
0.0
 11
1407.3842442028
 21
796.6795623835
 31
0.0
  0
LINE
  5
18C
  8
0
  6
CONTINUOUS
 62
     7
 10
1249.0898139431
 20
707.0297673338001
 30
0.0
 11
1249.0898139431
 21
716.6297673338001
 31
0.0
  0
LINE
  5
18D
  8
0
  6
CONTINUOUS
 62
     7
 10
1431.8842442028
 20
813.6795623840001
 30
0.0
 11
1424.8842442028
 21
813.6795623835001
 31
0.0
  0
LINE
  5
18E
  8
0
  6
CENTER
 62
     1
 10
1419.3842442028
 20
889.6795623835001
 30
0.0
 11
1436.8842442028
 21
889.6795623835001
 31
0.0
  0
ARC
  5
18F
  8
0
  6
CONTINUOUS
 62
     7
 10
1421.3842442028
 20
892.079357435
 30
0.0
 40
0.9999999999998899
 50
270.0
 51
0.0
  0
LINE
  5
190
  8
0
  6
CONTINUOUS
 62
     7
 10
1426.8842442028
 20
875.6795623835
 30
0.0
 11
1425.3842442028
 21
874.1795623835
 31
0.0
  0
LINE
  5
191
  8
0
  6
CONTINUOUS
 62
     7
 10
1262.8398139435
 20
711.9295623835001
 30
0.0
 11
1262.8398139435
 21
796.6795623835001
 31
0.0
  0
LINE
  5
192
  8
0
  6
CONTINUOUS
 62
     7
 10
1253.4398139435
 20
709.4566995537001
 30
0.0
 11
1253.4398139435
 21
707.6297673338001
 31
0.0
  0
LINE
  5
193
  8
0
  6
CONTINUOUS
 62
     7
 10
1252.2398139435
 20
704.6028351138002
 30
0.0
 11
1252.2398139435
 21
706.4297673338002
 31
0.0
  0
ARC
  5
194
  8
0
  6
CONTINUOUS
 62
     7
 10
1252.8398139435
 20
707.0297673338001
 30
0.0
 40
2.499999999999947
 50
166.1134596374
 51
193.8865403626
  0
LINE
  5
195
  8
0
  6
CONTINUOUS
 62
     7
 10
1250.4128817236
 20
707.6297673338001
 30
0.0
 11
1252.2398139435
 21
707.6297673338001
 31
0.0
  0
LINE
  5
196
  8
0
  6
CONTINUOUS
 62
     7
 10
1250.0898139431
 20
717.6297673338003
 30
0.0
 11
1255.589813944
 21
717.6297673338003
 31
0.0
  0
LINE
  5
197
  8
0
  6
CONTINUOUS
 62
     7
 10
1256.589813944
 20
707.0297673338001
 30
0.0
 11
1256.589813944
 21
716.6297673338001
 31
0.0
  0
LINE
  5
198
  8
0
  6
CONTINUOUS
 62
     7
 10
1177.5898139452
 20
707.0295973743002
 30
0.0
 11
1177.5898139452
 21
711.4297673346002
 31
0.0
  0
LINE
  5
199
  8
0
  6
CONTINUOUS
 62
     7
 10
1262.8398139435
 20
741.9295623835002
 30
0.0
 11
1212.8398139435
 21
741.9295623835002
 31
0.0
  0
LINE
  5
19A
  8
0
  6
CONTINUOUS
 62
     7
 10
1162.8398139436
 20
721.9295623835002
 30
0.0
 11
1212.8398139435
 21
721.9295623835002
 31
0.0
  0
LINE
  5
19B
  8
0
  6
CONTINUOUS
 62
     7
 10
1162.8398139436
 20
711.9295623835001
 30
0.0
 11
1162.8398139436
 21
796.6795623835001
 31
0.0
  0
LINE
  5
19C
  8
0
  6
CONTINUOUS
 62
     7
 10
1169.2398139435
 20
707.0296953509
 30
0.0
 11
1169.2398139435
 21
711.4296953518001
 31
0.0
  0
LINE
  5
19D
  8
0
  6
CONTINUOUS
 62
     7
 10
1161.3831728072
 20
843.6795623835
 30
0.0
 11
1161.3831728072
 21
841.6795623835
 31
0.0
  0
LINE
  5
19E
  8
0
  6
CONTINUOUS
 62
     7
 10
1162.8398139436
 20
791.9295623835
 30
0.0
 11
1212.8398139435
 21
791.9295623835
 31
0.0
  0
LINE
  5
19F
  8
0
  6
CONTINUOUS
 62
     7
 10
1162.8398139436
 20
771.9295623835001
 30
0.0
 11
1212.8398139435
 21
771.9295623835001
 31
0.0
  0
ARC
  5
1A0
  8
0
  6
CONTINUOUS
 62
     7
 10
1250.0898139431
 20
716.6297673338001
 30
0.0
 40
0.9999999999998899
 50
90.0
 51
180.0
  0
LINE
  5
1A1
  8
0
  6
CONTINUOUS
 62
     7
 10
1162.5898139435
 20
718.4295623835001
 30
0.0
 11
1162.5898139435
 21
711.4295623835001
 31
0.0
  0
LINE
  5
1A2
  8
0
  6
CONTINUOUS
 62
     7
 10
1176.4398139436
 20
707.0298393166001
 30
0.0
 11
1176.5898139436
 21
707.0298558298001
 31
0.0
  0
LINE
  5
1A3
  8
0
  6
CONTINUOUS
 62
     7
 10
1232.8398139436
 20
796.6795623835
 30
0.0
 11
1232.8398139436
 21
711.9295623835
 31
0.0
  0
ARC
  5
1A4
  8
0
  6
CONTINUOUS
 62
     7
 10
1172.8398139435
 20
707.0297673338001
 30
0.0
 40
4.750000001700005
 50
180.0011456424
 51
0.0
  0
LINE
  5
1A5
  8
0
  6
CONTINUOUS
 62
     7
 10
1262.8398139435
 20
771.9295623835001
 30
0.0
 11
1212.8398139435
 21
771.9295623835001
 31
0.0
  0
LINE
  5
1A6
  8
0
  6
CONTINUOUS
 62
     7
 10
1262.8398139435
 20
781.9295623835
 30
0.0
 11
1212.8398139435
 21
781.9295623835
 31
0.0
  0
LINE
  5
1A7
  8
0
  6
CONTINUOUS
 62
     7
 10
1162.8398139436
 20
741.9295623835002
 30
0.0
 11
1212.8398139435
 21
741.9295623835002
 31
0.0
  0
ARC
  5
1A8
  8
0
  6
CONTINUOUS
 62
     7
 10
1161.5898139435
 20
718.4295623835001
 30
0.0
 40
0.9999999999998899
 50
0.0
 51
90.0
  0
LINE
  5
1A9
  8
0
  6
CONTINUOUS
 62
     7
 10
1262.8398139435
 20
791.9295623835
 30
0.0
 11
1212.8398139435
 21
791.9295623835
 31
0.0
  0
LINE
  5
1AA
  8
0
  6
CONTINUOUS
 62
     7
 10
1160.5898139435
 20
709.4295623835001
 30
0.0
 11
1168.0898139428
 21
709.4295629077001
 31
0.0
  0
LINE
  5
1AB
  8
0
  6
CONTINUOUS
 62
     7
 10
1169.0898139421
 20
707.0296923516003
 30
0.0
 11
1169.2398139435
 21
707.0296953509002
 31
0.0
  0
LINE
  5
1AC
  8
0
  6
CONTINUOUS
 62
     7
 10
1160.5898139435
 20
718.4295623835001
 30
0.0
 11
1160.5898139435
 21
709.4295623835001
 31
0.0
  0
ARC
  5
1AD
  8
0
  6
CONTINUOUS
 62
     7
 10
1255.589813944
 20
716.6297673338001
 30
0.0
 40
0.9999999999998899
 50
0.0
 51
90.0
  0
LINE
  5
1AE
  8
0
  6
CONTINUOUS
 62
     7
 10
1162.8398139436
 20
731.9295623835001
 30
0.0
 11
1212.8398139435
 21
731.9295623835001
 31
0.0
  0
LINE
  5
1AF
  8
0
  6
CONTINUOUS
 62
     7
 10
1222.8398139436
 20
796.6795623835
 30
0.0
 11
1222.8398139436
 21
711.9295623835
 31
0.0
  0
LINE
  5
1B0
  8
0
  6
DOT
 62
     7
 10
1169.0898118553
 20
711.4298423168001
 30
0.0
 11
1176.589813944
 21
711.4296923525001
 31
0.0
  0
LINE
  5
1B1
  8
0
  6
CONTINUOUS
 62
     7
 10
1169.0898139422
 20
707.0296923516003
 30
0.0
 11
1169.2398139436
 21
707.0296953509002
 31
0.0
  0
ARC
  5
1B2
  8
0
  6
CONTINUOUS
 62
     7
 10
1172.8398139436
 20
707.0297673338001
 30
0.0
 40
3.750000000400266
 50
180.0
 51
0.0
  0
LINE
  5
1B3
  8
0
  6
CONTINUOUS
 62
     7
 10
1176.4398139436
 20
707.0298393166001
 30
0.0
 11
1176.5898139436
 21
707.0298558298001
 31
0.0
  0
LINE
  5
1B4
  8
0
  6
CONTINUOUS
 62
     7
 10
1212.8398139435
 20
711.9295623835001
 30
0.0
 11
1176.589813944
 21
711.9295623835001
 31
0.0
  0
LINE
  5
1B5
  8
0
  6
CONTINUOUS
 62
     7
 10
1262.8398139435
 20
751.9295623835
 30
0.0
 11
1212.8398139435
 21
751.9295623835
 31
0.0
  0
LINE
  5
1B6
  8
0
  6
CONTINUOUS
 62
     7
 10
1176.4398139436
 20
711.4298393175001
 30
0.0
 11
1176.4398139436
 21
707.0298393166001
 31
0.0
  0
LINE
  5
1B7
  8
0
  6
CONTINUOUS
 62
     7
 10
1262.8398139435
 20
761.9295623835001
 30
0.0
 11
1212.8398139435
 21
761.9295623835001
 31
0.0
  0
LINE
  5
1B8
  8
0
  6
CONTINUOUS
 62
     7
 10
1249.0898139431
 20
710.4296923523001
 30
0.0
 11
1256.589813944
 21
710.4298423166001
 31
0.0
  0
LINE
  5
1B9
  8
0
  6
CONTINUOUS
 62
     7
 10
1177.5898139452
 20
711.4298623120002
 30
0.0
 11
1162.5898139435
 21
711.4295623835002
 31
0.0
  0
LINE
  5
1BA
  8
0
  6
CONTINUOUS
 62
     7
 10
1262.8398139435
 20
731.9295623835001
 30
0.0
 11
1212.8398139435
 21
731.9295623835001
 31
0.0
  0
ARC
  5
1BB
  8
0
  6
CONTINUOUS
 62
     7
 10
1161.5898139435
 20
718.4295623835001
 30
0.0
 40
0.9999999999998899
 50
90.0
 51
180.0
  0
LINE
  5
1BC
  8
0
  6
CONTINUOUS
 62
     7
 10
1262.8398139435
 20
871.4295623835001
 30
0.0
 11
1212.8398139435
 21
871.4295623835001
 31
0.0
  0
ARC
  5
1BD
  8
0
  6
CONTINUOUS
 62
     7
 10
1252.8398139435
 20
707.0297673338001
 30
0.0
 40
3.750000000400266
 50
180.0
 51
0.0
  0
LINE
  5
1BE
  8
0
  6
CONTINUOUS
 62
     7
 10
1202.8398139436
 20
796.6795623835
 30
0.0
 11
1202.8398139436
 21
711.9295623835
 31
0.0
  0
LINE
  5
1BF
  8
0
  6
CONTINUOUS
 62
     7
 10
1162.8398139436
 20
761.9295623835001
 30
0.0
 11
1212.8398139435
 21
761.9295623835001
 31
0.0
  0
LINE
  5
1C0
  8
0
  6
CONTINUOUS
 62
     7
 10
1172.8398139436
 20
796.6795623835
 30
0.0
 11
1172.8398139436
 21
711.9295623835
 31
0.0
  0
LINE
  5
1C1
  8
0
  6
CONTINUOUS
 62
     7
 10
1162.8398139436
 20
781.9295623835
 30
0.0
 11
1212.8398139435
 21
781.9295623835
 31
0.0
  0
LINE
  5
1C2
  8
0
  6
CONTINUOUS
 62
     7
 10
1182.8398139436
 20
796.6795623835
 30
0.0
 11
1182.8398139436
 21
711.9295623835
 31
0.0
  0
LINE
  5
1C3
  8
0
  6
CONTINUOUS
 62
     7
 10
1192.8398139436
 20
796.6795623835
 30
0.0
 11
1192.8398139436
 21
711.9295623835
 31
0.0
  0
LINE
  5
1C4
  8
0
  6
CONTINUOUS
 62
     7
 10
1162.8398139436
 20
751.9295623835
 30
0.0
 11
1212.8398139435
 21
751.9295623835
 31
0.0
  0
LINE
  5
1C5
  8
0
  6
CONTINUOUS
 62
     7
 10
1168.0898139428
 20
707.0296723564002
 30
0.0
 11
1168.0898139428
 21
711.4296723573001
 31
0.0
  0
LINE
  5
1C6
  8
0
  6
CONTINUOUS
 62
     7
 10
1262.8398139435
 20
831.4295623835001
 30
0.0
 11
1212.8398139435
 21
831.4295623835001
 31
0.0
  0
LINE
  5
1C7
  8
0
  6
DOT
 62
     9
 10
1407.5842442028
 20
890.0794574097999
 30
0.0
 11
1409.1842442028
 21
890.0794574097999
 31
0.0
  0
LINE
  5
1C8
  8
0
  6
CONTINUOUS
 62
     9
 10
1407.5842442028
 20
881.1293824263001
 30
0.0
 11
1407.5842442028
 21
875.7294574094001
 31
0.0
  0
LINE
  5
1C9
  8
0
  6
DOT
 62
     9
 10
1409.1842442028
 20
890.0794574097999
 30
0.0
 11
1409.1842442028
 21
882.7293824589
 31
0.0
  0
LINE
  5
1CA
  8
0
  6
CONTINUOUS
 62
     7
 10
1162.8398139436
 20
841.4295623835001
 30
0.0
 11
1212.8398139435
 21
841.4295623835001
 31
0.0
  0
LINE
  5
1CB
  8
0
  6
CONTINUOUS
 62
     7
 10
1262.8398139435
 20
811.4295623835001
 30
0.0
 11
1212.8398139435
 21
811.4295623835001
 31
0.0
  0
LINE
  5
1CC
  8
0
  6
CONTINUOUS
 62
     7
 10
1162.8398139436
 20
821.4295623835
 30
0.0
 11
1212.8398139435
 21
821.4295623835
 31
0.0
  0
LINE
  5
1CD
  8
0
  6
DOT
 62
     9
 10
1407.5842442028
 20
883.7293824266001
 30
0.0
 11
1407.5842442028
 21
890.0794574098
 31
0.0
  0
LINE
  5
1CE
  8
0
  6
CONTINUOUS
 62
     9
 10
1407.5842442028
 20
875.7294574094
 30
0.0
 11
1405.9842442028
 21
875.7294574094
 31
0.0
  0
LINE
  5
1CF
  8
0
  6
CONTINUOUS
 62
     9
 10
1405.9842442028
 20
875.7294574094
 30
0.0
 11
1405.9842442028
 21
881.9295323907
 31
0.0
  0
ARC
  5
1D0
  8
0
  6
DOT
 62
     9
 10
1406.7842442028
 20
883.7293824266001
 30
0.0
 40
0.7999999999999119
 50
270.0
 51
0.0
  0
ARC
  5
1D1
  8
0
  6
DOT
 62
     9
 10
1406.7842442028
 20
882.1293824266002
 30
0.0
 40
0.7999999999999119
 50
90.0
 51
180.0
  0
ARC
  5
1D2
  8
0
  6
CONTINUOUS
 62
     9
 10
1408.3842442028
 20
881.1293824263001
 30
0.0
 40
0.7999999999999119
 50
90.0
 51
180.0
  0
ARC
  5
1D3
  8
0
  6
DOT
 62
     9
 10
1407.2842442028
 20
889.3270648591001
 30
0.0
 40
0.300000000000189
 50
0.0
 51
95.0000000001
  0
CIRCLE
  5
1D4
  8
0
  6
CONTINUOUS
 62
     7
 10
1172.8398139435
 20
707.0297673338001
 30
0.0
 40
1.599999999999824
  0
LINE
  5
1D5
  8
0
  6
CONTINUOUS
 62
     7
 10
1262.8398139435
 20
821.4295623835
 30
0.0
 11
1212.8398139435
 21
821.4295623835
 31
0.0
  0
LINE
  5
1D6
  8
0
  6
CONTINUOUS
 62
     7
 10
1262.8398139435
 20
861.4295623835001
 30
0.0
 11
1212.8398139435
 21
861.4295623835001
 31
0.0
  0
ARC
  5
1D7
  8
0
  6
DOT
 62
     9
 10
1408.3842442028
 20
882.7293824589
 30
0.0
 40
0.7999999999999119
 50
269.9999999938
 51
0.0
  0
LINE
  5
1D8
  8
0
  6
CONTINUOUS
 62
     7
 10
1162.8398139436
 20
811.4295623835001
 30
0.0
 11
1212.8398139435
 21
811.4295623835001
 31
0.0
  0
LINE
  5
1D9
  8
0
  6
CONTINUOUS
 62
     7
 10
1162.8398139436
 20
801.4295623835001
 30
0.0
 11
1212.8398139435
 21
801.4295623835001
 31
0.0
  0
LINE
  5
1DA
  8
0
  6
CONTINUOUS
 62
     7
 10
1162.8398139436
 20
831.4295623835001
 30
0.0
 11
1212.8398139435
 21
831.4295623835001
 31
0.0
  0
LINE
  5
1DB
  8
0
  6
CONTINUOUS
 62
     7
 10
1162.8398139436
 20
871.4295623835001
 30
0.0
 11
1212.8398139435
 21
871.4295623835001
 31
0.0
  0
LINE
  5
1DC
  8
0
  6
CONTINUOUS
 62
     7
 10
1162.8398139436
 20
851.4295623835
 30
0.0
 11
1212.8398139435
 21
851.4295623835
 31
0.0
  0
LINE
  5
1DD
  8
0
  6
CONTINUOUS
 62
     7
 10
1162.8398139436
 20
861.4295623835001
 30
0.0
 11
1212.8398139435
 21
861.4295623835001
 31
0.0
  0
LINE
  5
1DE
  8
0
  6
CONTINUOUS
 62
     7
 10
1262.8398139435
 20
841.4295623835001
 30
0.0
 11
1212.8398139435
 21
841.4295623835001
 31
0.0
  0
LINE
  5
1DF
  8
0
  6
CONTINUOUS
 62
     7
 10
1262.8398139435
 20
851.4295623835
 30
0.0
 11
1212.8398139435
 21
851.4295623835
 31
0.0
  0
LINE
  5
1E0
  8
0
  6
CONTINUOUS
 62
     7
 10
1262.8398139435
 20
801.4295623835001
 30
0.0
 11
1212.8398139435
 21
801.4295623835001
 31
0.0
  0
ARC
  5
1E1
  8
1
  6
CONTINUOUS
 62
     7
 10
526.0707584939
 20
703.1375772535998
 30
0.0
 40
2.000000000000002
 50
318.5903778906999
 51
0.0
  0
LINE
  5
1E2
  8
1
  6
CONTINUOUS
 62
     7
 10
428.5707584939001
 20
484.1375772137
 30
0.0
 11
443.5707584939001
 21
489.1375772137
 31
0.0
  0
LINE
  5
1E3
  8
1
  6
CONTINUOUS
 62
     7
 10
453.5707584939001
 20
489.1375772137
 30
0.0
 11
468.5707584939
 21
484.1375772137
 31
0.0
  0
ARC
  5
1E4
  8
1
  6
CONTINUOUS
 62
     7
 10
508.6024704251
 20
519.1375772137
 30
0.0
 40
2.000000000000002
 50
270.0
 51
359.0842796147999
  0
LINE
  5
1E5
  8
1
  6
CONTINUOUS
 62
     7
 10
567.0707584939
 20
686.3494224655999
 30
0.0
 11
567.0707584939
 21
574.9257319618
 31
0.0
  0
ARC
  5
1E6
  8
1
  6
CONTINUOUS
 62
     7
 10
538.6255414406
 20
555.6375772136998
 30
0.0
 40
4.000000000000004
 50
270.0
 51
349.4341499695
  0
LINE
  5
1E7
  8
1
  6
CONTINUOUS
 62
     7
 10
528.0707584939
 20
698.6375772136998
 30
0.0
 11
528.0707584939
 21
562.6375772136998
 31
0.0
  0
ARC
  5
1E8
  8
1
  6
CONTINUOUS
 62
     7
 10
541.8707584939001
 20
566.3478705812998
 30
0.0
 40
0.299999999999967
 50
92.00000000009999
 51
180.0
  0
LINE
  5
1E9
  8
1
  6
CONTINUOUS
 62
     7
 10
566.0707584939
 20
687.0160891322998
 30
0.0
 11
567.0707584939
 21
686.3494224655999
 31
0.0
  0
ARC
  5
1EA
  8
1
  6
CONTINUOUS
 62
     7
 10
564.0707584939
 20
691.8506408114998
 30
0.0
 40
2.000000000000002
 50
0.0
 51
88.0
  0
ARC
  5
1EB
  8
1
  6
CONTINUOUS
 62
     7
 10
541.8707584939001
 20
694.9272838461
 30
0.0
 40
0.299999999999967
 50
180.0
 51
268.0000000001001
  0
LINE
  5
1EC
  8
1
  6
CONTINUOUS
 62
     7
 10
541.5707584939001
 20
565.0403851514998
 30
0.0
 11
541.5707584939001
 21
696.2347692759998
 31
0.0
  0
LINE
  5
1ED
  8
1
  6
CONTINUOUS
 62
     7
 10
567.0707584939
 20
574.9257319618
 30
0.0
 11
566.0707584939
 21
574.2590652951999
 31
0.0
  0
LINE
  5
1EE
  8
1
  6
CONTINUOUS
 62
     7
 10
542.5577207004001
 20
554.9041153752999
 30
0.0
 11
544.1791885019001
 21
563.5970039834999
 31
0.0
  0
LINE
  5
1EF
  8
1
  6
CONTINUOUS
 62
     7
 10
566.0707584939
 20
569.4245136158997
 30
0.0
 11
566.0707584939
 21
691.8506408114997
 31
0.0
  0
LINE
  5
1F0
  8
1
  6
CONTINUOUS
 62
     7
 10
528.0707584939
 20
703.1375772535998
 30
0.0
 11
528.0707584939
 21
711.6375772136998
 31
0.0
  0
LINE
  5
1F1
  8
1
  6
CONTINUOUS
 62
     7
 10
443.5707584939001
 20
489.1375772137
 30
0.0
 11
453.5707584939001
 21
489.1375772137
 31
0.0
  0
LINE
  5
1F2
  8
1
  6
CONTINUOUS
 62
     7
 10
389.9143984743
 20
484.1375772137
 30
0.0
 11
428.5707584939001
 21
484.1375772137
 31
0.0
  0
LINE
  5
1F3
  8
1
  6
CONTINUOUS
 62
     7
 10
541.8602886449
 20
694.6274665979998
 30
0.0
 11
564.1405574873
 21
693.8494224656
 31
0.0
  0
LINE
  5
1F4
  8
1
  6
CONTINUOUS
 62
     7
 10
468.5707584939
 20
484.1375772137
 30
0.0
 11
507.2271185135
 21
484.1375772137
 31
0.0
  0
LINE
  5
1F5
  8
1
  6
CONTINUOUS
 62
     7
 10
508.1429401834001
 20
517.1375772137
 30
0.0
 11
508.0912539252001
 21
517.1375772137
 31
0.0
  0
LINE
  5
1F6
  8
1
  6
CONTINUOUS
 62
     7
 10
508.6024704251
 20
517.1375772137
 30
0.0
 11
508.1429401834
 21
517.1375772137
 31
0.0
  0
ARC
  5
1F7
  8
1
  6
CONTINUOUS
 62
     7
 10
521.0707584939
 20
558.1375772137
 30
0.0
 40
6.49999999999995
 50
270.0
 51
90.0
  0
LINE
  5
1F8
  8
1
  6
CONTINUOUS
 62
     7
 10
510.6022149953999
 20
519.105613903
 30
0.0
 11
511.1156149406
 21
551.2258395736
 31
0.0
  0
ARC
  5
1F9
  8
1
  6
CONTINUOUS
 62
     7
 10
564.0707584939
 20
569.4245136158997
 30
0.0
 40
2.000000000000002
 50
272.0000000000001
 51
0.0
  0
LINE
  5
1FA
  8
1
  6
CONTINUOUS
 62
     7
 10
533.0707584939
 20
711.6375772136998
 30
0.0
 11
533.0707584939
 21
698.4629733661999
 31
0.0
  0
LINE
  5
1FB
  8
1
  6
CONTINUOUS
 62
     7
 10
528.0707584939
 20
698.6375772136998
 30
0.0
 11
527.5707584939001
 21
698.6375772136998
 31
0.0
  0
LINE
  5
1FC
  8
1
  6
CONTINUOUS
 62
     7
 10
538.6255414406
 20
551.6375772136998
 30
0.0
 11
521.0707584939
 21
551.6375772136998
 31
0.0
  0
ARC
  5
1FD
  8
1
  6
CONTINUOUS
 62
     7
 10
539.5707584940002
 20
696.234769276
 30
0.0
 40
2.000000000000002
 50
0.0
 51
88.0
  0
ARC
  5
1FE
  8
1
  6
CONTINUOUS
 62
     7
 10
539.5707584939001
 20
565.0403851514998
 30
0.0
 40
2.000000000000002
 50
272.0000000000001
 51
0.0
  0
LINE
  5
1FF
  8
1
  6
CONTINUOUS
 62
     7
 10
541.8602886449
 20
566.6476878293997
 30
0.0
 11
564.1405574873
 21
567.4257319617998
 31
0.0
  0
LINE
  5
200
  8
1
  6
CONTINUOUS
 62
     7
 10
528.0707584939
 20
711.6375772136998
 30
0.0
 11
533.0707584939
 21
711.6375772136998
 31
0.0
  0
LINE
  5
201
  8
1
  6
CONTINUOUS
 62
     7
 10
539.6405574874001
 20
698.23355093
 30
0.0
 11
528.0707584939
 21
698.6375772136998
 31
0.0
  0
LINE
  5
202
  8
1
  6
CONTINUOUS
 62
     7
 10
367.5707584939
 20
560.6375772137
 30
0.0
 11
367.5707584939
 21
564.6375772137
 31
0.0
  0
LINE
  5
203
  8
1
  6
CONTINUOUS
 62
     7
 10
510.3616139138001
 20
564.6375772137
 30
0.0
 11
521.0707584939
 21
564.6375772137
 31
0.0
  0
CIRCLE
  5
204
  8
1
  6
CONTINUOUS
 62
     7
 10
413.5707584939001
 20
536.6375772137
 30
0.0
 40
11.90000000000002
  0
ARC
  5
205
  8
1
  6
CONTINUOUS
 62
     7
 10
368.5707584939
 20
560.6375772137
 30
0.0
 40
1.000000000000001
 50
180.0
 51
270.0
  0
CIRCLE
  5
206
  8
1
  6
CONTINUOUS
 62
     7
 10
448.5707584939001
 20
540.6375772137
 30
0.0
 40
10.00000000000001
  0
LINE
  5
207
  8
1
  6
CONTINUOUS
 62
     7
 10
509.9154419461
 20
551.1762012741
 30
0.0
 11
521.0707584939
 21
551.6375772137
 31
0.0
  0
ARC
  5
208
  8
1
  6
CONTINUOUS
 62
     7
 10
385.0595071499999
 20
554.9337469032
 30
0.0
 40
3.000000000000003
 50
1.5
 51
58.4111517897
  0
LINE
  5
209
  8
1
  6
CONTINUOUS
 62
     7
 10
388.9985768044
 20
517.1375772137
 30
0.0
 11
389.0502630626001
 21
517.1375772137
 31
0.0
  0
CIRCLE
  5
20A
  8
1
  6
CONTINUOUS
 62
     7
 10
448.5707584939001
 20
540.6375772137
 30
0.0
 40
7.000000000000006
  0
LINE
  5
20B
  8
1
  6
CENTER
 62
     7
 10
448.5707584939001
 20
607.9593951439
 30
0.0
 11
448.5707584939001
 21
476.9270590378
 31
0.0
  0
ARC
  5
20C
  8
1
  6
CONTINUOUS
 62
     7
 10
509.9567659041
 20
550.1770554737
 30
0.0
 40
1.000000000000112
 50
92.3683627757
 51
178.5
  0
LINE
  5
20D
  8
1
  6
CONTINUOUS
 62
     7
 10
388.5533809151
 20
517.1375772137
 30
0.0
 11
389.0502630626001
 21
517.1375772137
 31
0.0
  0
LINE
  5
20E
  8
1
  6
CONTINUOUS
 62
     7
 10
368.5707584939
 20
559.6375772137
 30
0.0
 11
380.0529817646
 21
559.6375772137
 31
0.0
  0
LINE
  5
20F
  8
1
  6
CONTINUOUS
 62
     7
 10
384.7391375178
 20
556.6375772137
 30
0.0
 11
384.7391375178
 21
558.237006303
 31
0.0
  0
LINE
  5
210
  8
1
  6
CONTINUOUS
 62
     7
 10
387.8064317880001
 20
564.6375772137
 30
0.0
 11
367.5707584939
 21
564.6375772137
 31
0.0
  0
CIRCLE
  5
211
  8
1
  6
CONTINUOUS
 62
     7
 10
483.5707584939
 20
536.6375772137
 30
0.0
 40
11.90000000000002
  0
LINE
  5
212
  8
1
  6
CONTINUOUS
 62
     7
 10
386.2391375178001
 20
555.1375772137
 30
0.0
 11
384.7391375178
 21
556.6375772137
 31
0.0
  0
ARC
  5
213
  8
1
  6
CONTINUOUS
 62
     7
 10
388.5533809151
 20
519.1375772137
 30
0.0
 40
2.000000000000002
 50
180.5
 51
270.0
  0
CIRCLE
  5
214
  8
1
  6
CONTINUOUS
 62
     7
 10
483.5707584939
 20
536.6375772137
 30
0.0
 40
13.90000000000002
  0
LINE
  5
215
  8
1
  6
CONTINUOUS
 62
     7
 10
386.6309675094
 20
557.4892336159
 30
0.0
 11
382.2585267121
 21
559.2175029735
 31
0.0
  0
LINE
  5
216
  8
1
  6
CONTINUOUS
 62
     7
 10
386.553457069
 20
519.1201241427
 30
0.0
 11
386.2163901087001
 21
557.7441721165
 31
0.0
  0
CIRCLE
  5
217
  8
1
  6
CONTINUOUS
 62
     7
 10
521.0707584939
 20
558.1375772137
 30
0.0
 40
3.149999999999986
  0
CIRCLE
  5
218
  8
1
  6
CONTINUOUS
 62
     7
 10
413.5707584939001
 20
536.6375772137
 30
0.0
 40
13.90000000000002
  0
LINE
  5
219
  8
1
  6
CONTINUOUS
 62
     7
 10
385.6207584941
 20
487.137577214
 30
0.0
 11
389.8358407098
 21
487.137577214
 31
0.0
  0
LINE
  5
21A
  8
1
  6
CONTINUOUS
 62
     7
 10
388.5533809153
 20
517.137577214
 30
0.0
 11
389.0502630628001
 21
517.137577214
 31
0.0
  0
LINE
  5
21B
  8
1
  6
CONTINUOUS
 62
     7
 10
541.8602886452001
 20
694.6274665978
 30
0.0
 11
564.1405574876001
 21
693.8494224653999
 31
0.0
  0
LINE
  5
21C
  8
1
  6
CONTINUOUS
 62
     7
 10
567.0707584942
 20
686.3494224653999
 30
0.0
 11
567.0707584942
 21
574.9257319616
 31
0.0
  0
LINE
  5
21D
  8
1
  6
CONTINUOUS
 62
     7
 10
566.0707584942
 20
569.4245136156999
 30
0.0
 11
566.0707584942
 21
691.8506408112999
 31
0.0
  0
ARC
  5
21E
  8
1
  6
CONTINUOUS
 62
     7
 10
508.6024704253001
 20
519.137577214
 30
0.0
 40
2.000000000000002
 50
270.0
 51
359.0842796147999
  0
ARC
  5
21F
  8
1
  6
CONTINUOUS
 62
     7
 10
548.1113677618001
 20
562.8635421450998
 30
0.0
 40
4.000000000000004
 50
92.0
 51
169.4341499695
  0
ARC
  5
220
  8
1
  6
CONTINUOUS
 62
     7
 10
380.0529817646
 20
553.6375772137
 30
0.0
 40
6.000000000000005
 50
68.4328862859
 51
90.0
  0
LINE
  5
221
  8
1
  6
CONTINUOUS
 62
     7
 10
567.0707584942
 20
574.9257319615999
 30
0.0
 11
566.0707584942
 21
574.2590652949998
 31
0.0
  0
LINE
  5
222
  8
1
  6
CONTINUOUS
 62
     7
 10
566.0707584942
 20
687.0160891319998
 30
0.0
 11
567.0707584942
 21
686.3494224653999
 31
0.0
  0
LINE
  5
223
  8
1
  6
CONTINUOUS
 62
     7
 10
510.6022149956
 20
519.1056139033
 30
0.0
 11
511.1156149407999
 21
551.2258395738
 31
0.0
  0
LINE
  5
224
  8
1
  6
CONTINUOUS
 62
     7
 10
385.6207584941
 20
487.137577214
 30
0.0
 11
385.6207584941
 21
514.137577214
 31
0.0
  0
LINE
  5
225
  8
1
  6
CONTINUOUS
 62
     7
 10
389.5938834941001
 20
487.137577214
 30
0.0
 11
389.6707584941001
 21
484.137577214
 31
0.0
  0
ARC
  5
226
  8
1
  6
CONTINUOUS
 62
     7
 10
388.5533809153
 20
519.137577214
 30
0.0
 40
2.000000000000002
 50
180.5
 51
270.0
  0
LINE
  5
227
  8
1
  6
CONTINUOUS
 62
     7
 10
517.5707584941
 20
611.137577214
 30
0.0
 11
379.5707584941001
 21
611.137577214
 31
0.0
  0
ARC
  5
228
  8
1
  6
CONTINUOUS
 62
     7
 10
517.5707584941
 20
608.137577214
 30
0.0
 40
6.000000000000005
 50
0.0
 51
90.0
  0
LINE
  5
229
  8
1
  6
CONTINUOUS
 62
     7
 10
508.2395084941001
 20
514.137577214
 30
0.0
 11
511.5207584941001
 21
514.137577214
 31
0.0
  0
LINE
  5
22A
  8
1
  6
CONTINUOUS
 62
     7
 10
388.9985768046001
 20
517.137577214
 30
0.0
 11
389.0502630628001
 21
517.137577214
 31
0.0
  0
LINE
  5
22B
  8
1
  6
CONTINUOUS
 62
     7
 10
507.4707584941
 20
484.137577214
 30
0.0
 11
507.5476334941
 21
487.137577214
 31
0.0
  0
LINE
  5
22C
  8
1
  6
CONTINUOUS
 62
     7
 10
514.5207584941
 20
487.137577214
 30
0.0
 11
520.5707584940999
 21
487.137577214
 31
0.0
  0
LINE
  5
22D
  8
1
  6
CONTINUOUS
 62
     7
 10
379.5707584941
 20
614.137577214
 30
0.0
 11
517.5707584941
 21
614.137577214
 31
0.0
  0
LINE
  5
22E
  8
1
  6
CONTINUOUS
 62
     7
 10
508.1429401835999
 20
517.137577214
 30
0.0
 11
508.0912539254
 21
517.137577214
 31
0.0
  0
LINE
  5
22F
  8
1
  6
CONTINUOUS
 62
     7
 10
511.5207584941002
 20
514.137577214
 30
0.0
 11
511.5207584941002
 21
487.137577214
 31
0.0
  0
LINE
  5
230
  8
1
  6
CONTINUOUS
 62
     7
 10
373.5707584941
 20
484.137577214
 30
0.0
 11
389.9143984745
 21
484.137577214
 31
0.0
  0
LINE
  5
231
  8
1
  6
CONTINUOUS
 62
     7
 10
508.2395084941001
 20
514.137577214
 30
0.0
 11
508.3163834941
 21
517.137577214
 31
0.0
  0
LINE
  5
232
  8
1
  6
CONTINUOUS
 62
     7
 10
388.8251334941
 20
517.137577214
 30
0.0
 11
388.9020084941
 21
514.137577214
 31
0.0
  0
LINE
  5
233
  8
1
  6
CONTINUOUS
 62
     7
 10
508.6024704253001
 20
517.137577214
 30
0.0
 11
508.1429401836
 21
517.137577214
 31
0.0
  0
LINE
  5
234
  8
1
  6
CONTINUOUS
 62
     7
 10
385.6207584941
 20
514.137577214
 30
0.0
 11
388.9020084941
 21
514.137577214
 31
0.0
  0
ARC
  5
235
  8
1
  6
CONTINUOUS
 62
     7
 10
564.0707584942
 20
569.4245136156999
 30
0.0
 40
2.000000000000002
 50
272.0000000000001
 51
0.0
  0
ARC
  5
236
  8
1
  6
CONTINUOUS
 62
     7
 10
379.5707584941
 20
608.137577214
 30
0.0
 40
3.000000000000003
 50
90.0
 51
180.0
  0
ARC
  5
237
  8
1
  6
CONTINUOUS
 62
     7
 10
517.5707584941
 20
608.137577214
 30
0.0
 40
2.999999999999892
 50
0.0
 51
90.0
  0
ARC
  5
238
  8
1
  6
CONTINUOUS
 62
     7
 10
379.5707584941
 20
608.137577214
 30
0.0
 40
6.000000000000005
 50
90.0
 51
180.0
  0
LINE
  5
239
  8
1
  6
CONTINUOUS
 62
     7
 10
386.5534570692
 20
519.120124143
 30
0.0
 11
386.2163901089
 21
557.7441721168
 31
0.0
  0
ARC
  5
23A
  8
1
  6
CONTINUOUS
 62
     7
 10
564.0707584942
 20
691.8506408112999
 30
0.0
 40
2.000000000000002
 50
0.0
 51
88.0
  0
LINE
  5
23B
  8
1
  6
CONTINUOUS
 62
     7
 10
376.5707584941
 20
487.137577214
 30
0.0
 11
382.6207584941
 21
487.137577214
 31
0.0
  0
LINE
  5
23C
  8
1
  6
CONTINUOUS
 62
     7
 10
507.2271185137001
 20
484.137577214
 30
0.0
 11
523.5707584941
 21
484.137577214
 31
0.0
  0
LINE
  5
23D
  8
1
  6
CONTINUOUS
 62
     7
 10
507.3056762784
 20
487.137577214
 30
0.0
 11
511.5207584941002
 21
487.137577214
 31
0.0
  0
LINE
  5
23E
  8
1
  6
CONTINUOUS
 62
     7
 10
541.8602886452001
 20
566.6476878292
 30
0.0
 11
564.1405574876001
 21
567.4257319615999
 31
0.0
  0
LINE
  5
23F
  8
1
  6
CONTINUOUS
 62
     7
 10
386.2391375181001
 20
555.137577214
 30
0.0
 11
384.7391375181001
 21
556.637577214
 31
0.0
  0
LINE
  5
240
  8
0
  6
CONTINUOUS
 62
     7
 10
1265.0898139435
 20
874.9295623835003
 30
0.0
 11
1265.0898139435
 21
883.9295623835003
 31
0.0
  0
LINE
  5
241
  8
0
  6
CONTINUOUS
 62
     7
 10
1169.2398139434
 20
886.3294294161001
 30
0.0
 11
1169.2398139434
 21
881.9294294152002
 31
0.0
  0
ARC
  5
242
  8
0
  6
CONTINUOUS
 62
     7
 10
1172.8398139436
 20
886.3293574332
 30
0.0
 40
3.750000000400266
 50
0.0
 51
180.0
  0
CIRCLE
  5
243
  8
0
  6
CONTINUOUS
 62
     7
 10
1252.8398139435
 20
886.3293574332
 30
0.0
 40
1.599999999999824
  0
LINE
  5
244
  8
0
  6
CONTINUOUS
 62
     7
 10
1176.4398139436
 20
886.3292854504001
 30
0.0
 11
1176.5898139436
 21
886.3292689372
 31
0.0
  0
LINE
  5
245
  8
1
  6
CONTINUOUS
 62
     7
 10
373.5707584941
 20
559.6375772137
 30
0.0
 11
373.5707584941
 21
484.137577214
 31
0.0
  0
LINE
  5
246
  8
1
  6
CONTINUOUS
 62
     7
 10
520.5707584940999
 20
551.6168975704
 30
0.0
 11
520.5707584940999
 21
487.137577214
 31
0.0
  0
LINE
  5
247
  8
0
  6
CONTINUOUS
 62
     7
 10
1177.5898139452
 20
886.3295273927
 30
0.0
 11
1177.5898139452
 21
881.9293574323999
 31
0.0
  0
ARC
  5
248
  8
0
  6
CONTINUOUS
 62
     7
 10
1161.5898139435
 20
874.9295623835003
 30
0.0
 40
0.9999999999998899
 50
180.0
 51
270.0
  0
LINE
  5
249
  8
0
  6
CONTINUOUS
 62
     7
 10
1160.5898139435
 20
874.9295623835003
 30
0.0
 11
1160.5898139435
 21
883.9295623835003
 31
0.0
  0
LINE
  5
24A
  8
0
  6
CONTINUOUS
 62
     7
 10
1168.0898139428
 20
886.3294524106001
 30
0.0
 11
1168.0898139428
 21
881.9294524097
 31
0.0
  0
LINE
  5
24B
  8
0
  6
CONTINUOUS
 62
     7
 10
1169.2398139435
 20
886.3294294161001
 30
0.0
 11
1169.2398139435
 21
881.9294294152002
 31
0.0
  0
LINE
  5
24C
  8
0
  6
CONTINUOUS
 62
     7
 10
1176.4398139436
 20
881.9292854495003
 30
0.0
 11
1176.4398139436
 21
886.3292854504002
 31
0.0
  0
LINE
  5
24D
  8
0
  6
CONTINUOUS
 62
     7
 10
1169.0898139422
 20
886.3294324154
 30
0.0
 11
1169.2398139436
 21
886.3294294161001
 31
0.0
  0
CIRCLE
  5
24E
  8
0
  6
CONTINUOUS
 62
     7
 10
1262.8398139435
 20
891.6795623835002
 30
0.0
 40
2.599999999999714
  0
LINE
  5
24F
  8
0
  6
CONTINUOUS
 62
     7
 10
1160.5898139435
 20
883.9295623835003
 30
0.0
 11
1168.0898139428
 21
883.9295618593003
 31
0.0
  0
LINE
  5
250
  8
0
  6
CONTINUOUS
 62
     7
 10
1265.0898139435
 20
883.9295623835003
 30
0.0
 11
1257.5898139443
 21
883.9295618593003
 31
0.0
  0
LINE
  5
251
  8
0
  6
CONTINUOUS
 62
     7
 10
1263.0898139435
 20
874.9295623835003
 30
0.0
 11
1263.0898139435
 21
881.9295623835003
 31
0.0
  0
ARC
  5
252
  8
0
  6
CONTINUOUS
 62
     7
 10
1252.8398139435
 20
886.3293574332
 30
0.0
 40
3.749999999999698
 50
0.0011456423999334
 51
180.0011456424
  0
CIRCLE
  5
253
  8
0
  6
CONTINUOUS
 62
     7
 10
1172.8398139435
 20
886.3293574332
 30
0.0
 40
3.200000000000092
  0
LINE
  5
254
  8
1
  6
CONTINUOUS
 62
     7
 10
523.5707584941
 20
552.137577214
 30
0.0
 11
523.5707584941
 21
484.137577214
 31
0.0
  0
ARC
  5
255
  8
0
  6
CONTINUOUS
 62
     7
 10
1252.8398139435
 20
886.3293574332
 30
0.0
 40
3.749999999999698
 50
0.0011456423999334
 51
180.0011456424
  0
LINE
  5
256
  8
0
  6
CONTINUOUS
 62
     7
 10
1162.5898139435
 20
874.9295623835003
 30
0.0
 11
1162.5898139435
 21
881.9295623835003
 31
0.0
  0
ARC
  5
257
  8
0
  6
CONTINUOUS
 62
     7
 10
1252.8398139435
 20
886.3293574332
 30
0.0
 40
4.750000001700005
 50
0.0011456423999334
 51
180.0
  0
ARC
  5
258
  8
0
  6
CONTINUOUS
 62
     7
 10
1172.8398139435
 20
886.3293574332
 30
0.0
 40
2.499999999999947
 50
166.1134596374
 51
193.8865403626
  0
LINE
  5
259
  8
1
  6
CONTINUOUS
 62
     7
 10
376.5707584941
 20
559.6375772137
 30
0.0
 11
376.5707584941
 21
487.137577214
 31
0.0
  0
LINE
  5
25A
  8
0
  6
CONTINUOUS
 62
     7
 10
1169.0898139421
 20
886.3294324154
 30
0.0
 11
1169.2398139435
 21
886.3294294161001
 31
0.0
  0
LINE
  5
25B
  8
0
  6
CONTINUOUS
 62
     7
 10
1257.5898139443
 20
886.3294524106001
 30
0.0
 11
1257.5898139443
 21
881.9294524097
 31
0.0
  0
LINE
  5
25C
  8
1
  6
CONTINUOUS
 62
     7
 10
514.5207584941
 20
484.137577214
 30
0.0
 11
514.5207584941
 21
551.3666738836
 31
0.0
  0
ARC
  5
25D
  8
0
  6
CONTINUOUS
 62
     7
 10
1172.8398139435
 20
886.3293574332
 30
0.0
 40
2.499999999999947
 50
256.1134596374
 51
283.8865403626
  0
LINE
  5
25E
  8
0
  6
CONTINUOUS
 62
     7
 10
1177.5898139452
 20
881.9292624550001
 30
0.0
 11
1162.5898139435
 21
881.9295623835002
 31
0.0
  0
LINE
  5
25F
  8
0
  6
CONTINUOUS
 62
     7
 10
1169.0898139421
 20
886.3294324154
 30
0.0
 11
1169.2398139435
 21
886.3294294161001
 31
0.0
  0
LINE
  5
260
  8
0
  6
CONTINUOUS
 62
     7
 10
1172.2398139435
 20
883.9024252133001
 30
0.0
 11
1172.2398139435
 21
885.7293574332002
 31
0.0
  0
LINE
  5
261
  8
0
  6
CONTINUOUS
 62
     7
 10
1172.2398139435
 20
885.7293574332001
 30
0.0
 11
1170.4128817236
 21
885.7293574332001
 31
0.0
  0
LINE
  5
262
  8
0
  6
CONTINUOUS
 62
     7
 10
1170.4128817236
 20
886.9293574332002
 30
0.0
 11
1172.2398139435
 21
886.9293574332002
 31
0.0
  0
LINE
  5
263
  8
0
  6
DOT
 62
     7
 10
1169.0898118553
 20
881.9292824502003
 30
0.0
 11
1176.589813944
 21
881.9294324145003
 31
0.0
  0
ARC
  5
264
  8
0
  6
CONTINUOUS
 62
     7
 10
1161.5898139435
 20
874.9295623835003
 30
0.0
 40
0.9999999999998899
 50
270.0
 51
0.0
  0
LINE
  5
265
  8
0
  6
CONTINUOUS
 62
     7
 10
1248.0898139418
 20
886.3295273927
 30
0.0
 11
1248.0898139418
 21
881.9293574323999
 31
0.0
  0
LINE
  5
266
  8
0
  6
CONTINUOUS
 62
     7
 10
1176.4398139435
 20
886.3292854504001
 30
0.0
 11
1176.5898139435
 21
886.3292689372
 31
0.0
  0
ARC
  5
267
  8
0
  6
CONTINUOUS
 62
     7
 10
1172.8398139435
 20
886.3293574332
 30
0.0
 40
2.499999999999947
 50
76.11345963740001
 51
103.8865403626
  0
LINE
  5
268
  8
0
  6
CONTINUOUS
 62
     7
 10
1176.4398139435
 20
881.9292854495003
 30
0.0
 11
1176.4398139435
 21
886.3292854504002
 31
0.0
  0
ARC
  5
269
  8
0
  6
CONTINUOUS
 62
     7
 10
1172.8398139435
 20
886.3293574332
 30
0.0
 40
2.499999999999947
 50
346.1134596374
 51
13.88654036259993
  0
LINE
  5
26A
  8
0
  6
CONTINUOUS
 62
     7
 10
1172.2398139435
 20
886.9293574332002
 30
0.0
 11
1172.2398139435
 21
888.7562896532002
 31
0.0
  0
LINE
  5
26B
  8
0
  6
CONTINUOUS
 62
     7
 10
1173.4398139435
 20
888.7562896532
 30
0.0
 11
1173.4398139435
 21
886.9293574332
 31
0.0
  0
ARC
  5
26C
  8
0
  6
CONTINUOUS
 62
     7
 10
1172.8398139435
 20
886.3293574332
 30
0.0
 40
4.750000001700005
 50
0.0
 51
179.9988543576
  0
LINE
  5
26D
  8
0
  6
CONTINUOUS
 62
     7
 10
1169.089813942
 20
886.3294324154
 30
0.0
 11
1169.2398139434
 21
886.3294294161001
 31
0.0
  0
LINE
  5
26E
  8
0
  6
CONTINUOUS
 62
     7
 10
1176.4398139435
 20
886.3292854504001
 30
0.0
 11
1176.5898139435
 21
886.3292689372
 31
0.0
  0
LINE
  5
26F
  8
0
  6
CONTINUOUS
 62
     7
 10
1173.4398139435
 20
886.9293574332002
 30
0.0
 11
1175.2667461634
 21
886.9293574332002
 31
0.0
  0
ARC
  5
270
  8
0
  6
CONTINUOUS
 62
     7
 10
1264.0898139435
 20
874.9295623835003
 30
0.0
 40
0.9999999999998899
 50
270.0
 51
0.0
  0
LINE
  5
271
  8
0
  6
CONTINUOUS
 62
     7
 10
1175.2667461634
 20
885.7293574332001
 30
0.0
 11
1173.4398139435
 21
885.7293574332001
 31
0.0
  0
LINE
  5
272
  8
0
  6
CONTINUOUS
 62
     7
 10
1248.0898139419
 20
881.9292624550001
 30
0.0
 11
1263.0898139435
 21
881.9295623835002
 31
0.0
  0
LINE
  5
273
  8
0
  6
CONTINUOUS
 62
     7
 10
1176.4398139436
 20
886.3292854504001
 30
0.0
 11
1176.5898139436
 21
886.3292689372
 31
0.0
  0
CIRCLE
  5
274
  8
0
  6
CONTINUOUS
 62
     7
 10
1162.8398139435
 20
891.6795623835002
 30
0.0
 40
2.600000000000158
  0
ARC
  5
275
  8
0
  6
CONTINUOUS
 62
     7
 10
1264.0898139436
 20
874.9295623835003
 30
0.0
 40
0.9999999999998899
 50
180.0
 51
270.0
  0
LINE
  5
276
  8
0
  6
CONTINUOUS
 62
     7
 10
1173.4398139435
 20
885.7293574332001
 30
0.0
 11
1173.4398139435
 21
883.9024252133
 31
0.0
  0
LINE
  5
277
  8
0
  6
CONTINUOUS
 62
     7
 10
1169.089813942999
 20
886.3293574332
 30
0.0
 11
1169.089813942999
 21
876.7293574332001
 31
0.0
  0
ARC
  5
278
  8
0
  6
CONTINUOUS
 62
     7
 10
1252.8398139435
 20
886.3293574332
 30
0.0
 40
3.750000000400266
 50
0.0
 51
180.0
  0
ARC
  5
279
  8
0
  6
CONTINUOUS
 62
     7
 10
1170.089813943
 20
876.7293574332002
 30
0.0
 40
0.9999999999998899
 50
180.0
 51
270.0
  0
ARC
  5
27A
  8
0
  6
CONTINUOUS
 62
     7
 10
1175.5898139439
 20
876.7293574332002
 30
0.0
 40
0.9999999999998899
 50
270.0
 51
0.0
  0
LINE
  5
27B
  8
0
  6
CONTINUOUS
 62
     7
 10
1176.5898139439
 20
886.3293574332
 30
0.0
 11
1176.5898139439
 21
876.7293574332001
 31
0.0
  0
LINE
  5
27C
  8
0
  6
DOT
 62
     7
 10
1256.5898160318
 20
881.9292824502003
 30
0.0
 11
1249.0898139431
 21
881.9294324145003
 31
0.0
  0
LINE
  5
27D
  8
0
  6
CONTINUOUS
 62
     7
 10
1175.5898139439
 20
875.7293574332001
 30
0.0
 11
1170.089813943
 21
875.7293574332001
 31
0.0
  0
LINE
  5
27E
  8
0
  6
CONTINUOUS
 62
     7
 10
1242.8398139435
 20
796.6795623835
 30
0.0
 11
1242.8398139435
 21
881.4295623835001
 31
0.0
  0
LINE
  5
27F
  8
1
  6
CONTINUOUS
 62
     7
 10
389.9143984743
 20
484.1375772137
 30
0.0
 11
387.7409669840618
 21
567.1375772137
 31
0.0
  0
LINE
  5
280
  8
1
  6
CONTINUOUS
 62
     7
 10
373.5707584941
 20
608.137577214
 30
0.0
 11
373.5707584941
 21
564.6375772137
 31
0.0
  0
LINE
  5
281
  8
1
  6
CONTINUOUS
 62
     7
 10
539.6405574873
 20
563.0416034973997
 30
0.0
 11
525.8348553366335
 21
562.5594977549417
 31
0.0
  0
LINE
  5
282
  8
1
  6
CONTINUOUS
 62
     7
 10
384.7391375181001
 20
556.637577214
 30
0.0
 11
384.7391375181001
 21
558.2370063029016
 31
0.0
  0
LINE
  5
283
  8
1
  6
CONTINUOUS
 62
     7
 10
376.5707584941
 20
608.137577214
 30
0.0
 11
376.5707584941
 21
564.6375772137
 31
0.0
  0
LINE
  5
284
  8
0
  6
CONTINUOUS
 62
     7
 10
1172.8398139436
 20
796.6795623835
 30
0.0
 11
1172.8398139436
 21
875.7293574332001
 31
0.0
  0
LINE
  5
285
  8
0
  6
CONTINUOUS
 62
     7
 10
1252.8398139435
 20
796.6795623835
 30
0.0
 11
1252.8398139435
 21
881.4295623835001
 31
0.0
  0
LINE
  5
286
  8
0
  6
CONTINUOUS
 62
     7
 10
1232.8398139436
 20
796.6795623835
 30
0.0
 11
1232.8398139436
 21
881.4295623835001
 31
0.0
  0
LINE
  5
287
  8
1
  6
CONTINUOUS
 62
     7
 10
382.6207584941
 20
559.074325714344
 30
0.0
 11
382.6207584941
 21
484.137577214
 31
0.0
  0
LINE
  5
288
  8
0
  6
CONTINUOUS
 62
     7
 10
1262.8398139435
 20
881.4295623835001
 30
0.0
 11
1262.8398139435
 21
796.6795623835001
 31
0.0
  0
LINE
  5
289
  8
1
  6
CONTINUOUS
 62
     7
 10
520.5707584940999
 20
608.137577214
 30
0.0
 11
520.5707584940999
 21
564.6375772137
 31
0.0
  0
LINE
  5
28A
  8
1
  6
CONTINUOUS
 62
     7
 10
523.5707584941
 20
608.137577214
 30
0.0
 11
523.5707584941
 21
564.1375772136165
 31
0.0
  0
LINE
  5
28B
  8
0
  6
CENTER
 62
     1
 10
1262.8398139435
 20
887.0795623835005
 30
0.0
 11
1262.8398139435
 21
896.2795623834999
 31
0.0
  0
LINE
  5
28C
  8
0
  6
CENTER
 62
     1
 10
1162.8398139435
 20
887.0795623835
 30
0.0
 11
1162.8398139435
 21
896.2795623835003
 31
0.0
  0
LINE
  5
28D
  8
0
  6
CENTER
 62
     1
 10
1138.8398139435
 20
777.6795623834996
 30
0.0
 11
1138.8398139435
 21
789.6795623835005
 31
0.0
  0
LINE
  5
28E
  8
0
  6
CENTER
 62
     1
 10
1132.839813943499
 20
783.6795623835001
 30
0.0
 11
1144.8398139435
 21
783.6795623835001
 31
0.0
  0
LINE
  5
28F
  8
0
  6
CENTER
 62
     1
 10
1252.8398139435
 20
879.5793574315001
 30
0.0
 11
1252.8398139435
 21
893.0793574349001
 31
0.0
  0
LINE
  5
290
  8
0
  6
CENTER
 62
     1
 10
1246.0898139418
 20
707.0297673338001
 30
0.0
 11
1259.5898139452
 21
707.0297673338001
 31
0.0
  0
LINE
  5
291
  8
0
  6
CENTER
 62
     1
 10
1252.8398139435
 20
700.2797673321002
 30
0.0
 11
1252.8398139435
 21
713.7797673355002
 31
0.0
  0
LINE
  5
292
  8
0
  6
CENTER
 62
     1
 10
1258.2398139435
 20
701.6795623835001
 30
0.0
 11
1267.4398139435
 21
701.6795623835001
 31
0.0
  0
LINE
  5
293
  8
0
  6
CENTER
 62
     1
 10
1166.0898139418
 20
886.3293574332
 30
0.0
 11
1179.5898139452
 21
886.3293574332
 31
0.0
  0
LINE
  5
294
  8
0
  6
CENTER
 62
     1
 10
1258.239813943501
 20
891.6795623835002
 30
0.0
 11
1267.4398139435
 21
891.6795623835002
 31
0.0
  0
LINE
  5
295
  8
0
  6
CENTER
 62
     1
 10
1170.339813943499
 20
896.6795623835
 30
0.0
 11
1179.3398139435
 21
896.6795623835
 31
0.0
  0
LINE
  5
296
  8
0
  6
CENTER
 62
     1
 10
1158.239813943499
 20
701.6795623835001
 30
0.0
 11
1167.4398139435
 21
701.6795623835001
 31
0.0
  0
LINE
  5
297
  8
0
  6
CENTER
 62
     1
 10
1166.0898139418
 20
707.0297673338001
 30
0.0
 11
1179.5898139452
 21
707.0297673338001
 31
0.0
  0
LINE
  5
298
  8
0
  6
CENTER
 62
     1
 10
1250.8398139435
 20
892.1795623835005
 30
0.0
 11
1250.8398139435
 21
901.1795623834995
 31
0.0
  0
LINE
  5
299
  8
0
  6
CENTER
 62
     1
 10
1246.0898139418
 20
886.3293574332
 30
0.0
 11
1259.5898139452
 21
886.3293574332
 31
0.0
  0
LINE
  5
29A
  8
0
  6
CENTER
 62
     1
 10
1174.8398139435
 20
892.1795623834998
 30
0.0
 11
1174.8398139435
 21
901.1795623835002
 31
0.0
  0
LINE
  5
29B
  8
0
  6
CENTER
 62
     1
 10
1158.2398139435
 20
891.6795623835002
 30
0.0
 11
1167.4398139435
 21
891.6795623835002
 31
0.0
  0
LINE
  5
29C
  8
0
  6
CENTER
 62
     1
 10
1162.8398139435
 20
697.0795623834998
 30
0.0
 11
1162.8398139435
 21
706.2795623835002
 31
0.0
  0
LINE
  5
29D
  8
0
  6
CENTER
 62
     1
 10
1172.8398139435
 20
700.2797673321002
 30
0.0
 11
1172.8398139435
 21
713.7797673355002
 31
0.0
  0
LINE
  5
29E
  8
0
  6
CENTER
 62
     1
 10
1262.8398139435
 20
697.0795623835003
 30
0.0
 11
1262.8398139435
 21
706.2795623834998
 31
0.0
  0
LINE
  5
29F
  8
0
  6
CENTER
 62
     1
 10
1172.8398139435
 20
879.5793574315001
 30
0.0
 11
1172.8398139435
 21
893.0793574349001
 31
0.0
  0
LINE
  5
2A0
  8
0
  6
CENTER
 62
     1
 10
1246.339813943501
 20
896.6795623835
 30
0.0
 11
1255.3398139435
 21
896.6795623835
 31
0.0
  0
LINE
  5
2A1
  8
0
  6
CONTINUOUS
 62
     7
 10
1277.3398139435
 20
862.1795623835001
 30
0.0
 11
1291.8398139435
 21
862.1795623835001
 31
0.0
  0
LINE
  5
2A2
  8
0
  6
CONTINUOUS
 62
     7
 10
1424.8842442028
 20
749.6795623835001
 30
0.0
 11
1431.8842442028
 21
749.6795623835001
 31
0.0
  0
LINE
  5
2A3
  8
0
  6
CONTINUOUS
 62
     7
 10
1372.3842442028
 20
749.6795623835001
 30
0.0
 11
1407.3842442028
 21
749.6795623835001
 31
0.0
  0
ARC
  5
2A4
  8
0
  6
CONTINUOUS
 62
     7
 10
1269.8398139435
 20
903.6795623835001
 30
0.0
 40
7.000000000000117
 50
0.0
 51
90.0
  0
LINE
  5
2A5
  8
0
  6
CONTINUOUS
 62
     7
 10
1407.3842442028
 20
751.6795623835001
 30
0.0
 11
1372.3842442028
 21
751.6795623835001
 31
0.0
  0
LINE
  5
2A6
  8
0
  6
CONTINUOUS
 62
     7
 10
1431.8842442028
 20
749.6795623835001
 30
0.0
 11
1431.8842442028
 21
751.6795623835001
 31
0.0
  0
ARC
  5
2A7
  8
0
  6
CONTINUOUS
 62
     7
 10
1426.3842442028
 20
784.7195623835
 30
0.0
 40
1.540000000000097
 50
180.0
 51
0.0
  0
LINE
  5
2A8
  8
0
  6
CONTINUOUS
 62
     7
 10
1424.8842442028
 20
749.6795623835001
 30
0.0
 11
1424.8842442028
 21
727.1795623835001
 31
0.0
  0
LINE
  5
2A9
  8
0
  6
CONTINUOUS
 62
     7
 10
1268.9044217662
 20
688.1149545608001
 30
0.0
 11
1156.7752061209
 21
688.1149545608001
 31
0.0
  0
LINE
  5
2AA
  8
0
  6
CONTINUOUS
 62
     7
 10
1424.8842442028
 20
690.2883860511001
 30
0.0
 11
1433.8842442028
 21
690.5240593452002
 31
0.0
  0
LINE
  5
2AB
  8
0
  6
CONTINUOUS
 62
     7
 10
1427.3842442028
 20
727.1795623835001
 30
0.0
 11
1424.8842442028
 21
727.1795623835001
 31
0.0
  0
LINE
  5
2AC
  8
0
  6
CONTINUOUS
 62
     7
 10
1428.3842442028
 20
708.1795623835002
 30
0.0
 11
1428.3842442028
 21
699.1795623835002
 31
0.0
  0
LINE
  5
2AD
  8
0
  6
CONTINUOUS
 62
     7
 10
1271.4044217662
 20
902.7441702062001
 30
0.0
 11
1271.4044217662
 21
690.6149545608001
 31
0.0
  0
LINE
  5
2AE
  8
0
  6
CONTINUOUS
 62
     7
 10
1344.3842442028
 20
685.6795623835001
 30
0.0
 11
1433.8842442028
 21
688.0232023640001
 31
0.0
  0
LINE
  5
2AF
  8
0
  6
CONTINUOUS
 62
     7
 10
1154.2752061209
 20
902.7441702062001
 30
0.0
 11
1154.2752061209
 21
690.6149545608001
 31
0.0
  0
LINE
  5
2B0
  8
0
  6
CONTINUOUS
 62
     7
 10
1266.7964550799
 20
903.1362035199
 30
0.0
 11
1158.8831728072
 21
903.1362035199
 31
0.0
  0
LINE
  5
2B1
  8
0
  6
CONTINUOUS
 62
     7
 10
1433.8842442028
 20
905.3359224031
 30
0.0
 11
1433.8842442028
 21
688.023202364
 31
0.0
  0
LINE
  5
2B2
  8
0
  6
CONTINUOUS
 62
     7
 10
1344.3842442028
 20
682.6795623835001
 30
0.0
 11
1344.3842442028
 21
685.6795623835001
 31
0.0
  0
LINE
  5
2B3
  8
0
  6
CONTINUOUS
 62
     7
 10
1427.3842442028
 20
716.1795623835001
 30
0.0
 11
1427.3842442028
 21
727.1795623835001
 31
0.0
  0
LINE
  5
2B4
  8
0
  6
CONTINUOUS
 62
     7
 10
1424.8842442028
 20
716.1795623835001
 30
0.0
 11
1424.8842442028
 21
708.1795623835001
 31
0.0
  0
LINE
  5
2B5
  8
0
  6
CONTINUOUS
 62
     7
 10
1424.8842442028
 20
699.1795623835001
 30
0.0
 11
1433.3842442028
 21
699.1795623835001
 31
0.0
  0
LINE
  5
2B6
  8
0
  6
CONTINUOUS
 62
     7
 10
1372.3842442028
 20
751.6795623835001
 30
0.0
 11
1372.3842442028
 21
749.6795623835001
 31
0.0
  0
LINE
  5
2B7
  8
0
  6
CONTINUOUS
 62
     7
 10
1276.8398139435
 20
903.6795623835001
 30
0.0
 11
1276.8398139435
 21
689.6795623835002
 31
0.0
  0
ARC
  5
2B8
  8
0
  6
CONTINUOUS
 62
     7
 10
1268.9044217662
 20
902.7441702062001
 30
0.0
 40
2.500000000000169
 50
0.0
 51
90.0
  0
ARC
  5
2B9
  8
0
  6
CONTINUOUS
 62
     7
 10
1266.7964550799
 20
900.6362035199
 30
0.0
 40
2.499999999999503
 50
0.0
 51
90.0
  0
LINE
  5
2BA
  8
0
  6
CONTINUOUS
 62
     7
 10
1422.3842442028
 20
690.2229212471002
 30
0.0
 11
1422.3842442028
 21
796.6795623835001
 31
0.0
  0
ARC
  5
2BB
  8
0
  6
CONTINUOUS
 62
     7
 10
1155.8398139435
 20
689.6795623835003
 30
0.0
 40
6.999999999999673
 50
180.0
 51
270.0
  0
ARC
  5
2BC
  8
0
  6
CONTINUOUS
 62
     7
 10
1158.8831728072
 20
692.7229212471001
 30
0.0
 40
2.500000000000169
 50
180.0
 51
270.0
  0
ARC
  5
2BD
  8
0
  6
CONTINUOUS
 62
     7
 10
1268.9044217662
 20
690.6149545608001
 30
0.0
 40
2.500000000000169
 50
270.0
 51
0.0
  0
LINE
  5
2BE
  8
0
  6
CONTINUOUS
 62
     7
 10
1433.3842442028
 20
708.1795623835002
 30
0.0
 11
1424.8842442028
 21
708.1795623835002
 31
0.0
  0
ARC
  5
2BF
  8
0
  6
CONTINUOUS
 62
     7
 10
1266.7964550799
 20
692.7229212471001
 30
0.0
 40
2.499999999999503
 50
270.0
 51
0.0
  0
LINE
  5
2C0
  8
0
  6
CONTINUOUS
 62
     7
 10
1422.3842442028
 20
706.1795623835001
 30
0.0
 11
1427.8842442028
 21
706.1795623835001
 31
0.0
  0
ARC
  5
2C1
  8
0
  6
CONTINUOUS
 62
     7
 10
1156.7752061209
 20
902.7441702062001
 30
0.0
 40
2.499999999999947
 50
90.0
 51
180.0
  0
LINE
  5
2C2
  8
0
  6
CONTINUOUS
 62
     7
 10
1158.8831728072
 20
690.2229212471002
 30
0.0
 11
1266.7964550799
 21
690.2229212471002
 31
0.0
  0
LINE
  5
2C3
  8
0
  6
CONTINUOUS
 62
     7
 10
1427.8842442028
 20
706.1795623835001
 30
0.0
 11
1427.8842442028
 21
701.1795623835001
 31
0.0
  0
ARC
  5
2C4
  8
0
  6
CONTINUOUS
 62
     7
 10
1269.8398139435
 20
689.6795623835003
 30
0.0
 40
7.000000000000117
 50
270.0
 51
0.0
  0
LINE
  5
2C5
  8
0
  6
CONTINUOUS
 62
     7
 10
1155.8398139435
 20
910.6795623835001
 30
0.0
 11
1269.8398139435
 21
910.6795623835001
 31
0.0
  0
ARC
  5
2C6
  8
0
  6
CONTINUOUS
 62
     7
 10
1156.7752061209
 20
690.6149545608001
 30
0.0
 40
2.499999999999947
 50
180.0
 51
270.0
  0
LINE
  5
2C7
  8
0
  6
CONTINUOUS
 62
     7
 10
1291.8398139435
 20
847.1795623835001
 30
0.0
 11
1291.8398139435
 21
852.1795623835001
 31
0.0
  0
LINE
  5
2C8
  8
0
  6
CONTINUOUS
 62
     7
 10
1291.8398139435
 20
862.1795623835001
 30
0.0
 11
1291.8398139435
 21
867.1795623835001
 31
0.0
  0
LINE
  5
2C9
  8
0
  6
CONTINUOUS
 62
     7
 10
1428.8842442028
 20
751.6795623835001
 30
0.0
 11
1428.8842442028
 21
749.6795623835001
 31
0.0
  0
LINE
  5
2CA
  8
0
  6
CONTINUOUS
 62
     7
 10
1431.8842442028
 20
751.6795623835001
 30
0.0
 11
1424.8842442028
 21
751.6795623835001
 31
0.0
  0
LINE
  5
2CB
  8
0
  6
CONTINUOUS
 62
     7
 10
1281.3398139435
 20
871.1795623835001
 30
0.0
 11
1281.3398139435
 21
874.1795623835001
 31
0.0
  0
LINE
  5
2CC
  8
0
  6
CONTINUOUS
 62
     7
 10
1341.8842442028
 20
910.6795623835001
 30
0.0
 11
1341.8842442028
 21
682.6795623835001
 31
0.0
  0
LINE
  5
2CD
  8
0
  6
CONTINUOUS
 62
     7
 10
1433.3842442028
 20
699.1795623835001
 30
0.0
 11
1433.3842442028
 21
708.1795623835001
 31
0.0
  0
ARC
  5
2CE
  8
0
  6
CONTINUOUS
 62
     7
 10
1155.8398139435
 20
903.6795623835001
 30
0.0
 40
6.999999999999673
 50
90.0
 51
180.0
  0
LINE
  5
2CF
  8
0
  6
CONTINUOUS
 62
     7
 10
1281.3398139435
 20
740.1795623835001
 30
0.0
 11
1281.3398139435
 21
737.1795623835001
 31
0.0
  0
LINE
  5
2D0
  8
0
  6
CONTINUOUS
 62
     7
 10
1291.8398139435
 20
733.1795623835001
 30
0.0
 11
1291.8398139435
 21
728.1795623835001
 31
0.0
  0
LINE
  5
2D1
  8
0
  6
CONTINUOUS
 62
     7
 10
1291.8398139435
 20
720.6795623835002
 30
0.0
 11
1291.8398139435
 21
715.6795623835002
 31
0.0
  0
LINE
  5
2D2
  8
0
  6
CONTINUOUS
 62
     7
 10
1424.8842442028
 20
699.1795623835001
 30
0.0
 11
1424.8842442028
 21
690.2883860511001
 31
0.0
  0
ARC
  5
2D3
  8
0
  6
CONTINUOUS
 62
     7
 10
1426.3842442028
 20
846.7195623835
 30
0.0
 40
1.540000000000097
 50
180.0
 51
0.0
  0
CIRCLE
  5
2D4
  8
0
  6
CONTINUOUS
 62
     7
 10
1212.8398139435
 20
703.6795623835001
 30
0.0
 40
2.499999999999947
  0
LINE
  5
2D5
  8
0
  6
CENTER
 62
     1
 10
1217.8398139435
 20
703.6795623835001
 30
0.0
 11
1207.8398139435
 21
703.6795623835001
 31
0.0
  0
LINE
  5
2D6
  8
0
  6
CONTINUOUS
 62
     7
 10
1156.7752061209
 20
905.2441702062001
 30
0.0
 11
1268.9044217662
 21
905.2441702062001
 31
0.0
  0
LINE
  5
2D7
  8
0
  6
CONTINUOUS
 62
     7
 10
1341.8842442028
 20
682.6795623835001
 30
0.0
 11
1344.3842442028
 21
682.6795623835001
 31
0.0
  0
LINE
  5
2D8
  8
0
  6
CONTINUOUS
 62
     7
 10
1269.8398139435
 20
682.6795623835001
 30
0.0
 11
1155.8398139435
 21
682.6795623835001
 31
0.0
  0
LINE
  5
2D9
  8
0
  6
CONTINUOUS
 62
     7
 10
1341.8842442028
 20
688.1149545608001
 30
0.0
 11
1422.3842442028
 21
690.2229212471002
 31
0.0
  0
LINE
  5
2DA
  8
0
  6
CONTINUOUS
 62
     7
 10
1426.8842442028
 20
725.6795623835001
 30
0.0
 11
1426.8842442028
 21
717.6795623835001
 31
0.0
  0
ARC
  5
2DB
  8
0
  6
CONTINUOUS
 62
     7
 10
1158.8831728072
 20
900.6362035199
 30
0.0
 40
2.500000000000169
 50
90.0
 51
180.0
  0
LINE
  5
2DC
  8
0
  6
CONTINUOUS
 62
     7
 10
1427.8842442028
 20
701.1795623835001
 30
0.0
 11
1422.3842442028
 21
701.1795623835001
 31
0.0
  0
LINE
  5
2DD
  8
0
  6
CONTINUOUS
 62
     7
 10
1424.8842442028
 20
716.1795623835001
 30
0.0
 11
1427.3842442028
 21
716.1795623835001
 31
0.0
  0
LINE
  5
2DE
  8
0
  6
CONTINUOUS
 62
     7
 10
1270.6057511584
 20
843.6795623835
 30
0.0
 11
1264.2964550799
 21
843.6795623835
 31
0.0
  0
LINE
  5
2DF
  8
0
  6
CONTINUOUS
 62
     7
 10
1148.3398139435
 20
693.1795623835001
 30
0.0
 11
1148.3398139435
 21
903.6795623835001
 31
0.0
  0
ARC
  5
2E0
  8
0
  6
CONTINUOUS
 62
     7
 10
1155.8398139435
 20
693.1795623835001
 30
0.0
 40
7.500000000000062
 50
180.0
 51
201.0394697813
  0
ARC
  5
2E1
  8
0
  6
CONTINUOUS
 62
     7
 10
1269.8398139435
 20
903.6795623835001
 30
0.0
 40
7.49999999999984
 50
0.0
 51
90.0
  0
ARC
  5
2E2
  8
0
  6
CONTINUOUS
 62
     7
 10
1269.8398139435
 20
693.1795623835001
 30
0.0
 40
7.49999999999984
 50
338.9605302187001
 51
0.0
  0
LINE
  5
2E3
  8
0
  6
CONTINUOUS
 62
     7
 10
1161.3831728072
 20
751.6795623835001
 30
0.0
 11
1155.0738767287
 21
751.6795623835001
 31
0.0
  0
LINE
  5
2E4
  8
0
  6
CONTINUOUS
 62
     7
 10
1269.2964550799
 20
692.7229212471001
 30
0.0
 11
1269.2964550799
 21
749.6795623835001
 31
0.0
  0
LINE
  5
2E5
  8
0
  6
CONTINUOUS
 62
     7
 10
1156.3831728072
 20
843.6795623835
 30
0.0
 11
1156.3831728072
 21
900.6362035198999
 31
0.0
  0
ARC
  5
2E6
  8
0
  6
CONTINUOUS
 62
     7
 10
1231.8398139435
 20
702.1795623835002
 30
0.0
 40
7.500000000000062
 50
202.3377443392
 51
217.6622556608
  0
LINE
  5
2E7
  8
0
  6
CONTINUOUS
 62
     7
 10
1134.6935588846
 20
790.8188528879
 30
0.0
 11
1143.8398139435
 21
791.2652790777
 31
0.0
  0
LINE
  5
2E8
  8
0
  6
CONTINUOUS
 62
     7
 10
1143.8398139435
 20
814.1795623835001
 30
0.0
 11
1143.8398139435
 21
791.2652790777001
 31
0.0
  0
LINE
  5
2E9
  8
0
  6
CONTINUOUS
 62
     7
 10
1131.8398139435
 20
779.5367046679002
 30
0.0
 11
1131.8398139435
 21
787.8224200991001
 31
0.0
  0
LINE
  5
2EA
  8
0
  6
CONTINUOUS
 62
     7
 10
1188.8398139435
 20
687.1149545608001
 30
0.0
 11
1189.8398139435
 21
687.1149545608001
 31
0.0
  0
LINE
  5
2EB
  8
0
  6
CONTINUOUS
 62
     7
 10
1161.3831728072
 20
749.6795623835001
 30
0.0
 11
1161.3831728072
 21
751.6795623835001
 31
0.0
  0
LINE
  5
2EC
  8
0
  6
CONTINUOUS
 62
     7
 10
1270.6057511584
 20
749.6795623835001
 30
0.0
 11
1264.2964550799
 21
749.6795623835001
 31
0.0
  0
LINE
  5
2ED
  8
0
  6
CONTINUOUS
 62
     7
 10
1156.3831728072
 20
751.6795623835001
 30
0.0
 11
1156.3831728072
 21
841.6795623835001
 31
0.0
  0
ARC
  5
2EE
  8
0
  6
CONTINUOUS
 62
     7
 10
1231.8398139435
 20
702.1795623835002
 30
0.0
 40
7.500000000000062
 50
82.3377443392
 51
97.6622556608
  0
LINE
  5
2EF
  8
0
  6
CONTINUOUS
 62
     7
 10
1156.3831728072
 20
692.7229212471001
 30
0.0
 11
1156.3831728072
 21
749.6795623835001
 31
0.0
  0
ARC
  5
2F0
  8
0
  6
CONTINUOUS
 62
     7
 10
1145.3398139435
 20
814.1795623835001
 30
0.0
 40
1.500000000000279
 50
90.0
 51
180.0
  0
ARC
  5
2F1
  8
0
  6
CONTINUOUS
 62
     7
 10
1231.8398139435
 20
702.1795623835002
 30
0.0
 40
7.500000000000062
 50
322.3377443392
 51
337.6622556608
  0
ARC
  5
2F2
  8
0
  6
CONTINUOUS
 62
     7
 10
1155.8398139435
 20
903.6795623835001
 30
0.0
 40
7.500000000000062
 50
90.0
 51
180.0
  0
LINE
  5
2F3
  8
0
  6
CONTINUOUS
 62
     7
 10
1277.3398139435
 20
693.1795623835001
 30
0.0
 11
1277.3398139435
 21
903.6795623835001
 31
0.0
  0
LINE
  5
2F4
  8
0
  6
CONTINUOUS
 62
     7
 10
1190.8398139435
 20
685.6149545608002
 30
0.0
 11
1198.8398139435
 21
685.6149545608002
 31
0.0
  0
LINE
  5
2F5
  8
0
  6
CONTINUOUS
 62
     7
 10
1264.2964550799
 20
841.6795623835001
 30
0.0
 11
1270.6057511584
 21
841.6795623835001
 31
0.0
  0
LINE
  5
2F6
  8
0
  6
CONTINUOUS
 62
     7
 10
1200.8398139435
 20
687.1149545608001
 30
0.0
 11
1200.8398139435
 21
682.6795623835001
 31
0.0
  0
LINE
  5
2F7
  8
0
  6
CONTINUOUS
 62
     7
 10
1236.8398139435
 20
687.1149545608001
 30
0.0
 11
1235.8398139435
 21
687.1149545608001
 31
0.0
  0
LINE
  5
2F8
  8
0
  6
CONTINUOUS
 62
     7
 10
1161.3831728072
 20
843.6795623835
 30
0.0
 11
1161.3831728072
 21
841.6795623835
 31
0.0
  0
LINE
  5
2F9
  8
0
  6
CONTINUOUS
 62
     7
 10
1269.2964550799
 20
843.6795623835
 30
0.0
 11
1269.2964550799
 21
900.6362035198999
 31
0.0
  0
LINE
  5
2FA
  8
0
  6
CONTINUOUS
 62
     7
 10
1198.8398139435
 20
685.6149545608002
 30
0.0
 11
1199.8398139435
 21
687.1149545608002
 31
0.0
  0
LINE
  5
2FB
  8
0
  6
CONTINUOUS
 62
     7
 10
1264.2964550799
 20
751.6795623835001
 30
0.0
 11
1270.6057511584
 21
751.6795623835001
 31
0.0
  0
LINE
  5
2FC
  8
0
  6
CONTINUOUS
 62
     7
 10
1161.3831728072
 20
841.6795623835001
 30
0.0
 11
1155.0738767287
 21
841.6795623835001
 31
0.0
  0
LINE
  5
2FD
  8
0
  6
CONTINUOUS
 62
     7
 10
1226.8398139435
 20
685.6149545608002
 30
0.0
 11
1225.8398139436
 21
687.1149545608002
 31
0.0
  0
LINE
  5
2FE
  8
0
  6
CONTINUOUS
 62
     7
 10
1225.8398139436
 20
687.1149545608001
 30
0.0
 11
1224.8398139435
 21
687.1149545608001
 31
0.0
  0
LINE
  5
2FF
  8
0
  6
CONTINUOUS
 62
     7
 10
1428.8842442028
 20
781.6795623835
 30
0.0
 11
1428.8842442028
 21
779.6795623836
 31
0.0
  0
LINE
  5
300
  8
0
  6
CONTINUOUS
 62
     7
 10
1155.0738767287
 20
749.6795623835001
 30
0.0
 11
1161.3831728072
 21
749.6795623835001
 31
0.0
  0
ARC
  5
301
  8
0
  6
CONTINUOUS
 62
     7
 10
1134.8398139435
 20
787.8224200991001
 30
0.0
 40
2.999999999999892
 50
92.79437352699999
 51
180.0
  0
LINE
  5
302
  8
0
  6
CONTINUOUS
 62
     7
 10
1269.2964550799
 20
751.6795623835001
 30
0.0
 11
1269.2964550799
 21
841.6795623835001
 31
0.0
  0
LINE
  5
303
  8
0
  6
CONTINUOUS
 62
     7
 10
1188.8398139435
 20
682.6795623835001
 30
0.0
 11
1188.8398139435
 21
687.1149545608001
 31
0.0
  0
LINE
  5
304
  8
0
  6
CONTINUOUS
 62
     7
 10
1155.0738767287
 20
841.6795623835001
 30
0.0
 11
1155.0738767287
 21
843.6795623835001
 31
0.0
  0
LINE
  5
305
  8
0
  6
CONTINUOUS
 62
     7
 10
1155.0738767287
 20
843.6795623835
 30
0.0
 11
1161.3831728072
 21
843.6795623835
 31
0.0
  0
CIRCLE
  5
306
  8
0
  6
CONTINUOUS
 62
     7
 10
1138.8398139435
 20
783.6795623835001
 30
0.0
 40
4.000000000000448
  0
LINE
  5
307
  8
0
  6
CONTINUOUS
 62
     7
 10
1270.6057511584
 20
751.6795623835001
 30
0.0
 11
1270.6057511584
 21
749.6795623835001
 31
0.0
  0
LINE
  5
308
  8
0
  6
CONTINUOUS
 62
     7
 10
1189.8398139435
 20
687.1149545608001
 30
0.0
 11
1190.8398139435
 21
685.6149545608001
 31
0.0
  0
LINE
  5
309
  8
0
  6
CONTINUOUS
 62
     7
 10
1236.8398139435
 20
682.6795623835001
 30
0.0
 11
1236.8398139435
 21
687.1149545608001
 31
0.0
  0
LINE
  5
30A
  8
0
  6
CONTINUOUS
 62
     7
 10
1235.8398139435
 20
687.1149545608001
 30
0.0
 11
1234.8398139435
 21
685.6149545608001
 31
0.0
  0
LINE
  5
30B
  8
0
  6
CONTINUOUS
 62
     7
 10
1155.0738767287
 20
751.6795623835001
 30
0.0
 11
1155.0738767287
 21
749.6795623835001
 31
0.0
  0
LINE
  5
30C
  8
0
  6
CONTINUOUS
 62
     7
 10
1234.8398139435
 20
685.6149545608002
 30
0.0
 11
1226.8398139435
 21
685.6149545608002
 31
0.0
  0
LINE
  5
30D
  8
0
  6
CONTINUOUS
 62
     7
 10
1145.3398139435
 20
815.6795623835002
 30
0.0
 11
1148.3398139435
 21
815.6795623835002
 31
0.0
  0
LINE
  5
30E
  8
0
  6
CONTINUOUS
 62
     7
 10
1269.8398139435
 20
911.1795623835001
 30
0.0
 11
1155.8398139435
 21
911.1795623835001
 31
0.0
  0
ARC
  5
30F
  8
0
  6
CONTINUOUS
 62
     7
 10
1134.8398139435
 20
779.5367046679002
 30
0.0
 40
2.999999999999892
 50
180.0
 51
267.205626473
  0
LINE
  5
310
  8
0
  6
CONTINUOUS
 62
     7
 10
1134.6935588846
 20
776.5402718791
 30
0.0
 11
1148.3398139435
 21
775.874201929
 31
0.0
  0
LINE
  5
311
  8
0
  6
CONTINUOUS
 62
     7
 10
1199.8398139435
 20
687.1149545608001
 30
0.0
 11
1200.8398139435
 21
687.1149545608001
 31
0.0
  0
LINE
  5
312
  8
0
  6
CONTINUOUS
 62
     7
 10
1224.8398139435
 20
687.1149545608001
 30
0.0
 11
1224.8398139435
 21
682.6795623835001
 31
0.0
  0
LINE
  5
313
  8
0
  6
CONTINUOUS
 62
     7
 10
1270.6057511584
 20
841.6795623835001
 30
0.0
 11
1270.6057511584
 21
843.6795623835001
 31
0.0
  0
LINE
  5
314
  8
0
  6
CONTINUOUS
 62
     7
 10
1281.3398139435
 20
874.1795623835001
 30
0.0
 11
1277.3398139435
 21
874.1795623835001
 31
0.0
  0
LINE
  5
315
  8
0
  6
CONTINUOUS
 62
     7
 10
1424.8842442028
 20
779.6795623836001
 30
0.0
 11
1424.8842442028
 21
751.6795623835001
 31
0.0
  0
LINE
  5
316
  8
0
  6
CONTINUOUS
 62
     7
 10
1291.8398139435
 20
728.1795623835001
 30
0.0
 11
1277.3398139435
 21
728.1795623835001
 31
0.0
  0
LINE
  5
317
  8
0
  6
CONTINUOUS
 62
     7
 10
1424.8842442028
 20
781.6795623835
 30
0.0
 11
1431.8842442028
 21
781.6795623835
 31
0.0
  0
LINE
  5
318
  8
0
  6
CONTINUOUS
 62
     7
 10
1291.8398139435
 20
867.1795623835
 30
0.0
 11
1277.3398139435
 21
867.1795623835
 31
0.0
  0
LINE
  5
319
  8
0
  6
CONTINUOUS
 62
     7
 10
1291.8398139435
 20
852.1795623835001
 30
0.0
 11
1277.3398139435
 21
852.1795623835001
 31
0.0
  0
LINE
  5
31A
  8
0
  6
CENTER
 62
     1
 10
1285.3398139435
 20
870.1795623835001
 30
0.0
 11
1285.3398139435
 21
844.1795623835001
 31
0.0
  0
LINE
  5
31B
  8
0
  6
CONTINUOUS
 62
     7
 10
1291.8398139435
 20
715.6795623835001
 30
0.0
 11
1277.3398139435
 21
715.6795623835001
 31
0.0
  0
LINE
  5
31C
  8
0
  6
CONTINUOUS
 62
     7
 10
1281.3398139435
 20
737.1795623835001
 30
0.0
 11
1277.3398139435
 21
737.1795623835001
 31
0.0
  0
LINE
  5
31D
  8
0
  6
CONTINUOUS
 62
     7
 10
1277.3398139435
 20
733.1795623835001
 30
0.0
 11
1291.8398139435
 21
733.1795623835001
 31
0.0
  0
LINE
  5
31E
  8
0
  6
CONTINUOUS
 62
     7
 10
1277.3398139435
 20
720.6795623835002
 30
0.0
 11
1291.8398139435
 21
720.6795623835002
 31
0.0
  0
LINE
  5
31F
  8
0
  6
CONTINUOUS
 62
     7
 10
1277.3398139435
 20
871.1795623835001
 30
0.0
 11
1281.3398139435
 21
871.1795623835001
 31
0.0
  0
LINE
  5
320
  8
0
  6
CONTINUOUS
 62
     7
 10
1277.3398139435
 20
740.1795623835001
 30
0.0
 11
1281.3398139435
 21
740.1795623835001
 31
0.0
  0
LINE
  5
321
  8
0
  6
CONTINUOUS
 62
     7
 10
1431.8842442028
 20
779.6795623831
 30
0.0
 11
1424.8842442028
 21
779.6795623836
 31
0.0
  0
LINE
  5
322
  8
0
  6
CONTINUOUS
 62
     7
 10
1431.8842442028
 20
781.6795623835
 30
0.0
 11
1431.8842442028
 21
779.6795623836
 31
0.0
  0
LINE
  5
323
  8
0
  6
CENTER
 62
     1
 10
1285.3398139435
 20
736.1795623835001
 30
0.0
 11
1285.3398139435
 21
712.6795623835001
 31
0.0
  0
LINE
  5
324
  8
0
  6
CONTINUOUS
 62
     7
 10
1215.3398139435
 20
896.6795623835001
 30
0.0
 11
1215.3398139435
 21
893.0096894025002
 31
0.0
  0
LINE
  5
325
  8
0
  6
CONTINUOUS
 62
     7
 10
1190.8398139435
 20
900.6267841974001
 30
0.0
 11
1190.8398139435
 21
898.6125967572001
 31
0.0
  0
CIRCLE
  5
326
  8
0
  6
CONTINUOUS
 62
     7
 10
1191.8398139435
 20
891.1795623835002
 30
0.0
 40
7.199999999999873
  0
ARC
  5
327
  8
0
  6
CONTINUOUS
 62
     7
 10
1212.8398139435
 20
896.6795623835001
 30
0.0
 40
2.499999999999947
 50
0.0
 51
180.0
  0
LINE
  5
328
  8
0
  6
CONTINUOUS
 62
     7
 10
1234.8398139435
 20
900.6267841974001
 30
0.0
 11
1234.8398139435
 21
898.6125967572001
 31
0.0
  0
ARC
  5
329
  8
0
  6
CONTINUOUS
 62
     7
 10
1233.8398139435
 20
891.1795623835002
 30
0.0
 40
7.500000000000062
 50
82.3377443392
 51
97.6622556608
  0
LINE
  5
32A
  8
0
  6
CONTINUOUS
 62
     7
 10
1241.5213480295
 20
885.5899260728
 30
0.0
 11
1239.7770105383
 21
886.5970197929
 31
0.0
  0
LINE
  5
32B
  8
0
  6
CONTINUOUS
 62
     7
 10
1192.8398139435
 20
900.6267841974001
 30
0.0
 11
1192.8398139435
 21
898.6125967572001
 31
0.0
  0
ARC
  5
32C
  8
0
  6
CONTINUOUS
 62
     7
 10
1191.8398139435
 20
891.1795623835002
 30
0.0
 40
7.49999999999984
 50
82.3377443392
 51
97.6622556608
  0
LINE
  5
32D
  8
0
  6
CONTINUOUS
 62
     7
 10
1242.5213480295
 20
887.3219768804001
 30
0.0
 11
1240.777010538299
 21
888.3290706005001
 31
0.0
  0
LINE
  5
32E
  8
0
  6
CONTINUOUS
 62
     7
 10
1225.1582798575
 20
887.3219768804001
 30
0.0
 11
1226.9026173487
 21
888.3290706005001
 31
0.0
  0
CIRCLE
  5
32F
  8
0
  6
CONTINUOUS
 62
     7
 10
1191.8398139435
 20
891.1795623835002
 30
0.0
 40
9.499999999999842
  0
LINE
  5
330
  8
0
  6
CONTINUOUS
 62
     7
 10
1184.1582798575
 20
885.5899260728
 30
0.0
 11
1185.9026173487
 21
886.5970197929
 31
0.0
  0
LINE
  5
331
  8
0
  6
CONTINUOUS
 62
     7
 10
1183.1582798575
 20
887.3219768804001
 30
0.0
 11
1184.9026173487
 21
888.3290706005001
 31
0.0
  0
ARC
  5
332
  8
0
  6
CONTINUOUS
 62
     7
 10
1191.8398139435
 20
891.1795623835002
 30
0.0
 40
7.49999999999984
 50
202.3377443392
 51
217.6622556608
  0
LINE
  5
333
  8
0
  6
CONTINUOUS
 62
     7
 10
1199.521348029499
 20
885.5899260728
 30
0.0
 11
1197.777010538299
 21
886.5970197929
 31
0.0
  0
CIRCLE
  5
334
  8
0
  6
CONTINUOUS
 62
     7
 10
1233.8398139435
 20
891.1795623835002
 30
0.0
 40
9.500000000000064
  0
ARC
  5
335
  8
0
  6
CONTINUOUS
 62
     7
 10
1212.8398139435
 20
888.6795623835001
 30
0.0
 40
4.999999999999893
 50
120.0
 51
60.0
  0
LINE
  5
336
  8
0
  6
CONTINUOUS
 62
     7
 10
1200.5213480295
 20
887.3219768804001
 30
0.0
 11
1198.7770105383
 21
888.3290706005001
 31
0.0
  0
ARC
  5
337
  8
0
  6
CONTINUOUS
 62
     7
 10
1191.8398139435
 20
891.1795623835002
 30
0.0
 40
7.49999999999984
 50
322.3377443392
 51
337.6622556608
  0
CIRCLE
  5
338
  8
0
  6
CONTINUOUS
 62
     7
 10
1233.8398139435
 20
891.1795623835002
 30
0.0
 40
7.200000000000095
  0
LINE
  5
339
  8
0
  6
CONTINUOUS
 62
     7
 10
1210.3398139435
 20
896.6795623835001
 30
0.0
 11
1210.3398139435
 21
893.0096894025002
 31
0.0
  0
LINE
  5
33A
  8
0
  6
CONTINUOUS
 62
     7
 10
1232.8398139435
 20
900.6267841974001
 30
0.0
 11
1232.8398139435
 21
898.6125967572001
 31
0.0
  0
ARC
  5
33B
  8
0
  6
CONTINUOUS
 62
     7
 10
1233.8398139435
 20
891.1795623835002
 30
0.0
 40
7.500000000000062
 50
322.3377443392
 51
337.6622556608
  0
LINE
  5
33C
  8
0
  6
CENTER
 62
     1
 10
1191.8398139435
 20
879.6795623835001
 30
0.0
 11
1191.8398139435
 21
902.6795623835001
 31
0.0
  0
ARC
  5
33D
  8
0
  6
CONTINUOUS
 62
     7
 10
1212.8398139435
 20
888.6795623835001
 30
0.0
 40
3.499999999999837
 50
106.601549599
 51
73.39845040099999
  0
ARC
  5
33E
  8
0
  6
CONTINUOUS
 62
     7
 10
1212.8398139435
 20
896.6795623835001
 30
0.0
 40
0.9999999999998899
 50
0.0
 51
180.0
  0
ARC
  5
33F
  8
0
  6
CONTINUOUS
 62
     7
 10
1191.8398139435
 20
891.1795623835002
 30
0.0
 40
8.999999999999897
 50
216.3793702084
 51
323.6206297916
  0
LINE
  5
340
  8
0
  6
CONTINUOUS
 62
     7
 10
1162.8398139436
 20
881.4295623835001
 30
0.0
 11
1212.8398139435
 21
881.4295623835001
 31
0.0
  0
ARC
  5
341
  8
0
  6
CONTINUOUS
 62
     7
 10
1233.8398139435
 20
891.1795623835002
 30
0.0
 40
9.000000000000119
 50
336.0423284190999
 51
83.95767158090001
  0
ARC
  5
342
  8
0
  6
CONTINUOUS
 62
     7
 10
1233.8398139435
 20
891.1795623835002
 30
0.0
 40
9.000000000000119
 50
216.3793702084
 51
323.6206297916
  0
LINE
  5
343
  8
0
  6
CENTER
 62
     1
 10
1208.3398139435
 20
896.6795623835001
 30
0.0
 11
1217.3398139435
 21
896.6795623835001
 31
0.0
  0
ARC
  5
344
  8
0
  6
CONTINUOUS
 62
     7
 10
1233.8398139435
 20
891.1795623835002
 30
0.0
 40
7.500000000000062
 50
202.3377443392
 51
217.6622556608
  0
LINE
  5
345
  8
0
  6
CONTINUOUS
 62
     7
 10
1211.8398139435
 20
892.0336643498001
 30
0.0
 11
1211.8398139435
 21
896.6795623835001
 31
0.0
  0
LINE
  5
346
  8
0
  6
CONTINUOUS
 62
     7
 10
1226.1582798575
 20
885.5899260728
 30
0.0
 11
1227.9026173487
 21
886.5970197929
 31
0.0
  0
ARC
  5
347
  8
0
  6
CONTINUOUS
 62
     7
 10
1191.8398139435
 20
891.1795623835002
 30
0.0
 40
8.999999999999897
 50
336.3793702084001
 51
83.95767158090001
  0
LINE
  5
348
  8
0
  6
CENTER
 62
     1
 10
1205.8398139435
 20
888.6795623835001
 30
0.0
 11
1219.8398139435
 21
888.6795623835001
 31
0.0
  0
LINE
  5
349
  8
0
  6
CENTER
 62
     1
 10
1233.8398139435
 20
879.6795623835001
 30
0.0
 11
1233.8398139435
 21
902.6795623835001
 31
0.0
  0
ARC
  5
34A
  8
0
  6
CONTINUOUS
 62
     7
 10
1191.8398139435
 20
891.1795623835002
 30
0.0
 40
8.999999999999897
 50
96.04232841909999
 51
203.9576715809
  0
ARC
  5
34B
  8
0
  6
CONTINUOUS
 62
     7
 10
1233.8398139435
 20
891.1795623835002
 30
0.0
 40
9.000000000000119
 50
96.04232841909999
 51
203.6206297916
  0
LINE
  5
34C
  8
0
  6
CONTINUOUS
 62
     7
 10
1213.8398139435
 20
896.6795623835001
 30
0.0
 11
1213.8398139435
 21
892.0336643498001
 31
0.0
  0
LINE
  5
34D
  8
0
  6
CENTER
 62
     1
 10
1180.3398139435
 20
891.1795623835002
 30
0.0
 11
1203.3398139435
 21
891.1795623835002
 31
0.0
  0
LINE
  5
34E
  8
0
  6
CENTER
 62
     1
 10
1245.3398139435
 20
891.1795623835002
 30
0.0
 11
1221.4184046466
 21
891.1795623835002
 31
0.0
  0
LINE
  5
34F
  8
0
  6
CONTINUOUS
 62
     7
 10
387.5707584939
 20
573.6375772137
 30
0.0
 11
387.6755021802
 21
569.6375772137
 31
0.0
  0
LINE
  5
350
  8
0
  6
CONTINUOUS
 62
     7
 10
503.0707584939
 20
567.1375772137
 30
0.0
 11
513.0707584938998
 21
567.1375772137
 31
0.0
  0
ARC
  5
351
  8
0
  6
CONTINUOUS
 62
     7
 10
466.5707584939001
 20
559.1375772137001
 30
0.0
 40
4.000000000000004
 50
180.0
 51
0.0
  0
LINE
  5
352
  8
0
  6
CONTINUOUS
 62
     7
 10
470.5707584939001
 20
576.1375772137
 30
0.0
 11
470.5707584939001
 21
559.1375772137
 31
0.0
  0
LINE
  5
353
  8
0
  6
CONTINUOUS
 62
     7
 10
461.5707584939001
 20
576.1375772137
 30
0.0
 11
461.5707584939001
 21
559.1375772137
 31
0.0
  0
ARC
  5
354
  8
0
  6
CONTINUOUS
 62
     7
 10
460.0707584939
 20
575.6375772137
 30
0.0
 40
0.4999999999999449
 50
0.0
 51
90.0
  0
ARC
  5
355
  8
0
  6
CONTINUOUS
 62
     7
 10
430.5707584939001
 20
559.1375772137001
 30
0.0
 40
8.499999999999952
 50
180.0
 51
0.0
  0
LINE
  5
356
  8
0
  6
CONTINUOUS
 62
     7
 10
1262.8398139435
 20
881.4295623835001
 30
0.0
 11
1212.8398139435
 21
881.4295623835001
 31
0.0
  0
ARC
  5
357
  8
0
  6
CONTINUOUS
 62
     7
 10
466.5707584939001
 20
559.1375772137001
 30
0.0
 40
6.000000000000005
 50
180.0
 51
0.0
  0
ARC
  5
358
  8
0
  6
CONTINUOUS
 62
     7
 10
430.5707584939001
 20
559.1375772137001
 30
0.0
 40
6.000000000000005
 50
180.0
 51
0.0
  0
LINE
  5
359
  8
0
  6
CONTINUOUS
 62
     7
 10
475.0707584939001
 20
573.1375772137
 30
0.0
 11
475.0707584939001
 21
559.1375772137
 31
0.0
  0
ARC
  5
35A
  8
0
  6
CONTINUOUS
 62
     7
 10
475.5707584939001
 20
573.1375772137
 30
0.0
 40
0.4999999999999449
 50
90.0
 51
180.0
  0
ARC
  5
35B
  8
0
  6
CONTINUOUS
 62
     7
 10
430.5707584939001
 20
559.1375772137001
 30
0.0
 40
4.000000000000004
 50
180.0
 51
0.0
  0
ARC
  5
35C
  8
0
  6
CONTINUOUS
 62
     7
 10
466.5707584939001
 20
559.1375772137001
 30
0.0
 40
8.499999999999952
 50
180.0
 51
0.0
  0
LINE
  5
35D
  8
0
  6
CONTINUOUS
 62
     7
 10
425.5707584939001
 20
576.1375772137
 30
0.0
 11
425.5707584939001
 21
559.1375772137
 31
0.0
  0
LINE
  5
35E
  8
0
  6
CONTINUOUS
 62
     7
 10
426.5707584939001
 20
576.1375772137
 30
0.0
 11
426.5707584939001
 21
559.1375772137
 31
0.0
  0
LINE
  5
35F
  8
0
  6
CONTINUOUS
 62
     7
 10
434.5707584939001
 20
576.1375772137
 30
0.0
 11
434.5707584939001
 21
559.1375772137
 31
0.0
  0
LINE
  5
360
  8
0
  6
CONTINUOUS
 62
     7
 10
471.5707584939001
 20
576.1375772137
 30
0.0
 11
471.5707584939001
 21
559.1375772137
 31
0.0
  0
LINE
  5
361
  8
0
  6
CONTINUOUS
 62
     7
 10
384.0707584939001
 20
567.1375772137
 30
0.0
 11
394.0707584939001
 21
567.1375772137
 31
0.0
  0
LINE
  5
362
  8
0
  6
CONTINUOUS
 62
     7
 10
512.5707584938999
 20
576.1375772137
 30
0.0
 11
512.5707584938999
 21
573.6375772136998
 31
0.0
  0
ARC
  5
363
  8
0
  6
CONTINUOUS
 62
     7
 10
457.5707584939001
 20
573.1375772137
 30
0.0
 40
0.4999999999999449
 50
0.0
 51
90.0
  0
LINE
  5
364
  8
0
  6
CONTINUOUS
 62
     7
 10
435.5707584939001
 20
576.1375772137
 30
0.0
 11
435.5707584939001
 21
559.1375772137
 31
0.0
  0
LINE
  5
365
  8
0
  6
CONTINUOUS
 62
     7
 10
513.0707584938998
 20
567.1375772137
 30
0.0
 11
513.0707584938998
 21
569.6375772136998
 31
0.0
  0
LINE
  5
366
  8
0
  6
CONTINUOUS
 62
     7
 10
439.0707584939
 20
573.1375772137
 30
0.0
 11
439.0707584939
 21
559.1375772137
 31
0.0
  0
ARC
  5
367
  8
0
  6
CONTINUOUS
 62
     7
 10
510.3616139137998
 20
565.6375772137
 30
0.0
 40
0.9999999999998899
 50
178.5
 51
270.0
  0
LINE
  5
368
  8
0
  6
CONTINUOUS
 62
     7
 10
384.0707584939001
 20
569.6375772137
 30
0.0
 11
384.0707584939001
 21
564.6375772137
 31
0.0
  0
LINE
  5
369
  8
0
  6
CONTINUOUS
 62
     7
 10
509.4660148075998
 20
569.6375772137
 30
0.0
 11
509.5707584939
 21
573.6375772137
 31
0.0
  0
LINE
  5
36A
  8
0
  6
CONTINUOUS
 62
     7
 10
475.5707584939001
 20
573.6375772137
 30
0.0
 11
512.5707584938999
 21
573.6375772137
 31
0.0
  0
LINE
  5
36B
  8
0
  6
CONTINUOUS
 62
     7
 10
472.5707584939001
 20
575.6375772137
 30
0.0
 11
472.5707584939001
 21
559.1375772137001
 31
0.0
  0
LINE
  5
36C
  8
0
  6
CONTINUOUS
 62
     7
 10
513.0707584938998
 20
569.6375772137
 30
0.0
 11
503.0707584939
 21
569.6375772137
 31
0.0
  0
LINE
  5
36D
  8
0
  6
CONTINUOUS
 62
     7
 10
507.2271185135
 20
484.1375772137
 30
0.0
 11
509.4005500037
 21
567.1375772137
 31
0.0
  0
LINE
  5
36E
  8
0
  6
CONTINUOUS
 62
     7
 10
462.5707584939001
 20
576.1375772137
 30
0.0
 11
462.5707584939001
 21
559.1375772137
 31
0.0
  0
LINE
  5
36F
  8
0
  6
CONTINUOUS
 62
     7
 10
458.0707584939
 20
573.1375772137
 30
0.0
 11
458.0707584939
 21
559.1375772137
 31
0.0
  0
ARC
  5
370
  8
0
  6
CONTINUOUS
 62
     7
 10
473.0707584939
 20
575.6375772137
 30
0.0
 40
0.4999999999999449
 50
90.0
 51
180.0
  0
LINE
  5
371
  8
0
  6
CONTINUOUS
 62
     7
 10
460.5707584939001
 20
575.6375772137
 30
0.0
 11
460.5707584939001
 21
559.1375772137001
 31
0.0
  0
LINE
  5
372
  8
0
  6
CONTINUOUS
 62
     7
 10
384.5707584939
 20
573.6375772137
 30
0.0
 11
384.5707584939
 21
576.1375772137001
 31
0.0
  0
ARC
  5
373
  8
0
  6
CONTINUOUS
 62
     7
 10
424.0707584939001
 20
575.6375772137
 30
0.0
 40
0.4999999999999449
 50
0.0
 51
90.0
  0
ARC
  5
374
  8
0
  6
CONTINUOUS
 62
     7
 10
421.5707584939001
 20
573.1375772137
 30
0.0
 40
0.4999999999999449
 50
0.0
 51
90.0
  0
LINE
  5
375
  8
0
  6
CENTER
 62
     7
 10
455.0707584939
 20
559.1375772137001
 30
0.0
 11
478.0707584939001
 21
559.1375772137001
 31
0.0
  0
LINE
  5
376
  8
0
  6
CONTINUOUS
 62
     7
 10
384.5707584939
 20
576.1375772137
 30
0.0
 11
512.5707584938999
 21
576.1375772137
 31
0.0
  0
LINE
  5
377
  8
0
  6
CONTINUOUS
 62
     7
 10
429.5707584939001
 20
554.2385977281
 30
0.0
 11
429.8207584939
 21
553.1846367638
 31
0.0
  0
LINE
  5
378
  8
0
  6
CONTINUOUS
 62
     7
 10
422.0707584939001
 20
573.1375772137
 30
0.0
 11
422.0707584939001
 21
559.1375772137
 31
0.0
  0
LINE
  5
379
  8
0
  6
CENTER
 62
     7
 10
442.0707584939
 20
559.1375772137001
 30
0.0
 11
419.0707584939001
 21
559.1375772137001
 31
0.0
  0
LINE
  5
37A
  8
0
  6
CONTINUOUS
 62
     7
 10
394.0707584939001
 20
569.6375772137
 30
0.0
 11
384.0707584939001
 21
569.6375772137
 31
0.0
  0
ARC
  5
37B
  8
0
  6
CONTINUOUS
 62
     7
 10
439.5707584939001
 20
573.1375772137
 30
0.0
 40
0.4999999999999449
 50
90.0
 51
180.0
  0
LINE
  5
37C
  8
0
  6
CENTER
 62
     7
 10
466.5707584939001
 20
547.6375772137
 30
0.0
 11
466.5707584939001
 21
579.1375772137
 31
0.0
  0
ARC
  5
37D
  8
0
  6
CONTINUOUS
 62
     7
 10
430.5707584939001
 20
559.1375772137001
 30
0.0
 40
5.000000000000004
 50
281.5369590328
 51
0.0
  0
LINE
  5
37E
  8
0
  6
CONTINUOUS
 62
     7
 10
431.3207584939001
 20
553.1846367638
 30
0.0
 11
431.5707584939001
 21
554.2385977281
 31
0.0
  0
LINE
  5
37F
  8
0
  6
CONTINUOUS
 62
     7
 10
436.5707584939001
 20
574.6375772137
 30
0.0
 11
435.5707584939001
 21
574.1375772137001
 31
0.0
  0
ARC
  5
380
  8
0
  6
CONTINUOUS
 62
     7
 10
430.5707584939001
 20
559.1375772137001
 30
0.0
 40
5.000000000000004
 50
180.0
 51
258.4630409672
  0
ARC
  5
381
  8
0
  6
CONTINUOUS
 62
     7
 10
437.0707584939
 20
575.6375772137
 30
0.0
 40
0.4999999999999449
 50
90.0
 51
180.0
  0
LINE
  5
382
  8
0
  6
CONTINUOUS
 62
     7
 10
457.5707584939001
 20
573.6375772137
 30
0.0
 11
439.5707584939001
 21
573.6375772137
 31
0.0
  0
LINE
  5
383
  8
0
  6
CONTINUOUS
 62
     7
 10
436.5707584939001
 20
575.6375772137
 30
0.0
 11
436.5707584939001
 21
559.1375772137001
 31
0.0
  0
LINE
  5
384
  8
0
  6
CONTINUOUS
 62
     7
 10
424.5707584939001
 20
574.6375772137
 30
0.0
 11
425.5707584939001
 21
574.1375772137001
 31
0.0
  0
LINE
  5
385
  8
0
  6
CENTER
 62
     7
 10
430.5707584939001
 20
547.6375772137
 30
0.0
 11
430.5707584939001
 21
579.1375772137
 31
0.0
  0
LINE
  5
386
  8
0
  6
CONTINUOUS
 62
     7
 10
421.5707584939001
 20
573.6375772137
 30
0.0
 11
384.5707584939
 21
573.6375772137
 31
0.0
  0
LINE
  5
387
  8
0
  6
CONTINUOUS
 62
     7
 10
424.5707584939001
 20
575.6375772137
 30
0.0
 11
424.5707584939001
 21
559.1375772137001
 31
0.0
  0
ARC
  5
388
  8
0
  6
CONTINUOUS
 62
     7
 10
466.5707584939001
 20
559.1375772137001
 30
0.0
 40
5.000000000000004
 50
281.5369590328
 51
0.0
  0
LINE
  5
389
  8
0
  6
CONTINUOUS
 62
     7
 10
465.5707584939001
 20
554.2385977281
 30
0.0
 11
465.8207584939001
 21
553.1846367638
 31
0.0
  0
ARC
  5
38A
  8
0
  6
CONTINUOUS
 62
     7
 10
466.5707584939001
 20
559.1375772137001
 30
0.0
 40
5.000000000000004
 50
180.0
 51
258.4630409672
  0
LINE
  5
38B
  8
0
  6
CONTINUOUS
 62
     7
 10
467.3207584939001
 20
553.1846367638
 30
0.0
 11
467.5707584939001
 21
554.2385977281
 31
0.0
  0
LINE
  5
38C
  8
0
  6
CONTINUOUS
 62
     7
 10
472.5707584939001
 20
574.6375772137
 30
0.0
 11
471.5707584939001
 21
574.1375772137001
 31
0.0
  0
LINE
  5
38D
  8
0
  6
CONTINUOUS
 62
     7
 10
460.5707584939001
 20
574.6375772137
 30
0.0
 11
461.5707584939001
 21
574.1375772137001
 31
0.0
  0
LINE
  5
38E
  8
1
  6
CONTINUOUS
 62
     7
 10
728.5707584939
 20
484.1375772137
 30
0.0
 11
743.5707584939
 21
489.1375772137
 31
0.0
  0
ARC
  5
38F
  8
1
  6
CONTINUOUS
 62
     7
 10
688.5533809151
 20
519.1375772137
 30
0.0
 40
2.0
 50
180.5
 51
270.0
  0
ARC
  5
390
  8
1
  6
CONTINUOUS
 62
     7
 10
676.070758454
 20
563.1375772137
 30
0.0
 40
2.0
 50
48.5903778907
 51
90.0
  0
LINE
  5
391
  8
1
  6
CONTINUOUS
 62
     7
 10
689.9143984743
 20
484.1375772137
 30
0.0
 11
728.5707584939
 21
484.1375772137
 31
0.0
  0
CIRCLE
  5
392
  8
1
  6
CONTINUOUS
 62
     7
 10
783.5707584939
 20
536.6375772137
 30
0.0
 40
13.9
  0
LINE
  5
393
  8
1
  6
CONTINUOUS
 62
     7
 10
760.5707584939
 20
565.1375772137
 30
0.0
 11
760.5707584939
 21
559.1375772137
 31
0.0
  0
LINE
  5
394
  8
1
  6
CONTINUOUS
 62
     7
 10
762.5707584939
 20
565.1375772137
 30
0.0
 11
762.5707584939
 21
559.1375772137
 31
0.0
  0
ARC
  5
395
  8
1
  6
CONTINUOUS
 62
     7
 10
821.0707584939
 20
558.1375772137
 30
0.0
 40
6.5
 50
270.0
 51
90.0
  0
ARC
  5
396
  8
1
  6
CONTINUOUS
 62
     7
 10
766.5707584939
 20
559.1375772137
 30
0.0
 40
8.5
 50
180.0
 51
0.0
  0
LINE
  5
397
  8
1
  6
CONTINUOUS
 62
     7
 10
687.806431788
 20
564.6375772137
 30
0.0
 11
667.5707584939
 21
564.6375772137
 31
0.0
  0
ARC
  5
398
  8
1
  6
CONTINUOUS
 62
     7
 10
730.5707584939
 20
559.1375772137
 30
0.0
 40
8.5
 50
180.0
 51
0.0
  0
LINE
  5
399
  8
1
  6
CONTINUOUS
 62
     7
 10
686.2391375178
 20
555.1375772137
 30
0.0
 11
684.7391375178
 21
556.6375772137
 31
0.0
  0
LINE
  5
39A
  8
1
  6
CONTINUOUS
 62
     7
 10
678.0707584939
 20
559.1375772137
 30
0.0
 11
678.0707584939
 21
559.6375772137
 31
0.0
  0
ARC
  5
39B
  8
1
  6
CONTINUOUS
 62
     7
 10
810.3616139138
 20
565.6375772137
 30
0.0
 40
1.0
 50
210.0
 51
270.0
  0
LINE
  5
39C
  8
1
  6
CONTINUOUS
 62
     7
 10
809.9154419461
 20
551.1762012741
 30
0.0
 11
821.0707584939
 21
551.6375772137
 31
0.0
  0
LINE
  5
39D
  8
1
  6
CONTINUOUS
 62
     7
 10
686.6309675094
 20
557.4892336159
 30
0.0
 11
682.2585267121
 21
559.2175029735
 31
0.0
  0
LINE
  5
39E
  8
1
  6
CONTINUOUS
 62
     7
 10
686.553457069
 20
519.1201241427
 30
0.0
 11
686.2163901087
 21
557.7441721165
 31
0.0
  0
LINE
  5
39F
  8
1
  6
CONTINUOUS
 62
     7
 10
684.7391375178
 20
556.6375772137
 30
0.0
 11
684.7391375178
 21
558.237006303
 31
0.0
  0
CIRCLE
  5
3A0
  8
1
  6
CONTINUOUS
 62
     7
 10
713.5707584939
 20
536.6375772137
 30
0.0
 40
13.9
  0
LINE
  5
3A1
  8
1
  6
CONTINUOUS
 62
     7
 10
724.5707584939
 20
565.1375772137
 30
0.0
 11
724.5707584939
 21
559.1375772137
 31
0.0
  0
ARC
  5
3A2
  8
1
  6
CONTINUOUS
 62
     7
 10
730.5707584939
 20
559.1375772137
 30
0.0
 40
6.0
 50
180.0
 51
0.0
  0
LINE
  5
3A3
  8
1
  6
CONTINUOUS
 62
     7
 10
667.5707584939
 20
560.6375772137
 30
0.0
 11
667.5707584939
 21
564.6375772137
 31
0.0
  0
LINE
  5
3A4
  8
1
  6
CONTINUOUS
 62
     7
 10
676.070758454
 20
565.1375772137
 30
0.0
 11
667.5707584939
 21
565.1375772137
 31
0.0
  0
LINE
  5
3A5
  8
1
  6
CONTINUOUS
 62
     7
 10
688.5533809151
 20
517.1375772137
 30
0.0
 11
689.0502630626
 21
517.1375772137
 31
0.0
  0
LINE
  5
3A6
  8
1
  6
CONTINUOUS
 62
     7
 10
680.5707584939
 20
559.1375772137
 30
0.0
 11
678.0707584939
 21
559.1375772137
 31
0.0
  0
LINE
  5
3A7
  8
1
  6
CONTINUOUS
 62
     7
 10
808.1429401834
 20
517.1375772137
 30
0.0
 11
808.0912539252
 21
517.1375772137
 31
0.0
  0
CIRCLE
  5
3A8
  8
1
  6
CONTINUOUS
 62
     7
 10
783.5707584939
 20
536.6375772137
 30
0.0
 40
11.9
  0
LINE
  5
3A9
  8
1
  6
CONTINUOUS
 62
     7
 10
808.6024704251
 20
517.1375772137
 30
0.0
 11
808.1429401834
 21
517.1375772137
 31
0.0
  0
LINE
  5
3AA
  8
1
  6
CONTINUOUS
 62
     7
 10
736.5707584939
 20
565.1375772137
 30
0.0
 11
736.5707584939
 21
559.1375772137
 31
0.0
  0
LINE
  5
3AB
  8
1
  6
CONTINUOUS
 62
     7
 10
807.2271185135
 20
484.1375772137
 30
0.0
 11
809.3481781606
 21
565.1375772137
 31
0.0
  0
LINE
  5
3AC
  8
1
  6
CONTINUOUS
 62
     7
 10
772.5707584939
 20
565.1375772137
 30
0.0
 11
772.5707584939
 21
559.1375772137
 31
0.0
  0
CIRCLE
  5
3AD
  8
1
  6
CONTINUOUS
 62
     7
 10
713.5707584939
 20
536.6375772137
 30
0.0
 40
11.9
  0
CIRCLE
  5
3AE
  8
1
  6
CONTINUOUS
 62
     7
 10
674.5707584939
 20
783.6808087791
 30
0.0
 40
3.5
  0
LINE
  5
3AF
  8
1
  6
CONTINUOUS
 62
     7
 10
739.0707584939
 20
565.1375772137
 30
0.0
 11
739.0707584939
 21
559.1375772137
 31
0.0
  0
ARC
  5
3B0
  8
1
  6
CONTINUOUS
 62
     7
 10
730.5707584939
 20
559.1375772137
 30
0.0
 40
4.0
 50
180.0
 51
0.0
  0
LINE
  5
3B1
  8
1
  6
CONTINUOUS
 62
     7
 10
678.7241514917
 20
815.5387620866
 30
0.0
 11
670.3406689972
 21
814.8938788178
 31
0.0
  0
LINE
  5
3B2
  8
1
  6
CONTINUOUS
 62
     7
 10
680.5707584939
 20
565.1375772137
 30
0.0
 11
680.5707584939
 21
564.6375772137
 31
0.0
  0
LINE
  5
3B3
  8
1
  6
CONTINUOUS
 62
     7
 10
680.5707584939
 20
559.1375772137
 30
0.0
 11
681.084164018
 21
559.548301633
 31
0.0
  0
ARC
  5
3B4
  8
1
  6
CONTINUOUS
 62
     7
 10
808.6024704251
 20
519.1375772137
 30
0.0
 40
2.0
 50
270.0
 51
359.0842796147999
  0
ARC
  5
3B5
  8
1
  6
CONTINUOUS
 62
     7
 10
685.05950715
 20
554.9337469032
 30
0.0
 40
3.0
 50
1.5
 51
58.4111517897
  0
LINE
  5
3B6
  8
1
  6
CONTINUOUS
 62
     7
 10
680.5707584939
 20
559.6375772137
 30
0.0
 11
680.5707584939
 21
559.1375772137
 31
0.0
  0
LINE
  5
3B7
  8
1
  6
CONTINUOUS
 62
     7
 10
726.5707584939
 20
565.1375772137
 30
0.0
 11
726.5707584939
 21
559.1375772137
 31
0.0
  0
LINE
  5
3B8
  8
1
  6
CONTINUOUS
 62
     7
 10
668.5707584939
 20
559.6375772137
 30
0.0
 11
680.0529817646
 21
559.6375772137
 31
0.0
  0
LINE
  5
3B9
  8
1
  6
CONTINUOUS
 62
     7
 10
734.5707584939
 20
565.1375772137
 30
0.0
 11
734.5707584939
 21
559.1375772137
 31
0.0
  0
LINE
  5
3BA
  8
1
  6
CONTINUOUS
 62
     7
 10
768.5707584939
 20
484.1375772137
 30
0.0
 11
807.2271185135
 21
484.1375772137
 31
0.0
  0
LINE
  5
3BB
  8
1
  6
CONTINUOUS
 62
     7
 10
758.0707584939
 20
565.1375772137
 30
0.0
 11
758.0707584939
 21
559.1375772137
 31
0.0
  0
LINE
  5
3BC
  8
1
  6
CONTINUOUS
 62
     7
 10
775.0707584939
 20
565.1375772137
 30
0.0
 11
775.0707584939
 21
559.1375772137
 31
0.0
  0
LINE
  5
3BD
  8
1
  6
CONTINUOUS
 62
     7
 10
743.5707584939
 20
489.1375772137
 30
0.0
 11
753.5707584939
 21
489.1375772137
 31
0.0
  0
LINE
  5
3BE
  8
1
  6
CONTINUOUS
 62
     7
 10
810.3616139138
 20
564.6375772137
 30
0.0
 11
821.0707584939
 21
564.6375772137
 31
0.0
  0
LINE
  5
3BF
  8
1
  6
CONTINUOUS
 62
     7
 10
722.0707584939
 20
565.1375772137
 30
0.0
 11
722.0707584939
 21
559.1375772137
 31
0.0
  0
CIRCLE
  5
3C0
  8
1
  6
CONTINUOUS
 62
     7
 10
748.5707584939
 20
540.6375772137
 30
0.0
 40
7.0
  0
LINE
  5
3C1
  8
1
  6
CONTINUOUS
 62
     7
 10
770.5707584939
 20
565.1375772137
 30
0.0
 11
770.5707584939
 21
559.1375772137
 31
0.0
  0
ARC
  5
3C2
  8
1
  6
CONTINUOUS
 62
     7
 10
766.5707584939
 20
559.1375772137
 30
0.0
 40
4.0
 50
180.0
 51
0.0
  0
LINE
  5
3C3
  8
1
  6
CONTINUOUS
 62
     7
 10
688.9985768044
 20
517.1375772137
 30
0.0
 11
689.0502630626
 21
517.1375772137
 31
0.0
  0
LINE
  5
3C4
  8
1
  6
CENTER
 62
     7
 10
748.5707584939
 20
607.9593951439
 30
0.0
 11
748.5707584939
 21
476.9270590378
 31
0.0
  0
ARC
  5
3C5
  8
1
  6
CONTINUOUS
 62
     7
 10
766.5707584939
 20
559.1375772137
 30
0.0
 40
6.0
 50
180.0
 51
0.0
  0
LINE
  5
3C6
  8
1
  6
CONTINUOUS
 62
     7
 10
814.5707584939
 20
564.6375772137
 30
0.0
 11
814.5707584939
 21
565.1375772137
 31
0.0
  0
ARC
  5
3C7
  8
1
  6
CONTINUOUS
 62
     7
 10
668.5707584939
 20
560.6375772137
 30
0.0
 40
1.0
 50
180.0
 51
270.0
  0
LINE
  5
3C8
  8
1
  6
CONTINUOUS
 62
     7
 10
810.6022149954
 20
519.105613903
 30
0.0
 11
811.1156149406
 21
551.2258395736
 31
0.0
  0
LINE
  5
3C9
  8
1
  6
CONTINUOUS
 62
     7
 10
753.5707584939
 20
489.1375772137
 30
0.0
 11
768.5707584939
 21
484.1375772137
 31
0.0
  0
ARC
  5
3CA
  8
1
  6
CONTINUOUS
 62
     7
 10
809.9567659041
 20
550.1770554737
 30
0.0
 40
1.0
 50
92.3683627757
 51
178.5
  0
CIRCLE
  5
3CB
  8
1
  6
CONTINUOUS
 62
     7
 10
821.0707584939
 20
558.1375772137
 30
0.0
 40
3.15
  0
LINE
  5
3CC
  8
1
  6
CONTINUOUS
 62
     7
 10
689.9143984743
 20
484.1375772137
 30
0.0
 11
687.7933388272
 21
565.1375772137
 31
0.0
  0
CIRCLE
  5
3CD
  8
1
  6
CONTINUOUS
 62
     7
 10
748.5707584939
 20
540.6375772137
 30
0.0
 40
10.0
  0
LINE
  5
3CE
  8
1
  6
CONTINUOUS
 62
     7
 10
817.5707584941
 20
611.137577214
 30
0.0
 11
679.5707584941
 21
611.137577214
 31
0.0
  0
ARC
  5
3CF
  8
1
  6
CONTINUOUS
 62
     7
 10
817.5707584941
 20
608.137577214
 30
0.0
 40
3.0
 50
0.0
 51
90.0
  0
ARC
  5
3D0
  8
1
  6
CONTINUOUS
 62
     7
 10
816.3447935625
 20
585.1781864816
 30
0.0
 40
4.0
 50
182.0
 51
259.4341499695
  0
ARC
  5
3D1
  8
1
  6
CONTINUOUS
 62
     7
 10
707.6211392266
 20
914.8469081808
 30
0.0
 40
3.0
 50
23.9624889746
 51
90.0
  0
ARC
  5
3D2
  8
1
  6
CONTINUOUS
 62
     7
 10
687.3576948963
 20
601.137577214
 30
0.0
 40
2.0
 50
90.0
 51
178.0
  0
LINE
  5
3D3
  8
1
  6
CONTINUOUS
 62
     7
 10
669.0707584939
 20
793.8760706876
 30
0.0
 11
669.0707584939
 21
812.3657309309
 31
0.0
  0
LINE
  5
3D4
  8
1
  6
CONTINUOUS
 62
     7
 10
692.8589132422
 20
604.137577214
 30
0.0
 11
804.282603746
 21
604.137577214
 31
0.0
  0
LINE
  5
3D5
  8
1
  6
CONTINUOUS
 62
     7
 10
812.5606478784
 20
578.927107365
 30
0.0
 11
811.782603746
 21
601.2073762074
 31
0.0
  0
ARC
  5
3D6
  8
1
  6
CONTINUOUS
 62
     7
 10
808.6024704253
 20
519.137577214
 30
0.0
 40
2.0
 50
270.0
 51
359.0842796147999
  0
LINE
  5
3D7
  8
1
  6
CONTINUOUS
 62
     7
 10
684.7391375181
 20
556.637577214
 30
0.0
 11
684.7391375181
 21
558.6525876745
 31
0.0
  0
ARC
  5
3D8
  8
1
  6
CONTINUOUS
 62
     7
 10
670.0707584939
 20
793.8760706876
 30
0.0
 40
1.0
 50
180.0
 51
274.398705355
  0
ARC
  5
3D9
  8
1
  6
CONTINUOUS
 62
     7
 10
679.5707584939
 20
794.6068399183
 30
0.0
 40
1.0
 50
274.3987053551
 51
0.0
  0
LINE
  5
3DA
  8
1
  6
CONTINUOUS
 62
     7
 10
673.5707584939
 20
931.6469081808
 30
0.0
 11
673.5707584939
 21
917.8469081808
 31
0.0
  0
ARC
  5
3DB
  8
1
  6
CONTINUOUS
 62
     7
 10
817.5707584941
 20
608.137577214
 30
0.0
 40
6.0
 50
0.0
 51
90.0
  0
LINE
  5
3DC
  8
1
  6
CONTINUOUS
 62
     7
 10
679.5707584941
 20
614.137577214
 30
0.0
 11
817.5707584941
 21
614.137577214
 31
0.0
  0
ARC
  5
3DD
  8
1
  6
CONTINUOUS
 62
     7
 10
679.5707584941
 20
608.137577214
 30
0.0
 40
6.0
 50
90.0
 51
180.0
  0
LINE
  5
3DE
  8
1
  6
CONTINUOUS
 62
     7
 10
685.6207584941
 20
487.137577214
 30
0.0
 11
685.6207584941
 21
514.137577214
 31
0.0
  0
LINE
  5
3DF
  8
1
  6
CONTINUOUS
 62
     7
 10
673.5707584939
 20
917.8469081808
 30
0.0
 11
823.5707584939
 21
917.8469081808
 31
0.0
  0
ARC
  5
3E0
  8
1
  6
CONTINUOUS
 62
     7
 10
820.5707584939
 20
919.8469081808
 30
0.0
 40
3.0
 50
0.0
 51
90.0
  0
ARC
  5
3E1
  8
1
  6
CONTINUOUS
 62
     7
 10
809.7838220919
 20
601.137577214
 30
0.0
 40
2.0
 50
2.0
 51
90.0
  0
LINE
  5
3E2
  8
1
  6
CONTINUOUS
 62
     7
 10
786.7789431153
 20
916.065323579
 30
0.0
 11
786.1636032042
 21
914.6808087791
 31
0.0
  0
LINE
  5
3E3
  8
1
  6
CONTINUOUS
 62
     7
 10
679.494061995
 20
792.0935546472
 30
0.0
 11
669.994061995
 21
791.3627854164
 31
0.0
  0
ARC
  5
3E4
  8
1
  6
CONTINUOUS
 62
     7
 10
679.5707584939
 20
774.2592089641
 30
0.0
 40
1.0
 50
0.0
 51
85.6012946451
  0
LINE
  5
3E5
  8
1
  6
CONTINUOUS
 62
     7
 10
685.6207584939
 20
913.7676808567
 30
0.0
 11
685.6207584939
 21
917.8469081808
 31
0.0
  0
LINE
  5
3E6
  8
1
  6
CONTINUOUS
 62
     7
 10
679.6474549928
 20
793.6097854328
 30
0.0
 11
670.1474549928
 21
792.8790162021
 31
0.0
  0
LINE
  5
3E7
  8
1
  6
CONTINUOUS
 62
     7
 10
814.5207584939
 20
917.8469081808
 30
0.0
 11
814.5207584939
 21
911.3989815642
 31
0.0
  0
LINE
  5
3E8
  8
1
  6
CONTINUOUS
 62
     7
 10
811.5207584939
 20
913.7676808567
 30
0.0
 11
811.5207584939
 21
917.8469081808
 31
0.0
  0
LINE
  5
3E9
  8
1
  6
CONTINUOUS
 62
     7
 10
820.5707584939
 20
934.6469081808
 30
0.0
 11
676.5707584939
 21
934.6469081808
 31
0.0
  0
LINE
  5
3EA
  8
1
  6
CONTINUOUS
 62
     7
 10
692.1922465756
 20
603.137577214
 30
0.0
 11
692.8589132422
 21
604.137577214
 31
0.0
  0
LINE
  5
3EB
  8
1
  6
CONTINUOUS
 62
     7
 10
808.1429401836
 20
517.137577214
 30
0.0
 11
808.0912539254
 21
517.137577214
 31
0.0
  0
LINE
  5
3EC
  8
1
  6
CONTINUOUS
 62
     7
 10
804.282603746
 20
604.137577214
 30
0.0
 11
804.9492704126
 21
603.137577214
 31
0.0
  0
LINE
  5
3ED
  8
1
  6
CONTINUOUS
 62
     7
 10
810.6022149956
 20
519.1056139033
 30
0.0
 11
811.1156149408
 21
551.2258395738
 31
0.0
  0
ARC
  5
3EE
  8
1
  6
CONTINUOUS
 62
     7
 10
688.5533809153
 20
519.137577214
 30
0.0
 40
2.0
 50
180.5
 51
270.0
  0
ARC
  5
3EF
  8
1
  6
CONTINUOUS
 62
     7
 10
676.5707584939
 20
931.6469081808
 30
0.0
 40
3.0
 50
90.0
 51
180.0
  0
LINE
  5
3F0
  8
1
  6
CONTINUOUS
 62
     7
 10
682.6207584939
 20
911.3989815642
 30
0.0
 11
682.6207584939
 21
917.8469081808
 31
0.0
  0
LINE
  5
3F1
  8
1
  6
CONTINUOUS
 62
     7
 10
809.7838220919
 20
603.137577214
 30
0.0
 11
687.3576948963
 21
603.137577214
 31
0.0
  0
ARC
  5
3F2
  8
1
  6
CONTINUOUS
 62
     7
 10
670.0707584939
 20
812.3657309309
 30
0.0
 40
1.0
 50
94.398705355
 51
180.0
  0
LINE
  5
3F3
  8
1
  6
CONTINUOUS
 62
     7
 10
678.7241514917
 20
773.8228554716
 30
0.0
 11
670.3406689972
 21
774.4677387404
 31
0.0
  0
ARC
  5
3F4
  8
1
  6
CONTINUOUS
 62
     7
 10
679.5707584939
 20
815.1024085941
 30
0.0
 40
1.0
 50
274.3987053551
 51
0.0
  0
ARC
  5
3F5
  8
1
  6
CONTINUOUS
 62
     7
 10
680.0529817646
 20
553.6375772137
 30
0.0
 40
6.0
 50
68.4328862859
 51
90.0
  0
ARC
  5
3F6
  8
1
  6
CONTINUOUS
 62
     7
 10
820.5707584939
 20
931.6469081808
 30
0.0
 40
3.0
 50
0.0
 51
90.0
  0
ARC
  5
3F7
  8
1
  6
CONTINUOUS
 62
     7
 10
789.5203777612
 20
914.8469081808
 30
0.0
 40
3.0
 50
90.0
 51
156.0375110254
  0
LINE
  5
3F8
  8
1
  6
CONTINUOUS
 62
     7
 10
679.6474549928
 20
814.1053541086
 30
0.0
 11
669.994061995
 21
813.3627854164
 31
0.0
  0
LINE
  5
3F9
  8
1
  6
CONTINUOUS
 62
     7
 10
676.5707584939
 20
922.8469081808
 30
0.0
 11
820.5707584939
 21
922.8469081808
 31
0.0
  0
ARC
  5
3FA
  8
1
  6
CONTINUOUS
 62
     7
 10
678.5707584939
 20
771.8287465006
 30
0.0
 40
2.0
 50
0.0
 51
85.6012946451
  0
ARC
  5
3FB
  8
1
  6
CONTINUOUS
 62
     7
 10
678.5707584939
 20
817.5328710576
 30
0.0
 40
2.0
 50
274.398705355
 51
0.0
  0
LINE
  5
3FC
  8
1
  6
CONTINUOUS
 62
     7
 10
823.5707584939
 20
931.6469081808
 30
0.0
 11
823.5707584939
 21
917.8469081808
 31
0.0
  0
ARC
  5
3FD
  8
1
  6
CONTINUOUS
 62
     7
 10
676.5707584939
 20
919.8469081808
 30
0.0
 40
3.0
 50
90.0
 51
180.0
  0
LINE
  5
3FE
  8
1
  6
CONTINUOUS
 62
     7
 10
679.6474549928
 20
775.2562634496
 30
0.0
 11
669.994061995
 21
775.9988321417
 31
0.0
  0
LINE
  5
3FF
  8
1
  6
CONTINUOUS
 62
     7
 10
669.0707584939
 20
776.9958866272
 30
0.0
 11
669.0707584939
 21
790.3657309309
 31
0.0
  0
ARC
  5
400
  8
1
  6
CONTINUOUS
 62
     7
 10
679.5707584939
 20
791.0965001617
 30
0.0
 40
1.0
 50
0.0
 51
94.3987053549
  0
LINE
  5
401
  8
1
  6
CONTINUOUS
 62
     7
 10
684.5808691098
 20
578.927107365
 30
0.0
 11
685.3589132422
 21
601.2073762074
 31
0.0
  0
LINE
  5
402
  8
1
  6
CONTINUOUS
 62
     7
 10
808.6024704253
 20
517.137577214
 30
0.0
 11
808.1429401836
 21
517.137577214
 31
0.0
  0
LINE
  5
403
  8
1
  6
CONTINUOUS
 62
     7
 10
686.2391375181
 20
555.137577214
 30
0.0
 11
684.7391375181
 21
556.637577214
 31
0.0
  0
LINE
  5
404
  8
1
  6
CONTINUOUS
 62
     7
 10
688.5533809153
 20
517.137577214
 30
0.0
 11
689.0502630628
 21
517.137577214
 31
0.0
  0
LINE
  5
405
  8
1
  6
CONTINUOUS
 62
     7
 10
686.5534570692
 20
519.120124143
 30
0.0
 11
686.2163901089
 21
557.7441721168
 31
0.0
  0
ARC
  5
406
  8
1
  6
CONTINUOUS
 62
     7
 10
670.5707584939
 20
811.9027153613
 30
0.0
 40
3.0
 50
94.398705355
 51
180.0
  0
ARC
  5
407
  8
1
  6
CONTINUOUS
 62
     7
 10
670.5707584939
 20
777.4589021969
 30
0.0
 40
3.0
 50
180.0
 51
265.601294645
  0
ARC
  5
408
  8
1
  6
CONTINUOUS
 62
     7
 10
670.0707584939
 20
790.3657309309
 30
0.0
 40
1.0
 50
94.398705355
 51
180.0
  0
ARC
  5
409
  8
1
  6
CONTINUOUS
 62
     7
 10
670.0707584939
 20
776.9958866272
 30
0.0
 40
1.0
 50
180.0
 51
265.601294645
  0
LINE
  5
40A
  8
1
  6
CONTINUOUS
 62
     7
 10
710.9779137836
 20
914.6808087791
 30
0.0
 11
710.3625738725
 21
916.065323579
 31
0.0
  0
LINE
  5
40B
  8
1
  6
CONTINUOUS
 62
     7
 10
688.9985768046
 20
517.137577214
 30
0.0
 11
689.0502630628
 21
517.137577214
 31
0.0
  0
LINE
  5
40C
  8
1
  6
CONTINUOUS
 62
     7
 10
667.5707584939
 20
777.4589021969
 30
0.0
 11
667.5707584939
 21
811.9027153613
 31
0.0
  0
ARC
  5
40D
  8
1
  6
CONTINUOUS
 62
     7
 10
679.5707584941
 20
608.137577214
 30
0.0
 40
3.0
 50
90.0
 51
180.0
  0
ARC
  5
40E
  8
1
  6
CONTINUOUS
 62
     7
 10
895.8126286591
 20
918.6907832429
 30
0.0
 40
3.0
 50
95.18648109539998
 51
180.0
  0
LINE
  5
40F
  8
1
  6
CONTINUOUS
 62
     7
 10
673.5707584941
 20
484.137577214
 30
0.0
 11
689.9143984745
 21
484.137577214
 31
0.0
  0
LINE
  5
410
  8
1
  6
CONTINUOUS
 62
     7
 10
685.6207584941
 20
487.137577214
 30
0.0
 11
689.8358407098
 21
487.137577214
 31
0.0
  0
LINE
  5
411
  8
1
  6
CONTINUOUS
 62
     7
 10
673.5707584941
 20
559.6375772137
 30
0.0
 11
673.5707584941
 21
484.137577214
 31
0.0
  0
ARC
  5
412
  8
0
  6
CONTINUOUS
 62
     7
 10
1426.3842442028
 20
807.1795623835
 30
0.0
 40
3.000000000000114
 50
311.8103148958
 51
228.1896851042
  0
LINE
  5
413
  8
1
  6
CONTINUOUS
 62
     7
 10
1022.8126286591
 20
886.4308087791
 30
0.0
 11
942.8126286591
 21
886.4308087791
 31
0.0
  0
LINE
  5
414
  8
0
  6
CONTINUOUS
 62
     7
 10
1427.3842442028
 20
725.6795623835001
 30
0.0
 11
1426.8842442028
 21
725.6795623835001
 31
0.0
  0
ARC
  5
415
  8
1
  6
CONTINUOUS
 62
     7
 10
690.5707584939
 20
688.6808087791
 30
0.0
 40
6.0
 50
180.0
 51
270.0
  0
ARC
  5
416
  8
0
  6
CONTINUOUS
 62
     7
 10
1429.3842442028
 20
865.8254604173
 30
0.0
 40
1.499999999999613
 50
131.8103148958
 51
180.0
  0
LINE
  5
417
  8
1
  6
CONTINUOUS
 62
     7
 10
682.6207584941
 20
559.9552548516
 30
0.0
 11
682.6207584941
 21
484.137577214
 31
0.0
  0
LINE
  5
418
  8
0
  6
CENTER
 62
     1
 10
1193.8398139435
 20
702.1795623835002
 30
0.0
 11
1183.8805218
 21
696.4295623835002
 31
0.0
  0
LINE
  5
419
  8
1
  6
CONTINUOUS
 62
     7
 10
673.5707584941
 20
608.137577214
 30
0.0
 11
673.5707584941
 21
570.1375772137
 31
0.0
  0
LINE
  5
41A
  8
0
  6
CENTER
 62
     1
 10
1231.8398139435
 20
702.1795623835002
 30
0.0
 11
1221.8805218
 21
696.4295623835002
 31
0.0
  0
LINE
  5
41B
  8
0
  6
CONTINUOUS
 62
     7
 10
1427.8842442028
 20
803.8254604173
 30
0.0
 11
1427.8842442028
 21
784.7195623835
 31
0.0
  0
ARC
  5
41C
  8
1
  6
CONTINUOUS
 62
     7
 10
689.5707584939
 20
687.6808087791
 30
0.0
 40
9.0
 50
180.0
 51
270.0
  0
ARC
  5
41D
  8
0
  6
CONTINUOUS
 62
     7
 10
1429.3842442028
 20
803.8254604173
 30
0.0
 40
1.499999999999613
 50
131.8103148958
 51
180.0
  0
LINE
  5
41E
  8
0
  6
CENTER
 62
     7
 10
1231.8398139435
 20
690.6795623835002
 30
0.0
 11
1231.8398139435
 21
713.6795623835002
 31
0.0
  0
ARC
  5
41F
  8
0
  6
CONTINUOUS
 62
     7
 10
1423.3842442028
 20
803.8254604173
 30
0.0
 40
1.500000000000057
 50
0.0
 51
48.1896851042
  0
LINE
  5
420
  8
1
  6
CONTINUOUS
 62
     7
 10
1022.8126286591
 20
886.4308087791
 30
0.0
 11
1022.8126286591
 21
933.2308087791
 31
0.0
  0
LINE
  5
421
  8
1
  6
CONTINUOUS
 62
     7
 10
676.5707584941
 20
487.137577214
 30
0.0
 11
682.6207584941
 21
487.137577214
 31
0.0
  0
LINE
  5
422
  8
1
  6
CONTINUOUS
 62
     7
 10
942.8126286591
 20
886.4308087791
 30
0.0
 11
942.8126286591
 21
916.4308087791
 31
0.0
  0
LINE
  5
423
  8
1
  6
CONTINUOUS
 62
     7
 10
689.5938834941
 20
487.137577214
 30
0.0
 11
689.6707584941
 21
484.137577214
 31
0.0
  0
LINE
  5
424
  8
1
  6
CONTINUOUS
 62
     7
 10
814.5207584941
 20
487.137577214
 30
0.0
 11
820.5707584941
 21
487.137577214
 31
0.0
  0
LINE
  5
425
  8
1
  6
CONTINUOUS
 62
     7
 10
807.2271185137
 20
484.137577214
 30
0.0
 11
823.5707584941
 21
484.137577214
 31
0.0
  0
LINE
  5
426
  8
1
  6
CONTINUOUS
 62
     7
 10
808.2395084941
 20
514.137577214
 30
0.0
 11
808.3163834941
 21
517.137577214
 31
0.0
  0
LINE
  5
427
  8
1
  6
CONTINUOUS
 62
     7
 10
688.8251334941
 20
517.137577214
 30
0.0
 11
688.9020084941
 21
514.137577214
 31
0.0
  0
LINE
  5
428
  8
1
  6
CONTINUOUS
 62
     7
 10
676.5707584941
 20
608.137577214
 30
0.0
 11
676.5707584941
 21
570.1375772137
 31
0.0
  0
LINE
  5
429
  8
1
  6
CONTINUOUS
 62
     7
 10
823.5707584941
 20
552.137577214
 30
0.0
 11
823.5707584941
 21
484.137577214
 31
0.0
  0
LINE
  5
42A
  8
0
  6
CONTINUOUS
 62
     7
 10
1277.3398139435
 20
847.1795623835001
 30
0.0
 11
1291.8398139435
 21
847.1795623835001
 31
0.0
  0
LINE
  5
42B
  8
0
  6
CONTINUOUS
 62
     7
 10
1427.8842442028
 20
865.8254604173
 30
0.0
 11
1427.8842442028
 21
846.7195623835
 31
0.0
  0
LINE
  5
42C
  8
0
  6
CONTINUOUS
 62
     7
 10
1426.8842442028
 20
717.6795623835001
 30
0.0
 11
1425.3842442028
 21
719.1795623835001
 31
0.0
  0
ARC
  5
42D
  8
1
  6
CONTINUOUS
 62
     7
 10
690.858913242
 20
688.9689635272
 30
0.0
 40
3.0
 50
180.0
 51
270.0
  0
LINE
  5
42E
  8
1
  6
CONTINUOUS
 62
     7
 10
811.5207584941
 20
514.137577214
 30
0.0
 11
811.5207584941
 21
487.137577214
 31
0.0
  0
LINE
  5
42F
  8
0
  6
CONTINUOUS
 62
     7
 10
1424.8842442028
 20
865.8254604173
 30
0.0
 11
1424.8842442028
 21
846.7195623835
 31
0.0
  0
LINE
  5
430
  8
0
  6
CONTINUOUS
 62
     7
 10
1424.8842442028
 20
803.8254604173
 30
0.0
 11
1424.8842442028
 21
781.6795623835
 31
0.0
  0
LINE
  5
431
  8
1
  6
CONTINUOUS
 62
     7
 10
895.541435861
 20
921.6785005097
 30
0.0
 11
1022.8126286591
 21
933.2308087791
 31
0.0
  0
LINE
  5
432
  8
1
  6
CONTINUOUS
 62
     7
 10
823.5707584941
 20
608.137577214
 30
0.0
 11
823.5707584941
 21
579.7613506469
 31
0.0
  0
LINE
  5
433
  8
0
  6
CENTER
 62
     1
 10
1419.3842442028
 20
721.6795623835001
 30
0.0
 11
1430.3842442028
 21
721.6795623835001
 31
0.0
  0
LINE
  5
434
  8
0
  6
CONTINUOUS
 62
     7
 10
1426.8842442028
 20
717.6795623835001
 30
0.0
 11
1427.3842442028
 21
717.6795623835001
 31
0.0
  0
LINE
  5
435
  8
0
  6
CONTINUOUS
 62
     7
 10
1425.3842442028
 20
719.1795623835001
 30
0.0
 11
1422.3842442028
 21
719.1795623835001
 31
0.0
  0
LINE
  5
436
  8
0
  6
CENTER
 62
     1
 10
1193.8398139435
 20
702.1795623835002
 30
0.0
 11
1203.7991060871
 21
696.4295623835002
 31
0.0
  0
LINE
  5
437
  8
1
  6
CONTINUOUS
 62
     7
 10
820.5707584941
 20
551.6168975704
 30
0.0
 11
820.5707584941
 21
487.137577214
 31
0.0
  0
LINE
  5
438
  8
1
  6
CONTINUOUS
 62
     7
 10
808.2395084941
 20
514.137577214
 30
0.0
 11
811.5207584941
 21
514.137577214
 31
0.0
  0
LINE
  5
439
  8
0
  6
CONTINUOUS
 62
     7
 10
1422.3842442028
 20
724.1795623835001
 30
0.0
 11
1425.3842442028
 21
724.1795623835001
 31
0.0
  0
LINE
  5
43A
  8
0
  6
CONTINUOUS
 62
     7
 10
1425.3842442028
 20
724.1795623835001
 30
0.0
 11
1426.8842442028
 21
725.6795623835001
 31
0.0
  0
LINE
  5
43B
  8
0
  6
CENTER
 62
     1
 10
1193.8398139435
 20
690.6795623835002
 30
0.0
 11
1193.8398139435
 21
713.6795623835002
 31
0.0
  0
LINE
  5
43C
  8
0
  6
CENTER
 62
     1
 10
1419.3842442028
 20
703.6795623835001
 30
0.0
 11
1436.8842442028
 21
703.6795623835001
 31
0.0
  0
LINE
  5
43D
  8
1
  6
CONTINUOUS
 62
     7
 10
820.5707584941
 20
608.137577214
 30
0.0
 11
820.5707584941
 21
580.3209348799
 31
0.0
  0
LINE
  5
43E
  8
1
  6
CONTINUOUS
 62
     7
 10
892.8126286591
 20
916.4308087791
 30
0.0
 11
1022.8126286591
 21
916.4308087791
 31
0.0
  0
LINE
  5
43F
  8
1
  6
CONTINUOUS
 62
     7
 10
676.5707584941
 20
559.6375772137
 30
0.0
 11
676.5707584941
 21
487.137577214
 31
0.0
  0
ARC
  5
440
  8
1
  6
CONTINUOUS
 62
     7
 10
694.858913242
 20
715.9689635272
 30
0.0
 40
4.0
 50
180.0
 51
270.0
  0
LINE
  5
441
  8
1
  6
CONTINUOUS
 62
     7
 10
814.5207584941
 20
484.137577214
 30
0.0
 11
814.5207584941
 21
551.3666738836
 31
0.0
  0
ARC
  5
442
  8
1
  6
CONTINUOUS
 62
     7
 10
691.858913242
 20
689.9689635272
 30
0.0
 40
3.0
 50
180.0
 51
270.0
  0
LINE
  5
443
  8
1
  6
CONTINUOUS
 62
     7
 10
685.6207584941
 20
514.137577214
 30
0.0
 11
688.9020084941
 21
514.137577214
 31
0.0
  0
LINE
  5
444
  8
1
  6
CONTINUOUS
 62
     7
 10
807.4707584941
 20
484.137577214
 30
0.0
 11
807.5476334941
 21
487.137577214
 31
0.0
  0
LINE
  5
445
  8
1
  6
CONTINUOUS
 62
     7
 10
892.8126286591
 20
918.6907832429
 30
0.0
 11
892.8126286591
 21
916.4308087791
 31
0.0
  0
ARC
  5
446
  8
1
  6
CONTINUOUS
 62
     7
 10
694.858913242
 20
716.9689635272
 30
0.0
 40
2.0
 50
180.0
 51
270.0
  0
LINE
  5
447
  8
0
  6
CENTER
 62
     1
 10
1182.3398139435
 20
702.1795623835002
 30
0.0
 11
1244.3911090197
 21
702.1795623835002
 31
0.0
  0
ARC
  5
448
  8
0
  6
CONTINUOUS
 62
     7
 10
1426.3842442028
 20
869.1795623835
 30
0.0
 40
3.000000000000114
 50
311.8103148958
 51
70.52877936549999
  0
LINE
  5
449
  8
1
  6
CONTINUOUS
 62
     7
 10
807.3056762784
 20
487.137577214
 30
0.0
 11
811.5207584941
 21
487.137577214
 31
0.0
  0
LINE
  5
44A
  8
0
  6
CONTINUOUS
 62
     7
 10
1425.3842442028
 20
724.1795623835001
 30
0.0
 11
1425.3842442028
 21
719.1795623835001
 31
0.0
  0
ARC
  5
44B
  8
0
  6
CONTINUOUS
 62
     7
 10
1231.8398139435
 20
702.1795623835002
 30
0.0
 40
9.000000000000119
 50
95.1778190041
 51
204.8221809959
  0
LINE
  5
44C
  8
0
  6
CONTINUOUS
 62
     7
 10
1224.0132515924
 20
696.7948690995001
 30
0.0
 11
1225.9026173488
 21
697.5970197929001
 31
0.0
  0
LINE
  5
44D
  8
0
  6
CONTINUOUS
 62
     7
 10
1186.0132515924
 20
696.7948690995001
 30
0.0
 11
1187.9026173488
 21
697.5970197929001
 31
0.0
  0
CIRCLE
  5
44E
  8
0
  6
CONTINUOUS
 62
     7
 10
1231.8398139435
 20
702.1795623835002
 30
0.0
 40
7.200000000000317
  0
LINE
  5
44F
  8
0
  6
CENTER
 62
     1
 10
1231.8398139435
 20
702.1795623835002
 30
0.0
 11
1241.7991060871
 21
696.4295623835002
 31
0.0
  0
LINE
  5
450
  8
0
  6
DOT
 62
     9
 10
1281.9398139435
 20
852.1795623835001
 30
0.0
 11
1281.9398139435
 21
847.1795623835001
 31
0.0
  0
ARC
  5
451
  8
0
  6
CONTINUOUS
 62
     7
 10
1193.8398139435
 20
702.1795623835002
 30
0.0
 40
8.999999999999897
 50
95.1778190041
 51
204.8221809959
  0
LINE
  5
452
  8
0
  6
CONTINUOUS
 62
     7
 10
1148.8398139435
 20
689.6795623835003
 30
0.0
 11
1148.8398139435
 21
903.6795623835002
 31
0.0
  0
LINE
  5
453
  8
0
  6
CONTINUOUS
 62
     7
 10
1264.2964550799
 20
843.6795623835
 30
0.0
 11
1264.2964550799
 21
841.6795623835
 31
0.0
  0
LINE
  5
454
  8
0
  6
CONTINUOUS
 62
     7
 10
1431.8842442028
 20
719.6795623835001
 30
0.0
 11
1431.8842442028
 21
717.6795623835001
 31
0.0
  0
LINE
  5
455
  8
0
  6
CONTINUOUS
 62
     7
 10
1422.3842442028
 20
711.4295923764001
 30
0.0
 11
1405.3842442028
 21
711.4295923764001
 31
0.0
  0
LINE
  5
456
  8
0
  6
CONTINUOUS
 62
     7
 10
1405.3842442028
 20
702.2797673321
 30
0.0
 11
1421.3842442028
 21
702.2797673321
 31
0.0
  0
CIRCLE
  5
457
  8
0
  6
CONTINUOUS
 62
     7
 10
1250.8398139435
 20
896.6795623835
 30
0.0
 40
2.499999999999503
  0
LINE
  5
458
  8
0
  6
CONTINUOUS
 62
     7
 10
1240.4163762947
 20
698.0939072051001
 30
0.0
 11
1238.7770105383
 21
699.3290706005001
 31
0.0
  0
CIRCLE
  5
459
  8
0
  6
CONTINUOUS
 62
     7
 10
1193.8398139435
 20
702.1795623835002
 30
0.0
 40
9.500000000000064
  0
LINE
  5
45A
  8
0
  6
CONTINUOUS
 62
     7
 10
1194.5898139435
 20
711.6499108459001
 30
0.0
 11
1194.8398139435
 21
709.6125967572001
 31
0.0
  0
LINE
  5
45B
  8
0
  6
CONTINUOUS
 62
     7
 10
1186.9026173488
 20
699.3290706005001
 30
0.0
 11
1185.2632515924
 21
698.0939072051001
 31
0.0
  0
ARC
  5
45C
  8
0
  6
CONTINUOUS
 62
     7
 10
1231.8398139435
 20
702.1795623835002
 30
0.0
 40
9.000000000000119
 50
215.1778190041
 51
324.8221809959
  0
LINE
  5
45D
  8
0
  6
DOT
 62
     9
 10
1281.9398139435
 20
862.1795623835001
 30
0.0
 11
1281.9398139435
 21
867.1795623835001
 31
0.0
  0
ARC
  5
45E
  8
0
  6
CONTINUOUS
 62
     7
 10
1421.3842442028
 20
701.2797673321
 30
0.0
 40
0.9999999999998899
 50
0.0
 51
90.0
  0
LINE
  5
45F
  8
0
  6
CENTER
 62
     1
 10
1403.9308799234
 20
707.0296673576001
 30
0.0
 11
1424.6327970819
 21
707.0296673576001
 31
0.0
  0
LINE
  5
460
  8
0
  6
CONTINUOUS
 62
     7
 10
1192.8398139435
 20
709.6125967572001
 30
0.0
 11
1193.0898139435
 21
711.6499108459001
 31
0.0
  0
ARC
  5
461
  8
0
  6
CONTINUOUS
 62
     7
 10
1231.8398139435
 20
702.1795623835002
 30
0.0
 40
9.000000000000119
 50
335.1778190041
 51
84.8221809959
  0
LINE
  5
462
  8
0
  6
CONTINUOUS
 62
     7
 10
1248.0898139419
 20
711.4298623120002
 30
0.0
 11
1263.0898139435
 21
711.4295623835002
 31
0.0
  0
ARC
  5
463
  8
0
  6
CONTINUOUS
 62
     7
 10
1193.8398139435
 20
702.1795623835002
 30
0.0
 40
7.500000000000062
 50
202.3377443392
 51
217.6622556608
  0
CIRCLE
  5
464
  8
0
  6
CONTINUOUS
 62
     7
 10
1174.8398139435
 20
896.6795623835
 30
0.0
 40
2.500000000000169
  0
LINE
  5
465
  8
0
  6
CONTINUOUS
 62
     7
 10
1427.8842442028
 20
741.8254604173001
 30
0.0
 11
1427.8842442028
 21
722.6795623835001
 31
0.0
  0
LINE
  5
466
  8
0
  6
DOT
 62
     9
 10
1288.7398139435
 20
728.1795623833002
 30
0.0
 11
1288.7398139435
 21
733.1795623835002
 31
0.0
  0
CIRCLE
  5
467
  8
0
  6
CONTINUOUS
 62
     7
 10
1193.8398139435
 20
702.1795623835002
 30
0.0
 40
7.200000000000095
  0
LINE
  5
468
  8
0
  6
CONTINUOUS
 62
     7
 10
1202.4163762947
 20
698.0939072051001
 30
0.0
 11
1200.7770105383
 21
699.3290706005001
 31
0.0
  0
CIRCLE
  5
469
  8
0
  6
CONTINUOUS
 62
     7
 10
1231.8398139435
 20
702.1795623835002
 30
0.0
 40
9.499999999999842
  0
LINE
  5
46A
  8
0
  6
DOT
 62
     9
 10
1281.9398139435
 20
728.1795623833002
 30
0.0
 11
1281.9398139435
 21
733.1795623835002
 31
0.0
  0
CIRCLE
  5
46B
  8
0
  6
CONTINUOUS
 62
     7
 10
1262.8398139435
 20
701.6795623835001
 30
0.0
 40
2.599999999999714
  0
LINE
  5
46C
  8
0
  6
CONTINUOUS
 62
     7
 10
1431.8842442028
 20
717.6795623835001
 30
0.0
 11
1427.3842442028
 21
717.6795623835001
 31
0.0
  0
ARC
  5
46D
  8
0
  6
CONTINUOUS
 62
     7
 10
1429.3842442028
 20
741.8254604173001
 30
0.0
 40
1.499999999999613
 50
131.8103148958
 51
180.0
  0
LINE
  5
46E
  8
0
  6
CONTINUOUS
 62
     7
 10
1427.3842442028
 20
719.6795623835001
 30
0.0
 11
1431.8842442028
 21
719.6795623835001
 31
0.0
  0
LINE
  5
46F
  8
0
  6
DOT
 62
     9
 10
1288.7398139435
 20
862.1795623835001
 30
0.0
 11
1288.7398139435
 21
867.1795623835001
 31
0.0
  0
ARC
  5
470
  8
0
  6
CONTINUOUS
 62
     7
 10
1193.8398139435
 20
702.1795623835002
 30
0.0
 40
8.999999999999897
 50
215.1778190041
 51
324.8221809959
  0
LINE
  5
471
  8
0
  6
DOT
 62
     9
 10
1281.9398139435
 20
720.6795623833001
 30
0.0
 11
1281.9398139435
 21
715.6795623833001
 31
0.0
  0
ARC
  5
472
  8
0
  6
CONTINUOUS
 62
     7
 10
1193.8398139435
 20
702.1795623835002
 30
0.0
 40
7.500000000000062
 50
82.3377443392
 51
97.6622556608
  0
ARC
  5
473
  8
0
  6
CONTINUOUS
 62
     7
 10
1193.8398139435
 20
702.1795623835002
 30
0.0
 40
7.500000000000062
 50
322.3377443392
 51
337.6622556608
  0
LINE
  5
474
  8
0
  6
CONTINUOUS
 62
     7
 10
1422.3842442028
 20
719.4295623835001
 30
0.0
 11
1418.3842442028
 21
719.4295623835001
 31
0.0
  0
LINE
  5
475
  8
0
  6
DOT
 62
     9
 10
1288.7398139435
 20
720.6795623833001
 30
0.0
 11
1288.7398139435
 21
715.6795623833001
 31
0.0
  0
ARC
  5
476
  8
0
  6
CONTINUOUS
 62
     7
 10
1426.3842442028
 20
722.6795623835001
 30
0.0
 40
1.500000000000057
 50
311.8103148958
 51
0.0
  0
LINE
  5
477
  8
0
  6
CONTINUOUS
 62
     7
 10
1224.9026173488
 20
699.3290706005001
 30
0.0
 11
1223.2632515924
 21
698.0939072051001
 31
0.0
  0
ARC
  5
478
  8
0
  6
CONTINUOUS
 62
     7
 10
1426.3842442028
 20
745.1795623835001
 30
0.0
 40
3.000000000000114
 50
311.8103148958
 51
120.0
  0
LINE
  5
479
  8
0
  6
CONTINUOUS
 62
     7
 10
1199.7770105383
 20
697.5970197929001
 30
0.0
 11
1201.6663762947
 21
696.7948690995001
 31
0.0
  0
LINE
  5
47A
  8
0
  6
CONTINUOUS
 62
     7
 10
1418.3842442028
 20
719.4295623835001
 30
0.0
 11
1418.3842442028
 21
711.4295923764001
 31
0.0
  0
LINE
  5
47B
  8
0
  6
CONTINUOUS
 62
     7
 10
1264.2964550799
 20
749.6795623835001
 30
0.0
 11
1264.2964550799
 21
751.6795623835001
 31
0.0
  0
LINE
  5
47C
  8
0
  6
DOT
 62
     9
 10
1288.7398139435
 20
852.1795623835001
 30
0.0
 11
1288.7398139435
 21
847.1795623835001
 31
0.0
  0
LINE
  5
47D
  8
0
  6
CONTINUOUS
 62
     7
 10
1237.7770105383
 20
697.5970197929001
 30
0.0
 11
1239.6663762947
 21
696.7948690995001
 31
0.0
  0
LINE
  5
47E
  8
0
  6
CONTINUOUS
 62
     7
 10
1232.5898139435
 20
711.6499108459001
 30
0.0
 11
1232.8398139435
 21
709.6125967572001
 31
0.0
  0
LINE
  5
47F
  8
0
  6
CONTINUOUS
 62
     7
 10
1230.8398139435
 20
709.6125967572001
 30
0.0
 11
1231.0898139435
 21
711.6499108459001
 31
0.0
  0
CIRCLE
  5
480
  8
0
  6
CONTINUOUS
 62
     7
 10
1162.8398139435
 20
701.6795623835001
 30
0.0
 40
2.600000000000158
  0
ARC
  5
481
  8
0
  6
CONTINUOUS
 62
     7
 10
1193.8398139435
 20
702.1795623835002
 30
0.0
 40
8.999999999999897
 50
335.1778190041
 51
84.8221809959
  0
ARC
  5
482
  8
1
  6
CONTINUOUS
 62
     7
 10
824.5707584939
 20
874.1808087791
 30
0.0
 40
0.5
 50
90.0
 51
180.0
  0
ARC
  5
483
  8
1
  6
CONTINUOUS
 62
     7
 10
824.5707584939
 20
740.1808087791
 30
0.0
 40
0.5
 50
90.0
 51
180.0
  0
ARC
  5
484
  8
1
  6
CONTINUOUS
 62
     7
 10
689.5707584939
 20
905.6808087791
 30
0.0
 40
9.0
 50
90.0
 51
180.0
  0
ARC
  5
485
  8
1
  6
CONTINUOUS
 62
     7
 10
802.2826037458
 20
900.392654031
 30
0.0
 40
4.0
 50
0.0
 51
90.0
  0
ARC
  5
486
  8
1
  6
CONTINUOUS
 62
     7
 10
690.5707584939
 20
904.6808087791
 30
0.0
 40
6.0
 50
90.0
 51
180.0
  0
ARC
  5
487
  8
1
  6
CONTINUOUS
 62
     7
 10
806.5707584939
 20
688.6808087791
 30
0.0
 40
6.0
 50
270.0
 51
0.0
  0
LINE
  5
488
  8
1
  6
CONTINUOUS
 62
     7
 10
694.858913242
 20
904.392654031
 30
0.0
 11
802.2826037458
 21
904.392654031
 31
0.0
  0
ARC
  5
489
  8
1
  6
CONTINUOUS
 62
     7
 10
817.0707584939
 20
744.6808087791
 30
0.0
 40
0.5
 50
180.0
 51
270.0
  0
LINE
  5
48A
  8
1
  6
CONTINUOUS
 62
     7
 10
680.5707584939
 20
905.6808087791
 30
0.0
 11
680.5707584939
 21
687.6808087791
 31
0.0
  0
LINE
  5
48B
  8
1
  6
CONTINUOUS
 62
     7
 10
687.858913242
 20
904.392654031
 30
0.0
 11
687.858913242
 21
688.9689635272
 31
0.0
  0
LINE
  5
48C
  8
1
  6
CONTINUOUS
 62
     7
 10
684.5707584939
 20
688.6808087791
 30
0.0
 11
684.5707584939
 21
904.6808087791
 31
0.0
  0
LINE
  5
48D
  8
1
  6
CONTINUOUS
 62
     7
 10
807.5707584939
 20
914.6808087791
 30
0.0
 11
689.5707584939
 21
914.6808087791
 31
0.0
  0
LINE
  5
48E
  8
1
  6
CONTINUOUS
 62
     7
 10
690.858913242
 20
715.9689635272
 30
0.0
 11
690.858913242
 21
900.392654031
 31
0.0
  0
LINE
  5
48F
  8
1
  6
CONTINUOUS
 62
     7
 10
692.858913242
 20
716.9689635272
 30
0.0
 11
692.858913242
 21
900.392654031
 31
0.0
  0
ARC
  5
490
  8
1
  6
CONTINUOUS
 62
     7
 10
694.858913242
 20
900.392654031
 30
0.0
 40
2.0
 50
90.0
 51
180.0
  0
LINE
  5
491
  8
1
  6
CONTINUOUS
 62
     7
 10
814.1679505561
 20
878.1808087791
 30
0.0
 11
827.5707584939
 21
878.1808087791
 31
0.0
  0
LINE
  5
492
  8
1
  6
CONTINUOUS
 62
     7
 10
808.2826037458
 20
903.392654031
 30
0.0
 11
808.2826037458
 21
689.9689635272
 31
0.0
  0
ARC
  5
493
  8
1
  6
CONTINUOUS
 62
     7
 10
802.2826037458
 20
715.9689635272
 30
0.0
 40
4.0
 50
270.0
 51
0.0
  0
ARC
  5
494
  8
1
  6
CONTINUOUS
 62
     7
 10
802.2826037458
 20
900.392654031
 30
0.0
 40
2.0
 50
0.0
 51
90.0
  0
LINE
  5
495
  8
1
  6
CONTINUOUS
 62
     7
 10
806.2826037458
 20
907.392654031
 30
0.0
 11
690.858913242
 21
907.392654031
 31
0.0
  0
ARC
  5
496
  8
1
  6
CONTINUOUS
 62
     7
 10
694.858913242
 20
900.392654031
 30
0.0
 40
4.0
 50
90.0
 51
180.0
  0
LINE
  5
497
  8
1
  6
CONTINUOUS
 62
     7
 10
814.1679505561
 20
870.6808087791
 30
0.0
 11
827.5707584939
 21
870.6808087791
 31
0.0
  0
LINE
  5
498
  8
1
  6
CONTINUOUS
 62
     7
 10
816.5707584939
 20
874.680808779
 30
0.0
 11
816.5707584939
 21
870.6808087791
 31
0.0
  0
ARC
  5
499
  8
1
  6
CONTINUOUS
 62
     7
 10
806.5707584939
 20
904.6808087791
 30
0.0
 40
6.0
 50
0.0
 51
90.0
  0
LINE
  5
49A
  8
1
  6
CONTINUOUS
 62
     7
 10
827.5707584939
 20
740.6808087791
 30
0.0
 11
814.1679505561
 21
740.6808087791
 31
0.0
  0
ARC
  5
49B
  8
1
  6
CONTINUOUS
 62
     7
 10
805.2826037458
 20
689.9689635272
 30
0.0
 40
3.0
 50
270.0
 51
0.0
  0
LINE
  5
49C
  8
1
  6
CONTINUOUS
 62
     7
 10
816.5707584939
 20
740.680808779
 30
0.0
 11
816.5707584939
 21
736.6808087791
 31
0.0
  0
ARC
  5
49D
  8
1
  6
CONTINUOUS
 62
     7
 10
817.0707584939
 20
878.6808087791
 30
0.0
 40
0.5
 50
180.0
 51
270.0
  0
LINE
  5
49E
  8
1
  6
CONTINUOUS
 62
     7
 10
802.2826037458
 20
714.9689635272
 30
0.0
 11
694.858913242
 21
714.9689635272
 31
0.0
  0
LINE
  5
49F
  8
1
  6
CONTINUOUS
 62
     7
 10
802.2826037458
 20
711.9689635272
 30
0.0
 11
694.858913242
 21
711.9689635272
 31
0.0
  0
LINE
  5
4A0
  8
1
  6
CONTINUOUS
 62
     7
 10
827.5707584939
 20
736.6808087791
 30
0.0
 11
827.5707584939
 21
733.1808087791
 31
0.0
  0
ARC
  5
4A1
  8
1
  6
CONTINUOUS
 62
     7
 10
807.5707584939
 20
687.6808087791
 30
0.0
 40
9.0
 50
270.0
 51
0.0
  0
LINE
  5
4A2
  8
1
  6
CONTINUOUS
 62
     7
 10
812.5707584939
 20
688.6808087791
 30
0.0
 11
812.5707584939
 21
904.6808087791
 31
0.0
  0
LINE
  5
4A3
  8
1
  6
CONTINUOUS
 62
     7
 10
809.2826037458
 20
904.392654031
 30
0.0
 11
809.2826037458
 21
688.9689635272
 31
0.0
  0
ARC
  5
4A4
  8
1
  6
CONTINUOUS
 62
     7
 10
802.2826037458
 20
716.9689635272
 30
0.0
 40
2.0
 50
270.0
 51
0.0
  0
ARC
  5
4A5
  8
1
  6
CONTINUOUS
 62
     7
 10
807.5707584939
 20
905.6808087791
 30
0.0
 40
9.0
 50
0.0
 51
90.0
  0
ARC
  5
4A6
  8
1
  6
CONTINUOUS
 62
     7
 10
806.2826037458
 20
688.9689635272
 30
0.0
 40
3.0
 50
270.0
 51
0.0
  0
LINE
  5
4A7
  8
1
  6
CONTINUOUS
 62
     7
 10
804.2826037458
 20
716.9689635272
 30
0.0
 11
804.2826037458
 21
900.392654031
 31
0.0
  0
LINE
  5
4A8
  8
1
  6
CONTINUOUS
 62
     7
 10
814.1679505561
 20
736.6808087791
 30
0.0
 11
827.5707584939
 21
736.6808087791
 31
0.0
  0
LINE
  5
4A9
  8
1
  6
CONTINUOUS
 62
     7
 10
816.5707584939
 20
733.1808087791
 30
0.0
 11
816.5707584939
 21
687.6808087791
 31
0.0
  0
LINE
  5
4AA
  8
1
  6
CONTINUOUS
 62
     7
 10
805.2826037458
 20
906.392654031
 30
0.0
 11
691.858913242
 21
906.392654031
 31
0.0
  0
LINE
  5
4AB
  8
1
  6
CONTINUOUS
 62
     7
 10
806.2826037458
 20
715.9689635272
 30
0.0
 11
806.2826037458
 21
900.392654031
 31
0.0
  0
ARC
  5
4AC
  8
1
  6
CONTINUOUS
 62
     7
 10
806.2826037458
 20
904.392654031
 30
0.0
 40
3.0
 50
0.0
 51
90.0
  0
LINE
  5
4AD
  8
1
  6
CONTINUOUS
 62
     7
 10
816.5707584939
 20
878.6808087791
 30
0.0
 11
816.5707584939
 21
905.6808087791
 31
0.0
  0
LINE
  5
4AE
  8
1
  6
CONTINUOUS
 62
     7
 10
816.5707584939
 20
744.6808087791
 30
0.0
 11
816.5707584939
 21
867.1808087791
 31
0.0
  0
LINE
  5
4AF
  8
1
  6
CONTINUOUS
 62
     7
 10
827.5707584939
 20
744.1808087791
 30
0.0
 11
827.5707584939
 21
740.6808087791
 31
0.0
  0
LINE
  5
4B0
  8
1
  6
CONTINUOUS
 62
     7
 10
690.5707584939
 20
910.6808087791
 30
0.0
 11
806.5707584939
 21
910.6808087791
 31
0.0
  0
LINE
  5
4B1
  8
1
  6
CONTINUOUS
 62
     7
 10
824.0707584939
 20
740.1808087791
 30
0.0
 11
824.0707584939
 21
736.6808087791
 31
0.0
  0
LINE
  5
4B2
  8
1
  6
CONTINUOUS
 62
     7
 10
688.858913242
 20
903.392654031
 30
0.0
 11
688.858913242
 21
689.9689635272
 31
0.0
  0
LINE
  5
4B3
  8
1
  6
CONTINUOUS
 62
     7
 10
816.5707584939
 20
740.680808779
 30
0.0
 11
816.5707584939
 21
736.6808087791
 31
0.0
  0
LINE
  5
4B4
  8
1
  6
CONTINUOUS
 62
     7
 10
827.5707584939
 20
870.6808087791
 30
0.0
 11
827.5707584939
 21
867.1808087791
 31
0.0
  0
LINE
  5
4B5
  8
1
  6
CONTINUOUS
 62
     7
 10
827.5707584939
 20
874.6808087791
 30
0.0
 11
814.1679505561
 21
874.6808087791
 31
0.0
  0
ARC
  5
4B6
  8
1
  6
CONTINUOUS
 62
     7
 10
690.858913242
 20
904.392654031
 30
0.0
 40
3.0
 50
90.0
 51
180.0
  0
LINE
  5
4B7
  8
1
  6
CONTINUOUS
 62
     7
 10
814.1679505561
 20
744.1808087791
 30
0.0
 11
827.5707584939
 21
744.1808087791
 31
0.0
  0
LINE
  5
4B8
  8
1
  6
CONTINUOUS
 62
     7
 10
802.2826037458
 20
902.392654031
 30
0.0
 11
694.858913242
 21
902.392654031
 31
0.0
  0
ARC
  5
4B9
  8
1
  6
CONTINUOUS
 62
     7
 10
691.858913242
 20
903.392654031
 30
0.0
 40
3.0
 50
90.0
 51
180.0
  0
ARC
  5
4BA
  8
1
  6
CONTINUOUS
 62
     7
 10
805.2826037458
 20
903.392654031
 30
0.0
 40
3.0
 50
0.0
 51
90.0
  0
LINE
  5
4BB
  8
1
  6
CONTINUOUS
 62
     7
 10
824.0707584939
 20
874.1808087791
 30
0.0
 11
824.0707584939
 21
870.6808087791
 31
0.0
  0
LINE
  5
4BC
  8
1
  6
CONTINUOUS
 62
     7
 10
827.5707584939
 20
878.1808087791
 30
0.0
 11
827.5707584939
 21
874.6808087791
 31
0.0
  0
LINE
  5
4BD
  8
1
  6
CONTINUOUS
 62
     7
 10
941.8126286594
 20
685.9033891124
 30
0.0
 11
1022.8126286594
 21
688.0244487595
 31
0.0
  0
LINE
  5
4BE
  8
1
  6
CONTINUOUS
 62
     7
 10
936.8126286594
 20
874.6808087791
 30
0.0
 11
936.8126286594
 21
870.6808087791
 31
0.0
  0
LINE
  5
4BF
  8
1
  6
CONTINUOUS
 62
     7
 10
947.8126286594
 20
808.6808087791
 30
0.0
 11
944.8126286594
 21
808.6808087791
 31
0.0
  0
ARC
  5
4C0
  8
1
  6
CONTINUOUS
 62
     7
 10
1015.3126286594
 20
784.7208087791
 30
0.0
 40
1.54
 50
180.0
 51
0.0
  0
ARC
  5
4C1
  8
1
  6
CONTINUOUS
 62
     7
 10
946.8126286594
 20
813.6808087791
 30
0.0
 40
1.0
 50
0.0
 51
90.0
  0
LINE
  5
4C2
  8
1
  6
CONTINUOUS
 62
     7
 10
944.8126286594
 20
808.6808087791
 30
0.0
 11
944.8126286594
 21
795.6808087791
 31
0.0
  0
ARC
  5
4C3
  8
1
  6
CONTINUOUS
 62
     7
 10
1018.3126286594
 20
803.8267068128
 30
0.0
 40
1.5
 50
131.8103148958
 51
180.0
  0
LINE
  5
4C4
  8
1
  6
CONTINUOUS
 62
     7
 10
928.3126286594
 20
736.6808087791
 30
0.0
 11
955.3126286594
 21
736.6808087791
 31
0.0
  0
LINE
  5
4C5
  8
1
  6
CONTINUOUS
 62
     7
 10
944.8126286594
 20
795.6808087791
 30
0.0
 11
947.8126286594
 21
795.6808087791
 31
0.0
  0
LINE
  5
4C6
  8
1
  6
CONTINUOUS
 62
     7
 10
955.3126286594
 20
878.1808087791
 30
0.0
 11
955.3126286594
 21
874.6808087791
 31
0.0
  0
LINE
  5
4C7
  8
1
  6
CONTINUOUS
 62
     7
 10
903.8126286594
 20
713.9689635272
 30
0.0
 11
902.8126286594
 21
714.9689635272
 31
0.0
  0
LINE
  5
4C8
  8
1
  6
CONTINUOUS
 62
     7
 10
903.8126286594
 20
685.4677451812
 30
0.0
 11
903.8126286594
 21
907.8938723769
 31
0.0
  0
LINE
  5
4C9
  8
1
  6
CONTINUOUS
 62
     7
 10
945.8126286594
 20
808.6808087791
 30
0.0
 11
945.8126286594
 21
795.6808087791
 31
0.0
  0
ARC
  5
4CA
  8
1
  6
CONTINUOUS
 62
     7
 10
1012.3126286594
 20
865.8267068128
 30
0.0
 40
1.5
 50
0.0
 51
48.18968510410001
  0
LINE
  5
4CB
  8
1
  6
CONTINUOUS
 62
     7
 10
955.3126286594
 20
740.6808087791
 30
0.0
 11
928.3126286594
 21
740.6808087791
 31
0.0
  0
LINE
  5
4CC
  8
1
  6
CENTER
 62
     7
 10
662.5707584939
 20
796.6808087791
 30
0.0
 11
821.5707584939
 21
796.6808087791
 31
0.0
  0
LINE
  5
4CD
  8
1
  6
CONTINUOUS
 62
     7
 10
902.8126286594
 20
715.0932275959
 30
0.0
 11
902.8126286594
 21
902.392654031
 31
0.0
  0
ARC
  5
4CE
  8
1
  6
CONTINUOUS
 62
     7
 10
903.1126286594
 20
715.0932275959
 30
0.0
 40
0.3
 50
180.0
 51
224.9999999998
  0
LINE
  5
4CF
  8
1
  6
CONTINUOUS
 62
     7
 10
954.8126286594
 20
728.1808087791
 30
0.0
 11
954.8126286594
 21
733.1808087791
 31
0.0
  0
LINE
  5
4D0
  8
1
  6
CONTINUOUS
 62
     7
 10
947.8126286594
 20
813.6808087791
 30
0.0
 11
947.8126286594
 21
790.6808087791
 31
0.0
  0
LINE
  5
4D1
  8
1
  6
CONTINUOUS
 62
     7
 10
936.8126286594
 20
740.6808087791
 30
0.0
 11
936.8126286594
 21
736.6808087791
 31
0.0
  0
LINE
  5
4D2
  8
1
  6
CONTINUOUS
 62
     7
 10
928.1196085587
 20
682.6875491895
 30
0.0
 11
905.742829666
 21
683.4689635272
 31
0.0
  0
LINE
  5
4D3
  8
1
  6
CONTINUOUS
 62
     7
 10
806.2826037458
 20
685.9689635272
 30
0.0
 11
690.858913242
 21
685.9689635272
 31
0.0
  0
LINE
  5
4D4
  8
1
  6
CONTINUOUS
 62
     7
 10
1013.8126286594
 20
865.8267068128
 30
0.0
 11
1013.8126286594
 21
846.7208087791
 31
0.0
  0
ARC
  5
4D5
  8
1
  6
CONTINUOUS
 62
     7
 10
1018.3126286594
 20
865.8267068128
 30
0.0
 40
1.5
 50
131.8103148958
 51
180.0
  0
ARC
  5
4D6
  8
1
  6
CONTINUOUS
 62
     7
 10
1015.3126286594
 20
869.1808087791
 30
0.0
 40
3.0
 50
311.8103148958
 51
228.1896851042
  0
ARC
  5
4D7
  8
1
  6
CONTINUOUS
 62
     7
 10
1015.3126286594
 20
722.6808087791
 30
0.0
 40
1.5
 50
311.8103148958
 51
0.0
  0
ARC
  5
4D8
  8
1
  6
CONTINUOUS
 62
     7
 10
1015.3126286594
 20
807.1808087791
 30
0.0
 40
3.0
 50
311.8103148958
 51
228.1896851042
  0
ARC
  5
4D9
  8
1
  6
CONTINUOUS
 62
     7
 10
1018.3126286594
 20
741.8267068128
 30
0.0
 40
1.5
 50
131.8103148958
 51
180.0
  0
LINE
  5
4DA
  8
1
  6
CONTINUOUS
 62
     7
 10
805.2826037458
 20
686.9689635272
 30
0.0
 11
691.858913242
 21
686.9689635272
 31
0.0
  0
ARC
  5
4DB
  8
1
  6
CONTINUOUS
 62
     7
 10
905.8126286594
 20
907.8938723769
 30
0.0
 40
2.0
 50
92.0
 51
180.0
  0
ARC
  5
4DC
  8
1
  6
CONTINUOUS
 62
     7
 10
930.3126286594
 20
912.2780008413
 30
0.0
 40
2.0
 50
92.0
 51
180.0
  0
LINE
  5
4DD
  8
1
  6
CONTINUOUS
 62
     7
 10
928.0230985084
 20
910.6706981634
 30
0.0
 11
905.742829666
 21
909.892654031
 31
0.0
  0
LINE
  5
4DE
  8
1
  6
CONTINUOUS
 62
     7
 10
903.8126286594
 20
903.0593206976
 30
0.0
 11
902.8126286594
 21
902.392654031
 31
0.0
  0
LINE
  5
4DF
  8
1
  6
CENTER
 62
     7
 10
748.5707584939
 20
919.6808087791
 30
0.0
 11
748.5707584939
 21
673.6808087791
 31
0.0
  0
LINE
  5
4E0
  8
1
  6
CONTINUOUS
 62
     7
 10
1016.8126286594
 20
803.8267068128
 30
0.0
 11
1016.8126286594
 21
784.7208087791
 31
0.0
  0
LINE
  5
4E1
  8
1
  6
CONTINUOUS
 62
     7
 10
807.5707584939
 20
678.6808087791
 30
0.0
 11
689.5707584939
 21
678.6808087791
 31
0.0
  0
LINE
  5
4E2
  8
1
  6
CONTINUOUS
 62
     7
 10
806.5707584939
 20
682.6808087791
 30
0.0
 11
690.5707584939
 21
682.6808087791
 31
0.0
  0
LINE
  5
4E3
  8
1
  6
CONTINUOUS
 62
     7
 10
1016.8126286594
 20
865.8267068128
 30
0.0
 11
1016.8126286594
 21
846.7208087791
 31
0.0
  0
LINE
  5
4E4
  8
1
  6
CONTINUOUS
 62
     7
 10
946.8126286594
 20
814.6808087791
 30
0.0
 11
941.8126286594
 21
814.6808087791
 31
0.0
  0
LINE
  5
4E5
  8
1
  6
CONTINUOUS
 62
     7
 10
931.2079301693
 20
679.0511330106
 30
0.0
 11
941.8126286594
 21
678.6808087791
 31
0.0
  0
ARC
  5
4E6
  8
1
  6
CONTINUOUS
 62
     7
 10
1012.3126286594
 20
803.8267068128
 30
0.0
 40
1.5
 50
0.0
 51
48.18968510410001
  0
LINE
  5
4E7
  8
1
  6
CONTINUOUS
 62
     7
 10
928.3126286594
 20
878.1808087791
 30
0.0
 11
955.3126286594
 21
878.1808087791
 31
0.0
  0
ARC
  5
4E8
  8
1
  6
CONTINUOUS
 62
     7
 10
946.8126286594
 20
790.6808087791
 30
0.0
 40
1.0
 50
270.0
 51
0.0
  0
LINE
  5
4E9
  8
1
  6
CONTINUOUS
 62
     7
 10
928.3126286594
 20
870.6808087791
 30
0.0
 11
955.3126286594
 21
870.6808087791
 31
0.0
  0
ARC
  5
4EA
  8
1
  6
CONTINUOUS
 62
     7
 10
905.8126286594
 20
685.4677451812
 30
0.0
 40
2.0
 50
180.0
 51
267.9999999999999
  0
ARC
  5
4EB
  8
1
  6
CONTINUOUS
 62
     7
 10
1015.3126286594
 20
846.7208087791
 30
0.0
 40
1.54
 50
180.0
 51
0.0
  0
LINE
  5
4EC
  8
1
  6
CONTINUOUS
 62
     7
 10
941.8126286594
 20
907.4582284457
 30
0.0
 11
942.8126286591
 21
907.4320425242
 31
0.0
  0
ARC
  5
4ED
  8
1
  6
CONTINUOUS
 62
     7
 10
931.3126286594
 20
682.0493054916
 30
0.0
 40
3.0
 50
180.0
 51
267.9999999999999
  0
LINE
  5
4EE
  8
1
  6
CONTINUOUS
 62
     7
 10
955.3126286594
 20
874.6808087791
 30
0.0
 11
928.3126286594
 21
874.6808087791
 31
0.0
  0
LINE
  5
4EF
  8
1
  6
CONTINUOUS
 62
     7
 10
930.242829666
 20
914.2767824954
 30
0.0
 11
941.8126286594
 21
914.6808087791
 31
0.0
  0
LINE
  5
4F0
  8
1
  6
CONTINUOUS
 62
     7
 10
951.8126286594
 20
874.6808087791
 30
0.0
 11
951.8126286594
 21
870.6808087791
 31
0.0
  0
LINE
  5
4F1
  8
1
  6
CONTINUOUS
 62
     7
 10
928.3126286594
 20
744.1808087791
 30
0.0
 11
955.3126286594
 21
744.1808087791
 31
0.0
  0
LINE
  5
4F2
  8
1
  6
CONTINUOUS
 62
     7
 10
946.8126286594
 20
789.6808087791
 30
0.0
 11
941.8126286594
 21
789.6808087791
 31
0.0
  0
LINE
  5
4F3
  8
1
  6
CONTINUOUS
 62
     7
 10
955.3126286594
 20
744.1808087791
 30
0.0
 11
955.3126286594
 21
740.6808087791
 31
0.0
  0
LINE
  5
4F4
  8
1
  6
CONTINUOUS
 62
     7
 10
955.3126286594
 20
736.6808087791
 30
0.0
 11
955.3126286594
 21
733.1808087791
 31
0.0
  0
ARC
  5
4F5
  8
1
  6
CONTINUOUS
 62
     7
 10
928.0126286594
 20
910.9705154115
 30
0.0
 40
0.3
 50
272.0000000005999
 51
0.0
  0
LINE
  5
4F6
  8
1
  6
CONTINUOUS
 62
     7
 10
1016.8126286594
 20
741.8267068128
 30
0.0
 11
1016.8126286594
 21
722.6808087791
 31
0.0
  0
LINE
  5
4F7
  8
1
  6
CONTINUOUS
 62
     7
 10
955.3126286594
 20
733.1808087791
 30
0.0
 11
928.3126286594
 21
733.1808087791
 31
0.0
  0
LINE
  5
4F8
  8
1
  6
CONTINUOUS
 62
     7
 10
1022.8126286594
 20
905.3371687986
 30
0.0
 11
1022.8126286594
 21
688.0244487595
 31
0.0
  0
LINE
  5
4F9
  8
1
  6
CONTINUOUS
 62
     7
 10
955.3126286594
 20
870.6808087791
 30
0.0
 11
955.3126286594
 21
867.1808087791
 31
0.0
  0
LINE
  5
4FA
  8
1
  6
CONTINUOUS
 62
     7
 10
951.8126286594
 20
740.6808087791
 30
0.0
 11
951.8126286594
 21
736.6808087791
 31
0.0
  0
LINE
  5
4FB
  8
1
  6
CONTINUOUS
 62
     7
 10
941.8126286594
 20
914.6808087791
 30
0.0
 11
941.8126286594
 21
878.1808087791
 31
0.0
  0
LINE
  5
4FC
  8
1
  6
CONTINUOUS
 62
     7
 10
941.8126286594
 20
867.1808087791
 30
0.0
 11
941.8126286594
 21
744.1808087791
 31
0.0
  0
LINE
  5
4FD
  8
1
  6
CONTINUOUS
 62
     7
 10
1013.8126286594
 20
741.8267068128
 30
0.0
 11
1013.8126286594
 21
727.1808087791
 31
0.0
  0
LINE
  5
4FE
  8
1
  6
CONTINUOUS
 62
     7
 10
827.5707584939
 20
852.1808087791
 30
0.0
 11
816.5707584939
 21
852.1808087791
 31
0.0
  0
LINE
  5
4FF
  8
1
  6
CONTINUOUS
 62
     7
 10
1013.8126286594
 20
803.8267068128
 30
0.0
 11
1013.8126286594
 21
784.3720968636
 31
0.0
  0
LINE
  5
500
  8
1
  6
CONTINUOUS
 62
     7
 10
928.3126286594
 20
682.0493054916
 30
0.0
 11
928.3126286594
 21
912.2780008413
 31
0.0
  0
LINE
  5
501
  8
1
  6
CONTINUOUS
 62
     7
 10
955.8126286594
 20
867.1808087791
 30
0.0
 11
942.5126286594
 21
867.1808087791
 31
0.0
  0
LINE
  5
502
  8
1
  6
CONTINUOUS
 62
     7
 10
818.0707584939
 20
720.6808087791
 30
0.0
 11
818.0707584939
 21
728.1808087791
 31
0.0
  0
ARC
  5
503
  8
1
  6
CONTINUOUS
 62
     7
 10
684.2810518615
 20
578.9375772137
 30
0.0
 40
0.3
 50
270.0
 51
358.0000000001
  0
LINE
  5
504
  8
1
  6
CONTINUOUS
 62
     7
 10
827.5707584939
 20
575.6923601604
 30
0.0
 11
827.5707584939
 21
558.1375772137
 31
0.0
  0
LINE
  5
505
  8
1
  6
CONTINUOUS
 62
     7
 10
824.3042203323
 20
579.6245394202
 30
0.0
 11
815.6113317241
 21
581.2460072217
 31
0.0
  0
ARC
  5
506
  8
1
  6
CONTINUOUS
 62
     7
 10
823.5707584939
 20
575.6923601604
 30
0.0
 40
4.0
 50
0.0
 51
79.4341499695
  0
LINE
  5
507
  8
1
  6
CONTINUOUS
 62
     7
 10
814.1679505561
 20
578.6375772137
 30
0.0
 11
682.9735664316
 21
578.6375772137
 31
0.0
  0
LINE
  5
508
  8
1
  6
CONTINUOUS
 62
     7
 10
809.7838220917
 20
603.1375772137
 30
0.0
 11
687.3576948961
 21
603.1375772137
 31
0.0
  0
LINE
  5
509
  8
1
  6
CONTINUOUS
 62
     7
 10
945.8126286594
 20
720.6808087791
 30
0.0
 11
945.8126286594
 21
728.1808087791
 31
0.0
  0
LINE
  5
50A
  8
1
  6
CONTINUOUS
 62
     7
 10
955.8126286594
 20
847.1808087791
 30
0.0
 11
955.8126286594
 21
852.1808087791
 31
0.0
  0
LINE
  5
50B
  8
1
  6
CONTINUOUS
 62
     7
 10
827.5707584939
 20
867.1808087791
 30
0.0
 11
814.1679505561
 21
867.1808087791
 31
0.0
  0
LINE
  5
50C
  8
1
  6
CONTINUOUS
 62
     7
 10
816.5707584939
 20
847.1808087791
 30
0.0
 11
827.5707584939
 21
847.1808087791
 31
0.0
  0
LINE
  5
50D
  8
1
  6
CONTINUOUS
 62
     7
 10
827.5707584939
 20
720.6808087791
 30
0.0
 11
827.5707584939
 21
715.6808087791
 31
0.0
  0
LINE
  5
50E
  8
1
  6
CONTINUOUS
 62
     7
 10
942.5126286594
 20
862.1808087791
 30
0.0
 11
955.8126286594
 21
862.1808087791
 31
0.0
  0
LINE
  5
50F
  8
1
  6
CONTINUOUS
 62
     7
 10
827.5707584939
 20
728.1808087791
 30
0.0
 11
816.5707584939
 21
728.1808087791
 31
0.0
  0
LINE
  5
510
  8
1
  6
CONTINUOUS
 62
     7
 10
942.5126286594
 20
720.6808087791
 30
0.0
 11
942.5126286594
 21
715.6808087791
 31
0.0
  0
LINE
  5
511
  8
1
  6
CONTINUOUS
 62
     7
 10
942.5126286594
 20
852.1808087791
 30
0.0
 11
942.5126286594
 21
847.1808087791
 31
0.0
  0
LINE
  5
512
  8
1
  6
CONTINUOUS
 62
     7
 10
942.5126286594
 20
715.6808087791
 30
0.0
 11
954.8126286594
 21
715.6808087791
 31
0.0
  0
LINE
  5
513
  8
1
  6
CONTINUOUS
 62
     7
 10
954.8126286594
 20
720.6808087791
 30
0.0
 11
942.5126286594
 21
720.6808087791
 31
0.0
  0
LINE
  5
514
  8
1
  6
CONTINUOUS
 62
     7
 10
954.8126286594
 20
715.6808087791
 30
0.0
 11
954.8126286594
 21
720.6808087791
 31
0.0
  0
LINE
  5
515
  8
1
  6
CONTINUOUS
 62
     7
 10
955.8126286594
 20
862.1808087791
 30
0.0
 11
955.8126286594
 21
867.1808087791
 31
0.0
  0
LINE
  5
516
  8
1
  6
CONTINUOUS
 62
     7
 10
951.8126286594
 20
852.1808087791
 30
0.0
 11
951.8126286594
 21
862.1808087791
 31
0.0
  0
LINE
  5
517
  8
1
  6
CENTER
 62
     7
 10
1027.8126286594
 20
796.6808087791
 30
0.0
 11
897.8126286594
 21
796.6808087791
 31
0.0
  0
LINE
  5
518
  8
1
  6
CONTINUOUS
 62
     7
 10
827.5707584939
 20
847.1808087791
 30
0.0
 11
827.5707584939
 21
852.1808087791
 31
0.0
  0
LINE
  5
519
  8
1
  6
CONTINUOUS
 62
     7
 10
827.5707584939
 20
862.1808087791
 30
0.0
 11
827.5707584939
 21
867.1808087791
 31
0.0
  0
LINE
  5
51A
  8
1
  6
CONTINUOUS
 62
     7
 10
942.5126286594
 20
728.1808087791
 30
0.0
 11
954.8126286594
 21
728.1808087791
 31
0.0
  0
LINE
  5
51B
  8
1
  6
CONTINUOUS
 62
     7
 10
821.8207584939
 20
862.1808087791
 30
0.0
 11
821.8207584939
 21
852.1808087791
 31
0.0
  0
LINE
  5
51C
  8
1
  6
CONTINUOUS
 62
     7
 10
818.0707584939
 20
852.1808087791
 30
0.0
 11
818.0707584939
 21
862.1808087791
 31
0.0
  0
LINE
  5
51D
  8
1
  6
CONTINUOUS
 62
     7
 10
821.8207584939
 20
728.1808087791
 30
0.0
 11
821.8207584939
 21
720.6808087791
 31
0.0
  0
LINE
  5
51E
  8
1
  6
CONTINUOUS
 62
     7
 10
941.8126286594
 20
733.1808087791
 30
0.0
 11
941.8126286594
 21
678.6808087791
 31
0.0
  0
LINE
  5
51F
  8
1
  6
CONTINUOUS
 62
     7
 10
824.0707584939
 20
852.1808087791
 30
0.0
 11
824.0707584939
 21
862.1808087791
 31
0.0
  0
LINE
  5
520
  8
1
  6
CONTINUOUS
 62
     7
 10
827.5707584939
 20
733.1808087791
 30
0.0
 11
827.5707584939
 21
728.1808087791
 31
0.0
  0
LINE
  5
521
  8
1
  6
CONTINUOUS
 62
     7
 10
820.3207584939
 20
728.1808087791
 30
0.0
 11
820.3207584939
 21
720.6808087791
 31
0.0
  0
LINE
  5
522
  8
1
  6
CONTINUOUS
 62
     7
 10
942.5126286594
 20
715.6808087791
 30
0.0
 11
954.8126286594
 21
715.6808087791
 31
0.0
  0
LINE
  5
523
  8
1
  6
CONTINUOUS
 62
     7
 10
951.8126286594
 20
720.6808087791
 30
0.0
 11
951.8126286594
 21
728.1808087791
 31
0.0
  0
LINE
  5
524
  8
1
  6
CONTINUOUS
 62
     7
 10
955.8126286594
 20
852.1808087791
 30
0.0
 11
942.5126286594
 21
852.1808087791
 31
0.0
  0
ARC
  5
525
  8
1
  6
CONTINUOUS
 62
     7
 10
1012.3126286594
 20
741.8267068128
 30
0.0
 40
1.5
 50
0.0
 51
48.1896851042
  0
LINE
  5
526
  8
1
  6
CONTINUOUS
 62
     7
 10
820.3207584939
 20
862.1808087791
 30
0.0
 11
820.3207584939
 21
852.1808087791
 31
0.0
  0
LINE
  5
527
  8
1
  6
CONTINUOUS
 62
     7
 10
814.1679505561
 20
733.1808087797
 30
0.0
 11
827.5707584939
 21
733.1808087791
 31
0.0
  0
ARC
  5
528
  8
1
  6
CONTINUOUS
 62
     7
 10
687.3576948961
 20
601.1375772137
 30
0.0
 40
2.0
 50
90.0
 51
178.0
  0
ARC
  5
529
  8
1
  6
CONTINUOUS
 62
     7
 10
809.7838220917
 20
601.1375772137
 30
0.0
 40
2.0
 50
2.0
 51
90.0
  0
LINE
  5
52A
  8
1
  6
CONTINUOUS
 62
     7
 10
816.5707584939
 20
862.1808087791
 30
0.0
 11
827.5707584939
 21
862.1808087791
 31
0.0
  0
LINE
  5
52B
  8
1
  6
CONTINUOUS
 62
     7
 10
692.858913242
 20
604.1375772137
 30
0.0
 11
804.2826037458
 21
604.1375772137
 31
0.0
  0
LINE
  5
52C
  8
1
  6
CONTINUOUS
 62
     7
 10
954.8126286594
 20
720.6808087791
 30
0.0
 11
942.5126286594
 21
720.6808087791
 31
0.0
  0
LINE
  5
52D
  8
1
  6
CONTINUOUS
 62
     7
 10
945.8126286594
 20
852.1808087791
 30
0.0
 11
945.8126286594
 21
862.1808087791
 31
0.0
  0
ARC
  5
52E
  8
1
  6
CONTINUOUS
 62
     7
 10
1015.3126286594
 20
745.1808087791
 30
0.0
 40
3.0
 50
311.8103148958
 51
228.1896851042
  0
LINE
  5
52F
  8
1
  6
CONTINUOUS
 62
     7
 10
827.5707584939
 20
715.6808087791
 30
0.0
 11
816.5707584939
 21
715.6808087791
 31
0.0
  0
LINE
  5
530
  8
1
  6
CONTINUOUS
 62
     7
 10
680.9747847776
 20
576.7073762072
 30
0.0
 11
680.5707584939
 21
565.1375772137
 31
0.0
  0
ARC
  5
531
  8
1
  6
CONTINUOUS
 62
     7
 10
682.9735664316
 20
576.6375772138
 30
0.0
 40
2.0
 50
90.0
 51
178.0
  0
ARC
  5
532
  8
1
  6
CONTINUOUS
 62
     7
 10
814.1679505561
 20
576.6375772137
 30
0.0
 40
2.0
 50
2.0
 51
90.0
  0
LINE
  5
533
  8
1
  6
CONTINUOUS
 62
     7
 10
942.5126286594
 20
728.1808087791
 30
0.0
 11
954.8126286594
 21
728.1808087791
 31
0.0
  0
LINE
  5
534
  8
1
  6
CONTINUOUS
 62
     7
 10
942.5126286594
 20
867.1808087791
 30
0.0
 11
942.5126286594
 21
862.1808087791
 31
0.0
  0
LINE
  5
535
  8
1
  6
CONTINUOUS
 62
     7
 10
942.5126286594
 20
733.1808087791
 30
0.0
 11
942.5126286594
 21
728.1808087791
 31
0.0
  0
LINE
  5
536
  8
1
  6
CONTINUOUS
 62
     7
 10
942.5126286594
 20
847.1808087791
 30
0.0
 11
955.8126286594
 21
847.1808087791
 31
0.0
  0
LINE
  5
537
  8
1
  6
CONTINUOUS
 62
     7
 10
812.5606478782
 20
578.9271073647
 30
0.0
 11
811.7826037458
 21
601.2073762071
 31
0.0
  0
ARC
  5
538
  8
1
  6
CONTINUOUS
 62
     7
 10
812.8604651263
 20
578.9375772137
 30
0.0
 40
0.3
 50
182.0000000001
 51
270.0
  0
LINE
  5
539
  8
1
  6
CONTINUOUS
 62
     7
 10
824.0707584939
 20
720.6808087791
 30
0.0
 11
824.0707584939
 21
728.1808087791
 31
0.0
  0
LINE
  5
53A
  8
1
  6
CONTINUOUS
 62
     7
 10
684.5808691096
 20
578.9271073647
 30
0.0
 11
685.358913242
 21
601.2073762071
 31
0.0
  0
LINE
  5
53B
  8
1
  6
CONTINUOUS
 62
     7
 10
942.5126286594
 20
867.1808087791
 30
0.0
 11
928.3126286594
 21
867.1808087791
 31
0.0
  0
LINE
  5
53C
  8
1
  6
CONTINUOUS
 62
     7
 10
816.5707584939
 20
720.6808087791
 30
0.0
 11
827.5707584939
 21
720.6808087791
 31
0.0
  0
LINE
  5
53D
  8
1
  6
CONTINUOUS
 62
     7
 10
692.1922465753
 20
603.1375772137
 30
0.0
 11
692.858913242
 21
604.1375772137
 31
0.0
  0
LINE
  5
53E
  8
1
  6
CONTINUOUS
 62
     7
 10
804.2826037458
 20
604.1375772137
 30
0.0
 11
804.9492704124
 21
603.1375772137
 31
0.0
  0
LINE
  5
53F
  8
1
  6
CONTINUOUS
 62
     7
 10
667.5707584939
 20
565.1375772137
 30
0.0
 11
667.5707584939
 21
570.1375772137
 31
0.0
  0
LINE
  5
540
  8
1
  6
CONTINUOUS
 62
     7
 10
816.1667322102
 20
576.7073762071
 30
0.0
 11
816.5707584939
 21
565.1375772137
 31
0.0
  0
LINE
  5
541
  8
1
  6
CONTINUOUS
 62
     7
 10
667.5707584939
 20
570.1375772137
 30
0.0
 11
680.7453623414
 21
570.1375772137
 31
0.0
  0
LINE
  5
542
  8
1
  6
CONTINUOUS
 62
     7
 10
680.5707584939
 20
565.1375772137
 30
0.0
 11
816.5707584939
 21
565.1375772137
 31
0.0
  0
LINE
  5
543
  8
0
  6
CONTINUOUS
 62
     7
 10
1192.8398139436
 20
796.6795623835
 30
0.0
 11
1192.8398139436
 21
881.4295623835001
 31
0.0
  0
LINE
  5
544
  8
0
  6
CONTINUOUS
 62
     7
 10
1202.8398139436
 20
796.6795623835
 30
0.0
 11
1202.8398139436
 21
881.4295623835001
 31
0.0
  0
TEXT
  5
545
  8
1
  6
CONTINUOUS
 62
     5
 10
947.9082062251157
 20
579.9572787272728
 30
0.0
 40
5.0
  1
ＷＢ－１Ａ
 41
0.881897
  0
TEXT
  5
546
  8
1
  6
CONTINUOUS
 62
     5
 10
946.8759996576529
 20
573.7572787272727
 30
0.0
 40
5.0
  1
ＣＷＢ－１Ａ
 41
0.881897
  0
ENDSEC
  0
EOF
