  0
SECTION
  2
HEADER
  9
$ACADVER
  1
AC1006
  9
$DWGCODEPAGE
  3
ansi_932
  9
$INSBASE
 10
0.0
 20
0.0
 30
0.0
  9
$EXTMIN
 10
687.1395099403
 20
521.240849073
  9
$EXTMAX
 10
1224.1103935417
 20
1133.5892867834
  9
$LIMMIN
 10
0.0
 20
0.0
  9
$LIMMAX
 10
12.0
 20
9.0
  9
$ORTHOMODE
 70
     0
  9
$REGENMODE
 70
     1
  9
$FILLMODE
 70
     1
  9
$QTEXTMODE
 70
     0
  9
$MIRRTEXT
 70
     1
  9
$DRAGMODE
 70
     2
  9
$LTSCALE
 40
1.0
  9
$OSMODE
 70
    37
  9
$ATTMODE
 70
     1
  9
$TEXTSIZE
 40
0.2
  9
$TRACEWID
 40
0.05
  9
$TEXTSTYLE
  7
STANDARD
  9
$CLAYER
  8
0
  9
$CELTYPE
  6
BYLAYER
  9
$CECOLOR
 62
   256
  9
$DIMSCALE
 40
1.0
  9
$DIMASZ
 40
3.0
  9
$DIMEXO
 40
0.0625
  9
$DIMDLI
 40
0.38
  9
$DIMRND
 40
0.0
  9
$DIMDLE
 40
0.0
  9
$DIMEXE
 40
1.5
  9
$DIMTP
 40
0.0
  9
$DIMTM
 40
0.0
  9
$DIMTXT
 40
5.0
  9
$DIMCEN
 40
0.09
  9
$DIMTSZ
 40
0.0
  9
$DIMTOL
 70
     0
  9
$DIMLIM
 70
     0
  9
$DIMTIH
 70
     1
  9
$DIMTOH
 70
     1
  9
$DIMSE1
 70
     0
  9
$DIMSE2
 70
     0
  9
$DIMTAD
 70
     1
  9
$DIMZIN
 70
     0
  9
$DIMBLK
  1

  9
$DIMASO
 70
     1
  9
$DIMSHO
 70
     1
  9
$DIMPOST
  1

  9
$DIMAPOST
  1

  9
$DIMALT
 70
     0
  9
$DIMALTD
 70
     2
  9
$DIMALTF
 40
25.4
  9
$DIMLFAC
 40
1.0
  9
$DIMTOFL
 70
     0
  9
$DIMTVP
 40
0.0
  9
$DIMTIX
 70
     0
  9
$DIMSOXD
 70
     0
  9
$DIMSAH
 70
     0
  9
$DIMBLK1
  1

  9
$DIMBLK2
  1

  9
$LUNITS
 70
     2
  9
$LUPREC
 70
     4
  9
$SKETCHINC
 40
0.1
  9
$FILLETRAD
 40
0.5
  9
$AUNITS
 70
     0
  9
$AUPREC
 70
     0
  9
$MENU
  1
.
  9
$ELEVATION
 40
0.0
  9
$THICKNESS
 40
0.0
  9
$LIMCHECK
 70
     0
  9
$CHAMFERA
 40
0.0
  9
$CHAMFERB
 40
0.0
  9
$SKPOLY
 70
     0
  9
$TDCREATE
 40
2458911.39459243
  9
$TDUPDATE
 40
2458911.394592974
  9
$TDINDWG
 40
0.0000000116
  9
$TDUSRTIMER
 40
0.0000000116
  9
$USRTIMER
 70
     1
  9
$ANGBASE
 50
0.0
  9
$ANGDIR
 70
     0
  9
$PDMODE
 70
     0
  9
$PDSIZE
 40
0.0
  9
$PLINEWID
 40
0.0
  9
$COORDS
 70
     1
  9
$SPLFRAME
 70
     0
  9
$SPLINETYPE
 70
     6
  9
$SPLINESEGS
 70
     8
  9
$ATTDIA
 70
     0
  9
$ATTREQ
 70
     1
  9
$HANDLING
 70
     1
  9
$HANDSEED
  5
270
  9
$SURFTAB1
 70
     6
  9
$SURFTAB2
 70
     6
  9
$SURFTYPE
 70
     6
  9
$SURFU
 70
     6
  9
$SURFV
 70
     6
  9
$UCSNAME
  2

  9
$UCSORG
 10
0.0
 20
0.0
 30
0.0
  9
$UCSXDIR
 10
1.0
 20
0.0
 30
0.0
  9
$UCSYDIR
 10
0.0
 20
1.0
 30
0.0
  9
$USERI1
 70
     0
  9
$USERI2
 70
     0
  9
$USERI3
 70
     0
  9
$USERI4
 70
     0
  9
$USERI5
 70
     0
  9
$USERR1
 40
0.0
  9
$USERR2
 40
0.0
  9
$USERR3
 40
0.0
  9
$USERR4
 40
0.0
  9
$USERR5
 40
0.0
  9
$WORLDVIEW
 70
     1
  0
ENDSEC
  0
SECTION
  2
TABLES
  0
TABLE
  2
VPORT
 70
     1
  0
VPORT
  2
*ACTIVE
 70
     0
 10
0.0
 20
0.0
 11
1.0
 21
1.0
 12
955.6249517409999
 22
827.4150679282
 13
0.0
 23
0.0
 14
0.5
 24
0.5
 15
0.5
 25
0.5
 16
0.0
 26
0.0
 36
1.0
 17
0.0
 27
0.0
 37
0.0
 40
612.3484377103999
 41
1.6
 42
50.0
 43
0.0
 44
0.0
 50
0.0
 51
0.0
 71
     0
 72
   100
 73
     1
 74
     3
 75
     0
 76
     0
 77
     0
 78
     0
  0
ENDTAB
  0
TABLE
  2
LTYPE
 70
     2
  0
LTYPE
  2
CONTINUOUS
 70
     0
  3
Solid line
 72
    65
 73
     0
 40
0.0
  0
LTYPE
  2
DOT
 70
     0
  3

 72
    65
 73
     0
 40
0.0
  0
ENDTAB
  0
TABLE
  2
LAYER
 70
     2
  0
LAYER
  2
0
 70
     0
 62
     7
  6
CONTINUOUS
  0
LAYER
  2
1
 70
     0
 62
     7
  6
CONTINUOUS
  0
ENDTAB
  0
TABLE
  2
STYLE
 70
     2
  0
STYLE
  2
STANDARD
 70
     0
 40
0.0
 41
1.0
 50
0.0
 71
     0
 42
0.2
  3
txt
  4

  0
STYLE
  2
ＭＳ_ゴシック
 70
     0
 40
0.0
 41
1.0
 50
0.0
 71
     0
 42
0.2
  3
ＭＳ ゴシック.shx
  4

  0
ENDTAB
  0
TABLE
  2
VIEW
 70
     0
  0
ENDTAB
  0
TABLE
  2
UCS
 70
     0
  0
ENDTAB
  0
ENDSEC
  0
SECTION
  2
BLOCKS
  0
ENDSEC
  0
SECTION
  2
ENTITIES
  0
ARC
  5
70
  8
1
  6
CONTINUOUS
 62
     7
 10
704.8252230149
 20
992.582102167
 30
0.0
 40
2.0
 50
275.8011470911
 51
0.0
  0
CIRCLE
  5
71
  8
1
  6
CONTINUOUS
 62
     7
 10
699.1395099403
 20
938.274999858
 30
0.0
 40
4.0
  0
LINE
  5
72
  8
1
  6
CONTINUOUS
 62
     7
 10
705.0273754452
 20
990.5923447962
 30
0.0
 11
689.8362812947
 21
989.0489824508
 31
0.0
  0
ARC
  5
73
  8
1
  6
CONTINUOUS
 62
     7
 10
896.1395099403
 20
1122.274999858
 30
0.0
 40
6.0
 50
0.0
 51
90.0
  0
ARC
  5
74
  8
1
  6
CONTINUOUS
 62
     7
 10
896.1395099403
 20
794.274999858
 30
0.0
 40
6.0
 50
270.0
 51
0.0
  0
LINE
  5
75
  8
1
  6
CONTINUOUS
 62
     7
 10
921.6395099403
 20
1073.274999858
 30
0.0
 11
902.1395099403
 21
1073.274999858
 31
0.0
  0
LINE
  5
76
  8
1
  6
CONTINUOUS
 62
     7
 10
921.6395099403
 20
873.274999858
 30
0.0
 11
921.6395099403
 21
859.274999858
 31
0.0
  0
ARC
  5
77
  8
1
  6
CONTINUOUS
 62
     7
 10
895.3474414691
 20
1121.4829313868
 30
0.0
 40
3.0
 50
0.0
 51
90.0
  0
LINE
  5
78
  8
1
  6
CONTINUOUS
 62
     7
 10
906.6481817328
 20
631.8106480665
 30
0.0
 11
907.1395099403
 21
617.7408490731
 31
0.0
  0
LINE
  5
79
  8
1
  6
CONTINUOUS
 62
     7
 10
722.9315784115
 20
1119.4829313862
 30
0.0
 11
891.3474414691
 21
1119.4829313862
 31
0.0
  0
LINE
  5
7A
  8
1
  6
CONTINUOUS
 62
     7
 10
715.8252230149
 20
1133.5892867834
 30
0.0
 11
898.4537968657
 21
1133.5892867834
 31
0.0
  0
LINE
  5
7B
  8
1
  6
CONTINUOUS
 62
     7
 10
921.6395099403
 20
883.274999858
 30
0.0
 11
921.6395099403
 21
878.274999858
 31
0.0
  0
LINE
  5
7C
  8
1
  6
CONTINUOUS
 62
     7
 10
918.1661387607
 20
632.2021589772
 30
0.0
 11
906.5807776284
 21
633.7408490731
 31
0.0
  0
ARC
  5
7D
  8
1
  6
CONTINUOUS
 62
     7
 10
894.3474414691
 20
796.0670683293
 30
0.0
 40
3.0
 50
270.0
 51
0.0
  0
LINE
  5
7E
  8
1
  6
CONTINUOUS
 62
     7
 10
902.1293993246
 20
634.0303792241
 30
0.0
 11
900.9148455735
 21
668.8106480664
 31
0.0
  0
ARC
  5
7F
  8
1
  6
CONTINUOUS
 62
     7
 10
891.3474414691
 20
835.0670683295
 30
0.0
 40
2.0
 50
270.0
 51
0.0
  0
LINE
  5
80
  8
1
  6
CONTINUOUS
 62
     7
 10
712.149620556
 20
634.0303792241
 30
0.0
 11
713.3641743071
 21
668.8106480664
 31
0.0
  0
ARC
  5
81
  8
1
  6
CONTINUOUS
 62
     7
 10
722.9315784115
 20
1117.4829313864
 30
0.0
 40
4.0
 50
90.0
 51
180.0
  0
ARC
  5
82
  8
1
  6
CONTINUOUS
 62
     7
 10
718.9315784115
 20
1121.4829313868
 30
0.0
 40
3.0
 50
90.0
 51
180.0
  0
LINE
  5
83
  8
1
  6
CONTINUOUS
 62
     7
 10
902.1395099403
 20
1068.274999858
 30
0.0
 11
921.6395099403
 21
1068.274999858
 31
0.0
  0
ARC
  5
84
  8
1
  6
CONTINUOUS
 62
     7
 10
902.4292165727
 20
634.0408490731
 30
0.0
 40
0.3
 50
181.9999999999
 51
270.0
  0
ARC
  5
85
  8
1
  6
CONTINUOUS
 62
     7
 10
718.1395099403
 20
1122.274999858
 30
0.0
 40
6.0
 50
90.0
 51
180.0
  0
LINE
  5
86
  8
1
  6
CONTINUOUS
 62
     7
 10
907.4537968657
 20
866.274999858
 30
0.0
 11
921.6395099403
 21
866.274999858
 31
0.0
  0
LINE
  5
87
  8
1
  6
CONTINUOUS
 62
     7
 10
897.3474414691
 20
1120.4829313866
 30
0.0
 11
897.3474414691
 21
796.0670683293
 31
0.0
  0
LINE
  5
88
  8
1
  6
CONTINUOUS
 62
     7
 10
897.8645577638
 20
617.7408490731
 30
0.0
 11
895.3376163324
 21
521.240849073
 31
0.0
  0
LINE
  5
89
  8
1
  6
CONTINUOUS
 62
     7
 10
895.3474414691
 20
1117.4829313864
 30
0.0
 11
895.3474414691
 21
834.0670683294
 31
0.0
  0
LINE
  5
8A
  8
1
  6
CONTINUOUS
 62
     7
 10
718.9315784115
 20
1124.4829313868
 30
0.0
 11
895.3474414691
 21
1124.4829313868
 31
0.0
  0
LINE
  5
8B
  8
1
  6
CONTINUOUS
 62
     7
 10
921.6395099403
 20
878.274999858
 30
0.0
 11
902.1395099403
 21
878.274999858
 31
0.0
  0
LINE
  5
8C
  8
1
  6
CONTINUOUS
 62
     7
 10
917.6395099403
 20
878.274999858
 30
0.0
 11
917.6395099403
 21
873.274999858
 31
0.0
  0
LINE
  5
8D
  8
1
  6
CONTINUOUS
 62
     7
 10
718.1395099403
 20
1128.274999858
 30
0.0
 11
896.1395099403
 21
1128.274999858
 31
0.0
  0
ARC
  5
8E
  8
1
  6
CONTINUOUS
 62
     7
 10
711.8498033079
 20
634.0408490731
 30
0.0
 40
0.3
 50
270.0
 51
358.0000000001
  0
ARC
  5
8F
  8
1
  6
CONTINUOUS
 62
     7
 10
891.3474414691
 20
834.0670683294
 30
0.0
 40
4.0
 50
270.0
 51
0.0
  0
ARC
  5
90
  8
1
  6
CONTINUOUS
 62
     7
 10
917.6395099403
 20
628.2369777599
 30
0.0
 40
4.0
 50
0.0
 51
82.4346336357
  0
LINE
  5
91
  8
1
  6
CONTINUOUS
 62
     7
 10
921.6395099403
 20
1068.274999858
 30
0.0
 11
921.6395099403
 21
1054.274999858
 31
0.0
  0
LINE
  5
92
  8
1
  6
CONTINUOUS
 62
     7
 10
921.6395099403
 20
628.2369777599
 30
0.0
 11
921.6395099403
 21
608.740849073
 31
0.0
  0
ARC
  5
93
  8
1
  6
CONTINUOUS
 62
     7
 10
891.3474414691
 20
1117.4829313864
 30
0.0
 40
4.0
 50
0.0
 51
90.0
  0
LINE
  5
94
  8
1
  6
CONTINUOUS
 62
     7
 10
806.6395099403
 20
617.740849073
 30
0.0
 11
806.6395099403
 21
595.240849073
 31
0.0
  0
LINE
  5
95
  8
1
  6
CONTINUOUS
 62
     7
 10
921.6395099403
 20
1037.274999858
 30
0.0
 11
921.6395099403
 21
1030.274999858
 31
0.0
  0
LINE
  5
96
  8
1
  6
CONTINUOUS
 62
     7
 10
893.3474414691
 20
1117.4829313862
 30
0.0
 11
893.3474414691
 21
835.0670683295
 31
0.0
  0
ARC
  5
97
  8
1
  6
CONTINUOUS
 62
     7
 10
894.3474414691
 20
1120.4829313866
 30
0.0
 40
3.0
 50
0.0
 51
90.0
  0
ARC
  5
98
  8
1
  6
CONTINUOUS
 62
     7
 10
719.9315784115
 20
1120.4829313866
 30
0.0
 40
3.0
 50
90.0
 51
180.0
  0
LINE
  5
99
  8
1
  6
CONTINUOUS
 62
     7
 10
921.6395099403
 20
1078.274999858
 30
0.0
 11
921.6395099403
 21
1073.274999858
 31
0.0
  0
LINE
  5
9A
  8
1
  6
CONTINUOUS
 62
     7
 10
913.1395099403
 20
873.274999858
 30
0.0
 11
913.1395099403
 21
881.274999858
 31
0.0
  0
LINE
  5
9B
  8
1
  6
CONTINUOUS
 62
     7
 10
807.6395099403
 20
595.240849073
 30
0.0
 11
807.6395099443
 21
617.740849073
 31
0.0
  0
ARC
  5
9C
  8
1
  6
CONTINUOUS
 62
     7
 10
891.3474414691
 20
1117.4829313862
 30
0.0
 40
2.0
 50
0.0
 51
90.0
  0
ARC
  5
9D
  8
1
  6
CONTINUOUS
 62
     7
 10
690.1395099403
 20
986.0643463945
 30
0.0
 40
3.0
 50
95.80114709110002
 51
180.0
  0
LINE
  5
9E
  8
1
  6
CONTINUOUS
 62
     7
 10
687.1395099403
 20
930.4856533215
 30
0.0
 11
687.1395099403
 21
986.0643463945
 31
0.0
  0
LINE
  5
9F
  8
1
  6
CONTINUOUS
 62
     7
 10
707.6308381477
 20
631.8106480666
 30
0.0
 11
707.1395099403
 21
617.7408490731
 31
0.0
  0
CIRCLE
  5
A0
  8
1
  6
CONTINUOUS
 62
     7
 10
913.1395099403
 20
609.240849073
 30
0.0
 40
4.5
  0
ARC
  5
A1
  8
1
  6
CONTINUOUS
 62
     7
 10
715.8252230149
 20
1124.5892867834
 30
0.0
 40
9.0
 50
90.0
 51
180.0
  0
ARC
  5
A2
  8
1
  6
CONTINUOUS
 62
     7
 10
898.4537968657
 20
1124.5892867834
 30
0.0
 40
9.0
 50
0.0
 51
90.0
  0
ARC
  5
A3
  8
1
  6
CONTINUOUS
 62
     7
 10
722.9315784115
 20
1117.4829313862
 30
0.0
 40
2.0
 50
90.0
 51
180.0
  0
ARC
  5
A4
  8
1
  6
CONTINUOUS
 62
     7
 10
895.3474414691
 20
795.0670683292
 30
0.0
 40
3.0
 50
270.0
 51
0.0
  0
LINE
  5
A5
  8
1
  6
CONTINUOUS
 62
     7
 10
719.9315784115
 20
1123.4829313866
 30
0.0
 11
894.3474414691
 21
1123.4829313866
 31
0.0
  0
ARC
  5
A6
  8
1
  6
CONTINUOUS
 62
     7
 10
898.4537968657
 20
792.274999858
 30
0.0
 40
9.0
 50
270.0
 51
0.0
  0
LINE
  5
A7
  8
1
  6
CONTINUOUS
 62
     7
 10
891.3474414691
 20
1121.4829313864
 30
0.0
 11
722.9315784115
 21
1121.4829313864
 31
0.0
  0
LINE
  5
A8
  8
1
  6
CONTINUOUS
 62
     7
 10
921.6395099403
 20
873.274999858
 30
0.0
 11
902.1395099403
 21
873.274999858
 31
0.0
  0
LINE
  5
A9
  8
1
  6
CONTINUOUS
 62
     7
 10
921.6395099403
 20
845.274999858
 30
0.0
 11
921.6395099403
 21
838.274999858
 31
0.0
  0
LINE
  5
AA
  8
1
  6
CONTINUOUS
 62
     7
 10
906.5807776284
 20
633.7408490731
 30
0.0
 11
709.6296198018
 21
633.7408490731
 31
0.0
  0
LINE
  5
AB
  8
1
  6
CONTINUOUS
 62
     7
 10
687.1395099403
 20
617.740849073
 30
0.0
 11
913.1395099403
 21
617.740849073
 31
0.0
  0
LINE
  5
AC
  8
1
  6
CONTINUOUS
 62
     7
 10
716.4144621168
 20
617.7408490731
 30
0.0
 11
718.9414035482
 21
521.240849073
 31
0.0
  0
LINE
  5
AD
  8
1
  6
CONTINUOUS
 62
     7
 10
902.1395099403
 20
794.274999858
 30
0.0
 11
902.1395099403
 21
1122.274999858
 31
0.0
  0
LINE
  5
AE
  8
1
  6
CONTINUOUS
 62
     7
 10
917.6395099403
 20
1073.274999858
 30
0.0
 11
917.6395099403
 21
1068.274999858
 31
0.0
  0
LINE
  5
AF
  8
1
  6
CONTINUOUS
 62
     7
 10
913.1395099403
 20
1068.274999858
 30
0.0
 11
913.1395099403
 21
1073.274999858
 31
0.0
  0
LINE
  5
B0
  8
1
  6
CONTINUOUS
 62
     7
 10
898.3474414691
 20
1121.4829313868
 30
0.0
 11
898.3474414691
 21
795.0670683292
 31
0.0
  0
ARC
  5
B1
  8
1
  6
CONTINUOUS
 62
     7
 10
904.6494000788
 20
631.7408490731
 30
0.0
 40
2.0
 50
2.0
 51
90.0
  0
ARC
  5
B2
  8
1
  6
CONTINUOUS
 62
     7
 10
780.1395099403
 20
604.240849073
 30
0.0
 40
13.0
 50
180.0
 51
270.0
  0
LINE
  5
B3
  8
1
  6
CONTINUOUS
 62
     7
 10
812.1395099403
 20
526.240849073
 30
0.0
 11
827.1395099403
 21
521.240849073
 31
0.0
  0
CIRCLE
  5
B4
  8
1
  6
CONTINUOUS
 62
     7
 10
752.1395099403
 20
563.240849073
 30
0.0
 40
15.0
  0
ARC
  5
B5
  8
1
  6
CONTINUOUS
 62
     7
 10
715.3629559611
 20
668.740849073
 30
0.0
 40
2.0
 50
90.0
 51
178.0
  0
CIRCLE
  5
B6
  8
1
  6
CONTINUOUS
 62
     7
 10
807.1395099403
 20
563.240849073
 30
0.0
 40
11.5
  0
LINE
  5
B7
  8
1
  6
CONTINUOUS
 62
     7
 10
834.1395099403
 20
595.240849073
 30
0.0
 11
780.1395099403
 21
595.240849073
 31
0.0
  0
ARC
  5
B8
  8
1
  6
CONTINUOUS
 62
     7
 10
834.1395099403
 20
604.240849073
 30
0.0
 40
9.0
 50
270.0
 51
0.0
  0
CIRCLE
  5
B9
  8
1
  6
CONTINUOUS
 62
     7
 10
752.1395099403
 20
563.240849073
 30
0.0
 40
17.0
  0
LINE
  5
BA
  8
1
  6
CONTINUOUS
 62
     7
 10
898.9160639195
 20
670.740849073
 30
0.0
 11
715.3629559611
 21
670.740849073
 31
0.0
  0
LINE
  5
BB
  8
1
  6
CONTINUOUS
 62
     7
 10
780.1395099403
 20
591.240849073
 30
0.0
 11
834.1395099403
 21
591.240849073
 31
0.0
  0
ARC
  5
BC
  8
1
  6
CONTINUOUS
 62
     7
 10
898.9160639195
 20
668.740849073
 30
0.0
 40
2.0
 50
2.0
 51
90.0
  0
ARC
  5
BD
  8
1
  6
CONTINUOUS
 62
     7
 10
709.6296198018
 20
631.7408490732
 30
0.0
 40
2.0
 50
90.0
 51
178.0
  0
ARC
  5
BE
  8
1
  6
CONTINUOUS
 62
     7
 10
834.1395099403
 20
604.240849073
 30
0.0
 40
13.0
 50
270.0
 51
0.0
  0
CIRCLE
  5
BF
  8
1
  6
CONTINUOUS
 62
     7
 10
862.1395099403
 20
563.240849073
 30
0.0
 40
17.0
  0
ARC
  5
C0
  8
1
  6
CONTINUOUS
 62
     7
 10
913.1395099403
 20
609.240849073
 30
0.0
 40
8.5
 50
281.8414206708
 51
90.0
  0
ARC
  5
C1
  8
1
  6
CONTINUOUS
 62
     7
 10
834.1395099403
 20
604.240849073
 30
0.0
 40
10.0
 50
270.0
 51
0.0
  0
LINE
  5
C2
  8
1
  6
CONTINUOUS
 62
     7
 10
834.1395099403
 20
594.240849073
 30
0.0
 11
780.1395099403
 21
594.240849073
 31
0.0
  0
LINE
  5
C3
  8
1
  6
CONTINUOUS
 62
     7
 10
898.8752636358
 20
597.565310018
 30
0.0
 11
914.8837409491
 21
600.9217350464
 31
0.0
  0
LINE
  5
C4
  8
1
  6
CONTINUOUS
 62
     7
 10
787.1395099403
 20
521.240849073
 30
0.0
 11
802.1395099403
 21
526.240849073
 31
0.0
  0
LINE
  5
C5
  8
1
  6
CONTINUOUS
 62
     7
 10
827.1395099403
 20
521.240849073
 30
0.0
 11
895.3376163324
 21
521.240849073
 31
0.0
  0
LINE
  5
C6
  8
1
  6
CONTINUOUS
 62
     7
 10
718.9414035482
 20
521.240849073
 30
0.0
 11
787.1395099403
 21
521.240849073
 31
0.0
  0
ARC
  5
C7
  8
1
  6
CONTINUOUS
 62
     7
 10
899.285670932
 20
595.6078714235
 30
0.0
 40
2.0
 50
101.8414206708
 51
178.5
  0
LINE
  5
C8
  8
1
  6
CONTINUOUS
 62
     7
 10
893.3474414691
 20
671.740849073
 30
0.0
 11
894.0141081358
 21
670.740849073
 31
0.0
  0
ARC
  5
C9
  8
1
  6
CONTINUOUS
 62
     7
 10
780.1395099403
 20
604.240849073
 30
0.0
 40
9.0
 50
180.0
 51
270.0
  0
CIRCLE
  5
CA
  8
1
  6
CONTINUOUS
 62
     7
 10
807.1395099403
 20
563.240849073
 30
0.0
 40
13.75
  0
ARC
  5
CB
  8
1
  6
CONTINUOUS
 62
     7
 10
780.1395099403
 20
604.240849073
 30
0.0
 40
10.0
 50
180.0
 51
270.0
  0
CIRCLE
  5
CC
  8
1
  6
CONTINUOUS
 62
     7
 10
862.1395099403
 20
563.240849073
 30
0.0
 40
15.0
  0
LINE
  5
CD
  8
1
  6
CONTINUOUS
 62
     7
 10
802.1395099403
 20
526.240849073
 30
0.0
 11
812.1395099403
 21
526.240849073
 31
0.0
  0
LINE
  5
CE
  8
1
  6
CONTINUOUS
 62
     7
 10
720.9315784115
 20
671.740849073
 30
0.0
 11
720.2649117448
 21
670.740849073
 31
0.0
  0
LINE
  5
CF
  8
1
  6
CONTINUOUS
 62
     7
 10
720.9315784115
 20
671.740849073
 30
0.0
 11
893.3474414691
 21
671.740849073
 31
0.0
  0
TEXT
  5
D0
  8
1
  6
CONTINUOUS
 62
     7
 10
1098.249726487223
 20
683.3796576363636
 30
0.0
 40
3.0
  1
ＷＢ－３ＡＯ
 41
0.881359
 51
14.999825
  0
TEXT
  5
D1
  8
1
  6
CONTINUOUS
 62
     7
 10
1098.249726487223
 20
666.5796576363637
 30
0.0
 40
3.0
  1
ＣＷＢ－３ＡＯ
 41
0.881359
 51
14.999825
  0
TEXT
  5
D2
  8
1
  6
CONTINUOUS
 62
     7
 10
1098.249726487223
 20
666.5796576363637
 30
0.0
 40
3.0
  1
ＣＷＢ－３ＡＯ
 41
0.881359
 51
14.999825
  0
TEXT
  5
D3
  8
1
  6
CONTINUOUS
 62
     7
 10
1098.249726487223
 20
683.3796576363636
 30
0.0
 40
3.0
  1
ＷＢ－３ＡＯ
 41
0.881359
 51
14.999825
  0
LINE
  5
D4
  8
1
  6
CONTINUOUS
 62
     7
 10
907.4537968657
 20
1080.274999858
 30
0.0
 11
907.4537968657
 21
1124.5892867834
 31
0.0
  0
ARC
  5
D5
  8
1
  6
CONTINUOUS
 62
     7
 10
705.8252230149
 20
926.8817440584
 30
0.0
 40
1.0
 50
0.0
 51
84.1988529088
  0
LINE
  5
D6
  8
1
  6
CONTINUOUS
 62
     7
 10
844.1395099403
 20
617.740849073
 30
0.0
 11
844.1395099403
 21
604.240849073
 31
0.0
  0
LINE
  5
D7
  8
1
  6
CONTINUOUS
 62
     7
 10
1111.6103935417
 20
785.7651097195
 30
0.0
 11
1111.6103935417
 21
1130.7848899965
 31
0.0
  0
LINE
  5
D8
  8
1
  6
CONTINUOUS
 62
     7
 10
1074.6103935417
 20
791.4984458788
 30
0.0
 11
1074.6103935417
 21
1125.0515538372
 31
0.0
  0
LINE
  5
D9
  8
1
  6
CONTINUOUS
 62
     7
 10
770.1395099403
 20
617.740849073
 30
0.0
 11
770.1395099403
 21
604.240849073
 31
0.0
  0
ARC
  5
DA
  8
1
  6
CONTINUOUS
 62
     7
 10
690.1395099403
 20
946.0643463945
 30
0.0
 40
1.0
 50
95.80114709110002
 51
180.0
  0
ARC
  5
DB
  8
1
  6
CONTINUOUS
 62
     7
 10
690.1395099403
 20
946.0643463945
 30
0.0
 40
3.0
 50
95.80114709110002
 51
180.0
  0
LINE
  5
DC
  8
1
  6
CONTINUOUS
 62
     7
 10
715.7725017835
 20
605.2985310069
 30
0.0
 11
703.0982663493
 21
612.4808770003
 31
0.0
  0
ARC
  5
DD
  8
1
  6
CONTINUOUS
 62
     7
 10
702.1122121863
 20
610.740849073
 30
0.0
 40
2.0
 50
60.4602622056
 51
90.0
  0
LINE
  5
DE
  8
1
  6
CONTINUOUS
 62
     7
 10
1145.1103935417
 20
1068.274999858
 30
0.0
 11
1111.6103935417
 21
1068.274999858
 31
0.0
  0
LINE
  5
DF
  8
1
  6
CONTINUOUS
 62
     7
 10
1127.6103935417
 20
1078.274999858
 30
0.0
 11
1127.6103935417
 21
1082.274999858
 31
0.0
  0
LINE
  5
E0
  8
1
  6
CONTINUOUS
 62
     7
 10
1111.6103935417
 20
1073.274999858
 30
0.0
 11
1145.1103935417
 21
1073.274999858
 31
0.0
  0
ARC
  5
E1
  8
1
  6
CONTINUOUS
 62
     7
 10
1113.6103935417
 20
785.7651097195
 30
0.0
 40
2.0
 50
180.0
 51
267.9999999999999
  0
LINE
  5
E2
  8
1
  6
CONTINUOUS
 62
     7
 10
1141.1103935417
 20
1068.274999858
 30
0.0
 11
1141.1103935417
 21
1073.274999858
 31
0.0
  0
LINE
  5
E3
  8
1
  6
CONTINUOUS
 62
     7
 10
1145.1103935417
 20
866.274999858
 30
0.0
 11
1145.1103935417
 21
873.274999858
 31
0.0
  0
LINE
  5
E4
  8
1
  6
CONTINUOUS
 62
     7
 10
1113.5405945483
 20
783.7663280654
 30
0.0
 11
1127.6103935417
 21
783.274999858
 31
0.0
  0
LINE
  5
E5
  8
1
  6
CONTINUOUS
 62
     7
 10
1145.1103935417
 20
873.274999858
 30
0.0
 11
1111.6103935417
 21
873.274999858
 31
0.0
  0
LINE
  5
E6
  8
1
  6
CONTINUOUS
 62
     7
 10
1145.1103935417
 20
878.274999858
 30
0.0
 11
1145.1103935417
 21
883.274999858
 31
0.0
  0
LINE
  5
E7
  8
1
  6
CONTINUOUS
 62
     7
 10
1145.1103935417
 20
883.274999858
 30
0.0
 11
1111.6103935417
 21
883.274999858
 31
0.0
  0
LINE
  5
E8
  8
1
  6
CONTINUOUS
 62
     7
 10
1127.6103935417
 20
783.274999858
 30
0.0
 11
1127.6103935417
 21
868.274999858
 31
0.0
  0
LINE
  5
E9
  8
1
  6
CONTINUOUS
 62
     7
 10
847.139509948
 20
617.740849073
 30
0.0
 11
847.1395099403
 21
604.240849073
 31
0.0
  0
LINE
  5
EA
  8
1
  6
CONTINUOUS
 62
     7
 10
1111.6103935417
 20
878.274999858
 30
0.0
 11
1145.1103935417
 21
878.274999858
 31
0.0
  0
LINE
  5
EB
  8
1
  6
CONTINUOUS
 62
     7
 10
1113.5405945483
 20
1132.7836716506
 30
0.0
 11
1136.6103935417
 21
1133.5892867834
 31
0.0
  0
LINE
  5
EC
  8
1
  6
CONTINUOUS
 62
     7
 10
1132.1103935417
 20
873.274999858
 30
0.0
 11
1132.1103935417
 21
878.274999858
 31
0.0
  0
LINE
  5
ED
  8
1
  6
CONTINUOUS
 62
     7
 10
1141.1103935417
 20
873.274999858
 30
0.0
 11
1141.1103935417
 21
878.274999858
 31
0.0
  0
LINE
  5
EE
  8
1
  6
CONTINUOUS
 62
     7
 10
1136.6103935417
 20
1133.5892867834
 30
0.0
 11
1136.6103935417
 21
1091.274999858
 31
0.0
  0
LINE
  5
EF
  8
1
  6
CONTINUOUS
 62
     7
 10
705.0273754452
 20
925.9576549199
 30
0.0
 11
689.8362812947
 21
927.5010172652
 31
0.0
  0
LINE
  5
F0
  8
1
  6
CONTINUOUS
 62
     7
 10
705.0273754452
 20
950.5923447962
 30
0.0
 11
689.8362812947
 21
949.0489824508
 31
0.0
  0
LINE
  5
F1
  8
1
  6
CONTINUOUS
 62
     7
 10
687.1395099403
 20
621.740849073
 30
0.0
 11
687.1395099403
 21
617.740849073
 31
0.0
  0
LINE
  5
F2
  8
1
  6
CONTINUOUS
 62
     7
 10
706.348425013
 20
622.740849073
 30
0.0
 11
688.1395099403
 21
622.740849073
 31
0.0
  0
ARC
  5
F3
  8
1
  6
CONTINUOUS
 62
     7
 10
705.8252230149
 20
949.6682556576
 30
0.0
 40
1.0
 50
275.8011470912
 51
0.0
  0
ARC
  5
F4
  8
1
  6
CONTINUOUS
 62
     7
 10
688.1395099403
 20
621.740849073
 30
0.0
 40
1.0
 50
90.0
 51
180.0
  0
ARC
  5
F5
  8
1
  6
CONTINUOUS
 62
     7
 10
706.348425013
 20
623.740849073
 30
0.0
 40
1.0
 50
270.0
 51
358.0
  0
ARC
  5
F6
  8
1
  6
CONTINUOUS
 62
     7
 10
1076.6103935417
 20
791.4984458788
 30
0.0
 40
2.0
 50
180.0
 51
267.9999999999999
  0
LINE
  5
F7
  8
1
  6
CONTINUOUS
 62
     7
 10
771.1395099403
 20
604.240849073
 30
0.0
 11
771.1395099403
 21
617.740849073
 31
0.0
  0
LINE
  5
F8
  8
1
  6
CONTINUOUS
 62
     7
 10
1145.1103935417
 20
1073.274999858
 30
0.0
 11
1145.1103935417
 21
1078.274999858
 31
0.0
  0
ARC
  5
F9
  8
1
  6
CONTINUOUS
 62
     7
 10
704.8252230149
 20
923.967897549
 30
0.0
 40
2.0
 50
0.0
 51
84.1988529089
  0
ARC
  5
FA
  8
1
  6
CONTINUOUS
 62
     7
 10
704.8252230149
 20
952.582102167
 30
0.0
 40
2.0
 50
275.8011470911
 51
0.0
  0
LINE
  5
FB
  8
1
  6
CONTINUOUS
 62
     7
 10
1136.6103935417
 20
1063.274999858
 30
0.0
 11
1111.6103935417
 21
1063.274999858
 31
0.0
  0
ARC
  5
FC
  8
1
  6
CONTINUOUS
 62
     7
 10
1076.6103935417
 20
1125.0515538372
 30
0.0
 40
2.0
 50
92.0
 51
180.0
  0
LINE
  5
FD
  8
1
  6
CONTINUOUS
 62
     7
 10
1145.1103935417
 20
1078.274999858
 30
0.0
 11
1111.6103935417
 21
1078.274999858
 31
0.0
  0
LINE
  5
FE
  8
1
  6
CONTINUOUS
 62
     7
 10
1111.3208633907
 20
1128.2648892423
 30
0.0
 11
1076.5405945483
 21
1127.0503354912
 31
0.0
  0
LINE
  5
FF
  8
1
  6
CONTINUOUS
 62
     7
 10
690.6395099403
 20
617.740849073
 30
0.0
 11
690.6395099403
 21
613.240849073
 31
0.0
  0
LINE
  5
100
  8
1
  6
CONTINUOUS
 62
     7
 10
702.1122121863
 20
612.740849073
 30
0.0
 11
691.1395099403
 21
612.740849073
 31
0.0
  0
LINE
  5
101
  8
1
  6
CONTINUOUS
 62
     7
 10
690.0384337251
 20
947.0592250799
 30
0.0
 11
705.9262992301
 21
948.6733769722
 31
0.0
  0
ARC
  5
102
  8
1
  6
CONTINUOUS
 62
     7
 10
714.7851348337
 20
603.5592476756
 30
0.0
 40
2.0
 50
1.5
 51
60.4170254073
  0
LINE
  5
103
  8
1
  6
CONTINUOUS
 62
     7
 10
1132.1103935417
 20
1068.274999858
 30
0.0
 11
1132.1103935417
 21
1073.274999858
 31
0.0
  0
ARC
  5
104
  8
1
  6
CONTINUOUS
 62
     7
 10
1111.3103935417
 20
1128.5647064904
 30
0.0
 40
0.3
 50
271.9999999999
 51
0.0
  0
ARC
  5
105
  8
1
  6
CONTINUOUS
 62
     7
 10
691.1395099403
 20
613.240849073
 30
0.0
 40
0.5
 50
180.0
 51
270.0
  0
ARC
  5
106
  8
1
  6
CONTINUOUS
 62
     7
 10
690.1395099403
 20
930.4856533215
 30
0.0
 40
1.0
 50
180.0
 51
264.1988529089
  0
LINE
  5
107
  8
1
  6
CONTINUOUS
 62
     7
 10
1145.1103935417
 20
1061.274999858
 30
0.0
 11
1145.1103935417
 21
1068.274999858
 31
0.0
  0
LINE
  5
108
  8
1
  6
CONTINUOUS
 62
     7
 10
1127.6103935417
 20
1061.274999858
 30
0.0
 11
1149.6103935417
 21
1061.274999858
 31
0.0
  0
LINE
  5
109
  8
1
  6
CONTINUOUS
 62
     7
 10
1128.1103935417
 20
1061.274999858
 30
0.0
 11
1128.1103935417
 21
1063.274999858
 31
0.0
  0
LINE
  5
10A
  8
1
  6
CONTINUOUS
 62
     7
 10
1076.5405945483
 20
789.4996642248
 30
0.0
 11
1111.3208633907
 21
788.2851104737
 31
0.0
  0
LINE
  5
10B
  8
1
  6
CONTINUOUS
 62
     7
 10
1136.6103935417
 20
1123.7643743874
 30
0.0
 11
1224.1103935417
 21
1121.4731062492
 31
0.0
  0
LINE
  5
10C
  8
1
  6
CONTINUOUS
 62
     7
 10
1127.6103935417
 20
883.274999858
 30
0.0
 11
1127.6103935417
 21
1063.274999858
 31
0.0
  0
LINE
  5
10D
  8
1
  6
CONTINUOUS
 62
     7
 10
1073.6103935417
 20
833.0670683292
 30
0.0
 11
1074.6103935417
 21
832.0670683292
 31
0.0
  0
LINE
  5
10E
  8
1
  6
CONTINUOUS
 62
     7
 10
843.1395099403
 20
604.240849073
 30
0.0
 11
843.1395099403
 21
617.740849073
 31
0.0
  0
LINE
  5
10F
  8
1
  6
CONTINUOUS
 62
     7
 10
767.1395099441
 20
617.740849073
 30
0.0
 11
767.1395099403
 21
604.240849073
 31
0.0
  0
ARC
  5
110
  8
1
  6
CONTINUOUS
 62
     7
 10
690.1395099403
 20
930.4856533215
 30
0.0
 40
3.0
 50
180.0
 51
264.1988529089
  0
LINE
  5
111
  8
1
  6
CONTINUOUS
 62
     7
 10
689.1395099403
 20
946.0643463945
 30
0.0
 11
689.1395099403
 21
930.4856533215
 31
0.0
  0
LINE
  5
112
  8
1
  6
CONTINUOUS
 62
     7
 10
690.0384337251
 20
929.4907746361
 30
0.0
 11
705.9262992301
 21
927.8766227438
 31
0.0
  0
ARC
  5
113
  8
1
  6
CONTINUOUS
 62
     7
 10
1113.6103935417
 20
1130.7848899965
 30
0.0
 40
2.0
 50
92.0
 51
180.0
  0
LINE
  5
114
  8
1
  6
CONTINUOUS
 62
     7
 10
715.9315784115
 20
1121.4829313868
 30
0.0
 11
715.9315784115
 21
795.0670683292
 31
0.0
  0
LINE
  5
115
  8
1
  6
CONTINUOUS
 62
     7
 10
907.4537968657
 20
1037.274999858
 30
0.0
 11
921.6395099403
 21
1037.274999858
 31
0.0
  0
ARC
  5
116
  8
1
  6
CONTINUOUS
 62
     7
 10
909.4537968657
 20
885.274999858
 30
0.0
 40
2.0
 50
180.0
 51
270.0
  0
LINE
  5
117
  8
1
  6
CONTINUOUS
 62
     7
 10
907.4537968657
 20
866.274999858
 30
0.0
 11
907.4537968657
 21
792.274999858
 31
0.0
  0
ARC
  5
118
  8
1
  6
CONTINUOUS
 62
     7
 10
905.1395099403
 20
1080.274999858
 30
0.0
 40
2.0
 50
180.0
 51
270.0
  0
LINE
  5
119
  8
1
  6
CONTINUOUS
 62
     7
 10
907.4537968657
 20
845.274999858
 30
0.0
 11
921.6395099403
 21
845.274999858
 31
0.0
  0
LINE
  5
11A
  8
1
  6
CONTINUOUS
 62
     7
 10
898.4537968657
 20
783.274999858
 30
0.0
 11
715.8252230149
 21
783.274999858
 31
0.0
  0
LINE
  5
11B
  8
1
  6
CONTINUOUS
 62
     7
 10
719.9315784115
 20
793.0670683293
 30
0.0
 11
894.3474414691
 21
793.0670683293
 31
0.0
  0
LINE
  5
11C
  8
1
  6
CONTINUOUS
 62
     7
 10
969.8408102932
 20
1133.5892867834
 30
0.0
 11
969.7414310761
 21
1133.3706525059
 31
0.0
  0
LINE
  5
11D
  8
1
  6
CONTINUOUS
 62
     7
 10
718.1395099403
 20
788.274999858
 30
0.0
 11
896.1395099403
 21
788.274999858
 31
0.0
  0
LINE
  5
11E
  8
1
  6
CONTINUOUS
 62
     7
 10
895.3474414691
 20
792.0670683292
 30
0.0
 11
718.9315784115
 21
792.0670683292
 31
0.0
  0
LINE
  5
11F
  8
1
  6
CONTINUOUS
 62
     7
 10
1218.1103935417
 20
1048.9208978918
 30
0.0
 11
1218.1103935417
 21
1029.774999858
 31
0.0
  0
ARC
  5
120
  8
1
  6
CONTINUOUS
 62
     7
 10
1216.6103935417
 20
1052.274999858
 30
0.0
 40
3.0
 50
311.8103148958
 51
228.1896851042
  0
ARC
  5
121
  8
1
  6
CONTINUOUS
 62
     7
 10
1213.6103935417
 20
1048.9208978918
 30
0.0
 40
1.5
 50
0.0
 51
48.1896851042
  0
LINE
  5
122
  8
1
  6
CONTINUOUS
 62
     7
 10
1073.6103935417
 20
1119.4829313868
 30
0.0
 11
1073.6103935417
 21
833.0670683292
 31
0.0
  0
LINE
  5
123
  8
1
  6
CONTINUOUS
 62
     7
 10
716.9315784115
 20
1120.4829313866
 30
0.0
 11
716.9315784115
 21
796.0670683293
 31
0.0
  0
LINE
  5
124
  8
1
  6
CONTINUOUS
 62
     7
 10
706.8252230149
 20
792.274999858
 30
0.0
 11
706.8252230149
 21
1124.5892867834
 31
0.0
  0
LINE
  5
125
  8
1
  6
CONTINUOUS
 62
     7
 10
1224.1103935417
 20
795.0768934659
 30
0.0
 11
1224.1103935417
 21
1121.4731062492
 31
0.0
  0
LINE
  5
126
  8
1
  6
CONTINUOUS
 62
     7
 10
921.6395099403
 20
1063.274999858
 30
0.0
 11
905.1395099403
 21
1063.274999858
 31
0.0
  0
LINE
  5
127
  8
1
  6
CONTINUOUS
 62
     7
 10
921.6395099403
 20
838.274999858
 30
0.0
 11
907.4537968657
 21
838.274999858
 31
0.0
  0
ARC
  5
128
  8
1
  6
CONTINUOUS
 62
     7
 10
1136.6103935417
 20
1082.274999858
 30
0.0
 40
9.0
 50
90.0
 51
180.0
  0
LINE
  5
129
  8
1
  6
CONTINUOUS
 62
     7
 10
917.6395099403
 20
1037.274999858
 30
0.0
 11
917.6395099403
 21
1054.274999858
 31
0.0
  0
LINE
  5
12A
  8
1
  6
CONTINUOUS
 62
     7
 10
921.6395099403
 20
859.274999858
 30
0.0
 11
907.4537968657
 21
859.274999858
 31
0.0
  0
LINE
  5
12B
  8
1
  6
CONTINUOUS
 62
     7
 10
720.9315784115
 20
1117.4829313862
 30
0.0
 11
720.9315784115
 21
835.0670683295
 31
0.0
  0
LINE
  5
12C
  8
1
  6
CONTINUOUS
 62
     7
 10
905.1395099403
 20
1078.274999858
 30
0.0
 11
921.6395099403
 21
1078.274999858
 31
0.0
  0
LINE
  5
12D
  8
1
  6
CONTINUOUS
 62
     7
 10
907.4537968657
 20
885.274999858
 30
0.0
 11
907.4537968657
 21
1061.274999858
 31
0.0
  0
LINE
  5
12E
  8
1
  6
CONTINUOUS
 62
     7
 10
905.1395099403
 20
883.274999858
 30
0.0
 11
921.6395099403
 21
883.274999858
 31
0.0
  0
LINE
  5
12F
  8
1
  6
CONTINUOUS
 62
     7
 10
722.9315784115
 20
830.0670683294
 30
0.0
 11
891.3474414691
 21
830.0670683294
 31
0.0
  0
LINE
  5
130
  8
1
  6
CONTINUOUS
 62
     7
 10
1127.6103935417
 20
792.5499520345
 30
0.0
 11
1224.1103935417
 21
795.0768934659
 31
0.0
  0
LINE
  5
131
  8
1
  6
CONTINUOUS
 62
     7
 10
905.1395099403
 20
868.274999858
 30
0.0
 11
921.6395099403
 21
868.274999858
 31
0.0
  0
LINE
  5
132
  8
1
  6
CONTINUOUS
 62
     7
 10
908.6395099403
 20
1037.274999858
 30
0.0
 11
908.6395099403
 21
1054.274999858
 31
0.0
  0
LINE
  5
133
  8
1
  6
CONTINUOUS
 62
     7
 10
917.6395099403
 20
845.274999858
 30
0.0
 11
917.6395099403
 21
859.274999858
 31
0.0
  0
ARC
  5
134
  8
1
  6
CONTINUOUS
 62
     7
 10
905.1395099403
 20
885.274999858
 30
0.0
 40
2.0
 50
180.0
 51
270.0
  0
LINE
  5
135
  8
1
  6
CONTINUOUS
 62
     7
 10
891.3474414691
 20
833.0670683295
 30
0.0
 11
722.9315784115
 21
833.0670683295
 31
0.0
  0
ARC
  5
136
  8
1
  6
CONTINUOUS
 62
     7
 10
905.1395099403
 20
1061.274999858
 30
0.0
 40
2.0
 50
90.0
 51
180.0
  0
LINE
  5
137
  8
1
  6
CONTINUOUS
 62
     7
 10
908.6395099403
 20
845.274999858
 30
0.0
 11
908.6395099403
 21
859.274999858
 31
0.0
  0
LINE
  5
138
  8
1
  6
CONTINUOUS
 62
     7
 10
921.6395099403
 20
1030.274999858
 30
0.0
 11
907.4537968657
 21
1030.274999858
 31
0.0
  0
ARC
  5
139
  8
1
  6
CONTINUOUS
 62
     7
 10
1216.6103935417
 20
1029.774999858
 30
0.0
 40
1.5
 50
180.0
 51
0.0
  0
LINE
  5
13A
  8
1
  6
CONTINUOUS
 62
     7
 10
1215.1103935417
 20
1048.9208978918
 30
0.0
 11
1215.1103935417
 21
1029.774999858
 31
0.0
  0
ARC
  5
13B
  8
1
  6
CONTINUOUS
 62
     7
 10
909.4537968657
 20
1080.274999858
 30
0.0
 40
2.0
 50
180.0
 51
270.0
  0
ARC
  5
13C
  8
1
  6
CONTINUOUS
 62
     7
 10
909.4537968657
 20
1061.274999858
 30
0.0
 40
2.0
 50
90.0
 51
180.0
  0
LINE
  5
13D
  8
1
  6
CONTINUOUS
 62
     7
 10
1074.6103935417
 20
1120.1495980535
 30
0.0
 11
1073.6103935417
 21
1119.4829313868
 31
0.0
  0
LINE
  5
13E
  8
1
  6
CONTINUOUS
 62
     7
 10
921.6395099403
 20
1054.274999858
 30
0.0
 11
907.4537968657
 21
1054.274999858
 31
0.0
  0
LINE
  5
13F
  8
1
  6
CONTINUOUS
 62
     7
 10
907.4537968657
 20
1061.274999858
 30
0.0
 11
921.6395099403
 21
1061.274999858
 31
0.0
  0
ARC
  5
140
  8
1
  6
CONTINUOUS
 62
     7
 10
909.4537968657
 20
866.274999858
 30
0.0
 40
2.0
 50
90.0
 51
180.0
  0
LINE
  5
141
  8
1
  6
CONTINUOUS
 62
     7
 10
712.1395099403
 20
794.274999858
 30
0.0
 11
712.1395099403
 21
1122.274999858
 31
0.0
  0
ARC
  5
142
  8
1
  6
CONTINUOUS
 62
     7
 10
1219.6103935417
 20
1048.9208978918
 30
0.0
 40
1.5
 50
131.8103148958
 51
180.0
  0
LINE
  5
143
  8
1
  6
CONTINUOUS
 62
     7
 10
718.9315784115
 20
1117.4829313864
 30
0.0
 11
718.9315784115
 21
834.0670683294
 31
0.0
  0
LINE
  5
144
  8
1
  6
CONTINUOUS
 62
     7
 10
844.1395099403
 20
617.740849073
 30
0.0
 11
844.1395099403
 21
604.240849073
 31
0.0
  0
LINE
  5
145
  8
1
  6
CONTINUOUS
 62
     7
 10
1127.6103935417
 20
883.274999858
 30
0.0
 11
1127.6103935417
 21
1063.274999858
 31
0.0
  0
LINE
  5
146
  8
1
  6
CONTINUOUS
 62
     7
 10
705.0273754452
 20
925.9576549199
 30
0.0
 11
689.8362812947
 21
927.5010172652
 31
0.0
  0
ARC
  5
147
  8
1
  6
CONTINUOUS
 62
     7
 10
1219.6103935417
 20
1048.9208978918
 30
0.0
 40
1.5
 50
131.8103148958
 51
180.0
  0
ARC
  5
148
  8
1
  6
CONTINUOUS
 62
     7
 10
1111.3103935417
 20
1128.5647064904
 30
0.0
 40
0.3
 50
271.9999999999
 51
0.0
  0
ARC
  5
149
  8
1
  6
CONTINUOUS
 62
     7
 10
690.1395099403
 20
930.4856533215
 30
0.0
 40
3.0
 50
180.0
 51
264.1988529089
  0
ARC
  5
14A
  8
1
  6
CONTINUOUS
 62
     7
 10
1076.6103935417
 20
1125.0515538372
 30
0.0
 40
2.0
 50
92.0
 51
180.0
  0
LINE
  5
14B
  8
1
  6
CONTINUOUS
 62
     7
 10
1127.6103935417
 20
1078.274999858
 30
0.0
 11
1127.6103935417
 21
1082.274999858
 31
0.0
  0
ARC
  5
14C
  8
1
  6
CONTINUOUS
 62
     7
 10
704.8252230149
 20
923.967897549
 30
0.0
 40
2.0
 50
0.0
 51
84.1988529089
  0
LINE
  5
14D
  8
1
  6
CONTINUOUS
 62
     7
 10
689.1395099403
 20
946.0643463945
 30
0.0
 11
689.1395099403
 21
930.4856533215
 31
0.0
  0
LINE
  5
14E
  8
1
  6
CONTINUOUS
 62
     7
 10
690.0384337251
 20
929.4907746361
 30
0.0
 11
705.9262992301
 21
927.8766227438
 31
0.0
  0
ARC
  5
14F
  8
1
  6
CONTINUOUS
 62
     7
 10
705.8252230149
 20
926.8817440584
 30
0.0
 40
1.0
 50
0.0
 51
84.1988529088
  0
LINE
  5
150
  8
1
  6
CONTINUOUS
 62
     7
 10
705.0273754452
 20
950.5923447962
 30
0.0
 11
689.8362812947
 21
949.0489824508
 31
0.0
  0
LINE
  5
151
  8
1
  6
CONTINUOUS
 62
     7
 10
969.8408102932
 20
1133.5892867834
 30
0.0
 11
969.7414310761
 21
1133.3706525059
 31
0.0
  0
ARC
  5
152
  8
1
  6
CONTINUOUS
 62
     7
 10
1113.6103935417
 20
1130.7848899965
 30
0.0
 40
2.0
 50
92.0
 51
180.0
  0
LINE
  5
153
  8
1
  6
CONTINUOUS
 62
     7
 10
1073.6103935417
 20
833.0670683292
 30
0.0
 11
1074.6103935417
 21
832.0670683292
 31
0.0
  0
LINE
  5
154
  8
1
  6
CONTINUOUS
 62
     7
 10
1127.6103935417
 20
792.5499520345
 30
0.0
 11
1224.1103935417
 21
795.0768934659
 31
0.0
  0
LINE
  5
155
  8
1
  6
CONTINUOUS
 62
     7
 10
1076.5405945483
 20
789.4996642248
 30
0.0
 11
1111.3208633907
 21
788.2851104737
 31
0.0
  0
LINE
  5
156
  8
1
  6
CONTINUOUS
 62
     7
 10
771.1395099403
 20
604.240849073
 30
0.0
 11
771.1395099403
 21
617.740849073
 31
0.0
  0
LINE
  5
157
  8
1
  6
CONTINUOUS
 62
     7
 10
895.3474414691
 20
792.0670683292
 30
0.0
 11
718.9315784115
 21
792.0670683292
 31
0.0
  0
LINE
  5
158
  8
1
  6
CONTINUOUS
 62
     7
 10
1073.6103935417
 20
1119.4829313868
 30
0.0
 11
1073.6103935417
 21
833.0670683292
 31
0.0
  0
ARC
  5
159
  8
1
  6
CONTINUOUS
 62
     7
 10
704.8252230149
 20
952.582102167
 30
0.0
 40
2.0
 50
275.8011470911
 51
0.0
  0
LINE
  5
15A
  8
1
  6
CONTINUOUS
 62
     7
 10
847.139509948
 20
617.740849073
 30
0.0
 11
847.1395099403
 21
604.240849073
 31
0.0
  0
LINE
  5
15B
  8
1
  6
CONTINUOUS
 62
     7
 10
690.0384337251
 20
947.0592250799
 30
0.0
 11
705.9262992301
 21
948.6733769722
 31
0.0
  0
ARC
  5
15C
  8
1
  6
CONTINUOUS
 62
     7
 10
690.1395099403
 20
930.4856533215
 30
0.0
 40
1.0
 50
180.0
 51
264.1988529089
  0
LINE
  5
15D
  8
1
  6
CONTINUOUS
 62
     7
 10
712.1395099403
 20
794.274999858
 30
0.0
 11
712.1395099403
 21
1122.274999858
 31
0.0
  0
LINE
  5
15E
  8
1
  6
CONTINUOUS
 62
     7
 10
770.1395099403
 20
617.740849073
 30
0.0
 11
770.1395099403
 21
604.240849073
 31
0.0
  0
ARC
  5
15F
  8
1
  6
CONTINUOUS
 62
     7
 10
690.1395099403
 20
946.0643463945
 30
0.0
 40
3.0
 50
95.80114709110002
 51
180.0
  0
LINE
  5
160
  8
1
  6
CONTINUOUS
 62
     7
 10
1111.3208633907
 20
1128.2648892423
 30
0.0
 11
1076.5405945483
 21
1127.0503354912
 31
0.0
  0
LINE
  5
161
  8
1
  6
CONTINUOUS
 62
     7
 10
1113.5405945483
 20
783.7663280654
 30
0.0
 11
1127.6103935417
 21
783.274999858
 31
0.0
  0
LINE
  5
162
  8
1
  6
CONTINUOUS
 62
     7
 10
1127.6103935417
 20
783.274999858
 30
0.0
 11
1127.6103935417
 21
868.274999858
 31
0.0
  0
ARC
  5
163
  8
1
  6
CONTINUOUS
 62
     7
 10
690.1395099403
 20
946.0643463945
 30
0.0
 40
1.0
 50
95.80114709110002
 51
180.0
  0
LINE
  5
164
  8
1
  6
CONTINUOUS
 62
     7
 10
706.8252230149
 20
792.274999858
 30
0.0
 11
706.8252230149
 21
1124.5892867834
 31
0.0
  0
LINE
  5
165
  8
1
  6
CONTINUOUS
 62
     7
 10
687.1395099403
 20
621.740849073
 30
0.0
 11
687.1395099403
 21
617.740849073
 31
0.0
  0
LINE
  5
166
  8
1
  6
CONTINUOUS
 62
     7
 10
706.348425013
 20
622.740849073
 30
0.0
 11
688.1395099403
 21
622.740849073
 31
0.0
  0
ARC
  5
167
  8
1
  6
CONTINUOUS
 62
     7
 10
1076.6103935417
 20
791.4984458788
 30
0.0
 40
2.0
 50
180.0
 51
267.9999999999999
  0
ARC
  5
168
  8
1
  6
CONTINUOUS
 62
     7
 10
688.1395099403
 20
621.740849073
 30
0.0
 40
1.0
 50
90.0
 51
180.0
  0
ARC
  5
169
  8
1
  6
CONTINUOUS
 62
     7
 10
706.348425013
 20
623.740849073
 30
0.0
 40
1.0
 50
270.0
 51
358.0
  0
LINE
  5
16A
  8
1
  6
CONTINUOUS
 62
     7
 10
690.6395099403
 20
617.740849073
 30
0.0
 11
690.6395099403
 21
613.240849073
 31
0.0
  0
LINE
  5
16B
  8
1
  6
CONTINUOUS
 62
     7
 10
702.1122121863
 20
612.740849073
 30
0.0
 11
691.1395099403
 21
612.740849073
 31
0.0
  0
LINE
  5
16C
  8
1
  6
CONTINUOUS
 62
     7
 10
1136.6103935417
 20
1123.7643743874
 30
0.0
 11
1224.1103935417
 21
1121.4731062492
 31
0.0
  0
LINE
  5
16D
  8
1
  6
CONTINUOUS
 62
     7
 10
715.7725017835
 20
605.2985310069
 30
0.0
 11
703.0982663493
 21
612.4808770003
 31
0.0
  0
LINE
  5
16E
  8
1
  6
CONTINUOUS
 62
     7
 10
1111.6103935417
 20
785.7651097195
 30
0.0
 11
1111.6103935417
 21
1130.7848899965
 31
0.0
  0
ARC
  5
16F
  8
1
  6
CONTINUOUS
 62
     7
 10
705.8252230149
 20
949.6682556576
 30
0.0
 40
1.0
 50
275.8011470912
 51
0.0
  0
LINE
  5
170
  8
1
  6
CONTINUOUS
 62
     7
 10
719.9315784115
 20
793.0670683293
 30
0.0
 11
894.3474414691
 21
793.0670683293
 31
0.0
  0
ARC
  5
171
  8
1
  6
CONTINUOUS
 62
     7
 10
1136.6103935417
 20
1082.274999858
 30
0.0
 40
9.0
 50
90.0
 51
180.0
  0
LINE
  5
172
  8
1
  6
CONTINUOUS
 62
     7
 10
898.4537968657
 20
783.274999858
 30
0.0
 11
715.8252230149
 21
783.274999858
 31
0.0
  0
LINE
  5
173
  8
1
  6
CONTINUOUS
 62
     7
 10
1218.1103935417
 20
1048.9208978918
 30
0.0
 11
1218.1103935417
 21
1029.774999858
 31
0.0
  0
LINE
  5
174
  8
1
  6
CONTINUOUS
 62
     7
 10
722.9315784115
 20
830.0670683294
 30
0.0
 11
891.3474414691
 21
830.0670683294
 31
0.0
  0
ARC
  5
175
  8
1
  6
CONTINUOUS
 62
     7
 10
1216.6103935417
 20
1029.774999858
 30
0.0
 40
1.5
 50
180.0
 51
0.0
  0
ARC
  5
176
  8
1
  6
CONTINUOUS
 62
     7
 10
1213.6103935417
 20
1048.9208978918
 30
0.0
 40
1.5
 50
0.0
 51
48.1896851042
  0
LINE
  5
177
  8
1
  6
CONTINUOUS
 62
     7
 10
1113.5405945483
 20
1132.7836716506
 30
0.0
 11
1136.6103935417
 21
1133.5892867834
 31
0.0
  0
LINE
  5
178
  8
1
  6
CONTINUOUS
 62
     7
 10
1074.6103935417
 20
791.4984458788
 30
0.0
 11
1074.6103935417
 21
1125.0515538372
 31
0.0
  0
LINE
  5
179
  8
1
  6
CONTINUOUS
 62
     7
 10
843.1395099403
 20
604.240849073
 30
0.0
 11
843.1395099403
 21
617.740849073
 31
0.0
  0
LINE
  5
17A
  8
1
  6
CONTINUOUS
 62
     7
 10
767.1395099441
 20
617.740849073
 30
0.0
 11
767.1395099403
 21
604.240849073
 31
0.0
  0
LINE
  5
17B
  8
1
  6
CONTINUOUS
 62
     7
 10
1215.1103935417
 20
1048.9208978918
 30
0.0
 11
1215.1103935417
 21
1029.774999858
 31
0.0
  0
LINE
  5
17C
  8
1
  6
CONTINUOUS
 62
     7
 10
718.1395099403
 20
788.274999858
 30
0.0
 11
896.1395099403
 21
788.274999858
 31
0.0
  0
LINE
  5
17D
  8
1
  6
CONTINUOUS
 62
     7
 10
1074.6103935417
 20
1120.1495980535
 30
0.0
 11
1073.6103935417
 21
1119.4829313868
 31
0.0
  0
LINE
  5
17E
  8
1
  6
CONTINUOUS
 62
     7
 10
1224.1103935417
 20
795.0768934659
 30
0.0
 11
1224.1103935417
 21
1121.4731062492
 31
0.0
  0
ARC
  5
17F
  8
1
  6
CONTINUOUS
 62
     7
 10
1216.6103935417
 20
1052.274999858
 30
0.0
 40
3.0
 50
311.8103148958
 51
228.1896851042
  0
ARC
  5
180
  8
1
  6
CONTINUOUS
 62
     7
 10
1113.6103935417
 20
785.7651097195
 30
0.0
 40
2.0
 50
180.0
 51
267.9999999999999
  0
LINE
  5
181
  8
1
  6
CONTINUOUS
 62
     7
 10
1136.6103935417
 20
1133.5892867834
 30
0.0
 11
1136.6103935417
 21
1091.274999858
 31
0.0
  0
CIRCLE
  5
182
  8
1
  6
CONTINUOUS
 62
     7
 10
862.1395099403
 20
563.240849073
 30
0.0
 40
17.0
  0
ARC
  5
183
  8
1
  6
CONTINUOUS
 62
     7
 10
780.1395099403
 20
604.240849073
 30
0.0
 40
9.0
 50
180.0
 51
270.0
  0
ARC
  5
184
  8
1
  6
CONTINUOUS
 62
     7
 10
834.1395099403
 20
604.240849073
 30
0.0
 40
9.0
 50
270.0
 51
0.0
  0
LINE
  5
185
  8
1
  6
CONTINUOUS
 62
     7
 10
787.1395099403
 20
521.240849073
 30
0.0
 11
802.1395099403
 21
526.240849073
 31
0.0
  0
LINE
  5
186
  8
1
  6
CONTINUOUS
 62
     7
 10
812.1395099403
 20
526.240849073
 30
0.0
 11
827.1395099403
 21
521.240849073
 31
0.0
  0
ARC
  5
187
  8
1
  6
CONTINUOUS
 62
     7
 10
834.1395099403
 20
604.240849073
 30
0.0
 40
10.0
 50
270.0
 51
0.0
  0
LINE
  5
188
  8
1
  6
CONTINUOUS
 62
     7
 10
1149.6103935417
 20
845.274999858
 30
0.0
 11
1127.6103935417
 21
845.274999858
 31
0.0
  0
LINE
  5
189
  8
1
  6
CONTINUOUS
 62
     7
 10
780.1395099403
 20
591.240849073
 30
0.0
 11
834.1395099403
 21
591.240849073
 31
0.0
  0
LINE
  5
18A
  8
1
  6
CONTINUOUS
 62
     7
 10
718.9414035482
 20
521.240849073
 30
0.0
 11
787.1395099403
 21
521.240849073
 31
0.0
  0
CIRCLE
  5
18B
  8
1
  6
CONTINUOUS
 62
     7
 10
752.1395099403
 20
563.240849073
 30
0.0
 40
17.0
  0
LINE
  5
18C
  8
1
  6
CONTINUOUS
 62
     7
 10
893.3474414691
 20
671.740849073
 30
0.0
 11
894.0141081358
 21
670.740849073
 31
0.0
  0
LINE
  5
18D
  8
1
  6
CONTINUOUS
 62
     7
 10
720.9315784115
 20
671.740849073
 30
0.0
 11
893.3474414691
 21
671.740849073
 31
0.0
  0
LINE
  5
18E
  8
1
  6
CONTINUOUS
 62
     7
 10
1127.6103935417
 20
1030.274999858
 30
0.0
 11
1149.6103935417
 21
1030.274999858
 31
0.0
  0
ARC
  5
18F
  8
1
  6
CONTINUOUS
 62
     7
 10
715.3629559611
 20
668.740849073
 30
0.0
 40
2.0
 50
90.0
 51
178.0
  0
ARC
  5
190
  8
1
  6
CONTINUOUS
 62
     7
 10
709.6296198018
 20
631.7408490732
 30
0.0
 40
2.0
 50
90.0
 51
178.0
  0
ARC
  5
191
  8
1
  6
CONTINUOUS
 62
     7
 10
1219.6103935417
 20
860.9208978918
 30
0.0
 40
1.5
 50
131.8103148958
 51
180.0
  0
LINE
  5
192
  8
1
  6
CONTINUOUS
 62
     7
 10
1149.6103935417
 20
1030.274999858
 30
0.0
 11
1149.6103935417
 21
1037.274999858
 31
0.0
  0
ARC
  5
193
  8
1
  6
CONTINUOUS
 62
     7
 10
899.285670932
 20
595.6078714235
 30
0.0
 40
2.0
 50
101.8414206708
 51
178.5
  0
LINE
  5
194
  8
1
  6
CONTINUOUS
 62
     7
 10
1136.6103935417
 20
868.274999858
 30
0.0
 11
1111.6103935417
 21
868.274999858
 31
0.0
  0
ARC
  5
195
  8
1
  6
CONTINUOUS
 62
     7
 10
1216.6103935417
 20
864.274999858
 30
0.0
 40
3.0
 50
311.8103148958
 51
228.1896851042
  0
LINE
  5
196
  8
1
  6
CONTINUOUS
 62
     7
 10
1127.6103935417
 20
859.274999858
 30
0.0
 11
1149.6103935417
 21
859.274999858
 31
0.0
  0
LINE
  5
197
  8
1
  6
CONTINUOUS
 62
     7
 10
1132.1103935417
 20
845.274999858
 30
0.0
 11
1132.1103935417
 21
859.274999858
 31
0.0
  0
LINE
  5
198
  8
1
  6
CONTINUOUS
 62
     7
 10
1132.1103935417
 20
1037.274999858
 30
0.0
 11
1132.1103935417
 21
1054.274999858
 31
0.0
  0
LINE
  5
199
  8
1
  6
CONTINUOUS
 62
     7
 10
1127.6103935417
 20
838.274999858
 30
0.0
 11
1149.6103935417
 21
838.274999858
 31
0.0
  0
ARC
  5
19A
  8
1
  6
CONTINUOUS
 62
     7
 10
1216.6103935417
 20
968.774999858
 30
0.0
 40
3.0
 50
311.8103148958
 51
228.1896851042
  0
ARC
  5
19B
  8
1
  6
CONTINUOUS
 62
     7
 10
1213.6103935417
 20
860.9208978918
 30
0.0
 40
1.5
 50
0.0
 51
48.1896851042
  0
LINE
  5
19C
  8
1
  6
CONTINUOUS
 62
     7
 10
1149.6103935417
 20
859.274999858
 30
0.0
 11
1149.6103935417
 21
866.274999858
 31
0.0
  0
ARC
  5
19D
  8
1
  6
CONTINUOUS
 62
     7
 10
780.1395099403
 20
604.240849073
 30
0.0
 40
10.0
 50
180.0
 51
270.0
  0
LINE
  5
19E
  8
1
  6
CONTINUOUS
 62
     7
 10
802.1395099403
 20
526.240849073
 30
0.0
 11
812.1395099403
 21
526.240849073
 31
0.0
  0
ARC
  5
19F
  8
1
  6
CONTINUOUS
 62
     7
 10
1216.6103935417
 20
841.774999858
 30
0.0
 40
1.5
 50
180.0
 51
0.0
  0
LINE
  5
1A0
  8
1
  6
CONTINUOUS
 62
     7
 10
827.1395099403
 20
521.240849073
 30
0.0
 11
895.3376163324
 21
521.240849073
 31
0.0
  0
ARC
  5
1A1
  8
1
  6
CONTINUOUS
 62
     7
 10
722.9315784115
 20
834.0670683294
 30
0.0
 40
4.0
 50
180.0
 51
270.0
  0
LINE
  5
1A2
  8
1
  6
CONTINUOUS
 62
     7
 10
1127.6103935417
 20
866.274999858
 30
0.0
 11
1149.6103935417
 21
866.274999858
 31
0.0
  0
ARC
  5
1A3
  8
1
  6
CONTINUOUS
 62
     7
 10
834.1395099403
 20
604.240849073
 30
0.0
 40
13.0
 50
270.0
 51
0.0
  0
ARC
  5
1A4
  8
1
  6
CONTINUOUS
 62
     7
 10
722.9315784115
 20
835.0670683295
 30
0.0
 40
2.0
 50
180.0
 51
270.0
  0
LINE
  5
1A5
  8
1
  6
CONTINUOUS
 62
     7
 10
1149.6103935417
 20
1054.274999858
 30
0.0
 11
1149.6103935417
 21
1061.274999858
 31
0.0
  0
ARC
  5
1A6
  8
1
  6
CONTINUOUS
 62
     7
 10
913.1395099403
 20
609.240849073
 30
0.0
 40
8.5
 50
281.8414206708
 51
90.0
  0
LINE
  5
1A7
  8
1
  6
CONTINUOUS
 62
     7
 10
898.8752636358
 20
597.565310018
 30
0.0
 11
914.8837409491
 21
600.9217350464
 31
0.0
  0
CIRCLE
  5
1A8
  8
1
  6
CONTINUOUS
 62
     7
 10
752.1395099403
 20
563.240849073
 30
0.0
 40
15.0
  0
ARC
  5
1A9
  8
1
  6
CONTINUOUS
 62
     7
 10
1213.6103935417
 20
965.4208978918
 30
0.0
 40
1.5
 50
0.0
 51
48.1896851042
  0
LINE
  5
1AA
  8
1
  6
CONTINUOUS
 62
     7
 10
720.9315784115
 20
671.740849073
 30
0.0
 11
720.2649117448
 21
670.740849073
 31
0.0
  0
ARC
  5
1AB
  8
1
  6
CONTINUOUS
 62
     7
 10
1219.6103935417
 20
965.4208978918
 30
0.0
 40
1.5
 50
131.8103148958
 51
180.0
  0
LINE
  5
1AC
  8
1
  6
CONTINUOUS
 62
     7
 10
1218.1103935417
 20
860.9208978918
 30
0.0
 11
1218.1103935417
 21
841.774999858
 31
0.0
  0
CIRCLE
  5
1AD
  8
1
  6
CONTINUOUS
 62
     7
 10
862.1395099403
 20
563.240849073
 30
0.0
 40
15.0
  0
LINE
  5
1AE
  8
1
  6
CONTINUOUS
 62
     7
 10
1128.1103935417
 20
866.274999858
 30
0.0
 11
1128.1103935417
 21
868.274999858
 31
0.0
  0
LINE
  5
1AF
  8
1
  6
CONTINUOUS
 62
     7
 10
1141.1103935417
 20
1037.274999858
 30
0.0
 11
1141.1103935417
 21
1054.274999858
 31
0.0
  0
LINE
  5
1B0
  8
1
  6
CONTINUOUS
 62
     7
 10
834.1395099403
 20
594.240849073
 30
0.0
 11
780.1395099403
 21
594.240849073
 31
0.0
  0
LINE
  5
1B1
  8
1
  6
CONTINUOUS
 62
     7
 10
1127.6103935417
 20
1054.274999858
 30
0.0
 11
1149.6103935417
 21
1054.274999858
 31
0.0
  0
LINE
  5
1B2
  8
1
  6
CONTINUOUS
 62
     7
 10
1215.1103935417
 20
965.4208978918
 30
0.0
 11
1215.1103935417
 21
946.274999858
 31
0.0
  0
ARC
  5
1B3
  8
1
  6
CONTINUOUS
 62
     7
 10
780.1395099403
 20
604.240849073
 30
0.0
 40
13.0
 50
180.0
 51
270.0
  0
LINE
  5
1B4
  8
1
  6
CONTINUOUS
 62
     7
 10
834.1395099403
 20
595.240849073
 30
0.0
 11
780.1395099403
 21
595.240849073
 31
0.0
  0
ARC
  5
1B5
  8
1
  6
CONTINUOUS
 62
     7
 10
718.9315784115
 20
795.0670683292
 30
0.0
 40
3.0
 50
180.0
 51
270.0
  0
LINE
  5
1B6
  8
1
  6
CONTINUOUS
 62
     7
 10
1141.1103935417
 20
845.274999858
 30
0.0
 11
1141.1103935417
 21
859.274999858
 31
0.0
  0
ARC
  5
1B7
  8
1
  6
CONTINUOUS
 62
     7
 10
1216.6103935417
 20
946.274999858
 30
0.0
 40
1.5
 50
180.0
 51
0.0
  0
LINE
  5
1B8
  8
1
  6
CONTINUOUS
 62
     7
 10
1215.1103935417
 20
860.9208978918
 30
0.0
 11
1215.1103935417
 21
841.774999858
 31
0.0
  0
LINE
  5
1B9
  8
1
  6
CONTINUOUS
 62
     7
 10
1218.1103935417
 20
965.4208978918
 30
0.0
 11
1218.1103935417
 21
946.274999858
 31
0.0
  0
ARC
  5
1BA
  8
1
  6
CONTINUOUS
 62
     7
 10
719.9315784115
 20
796.0670683293
 30
0.0
 40
3.0
 50
180.0
 51
270.0
  0
ARC
  5
1BB
  8
1
  6
CONTINUOUS
 62
     7
 10
715.8252230149
 20
792.274999858
 30
0.0
 40
9.0
 50
180.0
 51
270.0
  0
ARC
  5
1BC
  8
1
  6
CONTINUOUS
 62
     7
 10
718.1395099403
 20
794.274999858
 30
0.0
 40
6.0
 50
180.0
 51
270.0
  0
LINE
  5
1BD
  8
1
  6
CONTINUOUS
 62
     7
 10
1149.6103935417
 20
1037.274999858
 30
0.0
 11
1127.6103935417
 21
1037.274999858
 31
0.0
  0
LINE
  5
1BE
  8
1
  6
CONTINUOUS
 62
     7
 10
1149.6103935417
 20
838.274999858
 30
0.0
 11
1149.6103935417
 21
845.274999858
 31
0.0
  0
ARC
  5
1BF
  8
1
  6
CONTINUOUS
 62
     7
 10
718.9315784115
 20
1121.4829313868
 30
0.0
 40
3.0
 50
90.0
 51
180.0
  0
ARC
  5
1C0
  8
1
  6
CONTINUOUS
 62
     7
 10
898.4537968657
 20
792.274999858
 30
0.0
 40
9.0
 50
270.0
 51
0.0
  0
ARC
  5
1C1
  8
1
  6
CONTINUOUS
 62
     7
 10
896.1395099403
 20
794.274999858
 30
0.0
 40
6.0
 50
270.0
 51
0.0
  0
LINE
  5
1C2
  8
1
  6
CONTINUOUS
 62
     7
 10
921.6395099403
 20
1068.274999858
 30
0.0
 11
921.6395099403
 21
1054.274999858
 31
0.0
  0
LINE
  5
1C3
  8
1
  6
CONTINUOUS
 62
     7
 10
907.4537968657
 20
866.274999858
 30
0.0
 11
921.6395099403
 21
866.274999858
 31
0.0
  0
LINE
  5
1C4
  8
1
  6
CONTINUOUS
 62
     7
 10
906.5807776284
 20
633.7408490731
 30
0.0
 11
709.6296198018
 21
633.7408490731
 31
0.0
  0
ARC
  5
1C5
  8
1
  6
CONTINUOUS
 62
     7
 10
891.3474414691
 20
835.0670683295
 30
0.0
 40
2.0
 50
270.0
 51
0.0
  0
LINE
  5
1C6
  8
1
  6
CONTINUOUS
 62
     7
 10
718.1395099403
 20
1128.274999858
 30
0.0
 11
896.1395099403
 21
1128.274999858
 31
0.0
  0
LINE
  5
1C7
  8
1
  6
CONTINUOUS
 62
     7
 10
921.6395099403
 20
878.274999858
 30
0.0
 11
902.1395099403
 21
878.274999858
 31
0.0
  0
LINE
  5
1C8
  8
1
  6
CONTINUOUS
 62
     7
 10
906.6481817328
 20
631.8106480665
 30
0.0
 11
907.1395099403
 21
617.7408490731
 31
0.0
  0
LINE
  5
1C9
  8
1
  6
CONTINUOUS
 62
     7
 10
895.3474414691
 20
1117.4829313864
 30
0.0
 11
895.3474414691
 21
834.0670683294
 31
0.0
  0
LINE
  5
1CA
  8
1
  6
CONTINUOUS
 62
     7
 10
902.1395099403
 20
794.274999858
 30
0.0
 11
902.1395099403
 21
1122.274999858
 31
0.0
  0
LINE
  5
1CB
  8
1
  6
CONTINUOUS
 62
     7
 10
921.6395099403
 20
883.274999858
 30
0.0
 11
921.6395099403
 21
878.274999858
 31
0.0
  0
LINE
  5
1CC
  8
1
  6
CONTINUOUS
 62
     7
 10
902.1293993246
 20
634.0303792241
 30
0.0
 11
900.9148455735
 21
668.8106480664
 31
0.0
  0
LINE
  5
1CD
  8
1
  6
CONTINUOUS
 62
     7
 10
897.8645577638
 20
617.7408490731
 30
0.0
 11
895.3376163324
 21
521.240849073
 31
0.0
  0
ARC
  5
1CE
  8
1
  6
CONTINUOUS
 62
     7
 10
895.3474414691
 20
795.0670683292
 30
0.0
 40
3.0
 50
270.0
 51
0.0
  0
ARC
  5
1CF
  8
1
  6
CONTINUOUS
 62
     7
 10
904.6494000788
 20
631.7408490731
 30
0.0
 40
2.0
 50
2.0
 51
90.0
  0
LINE
  5
1D0
  8
1
  6
CONTINUOUS
 62
     7
 10
716.4144621168
 20
617.7408490731
 30
0.0
 11
718.9414035482
 21
521.240849073
 31
0.0
  0
LINE
  5
1D1
  8
1
  6
CONTINUOUS
 62
     7
 10
921.6395099403
 20
845.274999858
 30
0.0
 11
921.6395099403
 21
838.274999858
 31
0.0
  0
LINE
  5
1D2
  8
1
  6
CONTINUOUS
 62
     7
 10
898.3474414691
 20
1121.4829313868
 30
0.0
 11
898.3474414691
 21
795.0670683292
 31
0.0
  0
LINE
  5
1D3
  8
1
  6
CONTINUOUS
 62
     7
 10
921.6395099403
 20
1078.274999858
 30
0.0
 11
921.6395099403
 21
1073.274999858
 31
0.0
  0
LINE
  5
1D4
  8
1
  6
CONTINUOUS
 62
     7
 10
921.6395099403
 20
1073.274999858
 30
0.0
 11
902.1395099403
 21
1073.274999858
 31
0.0
  0
ARC
  5
1D5
  8
1
  6
CONTINUOUS
 62
     7
 10
722.9315784115
 20
1117.4829313862
 30
0.0
 40
2.0
 50
90.0
 51
180.0
  0
LINE
  5
1D6
  8
1
  6
CONTINUOUS
 62
     7
 10
917.6395099403
 20
1073.274999858
 30
0.0
 11
917.6395099403
 21
1068.274999858
 31
0.0
  0
LINE
  5
1D7
  8
1
  6
CONTINUOUS
 62
     7
 10
913.1395099403
 20
873.274999858
 30
0.0
 11
913.1395099403
 21
881.274999858
 31
0.0
  0
LINE
  5
1D8
  8
1
  6
CONTINUOUS
 62
     7
 10
722.9315784115
 20
1119.4829313862
 30
0.0
 11
891.3474414691
 21
1119.4829313862
 31
0.0
  0
ARC
  5
1D9
  8
1
  6
CONTINUOUS
 62
     7
 10
902.4292165727
 20
634.0408490731
 30
0.0
 40
0.3
 50
181.9999999999
 51
270.0
  0
ARC
  5
1DA
  8
1
  6
CONTINUOUS
 62
     7
 10
711.8498033079
 20
634.0408490731
 30
0.0
 40
0.3
 50
270.0
 51
358.0000000001
  0
LINE
  5
1DB
  8
1
  6
CONTINUOUS
 62
     7
 10
921.6395099403
 20
628.2369777599
 30
0.0
 11
921.6395099403
 21
608.740849073
 31
0.0
  0
ARC
  5
1DC
  8
1
  6
CONTINUOUS
 62
     7
 10
891.3474414691
 20
834.0670683294
 30
0.0
 40
4.0
 50
270.0
 51
0.0
  0
ARC
  5
1DD
  8
1
  6
CONTINUOUS
 62
     7
 10
894.3474414691
 20
1120.4829313866
 30
0.0
 40
3.0
 50
0.0
 51
90.0
  0
ARC
  5
1DE
  8
1
  6
CONTINUOUS
 62
     7
 10
896.1395099403
 20
1122.274999858
 30
0.0
 40
6.0
 50
0.0
 51
90.0
  0
LINE
  5
1DF
  8
1
  6
CONTINUOUS
 62
     7
 10
715.8252230149
 20
1133.5892867834
 30
0.0
 11
898.4537968657
 21
1133.5892867834
 31
0.0
  0
LINE
  5
1E0
  8
1
  6
CONTINUOUS
 62
     7
 10
893.3474414691
 20
1117.4829313862
 30
0.0
 11
893.3474414691
 21
835.0670683295
 31
0.0
  0
ARC
  5
1E1
  8
1
  6
CONTINUOUS
 62
     7
 10
895.3474414691
 20
1121.4829313868
 30
0.0
 40
3.0
 50
0.0
 51
90.0
  0
LINE
  5
1E2
  8
1
  6
CONTINUOUS
 62
     7
 10
902.1395099403
 20
1068.274999858
 30
0.0
 11
921.6395099403
 21
1068.274999858
 31
0.0
  0
LINE
  5
1E3
  8
1
  6
CONTINUOUS
 62
     7
 10
913.1395099403
 20
1068.274999858
 30
0.0
 11
913.1395099403
 21
1073.274999858
 31
0.0
  0
LINE
  5
1E4
  8
1
  6
CONTINUOUS
 62
     7
 10
687.1395099403
 20
617.740849073
 30
0.0
 11
913.1395099403
 21
617.740849073
 31
0.0
  0
LINE
  5
1E5
  8
1
  6
CONTINUOUS
 62
     7
 10
921.6395099403
 20
873.274999858
 30
0.0
 11
902.1395099403
 21
873.274999858
 31
0.0
  0
LINE
  5
1E6
  8
1
  6
CONTINUOUS
 62
     7
 10
917.6395099403
 20
878.274999858
 30
0.0
 11
917.6395099403
 21
873.274999858
 31
0.0
  0
ARC
  5
1E7
  8
1
  6
CONTINUOUS
 62
     7
 10
894.3474414691
 20
796.0670683293
 30
0.0
 40
3.0
 50
270.0
 51
0.0
  0
ARC
  5
1E8
  8
1
  6
CONTINUOUS
 62
     7
 10
898.4537968657
 20
1124.5892867834
 30
0.0
 40
9.0
 50
0.0
 51
90.0
  0
ARC
  5
1E9
  8
1
  6
CONTINUOUS
 62
     7
 10
722.9315784115
 20
1117.4829313864
 30
0.0
 40
4.0
 50
90.0
 51
180.0
  0
LINE
  5
1EA
  8
1
  6
CONTINUOUS
 62
     7
 10
707.6308381477
 20
631.8106480666
 30
0.0
 11
707.1395099403
 21
617.7408490731
 31
0.0
  0
LINE
  5
1EB
  8
1
  6
CONTINUOUS
 62
     7
 10
918.1661387607
 20
632.2021589772
 30
0.0
 11
906.5807776284
 21
633.7408490731
 31
0.0
  0
ARC
  5
1EC
  8
1
  6
CONTINUOUS
 62
     7
 10
898.9160639195
 20
668.740849073
 30
0.0
 40
2.0
 50
2.0
 51
90.0
  0
ARC
  5
1ED
  8
1
  6
CONTINUOUS
 62
     7
 10
891.3474414691
 20
1117.4829313862
 30
0.0
 40
2.0
 50
0.0
 51
90.0
  0
LINE
  5
1EE
  8
1
  6
CONTINUOUS
 62
     7
 10
719.9315784115
 20
1123.4829313866
 30
0.0
 11
894.3474414691
 21
1123.4829313866
 31
0.0
  0
ARC
  5
1EF
  8
1
  6
CONTINUOUS
 62
     7
 10
715.8252230149
 20
1124.5892867834
 30
0.0
 40
9.0
 50
90.0
 51
180.0
  0
ARC
  5
1F0
  8
1
  6
CONTINUOUS
 62
     7
 10
719.9315784115
 20
1120.4829313866
 30
0.0
 40
3.0
 50
90.0
 51
180.0
  0
ARC
  5
1F1
  8
1
  6
CONTINUOUS
 62
     7
 10
718.1395099403
 20
1122.274999858
 30
0.0
 40
6.0
 50
90.0
 51
180.0
  0
CIRCLE
  5
1F2
  8
1
  6
CONTINUOUS
 62
     7
 10
913.1395099403
 20
609.240849073
 30
0.0
 40
4.5
  0
LINE
  5
1F3
  8
1
  6
CONTINUOUS
 62
     7
 10
806.6395099403
 20
617.740849073
 30
0.0
 11
806.6395099403
 21
595.240849073
 31
0.0
  0
LINE
  5
1F4
  8
1
  6
CONTINUOUS
 62
     7
 10
921.6395099403
 20
873.274999858
 30
0.0
 11
921.6395099403
 21
859.274999858
 31
0.0
  0
LINE
  5
1F5
  8
1
  6
CONTINUOUS
 62
     7
 10
898.9160639195
 20
670.740849073
 30
0.0
 11
715.3629559611
 21
670.740849073
 31
0.0
  0
LINE
  5
1F6
  8
1
  6
CONTINUOUS
 62
     7
 10
891.3474414691
 20
1121.4829313864
 30
0.0
 11
722.9315784115
 21
1121.4829313864
 31
0.0
  0
LINE
  5
1F7
  8
1
  6
CONTINUOUS
 62
     7
 10
718.9315784115
 20
1124.4829313868
 30
0.0
 11
895.3474414691
 21
1124.4829313868
 31
0.0
  0
LINE
  5
1F8
  8
1
  6
CONTINUOUS
 62
     7
 10
921.6395099403
 20
1037.274999858
 30
0.0
 11
921.6395099403
 21
1030.274999858
 31
0.0
  0
LINE
  5
1F9
  8
1
  6
CONTINUOUS
 62
     7
 10
807.6395099403
 20
595.240849073
 30
0.0
 11
807.6395099443
 21
617.740849073
 31
0.0
  0
ARC
  5
1FA
  8
1
  6
CONTINUOUS
 62
     7
 10
891.3474414691
 20
1117.4829313864
 30
0.0
 40
4.0
 50
0.0
 51
90.0
  0
LINE
  5
1FB
  8
1
  6
CONTINUOUS
 62
     7
 10
712.149620556
 20
634.0303792241
 30
0.0
 11
713.3641743071
 21
668.8106480664
 31
0.0
  0
LINE
  5
1FC
  8
1
  6
CONTINUOUS
 62
     7
 10
897.3474414691
 20
1120.4829313866
 30
0.0
 11
897.3474414691
 21
796.0670683293
 31
0.0
  0
ARC
  5
1FD
  8
1
  6
CONTINUOUS
 62
     7
 10
917.6395099403
 20
628.2369777599
 30
0.0
 40
4.0
 50
0.0
 51
82.4346336357
  0
LINE
  5
1FE
  8
1
  6
CONTINUOUS
 62
     7
 10
907.4537968657
 20
1061.274999858
 30
0.0
 11
921.6395099403
 21
1061.274999858
 31
0.0
  0
LINE
  5
1FF
  8
1
  6
CONTINUOUS
 62
     7
 10
921.6395099403
 20
1030.274999858
 30
0.0
 11
907.4537968657
 21
1030.274999858
 31
0.0
  0
LINE
  5
200
  8
1
  6
CONTINUOUS
 62
     7
 10
908.6395099403
 20
845.274999858
 30
0.0
 11
908.6395099403
 21
859.274999858
 31
0.0
  0
LINE
  5
201
  8
1
  6
CONTINUOUS
 62
     7
 10
917.6395099403
 20
845.274999858
 30
0.0
 11
917.6395099403
 21
859.274999858
 31
0.0
  0
LINE
  5
202
  8
1
  6
CONTINUOUS
 62
     7
 10
907.4537968657
 20
845.274999858
 30
0.0
 11
921.6395099403
 21
845.274999858
 31
0.0
  0
LINE
  5
203
  8
1
  6
CONTINUOUS
 62
     7
 10
921.6395099403
 20
838.274999858
 30
0.0
 11
907.4537968657
 21
838.274999858
 31
0.0
  0
LINE
  5
204
  8
1
  6
CONTINUOUS
 62
     7
 10
718.9315784115
 20
1117.4829313864
 30
0.0
 11
718.9315784115
 21
834.0670683294
 31
0.0
  0
ARC
  5
205
  8
1
  6
CONTINUOUS
 62
     7
 10
909.4537968657
 20
1061.274999858
 30
0.0
 40
2.0
 50
90.0
 51
180.0
  0
LINE
  5
206
  8
1
  6
CONTINUOUS
 62
     7
 10
905.1395099403
 20
868.274999858
 30
0.0
 11
921.6395099403
 21
868.274999858
 31
0.0
  0
LINE
  5
207
  8
1
  6
CONTINUOUS
 62
     7
 10
905.1395099403
 20
883.274999858
 30
0.0
 11
921.6395099403
 21
883.274999858
 31
0.0
  0
LINE
  5
208
  8
1
  6
CONTINUOUS
 62
     7
 10
687.1395099403
 20
930.4856533215
 30
0.0
 11
687.1395099403
 21
986.0643463945
 31
0.0
  0
LINE
  5
209
  8
1
  6
CONTINUOUS
 62
     7
 10
921.6395099403
 20
859.274999858
 30
0.0
 11
907.4537968657
 21
859.274999858
 31
0.0
  0
LINE
  5
20A
  8
1
  6
CONTINUOUS
 62
     7
 10
720.9315784115
 20
1117.4829313862
 30
0.0
 11
720.9315784115
 21
835.0670683295
 31
0.0
  0
ARC
  5
20B
  8
1
  6
CONTINUOUS
 62
     7
 10
905.1395099403
 20
885.274999858
 30
0.0
 40
2.0
 50
180.0
 51
270.0
  0
ARC
  5
20C
  8
1
  6
CONTINUOUS
 62
     7
 10
905.1395099403
 20
1061.274999858
 30
0.0
 40
2.0
 50
90.0
 51
180.0
  0
LINE
  5
20D
  8
1
  6
CONTINUOUS
 62
     7
 10
716.9315784115
 20
1120.4829313866
 30
0.0
 11
716.9315784115
 21
796.0670683293
 31
0.0
  0
LINE
  5
20E
  8
1
  6
CONTINUOUS
 62
     7
 10
905.1395099403
 20
1078.274999858
 30
0.0
 11
921.6395099403
 21
1078.274999858
 31
0.0
  0
LINE
  5
20F
  8
1
  6
CONTINUOUS
 62
     7
 10
907.4537968657
 20
1037.274999858
 30
0.0
 11
921.6395099403
 21
1037.274999858
 31
0.0
  0
LINE
  5
210
  8
1
  6
CONTINUOUS
 62
     7
 10
907.4537968657
 20
1080.274999858
 30
0.0
 11
907.4537968657
 21
1124.5892867834
 31
0.0
  0
LINE
  5
211
  8
1
  6
CONTINUOUS
 62
     7
 10
917.6395099403
 20
1037.274999858
 30
0.0
 11
917.6395099403
 21
1054.274999858
 31
0.0
  0
LINE
  5
212
  8
1
  6
CONTINUOUS
 62
     7
 10
908.6395099403
 20
1037.274999858
 30
0.0
 11
908.6395099403
 21
1054.274999858
 31
0.0
  0
ARC
  5
213
  8
1
  6
CONTINUOUS
 62
     7
 10
909.4537968657
 20
885.274999858
 30
0.0
 40
2.0
 50
180.0
 51
270.0
  0
LINE
  5
214
  8
1
  6
CONTINUOUS
 62
     7
 10
715.9315784115
 20
1121.4829313868
 30
0.0
 11
715.9315784115
 21
795.0670683292
 31
0.0
  0
ARC
  5
215
  8
1
  6
CONTINUOUS
 62
     7
 10
690.1395099403
 20
986.0643463945
 30
0.0
 40
3.0
 50
95.80114709110002
 51
180.0
  0
LINE
  5
216
  8
1
  6
CONTINUOUS
 62
     7
 10
705.0273754452
 20
990.5923447962
 30
0.0
 11
689.8362812947
 21
989.0489824508
 31
0.0
  0
ARC
  5
217
  8
1
  6
CONTINUOUS
 62
     7
 10
909.4537968657
 20
1080.274999858
 30
0.0
 40
2.0
 50
180.0
 51
270.0
  0
LINE
  5
218
  8
1
  6
CONTINUOUS
 62
     7
 10
907.4537968657
 20
885.274999858
 30
0.0
 11
907.4537968657
 21
1061.274999858
 31
0.0
  0
LINE
  5
219
  8
1
  6
CONTINUOUS
 62
     7
 10
921.6395099403
 20
1054.274999858
 30
0.0
 11
907.4537968657
 21
1054.274999858
 31
0.0
  0
ARC
  5
21A
  8
1
  6
CONTINUOUS
 62
     7
 10
704.8252230149
 20
992.582102167
 30
0.0
 40
2.0
 50
275.8011470911
 51
0.0
  0
CIRCLE
  5
21B
  8
1
  6
CONTINUOUS
 62
     7
 10
699.1395099403
 20
938.274999858
 30
0.0
 40
4.0
  0
LINE
  5
21C
  8
1
  6
CONTINUOUS
 62
     7
 10
891.3474414691
 20
833.0670683295
 30
0.0
 11
722.9315784115
 21
833.0670683295
 31
0.0
  0
LINE
  5
21D
  8
1
  6
CONTINUOUS
 62
     7
 10
907.4537968657
 20
866.274999858
 30
0.0
 11
907.4537968657
 21
792.274999858
 31
0.0
  0
ARC
  5
21E
  8
1
  6
CONTINUOUS
 62
     7
 10
909.4537968657
 20
866.274999858
 30
0.0
 40
2.0
 50
90.0
 51
180.0
  0
ARC
  5
21F
  8
1
  6
CONTINUOUS
 62
     7
 10
905.1395099403
 20
1080.274999858
 30
0.0
 40
2.0
 50
180.0
 51
270.0
  0
LINE
  5
220
  8
1
  6
CONTINUOUS
 62
     7
 10
921.6395099403
 20
1063.274999858
 30
0.0
 11
905.1395099403
 21
1063.274999858
 31
0.0
  0
LINE
  5
221
  8
1
  6
CONTINUOUS
 62
     7
 10
1215.1103935417
 20
965.4208978918
 30
0.0
 11
1215.1103935417
 21
946.274999858
 31
0.0
  0
ARC
  5
222
  8
1
  6
CONTINUOUS
 62
     7
 10
1216.6103935417
 20
841.774999858
 30
0.0
 40
1.5
 50
180.0
 51
0.0
  0
LINE
  5
223
  8
1
  6
CONTINUOUS
 62
     7
 10
1218.1103935417
 20
860.9208978918
 30
0.0
 11
1218.1103935417
 21
841.774999858
 31
0.0
  0
ARC
  5
224
  8
1
  6
CONTINUOUS
 62
     7
 10
702.1122121863
 20
610.740849073
 30
0.0
 40
2.0
 50
60.4602622056
 51
90.0
  0
LINE
  5
225
  8
1
  6
CONTINUOUS
 62
     7
 10
1132.1103935417
 20
873.274999858
 30
0.0
 11
1132.1103935417
 21
878.274999858
 31
0.0
  0
LINE
  5
226
  8
1
  6
CONTINUOUS
 62
     7
 10
1145.1103935417
 20
1078.274999858
 30
0.0
 11
1111.6103935417
 21
1078.274999858
 31
0.0
  0
ARC
  5
227
  8
1
  6
CONTINUOUS
 62
     7
 10
715.8252230149
 20
792.274999858
 30
0.0
 40
9.0
 50
180.0
 51
270.0
  0
LINE
  5
228
  8
1
  6
CONTINUOUS
 62
     7
 10
1128.1103935417
 20
866.274999858
 30
0.0
 11
1128.1103935417
 21
868.274999858
 31
0.0
  0
ARC
  5
229
  8
1
  6
CONTINUOUS
 62
     7
 10
719.9315784115
 20
796.0670683293
 30
0.0
 40
3.0
 50
180.0
 51
270.0
  0
LINE
  5
22A
  8
1
  6
CONTINUOUS
 62
     7
 10
1127.6103935417
 20
859.274999858
 30
0.0
 11
1149.6103935417
 21
859.274999858
 31
0.0
  0
LINE
  5
22B
  8
1
  6
CONTINUOUS
 62
     7
 10
1218.1103935417
 20
965.4208978918
 30
0.0
 11
1218.1103935417
 21
946.274999858
 31
0.0
  0
LINE
  5
22C
  8
1
  6
CONTINUOUS
 62
     7
 10
1215.1103935417
 20
860.9208978918
 30
0.0
 11
1215.1103935417
 21
841.774999858
 31
0.0
  0
LINE
  5
22D
  8
1
  6
CONTINUOUS
 62
     7
 10
1136.6103935417
 20
868.274999858
 30
0.0
 11
1111.6103935417
 21
868.274999858
 31
0.0
  0
ARC
  5
22E
  8
1
  6
CONTINUOUS
 62
     7
 10
722.9315784115
 20
834.0670683294
 30
0.0
 40
4.0
 50
180.0
 51
270.0
  0
LINE
  5
22F
  8
1
  6
CONTINUOUS
 62
     7
 10
1149.6103935417
 20
1054.274999858
 30
0.0
 11
1149.6103935417
 21
1061.274999858
 31
0.0
  0
ARC
  5
230
  8
1
  6
CONTINUOUS
 62
     7
 10
718.1395099403
 20
794.274999858
 30
0.0
 40
6.0
 50
180.0
 51
270.0
  0
ARC
  5
231
  8
1
  6
CONTINUOUS
 62
     7
 10
718.9315784115
 20
795.0670683292
 30
0.0
 40
3.0
 50
180.0
 51
270.0
  0
LINE
  5
232
  8
1
  6
CONTINUOUS
 62
     7
 10
1127.6103935417
 20
1054.274999858
 30
0.0
 11
1149.6103935417
 21
1054.274999858
 31
0.0
  0
LINE
  5
233
  8
1
  6
CONTINUOUS
 62
     7
 10
1111.6103935417
 20
1073.274999858
 30
0.0
 11
1145.1103935417
 21
1073.274999858
 31
0.0
  0
LINE
  5
234
  8
1
  6
CONTINUOUS
 62
     7
 10
1127.6103935417
 20
1061.274999858
 30
0.0
 11
1149.6103935417
 21
1061.274999858
 31
0.0
  0
ARC
  5
235
  8
1
  6
CONTINUOUS
 62
     7
 10
691.1395099403
 20
613.240849073
 30
0.0
 40
0.5
 50
180.0
 51
270.0
  0
LINE
  5
236
  8
1
  6
CONTINUOUS
 62
     7
 10
1132.1103935417
 20
1068.274999858
 30
0.0
 11
1132.1103935417
 21
1073.274999858
 31
0.0
  0
LINE
  5
237
  8
1
  6
CONTINUOUS
 62
     7
 10
1145.1103935417
 20
1073.274999858
 30
0.0
 11
1145.1103935417
 21
1078.274999858
 31
0.0
  0
LINE
  5
238
  8
1
  6
CONTINUOUS
 62
     7
 10
1145.1103935417
 20
1061.274999858
 30
0.0
 11
1145.1103935417
 21
1068.274999858
 31
0.0
  0
LINE
  5
239
  8
1
  6
CONTINUOUS
 62
     7
 10
1149.6103935417
 20
845.274999858
 30
0.0
 11
1127.6103935417
 21
845.274999858
 31
0.0
  0
LINE
  5
23A
  8
1
  6
CONTINUOUS
 62
     7
 10
1149.6103935417
 20
859.274999858
 30
0.0
 11
1149.6103935417
 21
866.274999858
 31
0.0
  0
LINE
  5
23B
  8
1
  6
CONTINUOUS
 62
     7
 10
1145.1103935417
 20
1068.274999858
 30
0.0
 11
1111.6103935417
 21
1068.274999858
 31
0.0
  0
LINE
  5
23C
  8
1
  6
CONTINUOUS
 62
     7
 10
1132.1103935417
 20
845.274999858
 30
0.0
 11
1132.1103935417
 21
859.274999858
 31
0.0
  0
LINE
  5
23D
  8
1
  6
CONTINUOUS
 62
     7
 10
1145.1103935417
 20
878.274999858
 30
0.0
 11
1145.1103935417
 21
883.274999858
 31
0.0
  0
LINE
  5
23E
  8
1
  6
CONTINUOUS
 62
     7
 10
1127.6103935417
 20
866.274999858
 30
0.0
 11
1149.6103935417
 21
866.274999858
 31
0.0
  0
LINE
  5
23F
  8
1
  6
CONTINUOUS
 62
     7
 10
1132.1103935417
 20
1037.274999858
 30
0.0
 11
1132.1103935417
 21
1054.274999858
 31
0.0
  0
LINE
  5
240
  8
1
  6
CONTINUOUS
 62
     7
 10
1128.1103935417
 20
1061.274999858
 30
0.0
 11
1128.1103935417
 21
1063.274999858
 31
0.0
  0
LINE
  5
241
  8
1
  6
CONTINUOUS
 62
     7
 10
1145.1103935417
 20
883.274999858
 30
0.0
 11
1111.6103935417
 21
883.274999858
 31
0.0
  0
LINE
  5
242
  8
1
  6
CONTINUOUS
 62
     7
 10
1141.1103935417
 20
1037.274999858
 30
0.0
 11
1141.1103935417
 21
1054.274999858
 31
0.0
  0
ARC
  5
243
  8
1
  6
CONTINUOUS
 62
     7
 10
1219.6103935417
 20
965.4208978918
 30
0.0
 40
1.5
 50
131.8103148958
 51
180.0
  0
ARC
  5
244
  8
1
  6
CONTINUOUS
 62
     7
 10
1213.6103935417
 20
965.4208978918
 30
0.0
 40
1.5
 50
0.0
 51
48.1896851042
  0
LINE
  5
245
  8
1
  6
CONTINUOUS
 62
     7
 10
1127.6103935417
 20
1030.274999858
 30
0.0
 11
1149.6103935417
 21
1030.274999858
 31
0.0
  0
LINE
  5
246
  8
1
  6
CONTINUOUS
 62
     7
 10
1141.1103935417
 20
845.274999858
 30
0.0
 11
1141.1103935417
 21
859.274999858
 31
0.0
  0
ARC
  5
247
  8
1
  6
CONTINUOUS
 62
     7
 10
1216.6103935417
 20
968.774999858
 30
0.0
 40
3.0
 50
311.8103148958
 51
228.1896851042
  0
ARC
  5
248
  8
1
  6
CONTINUOUS
 62
     7
 10
722.9315784115
 20
835.0670683295
 30
0.0
 40
2.0
 50
180.0
 51
270.0
  0
LINE
  5
249
  8
1
  6
CONTINUOUS
 62
     7
 10
1141.1103935417
 20
1068.274999858
 30
0.0
 11
1141.1103935417
 21
1073.274999858
 31
0.0
  0
LINE
  5
24A
  8
1
  6
CONTINUOUS
 62
     7
 10
1145.1103935417
 20
873.274999858
 30
0.0
 11
1111.6103935417
 21
873.274999858
 31
0.0
  0
LINE
  5
24B
  8
1
  6
CONTINUOUS
 62
     7
 10
1145.1103935417
 20
866.274999858
 30
0.0
 11
1145.1103935417
 21
873.274999858
 31
0.0
  0
ARC
  5
24C
  8
1
  6
CONTINUOUS
 62
     7
 10
1213.6103935417
 20
860.9208978918
 30
0.0
 40
1.5
 50
0.0
 51
48.1896851042
  0
ARC
  5
24D
  8
1
  6
CONTINUOUS
 62
     7
 10
714.7851348337
 20
603.5592476756
 30
0.0
 40
2.0
 50
1.5
 51
60.4170254073
  0
ARC
  5
24E
  8
1
  6
CONTINUOUS
 62
     7
 10
1219.6103935417
 20
860.9208978918
 30
0.0
 40
1.5
 50
131.8103148958
 51
180.0
  0
LINE
  5
24F
  8
1
  6
CONTINUOUS
 62
     7
 10
1149.6103935417
 20
1037.274999858
 30
0.0
 11
1127.6103935417
 21
1037.274999858
 31
0.0
  0
LINE
  5
250
  8
1
  6
CONTINUOUS
 62
     7
 10
1149.6103935417
 20
838.274999858
 30
0.0
 11
1149.6103935417
 21
845.274999858
 31
0.0
  0
ARC
  5
251
  8
1
  6
CONTINUOUS
 62
     7
 10
1216.6103935417
 20
864.274999858
 30
0.0
 40
3.0
 50
311.8103148958
 51
228.1896851042
  0
LINE
  5
252
  8
1
  6
CONTINUOUS
 62
     7
 10
1127.6103935417
 20
838.274999858
 30
0.0
 11
1149.6103935417
 21
838.274999858
 31
0.0
  0
ARC
  5
253
  8
1
  6
CONTINUOUS
 62
     7
 10
1216.6103935417
 20
946.274999858
 30
0.0
 40
1.5
 50
180.0
 51
0.0
  0
LINE
  5
254
  8
1
  6
CONTINUOUS
 62
     7
 10
1136.6103935417
 20
1063.274999858
 30
0.0
 11
1111.6103935417
 21
1063.274999858
 31
0.0
  0
LINE
  5
255
  8
1
  6
CONTINUOUS
 62
     7
 10
1149.6103935417
 20
1030.274999858
 30
0.0
 11
1149.6103935417
 21
1037.274999858
 31
0.0
  0
LINE
  5
256
  8
1
  6
CONTINUOUS
 62
     7
 10
1141.1103935417
 20
873.274999858
 30
0.0
 11
1141.1103935417
 21
878.274999858
 31
0.0
  0
LINE
  5
257
  8
1
  6
CONTINUOUS
 62
     7
 10
1111.6103935417
 20
878.274999858
 30
0.0
 11
1145.1103935417
 21
878.274999858
 31
0.0
  0
CIRCLE
  5
258
  8
0
  6
DOT
 62
     7
 10
737.1395341930499
 20
812.8628533295
 30
0.0
 40
2.500000000000058
  0
ARC
  5
25A
  8
0
  6
DOT
 62
     7
 10
807.13953419305
 20
1096.8628533295
 30
0.0
 40
5.000000000000004
 50
120.0
 51
60.0
  0
CIRCLE
  5
25B
  8
0
  6
DOT
 62
     7
 10
877.13953419305
 20
812.8628533295
 30
0.0
 40
2.500000000000058
  0
CIRCLE
  5
25C
  8
0
  6
DOT
 62
     7
 10
842.1395341930499
 20
812.8628533295
 30
0.0
 40
10.00000000000001
  0
ARC
  5
25D
  8
0
  6
DOT
 62
     7
 10
807.13953419305
 20
1105.8628533295
 30
0.0
 40
2.499999999999947
 50
0.0
 51
180.0
  0
LINE
  5
25E
  8
0
  6
DOT
 62
     7
 10
809.63953419305
 20
1105.8628533295
 30
0.0
 11
809.63953419305
 21
1101.1929833295
 31
0.0
  0
CIRCLE
  5
25F
  8
0
  6
DOT
 62
     7
 10
877.13953419305
 20
1105.8628533295
 30
0.0
 40
2.500000000000058
  0
LINE
  5
260
  8
0
  6
DOT
 62
     7
 10
804.6395341930499
 20
1105.8628533295
 30
0.0
 11
804.6395341930499
 21
1101.1929833295
 31
0.0
  0
CIRCLE
  5
261
  8
0
  6
DOT
 62
     7
 10
807.13953419305
 20
812.8628533295
 30
0.0
 40
2.499999999999947
  0
ARC
  5
262
  8
0
  6
DOT
 62
     7
 10
737.1395341930499
 20
1096.8628533295
 30
0.0
 40
5.000000000000004
 50
120.0
 51
60.0
  0
CIRCLE
  5
263
  8
0
  6
DOT
 62
     7
 10
772.13953419305
 20
1102.8628533295
 30
0.0
 40
10.00000000000001
  0
LINE
  5
264
  8
0
  6
DOT
 62
     7
 10
734.63953419305
 20
1105.8628533295
 30
0.0
 11
734.63953419305
 21
1101.1929833295
 31
0.0
  0
LINE
  5
265
  8
0
  6
DOT
 62
     7
 10
739.63953419305
 20
1105.8628533295
 30
0.0
 11
739.63953419305
 21
1101.1929833295
 31
0.0
  0
CIRCLE
  5
266
  8
0
  6
DOT
 62
     7
 10
772.13953419305
 20
812.8628533295
 30
0.0
 40
10.00000000000001
  0
CIRCLE
  5
267
  8
0
  6
DOT
 62
     7
 10
842.1395341930499
 20
1102.8628533295
 30
0.0
 40
10.00000000000001
  0
ARC
  5
268
  8
0
  6
DOT
 62
     7
 10
737.1395341930499
 20
1105.8628533295
 30
0.0
 40
2.500000000000058
 50
0.0
 51
180.0
  0
ENDSEC
  0
EOF
