  0
SECTION
  2
HEADER
  9
$ACADVER
  1
AC1004
  9
$INSBASE
 10
0.0
 20
0.0
  9
$EXTMIN
 10
34.69999999999998
 20
93.67045454545456
  9
$EXTMAX
 10
173.9723221179806
 20
180.8390914152615
  9
$LIMMIN
 10
0.0
 20
0.0
  9
$LIMMAX
 10
12.0
 20
9.0
  9
$ORTHOMODE
 70
     0
  9
$REGENMODE
 70
     1
  9
$FILLMODE
 70
     1
  9
$QTEXTMODE
 70
     0
  9
$DRAGMODE
 70
     2
  9
$LTSCALE
 40
1.0
  9
$OSMODE
 70
    37
  9
$ATTMODE
 70
     1
  9
$TEXTSIZE
 40
0.2
  9
$TRACEWID
 40
0.05
  9
$TEXTSTYLE
  7
STANDARD
  9
$CLAYER
  8
0
  9
$CELTYPE
  6
BYLAYER
  9
$CECOLOR
 62
   256
  9
$DIMSCALE
 40
1.0
  9
$DIMASZ
 40
3.0
  9
$DIMEXO
 40
0.0625
  9
$DIMDLI
 40
0.38
  9
$DIMRND
 40
0.0
  9
$DIMDLE
 40
0.0
  9
$DIMEXE
 40
1.5
  9
$DIMTP
 40
0.0
  9
$DIMTM
 40
0.0
  9
$DIMTXT
 40
3.0
  9
$DIMCEN
 40
0.09
  9
$DIMTSZ
 40
0.0
  9
$DIMTOL
 70
     0
  9
$DIMLIM
 70
     0
  9
$DIMTIH
 70
     1
  9
$DIMTOH
 70
     1
  9
$DIMSE1
 70
     0
  9
$DIMSE2
 70
     0
  9
$DIMTAD
 70
     1
  9
$DIMZIN
 70
     0
  9
$DIMBLK
  1

  9
$DIMASO
 70
     1
  9
$DIMSHO
 70
     1
  9
$DIMPOST
  1

  9
$DIMAPOST
  1

  9
$DIMALT
 70
     0
  9
$DIMALTD
 70
     2
  9
$DIMALTF
 40
25.4
  9
$DIMLFAC
 40
1.0
  9
$DIMTOFL
 70
     0
  9
$DIMTVP
 40
0.0
  9
$DIMTIX
 70
     0
  9
$DIMSOXD
 70
     0
  9
$DIMSAH
 70
     0
  9
$DIMBLK1
  1

  9
$DIMBLK2
  1

  9
$LUNITS
 70
     2
  9
$LUPREC
 70
     4
  9
$SKETCHINC
 40
0.1
  9
$FILLETRAD
 40
0.5
  9
$AUNITS
 70
     0
  9
$AUPREC
 70
     0
  9
$MENU
  1
.
  9
$ELEVATION
 40
0.0
  9
$THICKNESS
 40
0.0
  9
$LIMCHECK
 70
     0
  9
$CHAMFERA
 40
0.0
  9
$CHAMFERB
 40
0.0
  9
$SKPOLY
 70
     0
  9
$TDCREATE
 40
2458914.575320405
  9
$TDUPDATE
 40
2458914.575321134
  9
$TDINDWG
 40
0.0000000116
  9
$TDUSRTIMER
 40
0.0000000116
  9
$USRTIMER
 70
     1
  9
$ANGBASE
 50
0.0
  9
$ANGDIR
 70
     0
  9
$PDMODE
 70
     0
  9
$PDSIZE
 40
0.0
  9
$PLINEWID
 40
0.0
  9
$COORDS
 70
     1
  9
$SPLFRAME
 70
     0
  9
$SPLINETYPE
 70
     6
  9
$SPLINESEGS
 70
     8
  9
$ATTDIA
 70
     0
  9
$ATTREQ
 70
     1
  9
$SURFTAB1
 70
     6
  9
$SURFTAB2
 70
     6
  9
$SURFTYPE
 70
     6
  9
$SURFU
 70
     6
  9
$SURFV
 70
     6
  9
$UCSNAME
  2

  9
$UCSORG
 10
0.0
 20
0.0
 30
0.0
  9
$UCSXDIR
 10
1.0
 20
0.0
 30
0.0
  9
$UCSYDIR
 10
0.0
 20
1.0
 30
0.0
  9
$USERI1
 70
     0
  9
$USERI2
 70
     0
  9
$USERI3
 70
     0
  9
$USERI4
 70
     0
  9
$USERI5
 70
     0
  9
$USERR1
 40
0.0
  9
$USERR2
 40
0.0
  9
$USERR3
 40
0.0
  9
$USERR4
 40
0.0
  9
$USERR5
 40
0.0
  9
$WORLDVIEW
 70
     1
  0
ENDSEC
  0
SECTION
  2
TABLES
  0
TABLE
  2
LTYPE
 70
     1
  0
LTYPE
  2
CONTINUOUS
 70
     0
  3
Solid line
 72
    65
 73
     0
 40
0.0
  0
ENDTAB
  0
TABLE
  2
LAYER
 70
     1
  0
LAYER
  2
0
 70
     0
 62
     7
  6
CONTINUOUS
  0
ENDTAB
  0
TABLE
  2
STYLE
 70
     2
  0
STYLE
  2
STANDARD
 70
     0
 40
0.0
 41
1.0
 50
0.0
 71
     0
 42
0.2
  3
txt
  4

  0
STYLE
  2
ＭＳ_ゴシック
 70
     0
 40
0.0
 41
1.0
 50
0.0
 71
     0
 42
0.2
  3
ＭＳ ゴシック.shx
  4

  0
ENDTAB
  0
TABLE
  2
VIEW
 70
     0
  0
ENDTAB
  0
ENDSEC
  0
SECTION
  2
BLOCKS
  0
ENDSEC
  0
SECTION
  2
ENTITIES
  0
ARC
  8
0
  6
CONTINUOUS
 62
     7
 10
1683.488630024252
 20
153.9531732972787
 40
1529.528023911859
 50
180.2242593459151
 51
181.5674068395467
  0
LINE
  8
0
  6
CONTINUOUS
 62
     7
 10
100.4559248959662
 20
120.5390914152616
 11
100.4974682543241
 21
120.5382250196588
  0
LINE
  8
0
  6
CONTINUOUS
 62
     7
 10
100.4974682543241
 20
120.5382250196588
 11
100.5389756460269
 21
120.5356317595544
  0
LINE
  8
0
  6
CONTINUOUS
 62
     7
 10
100.5389756460269
 20
120.5356317595544
 11
100.5803399008183
 21
120.5313205250041
  0
LINE
  8
0
  6
CONTINUOUS
 62
     7
 10
100.5803399008183
 20
120.5313205250041
 11
100.6214538484419
 21
120.5253002060637
  0
LINE
  8
0
  6
CONTINUOUS
 62
     7
 10
100.6214538484419
 20
120.5253002060637
 11
100.6634615678158
 21
120.51732077672
  0
LINE
  8
0
  6
CONTINUOUS
 62
     7
 10
100.6634615678158
 20
120.51732077672
 11
100.7051279782303
 21
120.5075442315249
  0
LINE
  8
0
  6
CONTINUOUS
 62
     7
 10
100.7051279782303
 20
120.5075442315249
 11
100.7463395618695
 21
120.4959997244137
  0
LINE
  8
0
  6
CONTINUOUS
 62
     7
 10
100.7463395618695
 20
120.4959997244137
 11
100.7869828009177
 21
120.4827164093214
  0
LINE
  8
0
  6
CONTINUOUS
 62
     7
 10
100.7869828009177
 20
120.4827164093214
 11
100.8258978080284
 21
120.4681483181905
  0
LINE
  8
0
  6
CONTINUOUS
 62
     7
 10
100.8258978080284
 20
120.4681483181905
 11
100.8642071747167
 21
120.451962274423
  0
LINE
  8
0
  6
CONTINUOUS
 62
     7
 10
100.8642071747167
 20
120.451962274423
 11
100.9018126719373
 21
120.4342021537421
  0
LINE
  8
0
  6
CONTINUOUS
 62
     7
 10
100.9018126719373
 20
120.4342021537421
 11
100.9386160706445
 21
120.4149118318707
  0
LINE
  8
0
  6
CONTINUOUS
 62
     7
 10
100.9386160706445
 20
120.4149118318707
 11
100.9756146143427
 21
120.3934763829511
  0
LINE
  8
0
  6
CONTINUOUS
 62
     7
 10
100.9756146143427
 20
120.3934763829511
 11
101.011695986009
 21
120.3704577447199
  0
LINE
  8
0
  6
CONTINUOUS
 62
     7
 10
101.011695986009
 20
120.3704577447199
 11
101.0467626780559
 21
120.3459210394297
  0
LINE
  8
0
  6
CONTINUOUS
 62
     7
 10
101.0467626780559
 20
120.3459210394297
 11
101.0807171828963
 21
120.3199313893331
  0
LINE
  8
0
  6
CONTINUOUS
 62
     7
 10
101.0807171828963
 20
120.3199313893331
 11
101.1126101804517
 21
120.2933057116163
  0
LINE
  8
0
  6
CONTINUOUS
 62
     7
 10
101.1126101804517
 20
120.2933057116163
 11
101.1433961757175
 21
120.2653539611736
  0
LINE
  8
0
  6
CONTINUOUS
 62
     7
 10
101.1433961757175
 20
120.2653539611736
 11
101.1729970202946
 21
120.2361500630608
  0
LINE
  8
0
  6
CONTINUOUS
 62
     7
 10
101.1729970202946
 20
120.2361500630608
 11
101.2013345657842
 21
120.2057679423339
  0
LINE
  8
0
  6
CONTINUOUS
 62
     7
 10
101.2013345657842
 20
120.2057679423339
 11
101.2291461715224
 21
120.1732973133447
  0
LINE
  8
0
  6
CONTINUOUS
 62
     7
 10
101.2291461715224
 20
120.1732973133447
 11
101.2555683929503
 21
120.1396365835116
  0
LINE
  8
0
  6
CONTINUOUS
 62
     7
 10
101.2555683929503
 20
120.1396365835116
 11
101.2805308110409
 21
120.1048794824928
  0
LINE
  8
0
  6
CONTINUOUS
 62
     7
 10
101.2805308110409
 20
120.1048794824928
 11
101.3039630067672
 21
120.0691197399467
  0
LINE
  8
0
  6
CONTINUOUS
 62
     7
 10
101.3039630067672
 20
120.0691197399467
 11
101.3252394748753
 21
120.0334428295433
  0
LINE
  8
0
  6
CONTINUOUS
 62
     7
 10
101.3252394748753
 20
120.0334428295433
 11
101.3450326930429
 21
119.9968813063542
  0
LINE
  8
0
  6
CONTINUOUS
 62
     7
 10
101.3450326930429
 20
119.9968813063542
 11
101.3632934327682
 21
119.9595307798762
  0
LINE
  8
0
  6
CONTINUOUS
 62
     7
 10
101.3632934327682
 20
119.9595307798762
 11
101.3799724655494
 21
119.9214868596061
  0
LINE
  8
0
  6
CONTINUOUS
 62
     7
 10
101.3799724655494
 20
119.9214868596061
 11
101.3954641088304
 21
119.8816469233881
  0
LINE
  8
0
  6
CONTINUOUS
 62
     7
 10
101.3954641088304
 20
119.8816469233881
 11
101.409251251528
 21
119.8411441400306
  0
LINE
  8
0
  6
CONTINUOUS
 62
     7
 10
101.409251251528
 20
119.8411441400306
 11
101.4212985203299
 21
119.8000902222577
  0
LINE
  8
0
  6
CONTINUOUS
 62
     7
 10
101.4212985203299
 20
119.8000902222577
 11
101.4315705419234
 21
119.7585968827934
  0
LINE
  8
0
  6
CONTINUOUS
 62
     7
 10
101.4315705419234
 20
119.7585968827934
 11
101.4398373408631
 21
119.7178903686598
  0
LINE
  8
0
  6
CONTINUOUS
 62
     7
 10
101.4398373408631
 20
119.7178903686598
 11
101.4464119163529
 21
119.6768401461932
  0
LINE
  8
0
  6
CONTINUOUS
 62
     7
 10
101.4464119163529
 20
119.6768401461932
 11
101.4512794953466
 21
119.635552706897
  0
LINE
  8
0
  6
CONTINUOUS
 62
     7
 10
101.4512794953466
 20
119.635552706897
 11
101.4544253047981
 21
119.5941345422743
  0
LINE
  8
0
  6
CONTINUOUS
 62
     7
 10
101.4544253047981
 20
119.5941345422743
 11
101.4558564950264
 21
119.5514150394106
  0
LINE
  8
0
  6
CONTINUOUS
 62
     7
 10
101.4558564950264
 20
119.5514150394106
 11
101.4554602595892
 21
119.508634261671
  0
LINE
  8
0
  6
CONTINUOUS
 62
     7
 10
101.4554602595892
 20
119.508634261671
 11
101.453240220151
 21
119.4659092849438
  0
LINE
  8
0
  6
CONTINUOUS
 62
     7
 10
101.453240220151
 20
119.4659092849438
 11
101.4491999983762
 21
119.4233571851171
  0
LINE
  8
0
  6
CONTINUOUS
 62
     7
 10
101.4491999983762
 20
119.4233571851171
 11
101.4435275178838
 21
119.3822052977772
  0
LINE
  8
0
  6
CONTINUOUS
 62
     7
 10
101.4435275178838
 20
119.3822052977772
 11
101.4361444069233
 21
119.3412891624745
  0
LINE
  8
0
  6
CONTINUOUS
 62
     7
 10
101.4361444069233
 20
119.3412891624745
 11
101.4270719860829
 21
119.3007141466683
  0
LINE
  8
0
  6
CONTINUOUS
 62
     7
 10
101.4270719860829
 20
119.3007141466683
 11
101.4163315759508
 21
119.2605856178181
  0
LINE
  8
0
  6
CONTINUOUS
 62
     7
 10
101.4163315759508
 20
119.2605856178181
 11
101.4035425574733
 21
119.2197966871854
  0
LINE
  8
0
  6
CONTINUOUS
 62
     7
 10
101.4035425574733
 20
119.2197966871854
 11
101.3890088786499
 21
119.1795547252183
  0
LINE
  8
0
  6
CONTINUOUS
 62
     7
 10
101.3890088786499
 20
119.1795547252183
 11
101.3727727059421
 21
119.139968991095
  0
LINE
  8
0
  6
CONTINUOUS
 62
     7
 10
101.3727727059421
 20
119.139968991095
 11
101.3548762058117
 21
119.1011487439939
  0
LINE
  8
0
  6
CONTINUOUS
 62
     7
 10
101.3548762058117
 20
119.1011487439939
 11
101.3331853749137
 21
119.0592033968282
  0
LINE
  8
0
  6
CONTINUOUS
 62
     7
 10
101.3331853749137
 20
119.0592033968282
 11
101.3094954966536
 21
119.0182622766772
  0
LINE
  8
0
  6
CONTINUOUS
 62
     7
 10
101.3094954966536
 20
119.0182622766772
 11
101.2838920429829
 21
118.9784581531745
  0
LINE
  8
0
  6
CONTINUOUS
 62
     7
 10
101.2838920429829
 20
118.9784581531745
 11
101.2564604858534
 21
118.939923795954
  0
LINE
  8
0
  6
CONTINUOUS
 62
     7
 10
101.2564604858534
 20
118.939923795954
 11
101.2272862972167
 21
118.9027919746495
  0
LINE
  8
0
  6
CONTINUOUS
 62
     7
 10
69.08392665320328
 20
162.5390914152615
 11
69.12533638259605
 21
162.5382332650435
  0
LINE
  8
0
  6
CONTINUOUS
 62
     7
 10
69.12533638259605
 20
162.5382332650435
 11
69.166675098638
 21
162.5356617550193
  0
LINE
  8
0
  6
CONTINUOUS
 62
     7
 10
69.166675098638
 20
162.5356617550193
 11
69.20815732722616
 21
162.5313441081313
  0
LINE
  8
0
  6
CONTINUOUS
 62
     7
 10
69.20815732722616
 20
162.5313441081313
 11
69.24942354407271
 21
162.525301202405
  0
LINE
  8
0
  6
CONTINUOUS
 62
     7
 10
69.24942354407271
 20
162.525301202405
 11
69.29128971227026
 21
162.5173542098791
  0
LINE
  8
0
  6
CONTINUOUS
 62
     7
 10
69.29128971227026
 20
162.5173542098791
 11
69.3327794651406
 21
162.5076314974274
  0
LINE
  8
0
  6
CONTINUOUS
 62
     7
 10
69.3327794651406
 20
162.5076314974274
 11
69.37411722196882
 21
162.4960581390023
  0
LINE
  8
0
  6
CONTINUOUS
 62
     7
 10
69.37411722196882
 20
162.4960581390023
 11
69.41492043494213
 21
162.4827220759123
  0
LINE
  8
0
  6
CONTINUOUS
 62
     7
 10
69.41492043494213
 20
162.4827220759123
 11
69.45371178335478
 21
162.4682054173002
  0
LINE
  8
0
  6
CONTINUOUS
 62
     7
 10
69.45371178335478
 20
162.4682054173002
 11
69.49186899083965
 21
162.4520954945878
  0
LINE
  8
0
  6
CONTINUOUS
 62
     7
 10
69.49186899083965
 20
162.4520954945878
 11
69.52958364050959
 21
162.4342903754419
  0
LINE
  8
0
  6
CONTINUOUS
 62
     7
 10
69.52958364050959
 20
162.4342903754419
 11
69.5665233923351
 21
162.414928768895
  0
LINE
  8
0
  6
CONTINUOUS
 62
     7
 10
69.5665233923351
 20
162.414928768895
 11
69.60339900592692
 21
162.3935718550718
  0
LINE
  8
0
  6
CONTINUOUS
 62
     7
 10
69.60339900592692
 20
162.3935718550718
 11
69.63933166744064
 21
162.370663941812
  0
LINE
  8
0
  6
CONTINUOUS
 62
     7
 10
69.63933166744064
 20
162.370663941812
 11
69.6745083403961
 21
162.3460600535475
  0
LINE
  8
0
  6
CONTINUOUS
 62
     7
 10
69.6745083403961
 20
162.3460600535475
 11
69.70859716654908
 21
162.3199697952393
  0
LINE
  8
0
  6
CONTINUOUS
 62
     7
 10
69.70859716654908
 20
162.3199697952393
 11
69.74039713186916
 21
162.2934311586375
  0
LINE
  8
0
  6
CONTINUOUS
 62
     7
 10
69.74039713186916
 20
162.2934311586375
 11
69.77107133693546
 21
162.2655989797957
  0
LINE
  8
0
  6
CONTINUOUS
 62
     7
 10
69.77107133693546
 20
162.2655989797957
 11
69.80076682446408
 21
162.2363136655536
  0
LINE
  8
0
  6
CONTINUOUS
 62
     7
 10
69.80076682446408
 20
162.2363136655536
 11
69.82921591105156
 21
162.205816106773
  0
LINE
  8
0
  6
CONTINUOUS
 62
     7
 10
69.82921591105156
 20
162.205816106773
 11
69.8569440270258
 21
162.1734569843283
  0
LINE
  8
0
  6
CONTINUOUS
 62
     7
 10
69.8569440270258
 20
162.1734569843283
 11
69.88326898902199
 21
162.1399464246841
  0
LINE
  8
0
  6
CONTINUOUS
 62
     7
 10
69.88326898902199
 20
162.1399464246841
 11
69.90831923181136
 21
162.1050857507907
  0
LINE
  8
0
  6
CONTINUOUS
 62
     7
 10
69.90831923181136
 20
162.1050857507907
 11
69.93185099497072
 21
162.0691825840485
  0
LINE
  8
0
  6
CONTINUOUS
 62
     7
 10
69.93185099497072
 20
162.0691825840485
 11
69.95307501474706
 21
162.0336130895642
  0
LINE
  8
0
  6
CONTINUOUS
 62
     7
 10
69.95307501474706
 20
162.0336130895642
 11
69.97280853584346
 21
161.9971955648293
  0
LINE
  8
0
  6
CONTINUOUS
 62
     7
 10
69.97280853584346
 20
161.9971955648293
 11
69.99113749041257
 21
161.9597307386597
  0
LINE
  8
0
  6
CONTINUOUS
 62
     7
 10
69.99113749041257
 20
161.9597307386597
 11
70.00788901384382
 21
161.9215345314204
  0
LINE
  8
0
  6
CONTINUOUS
 62
     7
 10
70.00788901384382
 20
161.9215345314204
 11
70.0233440042557
 21
161.8818202945929
  0
LINE
  8
0
  6
CONTINUOUS
 62
     7
 10
70.0233440042557
 20
161.8818202945929
 11
70.03709376979549
 21
161.8414839425952
  0
LINE
  8
0
  6
CONTINUOUS
 62
     7
 10
70.03709376979549
 20
161.8414839425952
 11
70.04919374494916
 21
161.8002954808503
  0
LINE
  8
0
  6
CONTINUOUS
 62
     7
 10
70.04919374494916
 20
161.8002954808503
 11
70.05951572533928
 21
161.7586258815108
  0
LINE
  8
0
  6
CONTINUOUS
 62
     7
 10
70.05951572533928
 20
161.7586258815108
 11
70.06777046975034
 21
161.7180347832443
  0
LINE
  8
0
  6
CONTINUOUS
 62
     7
 10
70.06777046975034
 20
161.7180347832443
 11
70.07433796628035
 21
161.6771367874597
  0
LINE
  8
0
  6
CONTINUOUS
 62
     7
 10
70.07433796628035
 20
161.6771367874597
 11
70.07923334365717
 21
161.6357154008644
  0
LINE
  8
0
  6
CONTINUOUS
 62
     7
 10
70.07923334365717
 20
161.6357154008644
 11
70.08239804217379
 21
161.5941259710123
  0
LINE
  8
0
  6
CONTINUOUS
 62
     7
 10
70.08239804217379
 20
161.5941259710123
 11
70.08383674656979
 21
161.5515331658685
  0
LINE
  8
0
  6
CONTINUOUS
 62
     7
 10
70.08383674656979
 20
161.5515331658685
 11
70.08346033413467
 21
161.5089177315997
  0
LINE
  8
0
  6
CONTINUOUS
 62
     7
 10
70.08346033413467
 20
161.5089177315997
 11
70.08124498089715
 21
161.4660442726896
  0
LINE
  8
0
  6
CONTINUOUS
 62
     7
 10
70.08124498089715
 20
161.4660442726896
 11
70.07719249383138
 21
161.4233053136522
  0
LINE
  8
0
  6
CONTINUOUS
 62
     7
 10
70.07719249383138
 20
161.4233053136522
 11
70.06992815050374
 21
161.3723930166068
  0
LINE
  8
0
  6
CONTINUOUS
 62
     7
 10
79.93007184949626
 20
161.3723930166068
 11
79.92401599923687
 21
161.4133708925808
  0
LINE
  8
0
  6
CONTINUOUS
 62
     7
 10
79.92401599923687
 20
161.4133708925808
 11
79.91966153975538
 21
161.4545643183128
  0
LINE
  8
0
  6
CONTINUOUS
 62
     7
 10
79.91966153975538
 20
161.4545643183128
 11
79.91700503516684
 21
161.4961902995877
  0
LINE
  8
0
  6
CONTINUOUS
 62
     7
 10
79.91700503516684
 20
161.4961902995877
 11
79.91608582219722
 21
161.5378908317043
  0
LINE
  8
0
  6
CONTINUOUS
 62
     7
 10
79.91608582219722
 20
161.5378908317043
 11
79.91694424237403
 21
161.5805003398128
  0
LINE
  8
0
  6
CONTINUOUS
 62
     7
 10
79.91694424237403
 20
161.5805003398128
 11
79.91961645409926
 21
161.6230346359335
  0
LINE
  8
0
  6
CONTINUOUS
 62
     7
 10
79.91961645409926
 20
161.6230346359335
 11
79.92413894131131
 21
161.6657275092322
  0
LINE
  8
0
  6
CONTINUOUS
 62
     7
 10
79.92413894131131
 20
161.6657275092322
 11
79.93048875389644
 21
161.708187068755
  0
LINE
  8
0
  6
CONTINUOUS
 62
     7
 10
79.93048875389644
 20
161.708187068755
 11
79.93833811882968
 21
161.7488595069152
  0
LINE
  8
0
  6
CONTINUOUS
 62
     7
 10
79.93833811882968
 20
161.7488595069152
 11
79.94786434038323
 21
161.7891721705842
  0
LINE
  8
0
  6
CONTINUOUS
 62
     7
 10
79.94786434038323
 20
161.7891721705842
 11
79.95913601404011
 21
161.8293309765322
  0
LINE
  8
0
  6
CONTINUOUS
 62
     7
 10
79.95913601404011
 20
161.8293309765322
 11
79.9720717593758
 21
161.8689850659421
  0
LINE
  8
0
  6
CONTINUOUS
 62
     7
 10
79.9720717593758
 20
161.8689850659421
 11
79.98698586456575
 21
161.908908508039
  0
LINE
  8
0
  6
CONTINUOUS
 62
     7
 10
79.98698586456575
 20
161.908908508039
 11
80.00358666771362
 21
161.9481605791635
  0
LINE
  8
0
  6
CONTINUOUS
 62
     7
 10
80.00358666771362
 20
161.9481605791635
 11
80.02198599371512
 21
161.9869498238299
  0
LINE
  8
0
  6
CONTINUOUS
 62
     7
 10
80.02198599371512
 20
161.9869498238299
 11
80.04203246106547
 21
162.0249140153135
  0
LINE
  8
0
  6
CONTINUOUS
 62
     7
 10
80.04203246106547
 20
162.0249140153135
 11
80.06290201260151
 21
162.0606947236021
  0
LINE
  8
0
  6
CONTINUOUS
 62
     7
 10
80.06290201260151
 20
162.0606947236021
 11
80.08523479784844
 21
162.0955808807509
  0
LINE
  8
0
  6
CONTINUOUS
 62
     7
 10
80.08523479784844
 20
162.0955808807509
 11
80.10916371094245
 21
162.1297440907724
  0
LINE
  8
0
  6
CONTINUOUS
 62
     7
 10
80.10916371094245
 20
162.1297440907724
 11
80.13449581868336
 21
162.1628802056377
  0
LINE
  8
0
  6
CONTINUOUS
 62
     7
 10
80.13449581868336
 20
162.1628802056377
 11
80.16178393351653
 21
162.195615635251
  0
LINE
  8
0
  6
CONTINUOUS
 62
     7
 10
80.16178393351653
 20
162.195615635251
 11
80.19044143109316
 21
162.2271592143911
  0
LINE
  8
0
  6
CONTINUOUS
 62
     7
 10
80.19044143109316
 20
162.2271592143911
 11
80.22064286920792
 21
162.2576707186171
  0
LINE
  8
0
  6
CONTINUOUS
 62
     7
 10
80.22064286920792
 20
162.2576707186171
 11
80.25212549074583
 21
162.2868584435162
  0
LINE
  8
0
  6
CONTINUOUS
 62
     7
 10
80.25212549074583
 20
162.2868584435162
 11
80.28366139292356
 21
162.3137128003142
  0
LINE
  8
0
  6
CONTINUOUS
 62
     7
 10
80.28366139292356
 20
162.3137128003142
 11
80.31628188634937
 21
162.3392387284199
  0
LINE
  8
0
  6
CONTINUOUS
 62
     7
 10
80.31628188634937
 20
162.3392387284199
 11
80.35016916968986
 21
162.3635541638376
  0
LINE
  8
0
  6
CONTINUOUS
 62
     7
 10
80.35016916968986
 20
162.3635541638376
 11
80.38504051739618
 21
162.3864359791799
  0
LINE
  8
0
  6
CONTINUOUS
 62
     7
 10
80.38504051739618
 20
162.3864359791799
 11
80.42162489848344
 21
162.4082922644551
  0
LINE
  8
0
  6
CONTINUOUS
 62
     7
 10
80.42162489848344
 20
162.4082922644551
 11
80.45910690214713
 21
162.4285706652759
  0
LINE
  8
0
  6
CONTINUOUS
 62
     7
 10
80.45910690214713
 20
162.4285706652759
 11
80.49770412179751
 21
162.447364166466
  0
LINE
  8
0
  6
CONTINUOUS
 62
     7
 10
80.49770412179751
 20
162.447364166466
 11
80.53707206915264
 21
162.4644844984435
  0
LINE
  8
0
  6
CONTINUOUS
 62
     7
 10
80.53707206915264
 20
162.4644844984435
 11
80.57571804524355
 21
162.4793855109277
  0
LINE
  8
0
  6
CONTINUOUS
 62
     7
 10
80.57571804524355
 20
162.4793855109277
 11
80.61494771116294
 21
162.492674037918
  0
LINE
  8
0
  6
CONTINUOUS
 62
     7
 10
80.61494771116294
 20
162.492674037918
 11
80.65497201911327
 21
162.5044010573549
  0
LINE
  8
0
  6
CONTINUOUS
 62
     7
 10
80.65497201911327
 20
162.5044010573549
 11
80.69545034196872
 21
162.5144496188781
  0
LINE
  8
0
  6
CONTINUOUS
 62
     7
 10
80.69545034196872
 20
162.5144496188781
 11
80.73720557941029
 21
162.5229635025586
  0
LINE
  8
0
  6
CONTINUOUS
 62
     7
 10
80.73720557941029
 20
162.5229635025586
 11
80.77928551608183
 21
162.5296914293251
  0
LINE
  8
0
  6
CONTINUOUS
 62
     7
 10
80.77928551608183
 20
162.5296914293251
 11
80.82192623702878
 21
162.5346491204341
  0
LINE
  8
0
  6
CONTINUOUS
 62
     7
 10
80.82192623702878
 20
162.5346491204341
 11
80.8647403865859
 21
162.5377729615587
  0
LINE
  8
0
  6
CONTINUOUS
 62
     7
 10
80.8647403865859
 20
162.5377729615587
 11
80.91607334679671
 21
162.5390914152615
  0
LINE
  8
0
  6
CONTINUOUS
 62
     7
 10
48.77271370278327
 20
118.9027919746495
 11
48.74694542822516
 21
118.9353894789829
  0
LINE
  8
0
  6
CONTINUOUS
 62
     7
 10
48.74694542822516
 20
118.9353894789829
 11
48.72253212881645
 21
118.9690581494853
  0
LINE
  8
0
  6
CONTINUOUS
 62
     7
 10
48.72253212881645
 20
118.9690581494853
 11
48.69953514590134
 21
119.0037096587177
  0
LINE
  8
0
  6
CONTINUOUS
 62
     7
 10
48.69953514590134
 20
119.0037096587177
 11
48.67801582082397
 21
119.0392556792408
  0
LINE
  8
0
  6
CONTINUOUS
 62
     7
 10
48.67801582082397
 20
119.0392556792408
 11
48.65743897328242
 21
119.0767378499688
  0
LINE
  8
0
  6
CONTINUOUS
 62
     7
 10
48.65743897328242
 20
119.0767378499688
 11
48.63846560029366
 21
119.1151003538989
  0
LINE
  8
0
  6
CONTINUOUS
 62
     7
 10
48.63846560029366
 20
119.1151003538989
 11
48.62114545117593
 21
119.154237071986
  0
LINE
  8
0
  6
CONTINUOUS
 62
     7
 10
48.62114545117593
 20
119.154237071986
 11
48.60552827524744
 21
119.1940418851846
  0
LINE
  8
0
  6
CONTINUOUS
 62
     7
 10
48.60552827524744
 20
119.1940418851846
 11
48.59200194439649
 21
119.2333311385333
  0
LINE
  8
0
  6
CONTINUOUS
 62
     7
 10
48.59200194439649
 20
119.2333311385333
 11
48.58010909367584
 21
119.2731828096149
  0
LINE
  8
0
  6
CONTINUOUS
 62
     7
 10
48.58010909367584
 20
119.2731828096149
 11
48.56987838696389
 21
119.3134932046183
  0
LINE
  8
0
  6
CONTINUOUS
 62
     7
 10
48.56987838696389
 20
119.3134932046183
 11
48.56133848813902
 21
119.3541586297328
  0
LINE
  8
0
  6
CONTINUOUS
 62
     7
 10
48.56133848813902
 20
119.3541586297328
 11
48.55432913771484
 21
119.3963396646838
  0
LINE
  8
0
  6
CONTINUOUS
 62
     7
 10
48.55432913771484
 20
119.3963396646838
 11
48.54912469810929
 21
119.4388206827088
  0
LINE
  8
0
  6
CONTINUOUS
 62
     7
 10
48.54912469810929
 20
119.4388206827088
 11
48.54573698471598
 21
119.4814850260448
  0
LINE
  8
0
  6
CONTINUOUS
 62
     7
 10
48.54573698471598
 20
119.4814850260448
 11
48.54417781292857
 21
119.5242160369288
  0
LINE
  8
0
  6
CONTINUOUS
 62
     7
 10
48.54417781292857
 20
119.5242160369288
 11
48.54442113135475
 21
119.5657615638643
  0
LINE
  8
0
  6
CONTINUOUS
 62
     7
 10
48.54442113135475
 20
119.5657615638643
 11
48.54639182396031
 21
119.6072970214063
  0
LINE
  8
0
  6
CONTINUOUS
 62
     7
 10
48.54639182396031
 20
119.6072970214063
 11
48.55008259629119
 21
119.6487150835231
  0
LINE
  8
0
  6
CONTINUOUS
 62
     7
 10
48.55008259629119
 20
119.6487150835231
 11
48.55548615389332
 21
119.689908424183
  0
LINE
  8
0
  6
CONTINUOUS
 62
     7
 10
48.55548615389332
 20
119.689908424183
 11
48.56283545544025
 21
119.732025106542
  0
LINE
  8
0
  6
CONTINUOUS
 62
     7
 10
48.56283545544025
 20
119.732025106542
 11
48.5719869408287
 21
119.7738273653175
  0
LINE
  8
0
  6
CONTINUOUS
 62
     7
 10
48.5719869408287
 20
119.7738273653175
 11
48.5829131198407
 21
119.8152012339524
  0
LINE
  8
0
  6
CONTINUOUS
 62
     7
 10
48.5829131198407
 20
119.8152012339524
 11
48.59558650225831
 21
119.8560327458895
  0
LINE
  8
0
  6
CONTINUOUS
 62
     7
 10
48.59558650225831
 20
119.8560327458895
 11
48.60956781133066
 21
119.8951486382374
  0
LINE
  8
0
  6
CONTINUOUS
 62
     7
 10
48.60956781133066
 20
119.8951486382374
 11
48.62517538607467
 21
119.9336832990044
  0
LINE
  8
0
  6
CONTINUOUS
 62
     7
 10
48.62517538607467
 20
119.9336832990044
 11
48.64236680134243
 21
119.9715379115512
  0
LINE
  8
0
  6
CONTINUOUS
 62
     7
 10
48.64236680134243
 20
119.9715379115512
 11
48.66109963198606
 21
120.0086136592384
  0
LINE
  8
0
  6
CONTINUOUS
 62
     7
 10
48.66109963198606
 20
120.0086136592384
 11
48.68197350202931
 21
120.045916381473
  0
LINE
  8
0
  6
CONTINUOUS
 62
     7
 10
48.68197350202931
 20
120.045916381473
 11
48.70444336521909
 21
120.082326078245
  0
LINE
  8
0
  6
CONTINUOUS
 62
     7
 10
48.70444336521909
 20
120.082326078245
 11
48.72844555761372
 21
120.117744373202
  0
LINE
  8
0
  6
CONTINUOUS
 62
     7
 10
48.72844555761372
 20
120.117744373202
 11
48.75391641527155
 21
120.1520728899917
  0
LINE
  8
0
  6
CONTINUOUS
 62
     7
 10
48.75391641527155
 20
120.1520728899917
 11
48.78005637006547
 21
120.1843538909014
  0
LINE
  8
0
  6
CONTINUOUS
 62
     7
 10
48.78005637006547
 20
120.1843538909014
 11
48.80753832457041
 21
120.2155482490894
  0
LINE
  8
0
  6
CONTINUOUS
 62
     7
 10
48.80753832457041
 20
120.2155482490894
 11
48.8362895332248
 21
120.2455768016445
  0
LINE
  8
0
  6
CONTINUOUS
 62
     7
 10
48.8362895332248
 20
120.2455768016445
 11
48.866237250467
 21
120.2743603856558
  0
LINE
  8
0
  6
CONTINUOUS
 62
     7
 10
48.866237250467
 20
120.2743603856558
 11
48.89827992611273
 21
120.3026494500959
  0
LINE
  8
0
  6
CONTINUOUS
 62
     7
 10
48.89827992611273
 20
120.3026494500959
 11
48.93153277242499
 21
120.3295678482226
  0
LINE
  8
0
  6
CONTINUOUS
 62
     7
 10
48.93153277242499
 20
120.3295678482226
 11
48.96590317345473
 21
120.3550438711374
  0
LINE
  8
0
  6
CONTINUOUS
 62
     7
 10
48.96590317345473
 20
120.3550438711374
 11
49.00129851325294
 21
120.3790058099419
  0
LINE
  8
0
  6
CONTINUOUS
 62
     7
 10
49.00129851325294
 20
120.3790058099419
 11
49.03665244900252
 21
120.4008175977245
  0
LINE
  8
0
  6
CONTINUOUS
 62
     7
 10
49.03665244900252
 20
120.4008175977245
 11
49.07291310759777
 21
120.4211597973715
  0
LINE
  8
0
  6
CONTINUOUS
 62
     7
 10
49.07291310759777
 20
120.4211597973715
 11
49.10998564194596
 21
120.4399818035679
  0
LINE
  8
0
  6
CONTINUOUS
 62
     7
 10
49.10998564194596
 20
120.4399818035679
 11
49.14777520495432
 21
120.4572330109989
  0
LINE
  8
0
  6
CONTINUOUS
 62
     7
 10
49.14777520495432
 20
120.4572330109989
 11
49.18737785178443
 21
120.4733241952887
  0
LINE
  8
0
  6
CONTINUOUS
 62
     7
 10
49.18737785178443
 20
120.4733241952887
 11
49.22766880713658
 21
120.4877214947546
  0
LINE
  8
0
  6
CONTINUOUS
 62
     7
 10
49.22766880713658
 20
120.4877214947546
 11
49.26853695636596
 21
120.5003879078555
  0
LINE
  8
0
  6
CONTINUOUS
 62
     7
 10
49.26853695636596
 20
120.5003879078555
 11
49.30987118482768
 21
120.5112864330502
  0
LINE
  8
0
  6
CONTINUOUS
 62
     7
 10
49.30987118482768
 20
120.5112864330502
 11
49.35603065373094
 21
120.5212467406726
  0
LINE
  8
0
  6
CONTINUOUS
 62
     7
 10
49.35603065373094
 20
120.5212467406726
 11
49.40268758845412
 21
120.5290259499451
  0
LINE
  8
0
  6
CONTINUOUS
 62
     7
 10
49.40268758845412
 20
120.5290259499451
 11
49.44968518064627
 21
120.5346055036275
  0
LINE
  8
0
  6
CONTINUOUS
 62
     7
 10
49.44968518064627
 20
120.5346055036275
 11
49.49686662195649
 21
120.5379668444797
  0
LINE
  8
0
  6
CONTINUOUS
 62
     7
 10
49.49686662195649
 20
120.5379668444797
 11
49.54407510403383
 21
120.5390914152616
  0
LINE
  8
0
  6
CONTINUOUS
 62
     7
 10
95.79982540923504
 20
167.4345791956559
 11
95.81599540621846
 21
167.4215262999012
  0
LINE
  8
0
  6
CONTINUOUS
 62
     7
 10
95.81599540621846
 20
167.4215262999012
 11
95.83162288244185
 21
167.4078012883431
  0
LINE
  8
0
  6
CONTINUOUS
 62
     7
 10
95.83162288244185
 20
167.4078012883431
 11
95.8466681585265
 21
167.3934404550766
  0
LINE
  8
0
  6
CONTINUOUS
 62
     7
 10
95.8466681585265
 20
167.3934404550766
 11
95.86109155509375
 21
167.3784800941966
  0
LINE
  8
0
  6
CONTINUOUS
 62
     7
 10
95.86109155509375
 20
167.3784800941966
 11
95.87526915175992
 21
167.3624713006583
  0
LINE
  8
0
  6
CONTINUOUS
 62
     7
 10
95.87526915175992
 20
167.3624713006583
 11
95.88876192354739
 21
167.3458559800084
  0
LINE
  8
0
  6
CONTINUOUS
 62
     7
 10
95.88876192354739
 20
167.3458559800084
 11
95.90153386955288
 21
167.3286803858388
  0
LINE
  8
0
  6
CONTINUOUS
 62
     7
 10
95.90153386955288
 20
167.3286803858388
 11
95.91354898887316
 21
167.3109907717413
  0
LINE
  8
0
  6
CONTINUOUS
 62
     7
 10
95.91354898887316
 20
167.3109907717413
 11
95.92448734718354
 21
167.2933215457578
  0
LINE
  8
0
  6
CONTINUOUS
 62
     7
 10
95.92448734718354
 20
167.2933215457578
 11
95.93469106629908
 21
167.2751975034857
  0
LINE
  8
0
  6
CONTINUOUS
 62
     7
 10
95.93469106629908
 20
167.2751975034857
 11
95.94413469090843
 21
167.2566660539241
  0
LINE
  8
0
  6
CONTINUOUS
 62
     7
 10
95.94413469090843
 20
167.2566660539241
 11
95.95279276570025
 21
167.2377746060725
  0
LINE
  8
0
  6
CONTINUOUS
 62
     7
 10
95.95279276570025
 20
167.2377746060725
 11
95.96087169946328
 21
167.2179746628208
  0
LINE
  8
0
  6
CONTINUOUS
 62
     7
 10
95.96087169946328
 20
167.2179746628208
 11
95.96810329557839
 21
167.1978289517459
  0
LINE
  8
0
  6
CONTINUOUS
 62
     7
 10
95.96810329557839
 20
167.1978289517459
 11
95.97446887931223
 21
167.177393079781
  0
LINE
  8
0
  6
CONTINUOUS
 62
     7
 10
95.97446887931223
 20
167.177393079781
 11
95.97994977593142
 21
167.1567226538588
  0
LINE
  8
0
  6
CONTINUOUS
 62
     7
 10
95.97994977593142
 20
167.1567226538588
 11
95.9844199075078
 21
167.1364335680768
  0
LINE
  8
0
  6
CONTINUOUS
 62
     7
 10
95.9844199075078
 20
167.1364335680768
 11
95.98804637875244
 21
167.1159585806835
  0
LINE
  8
0
  6
CONTINUOUS
 62
     7
 10
95.98804637875244
 20
167.1159585806835
 11
95.99082087444278
 21
167.095350852176
  0
LINE
  8
0
  6
CONTINUOUS
 62
     7
 10
95.99082087444278
 20
167.095350852176
 11
95.99273507935627
 21
167.0746635430515
  0
LINE
  8
0
  6
CONTINUOUS
 62
     7
 10
95.99273507935627
 20
167.0746635430515
 11
95.99380215457248
 21
167.0533108092383
  0
LINE
  8
0
  6
CONTINUOUS
 62
     7
 10
95.99380215457248
 20
167.0533108092383
 11
95.99395537236188
 21
167.0319123790188
  0
LINE
  8
0
  6
CONTINUOUS
 62
     7
 10
95.99395537236188
 20
167.0319123790188
 11
95.9931955392179
 21
167.0105268965358
  0
LINE
  8
0
  6
CONTINUOUS
 62
     7
 10
95.9931955392179
 20
167.0105268965358
 11
95.99152346163389
 21
166.989213005932
  0
LINE
  8
0
  6
CONTINUOUS
 62
     7
 10
95.99152346163389
 20
166.989213005932
 11
95.989024312673
 21
166.968594941298
  0
LINE
  8
0
  6
CONTINUOUS
 62
     7
 10
95.989024312673
 20
166.968594941298
 11
95.98566789001379
 21
166.9480807645035
  0
LINE
  8
0
  6
CONTINUOUS
 62
     7
 10
95.98566789001379
 20
166.9480807645035
 11
95.9814639643571
 21
166.9277233580856
  0
LINE
  8
0
  6
CONTINUOUS
 62
     7
 10
95.9814639643571
 20
166.9277233580856
 11
95.97642230640373
 21
166.9075756045811
  0
LINE
  8
0
  6
CONTINUOUS
 62
     7
 10
95.97642230640373
 20
166.9075756045811
 11
95.97036150733061
 21
166.887080694769
  0
LINE
  8
0
  6
CONTINUOUS
 62
     7
 10
95.97036150733061
 20
166.887080694769
 11
95.96342372953973
 21
166.8668450991291
  0
LINE
  8
0
  6
CONTINUOUS
 62
     7
 10
95.96342372953973
 20
166.8668450991291
 11
95.95562915920974
 21
166.8469238348278
  0
LINE
  8
0
  6
CONTINUOUS
 62
     7
 10
95.95562915920974
 20
166.8469238348278
 11
95.9469979825193
 21
166.827371919032
  0
LINE
  8
0
  6
CONTINUOUS
 62
     7
 10
95.9469979825193
 20
166.827371919032
 11
95.93781550009948
 21
166.8087468103228
  0
LINE
  8
0
  6
CONTINUOUS
 62
     7
 10
95.93781550009948
 20
166.8087468103228
 11
95.9278587141684
 21
166.7905034204725
  0
LINE
  8
0
  6
CONTINUOUS
 62
     7
 10
95.9278587141684
 20
166.7905034204725
 11
95.91715435974237
 21
166.7726883790271
  0
LINE
  8
0
  6
CONTINUOUS
 62
     7
 10
95.91715435974237
 20
166.7726883790271
 11
95.90572917183775
 21
166.7553483155328
  0
LINE
  8
0
  6
CONTINUOUS
 62
     7
 10
95.90572917183775
 20
166.7553483155328
 11
95.89322789761044
 21
166.738018136293
  0
LINE
  8
0
  6
CONTINUOUS
 62
     7
 10
95.89322789761044
 20
166.738018136293
 11
95.87998526152919
 21
166.721222712827
  0
LINE
  8
0
  6
CONTINUOUS
 62
     7
 10
95.87998526152919
 20
166.721222712827
 11
95.86603851375517
 21
166.705007227013
  0
LINE
  8
0
  6
CONTINUOUS
 62
     7
 10
95.86603851375517
 20
166.705007227013
 11
95.85142490444957
 21
166.6894168607292
  0
LINE
  8
0
  6
CONTINUOUS
 62
     7
 10
95.85142490444957
 20
166.6894168607292
 11
95.83659436298996
 21
166.6748796249217
  0
LINE
  8
0
  6
CONTINUOUS
 62
     7
 10
95.83659436298996
 20
166.6748796249217
 11
95.82115954091658
 21
166.6609588300315
  0
LINE
  8
0
  6
CONTINUOUS
 62
     7
 10
95.82115954091658
 20
166.6609588300315
 11
95.80516110182532
 21
166.6476896056015
  0
LINE
  8
0
  6
CONTINUOUS
 62
     7
 10
95.80516110182532
 20
166.6476896056015
 11
95.78863970931204
 21
166.6351070811752
  0
LINE
  8
0
  6
CONTINUOUS
 62
     7
 10
95.78863970931204
 20
166.6351070811752
 11
95.77110638273115
 21
166.6228900321355
  0
LINE
  8
0
  6
CONTINUOUS
 62
     7
 10
95.77110638273115
 20
166.6228900321355
 11
95.75305054040685
 21
166.6114228281388
  0
LINE
  8
0
  6
CONTINUOUS
 62
     7
 10
95.75305054040685
 20
166.6114228281388
 11
95.73452227098731
 21
166.6007357526732
  0
LINE
  8
0
  6
CONTINUOUS
 62
     7
 10
95.73452227098731
 20
166.6007357526732
 11
95.71557166312071
 21
166.5908590892275
  0
LINE
  8
0
  6
CONTINUOUS
 62
     7
 10
95.71557166312071
 20
166.5908590892275
 11
95.69676093063563
 21
166.5820460646636
  0
LINE
  8
0
  6
CONTINUOUS
 62
     7
 10
95.69676093063563
 20
166.5820460646636
 11
95.67758387725367
 21
166.5740148721636
  0
LINE
  8
0
  6
CONTINUOUS
 62
     7
 10
95.67758387725367
 20
166.5740148721636
 11
95.65809050777388
 21
166.5667852042845
  0
LINE
  8
0
  6
CONTINUOUS
 62
     7
 10
95.65809050777388
 20
166.5667852042845
 11
95.63833082699537
 21
166.5603767535833
  0
LINE
  8
0
  6
CONTINUOUS
 62
     7
 10
95.63833082699537
 20
166.5603767535833
 11
95.61773705043532
 21
166.5546481762355
  0
LINE
  8
0
  6
CONTINUOUS
 62
     7
 10
95.61773705043532
 20
166.5546481762355
 11
95.59689827342501
 21
166.5498002601529
  0
LINE
  8
0
  6
CONTINUOUS
 62
     7
 10
95.59689827342501
 20
166.5498002601529
 11
95.5758717883729
 21
166.545845014381
  0
LINE
  8
0
  6
CONTINUOUS
 62
     7
 10
95.5758717883729
 20
166.545845014381
 11
95.55471488768741
 21
166.5427944479654
  0
LINE
  8
0
  6
CONTINUOUS
 62
     7
 10
95.55471488768741
 20
166.5427944479654
 11
95.53452074718315
 21
166.5407392227598
  0
LINE
  8
0
  6
CONTINUOUS
 62
     7
 10
95.53452074718315
 20
166.5407392227598
 11
95.51425153574681
 21
166.5395038709325
  0
LINE
  8
0
  6
CONTINUOUS
 62
     7
 10
95.51425153574681
 20
166.5395038709325
 11
95.49395727077007
 21
166.5390914152615
  0
LINE
  8
0
  6
CONTINUOUS
 62
     7
 10
54.50604272922992
 20
166.5390914152615
 11
54.48526632009953
 21
166.5395246765589
  0
LINE
  8
0
  6
CONTINUOUS
 62
     7
 10
54.48526632009953
 20
166.5395246765589
 11
54.46450789535454
 21
166.5408215031331
  0
LINE
  8
0
  6
CONTINUOUS
 62
     7
 10
54.46450789535454
 20
166.5408215031331
 11
54.44382104637953
 21
166.5429774590072
  0
LINE
  8
0
  6
CONTINUOUS
 62
     7
 10
54.44382104637953
 20
166.5429774590072
 11
54.42325936455911
 21
166.545988108204
  0
LINE
  8
0
  6
CONTINUOUS
 62
     7
 10
54.42325936455911
 20
166.545988108204
 11
54.40225073250396
 21
166.5499784839528
  0
LINE
  8
0
  6
CONTINUOUS
 62
     7
 10
54.40225073250396
 20
166.5499784839528
 11
54.38141277812871
 21
166.5548675973621
  0
LINE
  8
0
  6
CONTINUOUS
 62
     7
 10
54.38141277812871
 20
166.5548675973621
 11
54.36080227580095
 21
166.5606408837146
  0
LINE
  8
0
  6
CONTINUOUS
 62
     7
 10
54.36080227580095
 20
166.5606408837146
 11
54.3404759998883
 21
166.5672837782932
  0
LINE
  8
0
  6
CONTINUOUS
 62
     7
 10
54.3404759998883
 20
166.5672837782932
 11
54.32101396167374
 21
166.5745692638389
  0
LINE
  8
0
  6
CONTINUOUS
 62
     7
 10
54.32101396167374
 20
166.5745692638389
 11
54.30185481699208
 21
166.5826639515332
  0
LINE
  8
0
  6
CONTINUOUS
 62
     7
 10
54.30185481699208
 20
166.5826639515332
 11
54.28304770501824
 21
166.5915459113138
  0
LINE
  8
0
  6
CONTINUOUS
 62
     7
 10
54.28304770501824
 20
166.5915459113138
 11
54.26464176492711
 21
166.6011932131184
  0
LINE
  8
0
  6
CONTINUOUS
 62
     7
 10
54.26464176492711
 20
166.6011932131184
 11
54.24613816997313
 21
166.6119134696143
  0
LINE
  8
0
  6
CONTINUOUS
 62
     7
 10
54.24613816997313
 20
166.6119134696143
 11
54.22809332940506
 21
166.62342561051
  0
LINE
  8
0
  6
CONTINUOUS
 62
     7
 10
54.22809332940506
 20
166.62342561051
 11
54.21055603382843
 21
166.6356970727352
  0
LINE
  8
0
  6
CONTINUOUS
 62
     7
 10
54.21055603382843
 20
166.6356970727352
 11
54.19357507384874
 21
166.6486952932195
  0
LINE
  8
0
  6
CONTINUOUS
 62
     7
 10
54.19357507384874
 20
166.6486952932195
 11
54.17762696180314
 21
166.6620102020989
  0
LINE
  8
0
  6
CONTINUOUS
 62
     7
 10
54.17762696180314
 20
166.6620102020989
 11
54.16223249490766
 21
166.6759882845697
  0
LINE
  8
0
  6
CONTINUOUS
 62
     7
 10
54.16223249490766
 20
166.6759882845697
 11
54.14743077231019
 21
166.6905925752691
  0
LINE
  8
0
  6
CONTINUOUS
 62
     7
 10
54.14743077231019
 20
166.6905925752691
 11
54.13326089315868
 21
166.7057861088345
  0
LINE
  8
0
  6
CONTINUOUS
 62
     7
 10
54.13326089315868
 20
166.7057861088345
 11
54.1193540507453
 21
166.7220242621473
  0
LINE
  8
0
  6
CONTINUOUS
 62
     7
 10
54.1193540507453
 20
166.7220242621473
 11
54.10614215433218
 21
166.7388576243435
  0
LINE
  8
0
  6
CONTINUOUS
 62
     7
 10
54.10614215433218
 20
166.7388576243435
 11
54.0936604420632
 21
166.7562393119596
  0
LINE
  8
0
  6
CONTINUOUS
 62
     7
 10
54.0936604420632
 20
166.7562393119596
 11
54.0819441520822
 21
166.774122441532
  0
LINE
  8
0
  6
CONTINUOUS
 62
     7
 10
54.0819441520822
 20
166.774122441532
 11
54.07130778996809
 21
166.7919611111062
  0
LINE
  8
0
  6
CONTINUOUS
 62
     7
 10
54.07130778996809
 20
166.7919611111062
 11
54.06141312323874
 21
166.8102420462395
  0
LINE
  8
0
  6
CONTINUOUS
 62
     7
 10
54.06141312323874
 20
166.8102420462395
 11
54.0522847742397
 21
166.8289174372115
  0
LINE
  8
0
  6
CONTINUOUS
 62
     7
 10
54.0522847742397
 20
166.8289174372115
 11
54.0439473653166
 21
166.8479394743018
  0
LINE
  8
0
  6
CONTINUOUS
 62
     7
 10
54.0439473653166
 20
166.8479394743018
 11
54.03620376541856
 21
166.8678595965474
  0
LINE
  8
0
  6
CONTINUOUS
 62
     7
 10
54.03620376541856
 20
166.8678595965474
 11
54.02931253198125
 21
166.8881110900559
  0
LINE
  8
0
  6
CONTINUOUS
 62
     7
 10
54.02931253198125
 20
166.8881110900559
 11
54.0232913541314
 21
166.9086380847538
  0
LINE
  8
0
  6
CONTINUOUS
 62
     7
 10
54.0232913541314
 20
166.9086380847538
 11
54.01815792099586
 21
166.9293847105672
  0
LINE
  8
0
  6
CONTINUOUS
 62
     7
 10
54.01815792099586
 20
166.9293847105672
 11
54.01402757789969
 21
166.9497354580458
  0
LINE
  8
0
  6
CONTINUOUS
 62
     7
 10
54.01402757789969
 20
166.9497354580458
 11
54.01074326292507
 21
166.9702579367863
  0
LINE
  8
0
  6
CONTINUOUS
 62
     7
 10
54.01074326292507
 20
166.9702579367863
 11
54.00831235357479
 21
166.9908989053757
  0
LINE
  8
0
  6
CONTINUOUS
 62
     7
 10
54.00831235357479
 20
166.9908989053757
 11
54.00674222735169
 21
167.0116051224009
  0
LINE
  8
0
  6
CONTINUOUS
 62
     7
 10
54.00674222735169
 20
167.0116051224009
 11
54.00602937927984
 21
167.0329618266493
  0
LINE
  8
0
  6
CONTINUOUS
 62
     7
 10
54.00602937927984
 20
167.0329618266493
 11
54.00623012283211
 21
167.0543490508902
  0
LINE
  8
0
  6
CONTINUOUS
 62
     7
 10
54.00623012283211
 20
167.0543490508902
 11
54.00734263194728
 21
167.0757082661391
  0
LINE
  8
0
  6
CONTINUOUS
 62
     7
 10
54.00734263194728
 20
167.0757082661391
 11
54.00936508056415
 21
167.0969809434112
  0
LINE
  8
0
  6
CONTINUOUS
 62
     7
 10
54.00936508056415
 20
167.0969809434112
 11
54.01220339466532
 21
167.117553258811
  0
LINE
  8
0
  6
CONTINUOUS
 62
     7
 10
54.01220339466532
 20
167.117553258811
 11
54.01589683480734
 21
167.1380076169205
  0
LINE
  8
0
  6
CONTINUOUS
 62
     7
 10
54.01589683480734
 20
167.1380076169205
 11
54.02043472514098
 21
167.1582913523898
  0
LINE
  8
0
  6
CONTINUOUS
 62
     7
 10
54.02043472514098
 20
167.1582913523898
 11
54.02580638981696
 21
167.1783517998689
  0
LINE
  8
0
  6
CONTINUOUS
 62
     7
 10
54.02580638981696
 20
167.1783517998689
 11
54.03220212168917
 21
167.1987422006775
  0
LINE
  8
0
  6
CONTINUOUS
 62
     7
 10
54.03220212168917
 20
167.1987422006775
 11
54.03946991126365
 21
167.2188590952524
  0
LINE
  8
0
  6
CONTINUOUS
 62
     7
 10
54.03946991126365
 20
167.2188590952524
 11
54.04758866244226
 21
167.2386478858188
  0
LINE
  8
0
  6
CONTINUOUS
 62
     7
 10
54.04758866244226
 20
167.2386478858188
 11
54.05653727912685
 21
167.2580539746017
  0
LINE
  8
0
  6
CONTINUOUS
 62
     7
 10
54.05653727912685
 20
167.2580539746017
 11
54.06602593953616
 21
167.2765331083837
  0
LINE
  8
0
  6
CONTINUOUS
 62
     7
 10
54.06602593953616
 20
167.2765331083837
 11
54.0762826690576
 21
167.2946178791046
  0
LINE
  8
0
  6
CONTINUOUS
 62
     7
 10
54.0762826690576
 20
167.2946178791046
 11
54.08727995881747
 21
167.3122621181749
  0
LINE
  8
0
  6
CONTINUOUS
 62
     7
 10
54.08727995881747
 20
167.3122621181749
 11
54.09899029994205
 21
167.3294196570051
  0
LINE
  8
0
  6
CONTINUOUS
 62
     7
 10
54.09899029994205
 20
167.3294196570051
 11
54.11177636637031
 21
167.3465496523424
  0
LINE
  8
0
  6
CONTINUOUS
 62
     7
 10
54.11177636637031
 20
167.3465496523424
 11
54.12529499184064
 21
167.3631328874481
  0
LINE
  8
0
  6
CONTINUOUS
 62
     7
 10
54.12529499184064
 20
167.3631328874481
 11
54.13950820219939
 21
167.3791248134612
  0
LINE
  8
0
  6
CONTINUOUS
 62
     7
 10
54.13950820219939
 20
167.3791248134612
 11
54.1543780232929
 21
167.3944808815207
  0
LINE
  8
0
  6
CONTINUOUS
 62
     7
 10
54.1543780232929
 20
167.3944808815207
 11
54.1690951682578
 21
167.4084606131698
  0
LINE
  8
0
  6
CONTINUOUS
 62
     7
 10
54.1690951682578
 20
167.4084606131698
 11
54.18437326299215
 21
167.4218377144707
  0
LINE
  8
0
  6
CONTINUOUS
 62
     7
 10
54.18437326299215
 20
167.4218377144707
 11
54.20017459076495
 21
167.4345791956559
  0
LINE
  8
0
  6
CONTINUOUS
 62
     7
 10
45.30150365111316
 20
124.5390914152616
 11
45.28073599609615
 21
124.5395245801195
  0
LINE
  8
0
  6
CONTINUOUS
 62
     7
 10
45.28073599609615
 20
124.5395245801195
 11
45.25998632535122
 21
124.5408211011578
  0
LINE
  8
0
  6
CONTINUOUS
 62
     7
 10
45.25998632535122
 20
124.5408211011578
 11
45.2393082217956
 21
124.5429765180731
  0
LINE
  8
0
  6
CONTINUOUS
 62
     7
 10
45.2393082217956
 20
124.5429765180731
 11
45.2187552683465
 21
124.5459863705621
  0
LINE
  8
0
  6
CONTINUOUS
 62
     7
 10
45.2187552683465
 20
124.5459863705621
 11
45.19775546491414
 21
124.5499756567163
  0
LINE
  8
0
  6
CONTINUOUS
 62
     7
 10
45.19775546491414
 20
124.5499756567163
 11
45.17692630397826
 21
124.5548633575106
  0
LINE
  8
0
  6
CONTINUOUS
 62
     7
 10
45.17692630397826
 20
124.5548633575106
 11
45.15632452953483
 21
124.5606348774887
  0
LINE
  8
0
  6
CONTINUOUS
 62
     7
 10
45.15632452953483
 20
124.5606348774887
 11
45.13600688557984
 21
124.5672756211945
  0
LINE
  8
0
  6
CONTINUOUS
 62
     7
 10
45.13600688557984
 20
124.5672756211945
 11
45.11655329176686
 21
124.5745585481971
  0
LINE
  8
0
  6
CONTINUOUS
 62
     7
 10
45.11655329176686
 20
124.5745585481971
 11
45.09740245278154
 21
124.5826502368588
  0
LINE
  8
0
  6
CONTINUOUS
 62
     7
 10
45.09740245278154
 20
124.5826502368588
 11
45.07860345619398
 21
124.5915287379818
  0
LINE
  8
0
  6
CONTINUOUS
 62
     7
 10
45.07860345619398
 20
124.5915287379818
 11
45.06020538957428
 21
124.6011721023683
  0
LINE
  8
0
  6
CONTINUOUS
 62
     7
 10
45.06020538957428
 20
124.6011721023683
 11
45.04170984752365
 21
124.6118876308304
  0
LINE
  8
0
  6
CONTINUOUS
 62
     7
 10
45.04170984752365
 20
124.6118876308304
 11
45.02367272056146
 21
124.6233944602006
  0
LINE
  8
0
  6
CONTINUOUS
 62
     7
 10
45.02367272056146
 20
124.6233944602006
 11
45.00614272195981
 21
124.6356600307962
  0
LINE
  8
0
  6
CONTINUOUS
 62
     7
 10
45.00614272195981
 20
124.6356600307962
 11
44.9891685649908
 21
124.6486517829343
  0
LINE
  8
0
  6
CONTINUOUS
 62
     7
 10
44.9891685649908
 20
124.6486517829343
 11
44.97322256913526
 21
124.661963297719
  0
LINE
  8
0
  6
CONTINUOUS
 62
     7
 10
44.97322256913526
 20
124.661963297719
 11
44.95782995351529
 21
124.6759377482853
  0
LINE
  8
0
  6
CONTINUOUS
 62
     7
 10
44.95782995351529
 20
124.6759377482853
 11
44.94302976861081
 21
124.690538173565
  0
LINE
  8
0
  6
CONTINUOUS
 62
     7
 10
44.94302976861081
 20
124.690538173565
 11
44.92886106490179
 21
124.7057276124896
  0
LINE
  8
0
  6
CONTINUOUS
 62
     7
 10
44.92886106490179
 20
124.7057276124896
 11
44.91495527288533
 21
124.7219609853145
  0
LINE
  8
0
  6
CONTINUOUS
 62
     7
 10
44.91495527288533
 20
124.7219609853145
 11
44.90174394675403
 21
124.7387892848861
  0
LINE
  8
0
  6
CONTINUOUS
 62
     7
 10
44.90174394675403
 20
124.7387892848861
 11
44.88926227031298
 21
124.7561656645991
  0
LINE
  8
0
  6
CONTINUOUS
 62
     7
 10
44.88926227031298
 20
124.7561656645991
 11
44.87754542736727
 21
124.7740432778478
  0
LINE
  8
0
  6
CONTINUOUS
 62
     7
 10
44.87754542736727
 20
124.7740432778478
 11
44.86757549567227
 21
124.7907033256197
  0
LINE
  8
0
  6
CONTINUOUS
 62
     7
 10
44.86757549567227
 20
124.7907033256197
 11
44.8582596415046
 21
124.8077377493799
  0
LINE
  8
0
  6
CONTINUOUS
 62
     7
 10
43.9194312867501
 20
152.5390914152616
 11
43.89866208551456
 21
152.5395245853639
  0
LINE
  8
0
  6
CONTINUOUS
 62
     7
 10
43.89866208551456
 20
152.5395245853639
 11
43.87791086753942
 21
152.5408211278254
  0
LINE
  8
0
  6
CONTINUOUS
 62
     7
 10
43.87791086753942
 20
152.5408211278254
 11
43.85723121549726
 21
152.5429765908771
  0
LINE
  8
0
  6
CONTINUOUS
 62
     7
 10
43.85723121549726
 20
152.5429765908771
 11
43.83667671206062
 21
152.5459865227506
  0
LINE
  8
0
  6
CONTINUOUS
 62
     7
 10
43.83667671206062
 20
152.5459865227506
 11
43.8156753514804
 21
152.5499759264657
  0
LINE
  8
0
  6
CONTINUOUS
 62
     7
 10
43.8156753514804
 20
152.5499759264657
 11
43.794844635275
 21
152.5548637964951
  0
LINE
  8
0
  6
CONTINUOUS
 62
     7
 10
43.794844635275
 20
152.5548637964951
 11
43.77424131379003
 21
152.5606355473248
  0
LINE
  8
0
  6
CONTINUOUS
 62
     7
 10
43.77424131379003
 20
152.5606355473248
 11
43.75392213737114
 21
152.5672765934407
  0
LINE
  8
0
  6
CONTINUOUS
 62
     7
 10
43.75392213737114
 20
152.5672765934407
 11
43.73446702312114
 21
152.5745599127977
  0
LINE
  8
0
  6
CONTINUOUS
 62
     7
 10
43.73446702312114
 20
152.5745599127977
 11
43.71531468988314
 21
152.5826520842269
  0
LINE
  8
0
  6
CONTINUOUS
 62
     7
 10
43.71531468988314
 20
152.5826520842269
 11
43.69651423768875
 21
152.5915311645409
  0
LINE
  8
0
  6
CONTINUOUS
 62
     7
 10
43.69651423768875
 20
152.5915311645409
 11
43.67811476656955
 21
152.601175210552
  0
LINE
  8
0
  6
CONTINUOUS
 62
     7
 10
43.67811476656955
 20
152.601175210552
 11
43.659617773222
 21
152.6118915975948
  0
LINE
  8
0
  6
CONTINUOUS
 62
     7
 10
43.659617773222
 20
152.6118915975948
 11
43.64157927039172
 21
152.6233994150481
  0
LINE
  8
0
  6
CONTINUOUS
 62
     7
 10
43.64157927039172
 20
152.6233994150481
 11
43.62404799016221
 21
152.6356661027482
  0
LINE
  8
0
  6
CONTINUOUS
 62
     7
 10
43.62404799016221
 20
152.6356661027482
 11
43.60707266461689
 21
152.6486591005319
  0
LINE
  8
0
  6
CONTINUOUS
 62
     7
 10
43.60707266461689
 20
152.6486591005319
 11
43.59112678180825
 21
152.6619709702357
  0
LINE
  8
0
  6
CONTINUOUS
 62
     7
 10
43.59112678180825
 20
152.6619709702357
 11
43.57573432512807
 21
152.6759458086685
  0
LINE
  8
0
  6
CONTINUOUS
 62
     7
 10
43.57573432512807
 20
152.6759458086685
 11
43.5609343550481
 21
152.690546654536
  0
LINE
  8
0
  6
CONTINUOUS
 62
     7
 10
43.5609343550481
 20
152.690546654536
 11
43.54676593204012
 21
152.7057365465441
  0
LINE
  8
0
  6
CONTINUOUS
 62
     7
 10
43.54676593204012
 20
152.7057365465441
 11
43.53286044354221
 21
152.7219704987248
  0
LINE
  8
0
  6
CONTINUOUS
 62
     7
 10
43.53286044354221
 20
152.7219704987248
 11
43.51964951150156
 21
152.7387994212436
  0
LINE
  8
0
  6
CONTINUOUS
 62
     7
 10
43.51964951150156
 20
152.7387994212436
 11
43.50716833007759
 21
152.7561764596576
  0
LINE
  8
0
  6
CONTINUOUS
 62
     7
 10
43.50716833007759
 20
152.7561764596576
 11
43.49545209342978
 21
152.7740547595239
  0
LINE
  8
0
  6
CONTINUOUS
 62
     7
 10
43.49545209342978
 20
152.7740547595239
 11
43.48481253309679
 21
152.7918934305199
  0
LINE
  8
0
  6
CONTINUOUS
 62
     7
 10
43.48481253309679
 20
152.7918934305199
 11
43.47491457363449
 21
152.8101744431708
  0
LINE
  8
0
  6
CONTINUOUS
 62
     7
 10
43.47491457363449
 20
152.8101744431708
 11
43.46578282626199
 21
152.8288499946933
  0
LINE
  8
0
  6
CONTINUOUS
 62
     7
 10
43.46578282626199
 20
152.8288499946933
 11
43.45744190219835
 21
152.8478722823044
  0
LINE
  8
0
  6
CONTINUOUS
 62
     7
 10
43.45744190219835
 20
152.8478722823044
 11
43.44969462071771
 21
152.8677925619174
  0
LINE
  8
0
  6
CONTINUOUS
 62
     7
 10
43.44969462071771
 20
152.8677925619174
 11
43.4427995469017
 21
152.888044305752
  0
LINE
  8
0
  6
CONTINUOUS
 62
     7
 10
43.4427995469017
 20
152.888044305752
 11
43.43677436802676
 21
152.9085716635127
  0
LINE
  8
0
  6
CONTINUOUS
 62
     7
 10
43.43677436802676
 20
152.9085716635127
 11
43.43163677136938
 21
152.9293187849039
  0
LINE
  8
0
  6
CONTINUOUS
 62
     7
 10
43.43163677136938
 20
152.9293187849039
 11
43.42750156837338
 21
152.9496737610627
  0
LINE
  8
0
  6
CONTINUOUS
 62
     7
 10
43.42750156837338
 20
152.9496737610627
 11
43.42421254290502
 21
152.9702006652846
  0
LINE
  8
0
  6
CONTINUOUS
 62
     7
 10
43.42421254290502
 20
152.9702006652846
 11
43.42177708826353
 21
152.9908462478322
  0
LINE
  8
0
  6
CONTINUOUS
 62
     7
 10
43.42177708826353
 20
152.9908462478322
 11
43.42020259774824
 21
153.0115572589685
  0
LINE
  8
0
  6
CONTINUOUS
 62
     7
 10
43.42020259774824
 20
153.0115572589685
 11
43.41948545863472
 21
153.0329190663169
  0
LINE
  8
0
  6
CONTINUOUS
 62
     7
 10
43.41948545863472
 20
153.0329190663169
 11
43.41968212858915
 21
153.0543115776141
  0
LINE
  8
0
  6
CONTINUOUS
 62
     7
 10
43.41968212858915
 20
153.0543115776141
 11
43.4207908068289
 21
153.0756762469614
  0
LINE
  8
0
  6
CONTINUOUS
 62
     7
 10
43.4207908068289
 20
153.0756762469614
 11
43.42280969257131
 21
153.0969545284602
  0
LINE
  8
0
  6
CONTINUOUS
 62
     7
 10
43.42280969257131
 20
153.0969545284602
 11
43.42586839385945
 21
153.1188992258721
  0
LINE
  8
0
  6
CONTINUOUS
 62
     7
 10
43.42586839385945
 20
153.1188992258721
 11
43.42990847412742
 21
153.1407289242628
  0
LINE
  8
0
  6
CONTINUOUS
 62
     7
 10
43.42990847412742
 20
153.1407289242628
 11
43.43491381055417
 21
153.1623803395964
  0
LINE
  8
0
  6
CONTINUOUS
 62
     7
 10
43.43491381055417
 20
153.1623803395964
 11
43.44086828031863
 21
153.1837901878373
  0
LINE
  8
0
  6
CONTINUOUS
 62
     7
 10
43.44086828031863
 20
153.1837901878373
 11
43.44775576059973
 21
153.2048951849495
  0
LINE
  8
0
  6
CONTINUOUS
 62
     7
 10
43.44775576059973
 20
153.2048951849495
 11
43.45556012857642
 21
153.2256320468972
  0
LINE
  8
0
  6
CONTINUOUS
 62
     7
 10
48.77277843007163
 20
162.1754693173478
 11
48.79987822515555
 21
162.2069578109929
  0
LINE
  8
0
  6
CONTINUOUS
 62
     7
 10
48.79987822515555
 20
162.2069578109929
 11
48.82828710401368
 21
162.2373197354373
  0
LINE
  8
0
  6
CONTINUOUS
 62
     7
 10
48.82828710401368
 20
162.2373197354373
 11
48.85792998646127
 21
162.2664781018654
  0
LINE
  8
0
  6
CONTINUOUS
 62
     7
 10
48.85792998646127
 20
162.2664781018654
 11
48.88873179231346
 21
162.2943559214615
  0
LINE
  8
0
  6
CONTINUOUS
 62
     7
 10
48.88873179231346
 20
162.2943559214615
 11
48.92161337078601
 21
162.3216765795068
  0
LINE
  8
0
  6
CONTINUOUS
 62
     7
 10
48.92161337078601
 20
162.3216765795068
 11
48.9556638199718
 21
162.347590535688
  0
LINE
  8
0
  6
CONTINUOUS
 62
     7
 10
48.9556638199718
 20
162.347590535688
 11
48.99078840110411
 21
162.3720288250747
  0
LINE
  8
0
  6
CONTINUOUS
 62
     7
 10
48.99078840110411
 20
162.3720288250747
 11
49.02689237541632
 21
162.3949224827363
  0
LINE
  8
0
  6
CONTINUOUS
 62
     7
 10
49.02689237541632
 20
162.3949224827363
 11
49.06288737841057
 21
162.4156657804656
  0
LINE
  8
0
  6
CONTINUOUS
 62
     7
 10
49.06288737841057
 20
162.4156657804656
 11
49.09974478887834
 21
162.4349126704385
  0
LINE
  8
0
  6
CONTINUOUS
 62
     7
 10
49.09974478887834
 20
162.4349126704385
 11
49.1373682692173
 21
162.4526153596318
  0
LINE
  8
0
  6
CONTINUOUS
 62
     7
 10
49.1373682692173
 20
162.4526153596318
 11
49.17566148182513
 21
162.4687260550224
  0
LINE
  8
0
  6
CONTINUOUS
 62
     7
 10
49.17566148182513
 20
162.4687260550224
 11
49.21573283657475
 21
162.483622570517
  0
LINE
  8
0
  6
CONTINUOUS
 62
     7
 10
49.21573283657475
 20
162.483622570517
 11
49.2564415467686
 21
162.496804764876
  0
LINE
  8
0
  6
CONTINUOUS
 62
     7
 10
49.2564415467686
 20
162.496804764876
 11
49.29767538356877
 21
162.5082389267538
  0
LINE
  8
0
  6
CONTINUOUS
 62
     7
 10
49.29767538356877
 20
162.5082389267538
 11
49.33932211813737
 21
162.517891344805
  0
LINE
  8
0
  6
CONTINUOUS
 62
     7
 10
49.33932211813737
 20
162.517891344805
 11
49.38977604705141
 21
162.5271045974541
  0
LINE
  8
0
  6
CONTINUOUS
 62
     7
 10
49.38977604705141
 20
162.5271045974541
 11
49.44063578218044
 21
162.5337205121808
  0
LINE
  8
0
  6
CONTINUOUS
 62
     7
 10
49.44063578218044
 20
162.5337205121808
 11
49.49231727196882
 21
162.5377468875812
  0
LINE
  8
0
  6
CONTINUOUS
 62
     7
 10
49.49231727196882
 20
162.5377468875812
 11
49.54413792765093
 21
162.5390914152615
  0
LINE
  8
0
  6
CONTINUOUS
 62
     7
 10
105.1417403584954
 20
124.8077377493799
 11
105.131747427067
 21
124.7895271906798
  0
LINE
  8
0
  6
CONTINUOUS
 62
     7
 10
105.131747427067
 20
124.7895271906798
 11
105.1209974326715
 21
124.7717320389995
  0
LINE
  8
0
  6
CONTINUOUS
 62
     7
 10
105.1209974326715
 20
124.7717320389995
 11
105.1095191215774
 21
124.7543977330381
  0
LINE
  8
0
  6
CONTINUOUS
 62
     7
 10
105.1095191215774
 20
124.7543977330381
 11
105.0973412400531
 21
124.7375697114946
  0
LINE
  8
0
  6
CONTINUOUS
 62
     7
 10
105.0973412400531
 20
124.7375697114946
 11
105.0840883176358
 21
124.7207987188102
  0
LINE
  8
0
  6
CONTINUOUS
 62
     7
 10
105.0840883176358
 20
124.7207987188102
 11
105.07011788512
 21
124.7045946890747
  0
LINE
  8
0
  6
CONTINUOUS
 62
     7
 10
105.07011788512
 20
124.7045946890747
 11
105.0554691363974
 21
124.6890011739501
  0
LINE
  8
0
  6
CONTINUOUS
 62
     7
 10
105.0554691363974
 20
124.6890011739501
 11
105.0401812653597
 21
124.6740617250987
  0
LINE
  8
0
  6
CONTINUOUS
 62
     7
 10
105.0401812653597
 20
124.6740617250987
 11
105.0247238695036
 21
124.6601854052943
  0
LINE
  8
0
  6
CONTINUOUS
 62
     7
 10
105.0247238695036
 20
124.6601854052943
 11
105.0086895695101
 21
124.6469516876398
  0
LINE
  8
0
  6
CONTINUOUS
 62
     7
 10
105.0086895695101
 20
124.6469516876398
 11
104.9921205359952
 21
124.6343939337294
  0
LINE
  8
0
  6
CONTINUOUS
 62
     7
 10
104.9921205359952
 20
124.6343939337294
 11
104.975058939575
 21
124.6225455051572
  0
LINE
  8
0
  6
CONTINUOUS
 62
     7
 10
104.975058939575
 20
124.6225455051572
 11
104.957001745753
 21
124.6111067387358
  0
LINE
  8
0
  6
CONTINUOUS
 62
     7
 10
104.957001745753
 20
124.6111067387358
 11
104.9384551490887
 21
124.6004404918149
  0
LINE
  8
0
  6
CONTINUOUS
 62
     7
 10
104.9384551490887
 20
124.6004404918149
 11
104.9194705534415
 21
124.590574884833
  0
LINE
  8
0
  6
CONTINUOUS
 62
     7
 10
104.9194705534415
 20
124.590574884833
 11
104.9000993626706
 21
124.5815380382289
  0
LINE
  8
0
  6
CONTINUOUS
 62
     7
 10
104.9000993626706
 20
124.5815380382289
 11
104.8809204120007
 21
124.5735606288192
  0
LINE
  8
0
  6
CONTINUOUS
 62
     7
 10
104.8809204120007
 20
124.5735606288192
 11
104.8614097960952
 21
124.5663805347219
  0
LINE
  8
0
  6
CONTINUOUS
 62
     7
 10
104.8614097960952
 20
124.5663805347219
 11
104.8416183498906
 21
124.5600152736365
  0
LINE
  8
0
  6
CONTINUOUS
 62
     7
 10
104.8416183498906
 20
124.5600152736365
 11
104.8215969083232
 21
124.5544823632629
  0
LINE
  8
0
  6
CONTINUOUS
 62
     7
 10
104.8215969083232
 20
124.5544823632629
 11
104.8007716424101
 21
124.5496655443411
  0
LINE
  8
0
  6
CONTINUOUS
 62
     7
 10
104.8007716424101
 20
124.5496655443411
 11
104.7797402812297
 21
124.5457396493446
  0
LINE
  8
0
  6
CONTINUOUS
 62
     7
 10
104.7797402812297
 20
124.5457396493446
 11
104.7585606344027
 21
124.5427141941732
  0
LINE
  8
0
  6
CONTINUOUS
 62
     7
 10
104.7585606344027
 20
124.5427141941732
 11
104.7372905115498
 21
124.540598694727
  0
LINE
  8
0
  6
CONTINUOUS
 62
     7
 10
104.7372905115498
 20
124.540598694727
 11
104.7179080599084
 21
124.5394685185814
  0
LINE
  8
0
  6
CONTINUOUS
 62
     7
 10
104.7179080599084
 20
124.5394685185814
 11
104.6984963488868
 21
124.5390914152616
  0
LINE
  8
0
  6
CONTINUOUS
 62
     7
 10
41.77373235253678
 20
147.7512435364484
 11
41.78338959241263
 21
147.7916501952368
  0
LINE
  8
0
  6
CONTINUOUS
 62
     7
 10
41.78338959241263
 20
147.7916501952368
 11
41.79472661478287
 21
147.83165543205
  0
LINE
  8
0
  6
CONTINUOUS
 62
     7
 10
41.79472661478287
 20
147.83165543205
 11
41.80771197367086
 21
147.8711564120895
  0
LINE
  8
0
  6
CONTINUOUS
 62
     7
 10
41.80771197367086
 20
147.8711564120895
 11
41.82231422309992
 21
147.9100503005569
  0
LINE
  8
0
  6
CONTINUOUS
 62
     7
 10
41.82231422309992
 20
147.9100503005569
 11
41.83902033716569
 21
147.9494020285039
  0
LINE
  8
0
  6
CONTINUOUS
 62
     7
 10
41.83902033716569
 20
147.9494020285039
 11
41.85741000516804
 21
147.9880390904513
  0
LINE
  8
0
  6
CONTINUOUS
 62
     7
 10
41.85741000516804
 20
147.9880390904513
 11
41.87743063089758
 21
148.0258567703965
  0
LINE
  8
0
  6
CONTINUOUS
 62
     7
 10
41.87743063089758
 20
148.0258567703965
 11
41.8990296181448
 21
148.0627503523372
  0
LINE
  8
0
  6
CONTINUOUS
 62
     7
 10
41.8990296181448
 20
148.0627503523372
 11
41.92151720407811
 21
148.0976827184637
  0
LINE
  8
0
  6
CONTINUOUS
 62
     7
 10
41.92151720407811
 20
148.0976827184637
 11
41.94545708502562
 21
148.1316802302636
  0
LINE
  8
0
  6
CONTINUOUS
 62
     7
 10
41.94545708502562
 20
148.1316802302636
 11
41.97078553800722
 21
148.164656253915
  0
LINE
  8
0
  6
CONTINUOUS
 62
     7
 10
41.97078553800722
 20
148.164656253915
 11
41.9974388400427
 21
148.1965241555958
  0
LINE
  8
0
  6
CONTINUOUS
 62
     7
 10
41.9974388400427
 20
148.1965241555958
 11
42.02622908319267
 21
148.2281277171267
  0
LINE
  8
0
  6
CONTINUOUS
 62
     7
 10
42.02622908319267
 20
148.2281277171267
 11
42.05637146741895
 21
148.2584995763956
  0
LINE
  8
0
  6
CONTINUOUS
 62
     7
 10
42.05637146741895
 20
148.2584995763956
 11
42.08778168752927
 21
148.2875583309703
  0
LINE
  8
0
  6
CONTINUOUS
 62
     7
 10
42.08778168752927
 20
148.2875583309703
 11
42.12037543833141
 21
148.3152225784187
  0
LINE
  8
0
  6
CONTINUOUS
 62
     7
 10
42.12037543833141
 20
148.3152225784187
 11
42.15315752342663
 21
148.3407412428419
  0
LINE
  8
0
  6
CONTINUOUS
 62
     7
 10
42.15315752342663
 20
148.3407412428419
 11
42.18700053999877
 21
148.3648970764997
  0
LINE
  8
0
  6
CONTINUOUS
 62
     7
 10
42.18700053999877
 20
148.3648970764997
 11
42.22181568079791
 21
148.3876294335051
  0
LINE
  8
0
  6
CONTINUOUS
 62
     7
 10
42.22181568079791
 20
148.3876294335051
 11
42.25751413857417
 21
148.4088776679706
  0
LINE
  8
0
  6
CONTINUOUS
 62
     7
 10
42.25751413857417
 20
148.4088776679706
 11
42.29514144003832
 21
148.4291691507127
  0
LINE
  8
0
  6
CONTINUOUS
 62
     7
 10
42.29514144003832
 20
148.4291691507127
 11
42.3336368962829
 21
148.4478508919639
  0
LINE
  8
0
  6
CONTINUOUS
 62
     7
 10
42.3336368962829
 20
148.4478508919639
 11
42.37289401693045
 21
148.4648739978183
  0
LINE
  8
0
  6
CONTINUOUS
 62
     7
 10
42.37289401693045
 20
148.4648739978183
 11
42.41280631160349
 21
148.4801895743701
  0
LINE
  8
0
  6
CONTINUOUS
 62
     7
 10
42.41280631160349
 20
148.4801895743701
 11
42.45305076425883
 21
148.4936882583651
  0
LINE
  8
0
  6
CONTINUOUS
 62
     7
 10
42.45305076425883
 20
148.4936882583651
 11
42.49386866969344
 21
148.5054774340083
  0
LINE
  8
0
  6
CONTINUOUS
 62
     7
 10
42.49386866969344
 20
148.5054774340083
 11
42.53514917162401
 21
148.5155276229255
  0
LINE
  8
0
  6
CONTINUOUS
 62
     7
 10
42.53514917162401
 20
148.5155276229255
 11
42.57678141376728
 21
148.5238093467427
  0
LINE
  8
0
  6
CONTINUOUS
 62
     7
 10
42.57678141376728
 20
148.5238093467427
 11
42.62000766357674
 21
148.5304788208601
  0
LINE
  8
0
  6
CONTINUOUS
 62
     7
 10
42.62000766357674
 20
148.5304788208601
 11
42.66352589486365
 21
148.5352562929233
  0
LINE
  8
0
  6
CONTINUOUS
 62
     7
 10
42.66352589486365
 20
148.5352562929233
 11
42.70721110921389
 21
148.5381308090259
  0
LINE
  8
0
  6
CONTINUOUS
 62
     7
 10
42.70721110921389
 20
148.5381308090259
 11
42.75093830821333
 21
148.5390914152616
  0
LINE
  8
0
  6
CONTINUOUS
 62
     7
 10
102.2330126937738
 20
123.7770152681038
 11
102.2217936270894
 21
123.7596065325415
  0
LINE
  8
0
  6
CONTINUOUS
 62
     7
 10
102.2217936270894
 20
123.7596065325415
 11
102.2098635448752
 21
123.742677129939
  0
LINE
  8
0
  6
CONTINUOUS
 62
     7
 10
102.2098635448752
 20
123.742677129939
 11
102.1971522627486
 21
123.7261442914331
  0
LINE
  8
0
  6
CONTINUOUS
 62
     7
 10
102.1971522627486
 20
123.7261442914331
 11
102.1837629139142
 21
123.7101556459812
  0
LINE
  8
0
  6
CONTINUOUS
 62
     7
 10
102.1837629139142
 20
123.7101556459812
 11
102.1694054747483
 21
123.6944105882224
  0
LINE
  8
0
  6
CONTINUOUS
 62
     7
 10
102.1694054747483
 20
123.6944105882224
 11
102.1543905321191
 21
123.6792912494552
  0
LINE
  8
0
  6
CONTINUOUS
 62
     7
 10
102.1543905321191
 20
123.6792912494552
 11
102.1386273625416
 21
123.664721699145
  0
LINE
  8
0
  6
CONTINUOUS
 62
     7
 10
102.1386273625416
 20
123.664721699145
 11
102.1222536855066
 21
123.6508417850417
  0
LINE
  8
0
  6
CONTINUOUS
 62
     7
 10
102.1222536855066
 20
123.6508417850417
 11
102.1059046174457
 21
123.6381280362322
  0
LINE
  8
0
  6
CONTINUOUS
 62
     7
 10
102.1059046174457
 20
123.6381280362322
 11
102.0890433050712
 21
123.6261019153563
  0
LINE
  8
0
  6
CONTINUOUS
 62
     7
 10
102.0890433050712
 20
123.6261019153563
 11
102.0715761335661
 21
123.6147085562234
  0
LINE
  8
0
  6
CONTINUOUS
 62
     7
 10
102.0715761335661
 20
123.6147085562234
 11
102.0536492729585
 21
123.6040531170279
  0
LINE
  8
0
  6
CONTINUOUS
 62
     7
 10
102.0536492729585
 20
123.6040531170279
 11
102.0348895881949
 21
123.5939479558438
  0
LINE
  8
0
  6
CONTINUOUS
 62
     7
 10
102.0348895881949
 20
123.5939479558438
 11
102.0157165989076
 21
123.5846508304943
  0
LINE
  8
0
  6
CONTINUOUS
 62
     7
 10
102.0157165989076
 20
123.5846508304943
 11
101.9960195743331
 21
123.576120125018
  0
LINE
  8
0
  6
CONTINUOUS
 62
     7
 10
101.9960195743331
 20
123.576120125018
 11
101.9759747406427
 21
123.5684422113681
  0
LINE
  8
0
  6
CONTINUOUS
 62
     7
 10
101.9759747406427
 20
123.5684422113681
 11
101.9559452230361
 21
123.5617336283258
  0
LINE
  8
0
  6
CONTINUOUS
 62
     7
 10
101.9559452230361
 20
123.5617336283258
 11
101.9356503626816
 21
123.5558765550649
  0
LINE
  8
0
  6
CONTINUOUS
 62
     7
 10
101.9356503626816
 20
123.5558765550649
 11
101.9149770317842
 21
123.5508492647285
  0
LINE
  8
0
  6
CONTINUOUS
 62
     7
 10
101.9149770317842
 20
123.5508492647285
 11
101.8941086428193
 21
123.546705522209
  0
LINE
  8
0
  6
CONTINUOUS
 62
     7
 10
101.8941086428193
 20
123.546705522209
 11
101.8726043108822
 21
123.5433902639217
  0
LINE
  8
0
  6
CONTINUOUS
 62
     7
 10
101.8726043108822
 20
123.5433902639217
 11
101.8509761647204
 21
123.5410131807856
  0
LINE
  8
0
  6
CONTINUOUS
 62
     7
 10
101.8509761647204
 20
123.5410131807856
 11
101.8290981740713
 21
123.5395723183675
  0
LINE
  8
0
  6
CONTINUOUS
 62
     7
 10
101.8290981740713
 20
123.5395723183675
 11
101.8071780624857
 21
123.5390914152616
  0
LINE
  8
0
  6
CONTINUOUS
 62
     7
 10
100.455862072349
 20
162.5390914152615
 11
100.4973973336372
 21
162.538225078305
  0
LINE
  8
0
  6
CONTINUOUS
 62
     7
 10
100.4973973336372
 20
162.538225078305
 11
100.538896625707
 21
162.5356320162014
  0
LINE
  8
0
  6
CONTINUOUS
 62
     7
 10
100.538896625707
 20
162.5356320162014
 11
100.5802527815085
 21
162.5313211520995
  0
LINE
  8
0
  6
CONTINUOUS
 62
     7
 10
100.5802527815085
 20
162.5313211520995
 11
100.6213586339915
 21
162.5253014091481
  0
LINE
  8
0
  6
CONTINUOUS
 62
     7
 10
100.6213586339915
 20
162.5253014091481
 11
100.6633581942597
 21
162.5173227896131
  0
LINE
  8
0
  6
CONTINUOUS
 62
     7
 10
100.6633581942597
 20
162.5173227896131
 11
100.7050164663362
 21
162.5075473370026
  0
LINE
  8
0
  6
CONTINUOUS
 62
     7
 10
100.7050164663362
 20
162.5075473370026
 11
100.7462199626509
 21
162.4960042450974
  0
LINE
  8
0
  6
CONTINUOUS
 62
     7
 10
100.7462199626509
 20
162.4960042450974
 11
100.7868551956339
 21
162.482722707678
  0
LINE
  8
0
  6
CONTINUOUS
 62
     7
 10
100.7868551956339
 20
162.482722707678
 11
100.8257623129263
 21
162.468156815683
  0
LINE
  8
0
  6
CONTINUOUS
 62
     7
 10
100.8257623129263
 20
162.468156815683
 11
100.8640639207725
 21
162.4519734082596
  0
LINE
  8
0
  6
CONTINUOUS
 62
     7
 10
100.8640639207725
 20
162.4519734082596
 11
100.9016618460324
 21
162.4342163856186
  0
LINE
  8
0
  6
CONTINUOUS
 62
     7
 10
100.9016618460324
 20
162.4342163856186
 11
100.9384579155657
 21
162.4149296479714
  0
LINE
  8
0
  6
CONTINUOUS
 62
     7
 10
100.9384579155657
 20
162.4149296479714
 11
100.97544892648
 21
162.3934986043564
  0
LINE
  8
0
  6
CONTINUOUS
 62
     7
 10
100.97544892648
 20
162.3934986043564
 11
101.0115231157304
 21
162.3704849758913
  0
LINE
  8
0
  6
CONTINUOUS
 62
     7
 10
101.0115231157304
 20
162.3704849758913
 11
101.0465830600216
 21
162.3459538822988
  0
LINE
  8
0
  6
CONTINUOUS
 62
     7
 10
101.0465830600216
 20
162.3459538822988
 11
101.0805313360583
 21
162.3199704433012
  0
LINE
  8
0
  6
CONTINUOUS
 62
     7
 10
101.0805313360583
 20
162.3199704433012
 11
101.1197452134253
 21
162.2869139356107
  0
LINE
  8
0
  6
CONTINUOUS
 62
     7
 10
101.1197452134253
 20
162.2869139356107
 11
101.1572137870649
 21
162.2518915586771
  0
LINE
  8
0
  6
CONTINUOUS
 62
     7
 10
101.1572137870649
 20
162.2518915586771
 11
101.1932077638649
 21
162.2145874212738
  0
LINE
  8
0
  6
CONTINUOUS
 62
     7
 10
101.1932077638649
 20
162.2145874212738
 11
101.2272215699283
 21
162.1754693173478
  0
LINE
  8
0
  6
CONTINUOUS
 62
     7
 10
148.9723221179806
 20
105.5767681093442
 11
149.0228495668255
 21
105.6845987077144
  0
LINE
  8
0
  6
CONTINUOUS
 62
     7
 10
149.0228495668255
 20
105.6845987077144
 11
149.1119669593256
 21
105.7552039764756
  0
LINE
  8
0
  6
CONTINUOUS
 62
     7
 10
149.1119669593256
 20
105.7552039764756
 11
149.2060325108177
 21
105.8054230250974
  0
LINE
  8
0
  6
CONTINUOUS
 62
     7
 10
43.62126841834085
 20
137.5390914152615
 11
43.60049861255894
 21
137.5395246312414
  0
LINE
  8
0
  6
CONTINUOUS
 62
     7
 10
43.60049861255894
 20
137.5395246312414
 11
43.57974679348334
 21
137.5408213027635
  0
LINE
  8
0
  6
CONTINUOUS
 62
     7
 10
43.57974679348334
 20
137.5408213027635
 11
43.55906655003017
 21
137.542976965202
  0
LINE
  8
0
  6
CONTINUOUS
 62
     7
 10
43.55906655003017
 20
137.542976965202
 11
43.53851147111559
 21
137.545987153931
  0
LINE
  8
0
  6
CONTINUOUS
 62
     7
 10
43.53851147111559
 20
137.545987153931
 11
43.5175094940875
 21
137.5499768778804
  0
LINE
  8
0
  6
CONTINUOUS
 62
     7
 10
43.5175094940875
 20
137.5499768778804
 11
43.49667817781575
 21
137.5548651068156
  0
LINE
  8
0
  6
CONTINUOUS
 62
     7
 10
43.49667817781575
 20
137.5548651068156
 11
43.47607427138761
 21
137.5606372426766
  0
LINE
  8
0
  6
CONTINUOUS
 62
     7
 10
43.47607427138761
 20
137.5606372426766
 11
43.45575452389036
 21
137.5672786874032
  0
LINE
  8
0
  6
CONTINUOUS
 62
     7
 10
43.45575452389036
 20
137.5672786874032
 11
43.43629891960877
 21
137.5745623743212
  0
LINE
  8
0
  6
CONTINUOUS
 62
     7
 10
43.43629891960877
 20
137.5745623743212
 11
43.41714610015113
 21
137.5826549023566
  0
LINE
  8
0
  6
CONTINUOUS
 62
     7
 10
43.41714610015113
 20
137.5826549023566
 11
43.39834515854196
 21
137.5915343217125
  0
LINE
  8
0
  6
CONTINUOUS
 62
     7
 10
43.39834515854196
 20
137.5915343217125
 11
43.37994518780591
 21
137.6011786825922
  0
LINE
  8
0
  6
CONTINUOUS
 62
     7
 10
43.37994518780591
 20
137.6011786825922
 11
43.36144773026078
 21
137.6118953206619
  0
LINE
  8
0
  6
CONTINUOUS
 62
     7
 10
43.36144773026078
 20
137.6118953206619
 11
43.34340873792111
 21
137.6234033464288
  0
LINE
  8
0
  6
CONTINUOUS
 62
     7
 10
43.34340873792111
 20
137.6234033464288
 11
43.32587693275999
 21
137.6356701999624
  0
LINE
  8
0
  6
CONTINUOUS
 62
     7
 10
43.32587693275999
 20
137.6356701999624
 11
43.30890103675051
 21
137.6486633213319
  0
LINE
  8
0
  6
CONTINUOUS
 62
     7
 10
43.30890103675051
 20
137.6486633213319
 11
43.29295347953754
 21
137.6619762010252
  0
LINE
  8
0
  6
CONTINUOUS
 62
     7
 10
43.29295347953754
 20
137.6619762010252
 11
43.27755937318622
 21
137.6759520983261
  0
LINE
  8
0
  6
CONTINUOUS
 62
     7
 10
43.27755937318622
 20
137.6759520983261
 11
43.26275777887223
 21
137.6905540505415
  0
LINE
  8
0
  6
CONTINUOUS
 62
     7
 10
43.26275777887223
 20
137.6905540505415
 11
43.24858775777124
 21
137.7057450949783
  0
LINE
  8
0
  6
CONTINUOUS
 62
     7
 10
43.24858775777124
 20
137.7057450949783
 11
43.23468067813935
 21
137.7219802487148
  0
LINE
  8
0
  6
CONTINUOUS
 62
     7
 10
43.23468067813935
 20
137.7219802487148
 11
43.22146818200788
 21
137.7388104201017
  0
LINE
  8
0
  6
CONTINUOUS
 62
     7
 10
43.22146818200788
 20
137.7388104201017
 11
43.20898546783852
 21
137.7561887559109
  0
LINE
  8
0
  6
CONTINUOUS
 62
     7
 10
43.20898546783852
 20
137.7561887559109
 11
43.19726773409293
 21
137.7740684029139
  0
LINE
  8
0
  6
CONTINUOUS
 62
     7
 10
43.19726773409293
 20
137.7740684029139
 11
43.18662641322432
 21
137.7919090369253
  0
LINE
  8
0
  6
CONTINUOUS
 62
     7
 10
43.18662641322432
 20
137.7919090369253
 11
43.17672678637376
 21
137.8101920928774
  0
LINE
  8
0
  6
CONTINUOUS
 62
     7
 10
43.17672678637376
 20
137.8101920928774
 11
43.16759347575093
 21
137.8288697633213
  0
LINE
  8
0
  6
CONTINUOUS
 62
     7
 10
43.16759347575093
 20
137.8288697633213
 11
43.15925110356558
 21
137.847894240808
  0
LINE
  8
0
  6
CONTINUOUS
 62
     7
 10
43.15925110356558
 20
137.847894240808
 11
43.15150244559528
 21
137.8678168915235
  0
LINE
  8
0
  6
CONTINUOUS
 62
     7
 10
43.15150244559528
 20
137.8678168915235
 11
43.14460614065271
 21
137.8880710827581
  0
LINE
  8
0
  6
CONTINUOUS
 62
     7
 10
43.14460614065271
 20
137.8880710827581
 11
43.13857989116266
 21
137.9086009535046
  0
LINE
  8
0
  6
CONTINUOUS
 62
     7
 10
43.13857989116266
 20
137.9086009535046
 11
43.13344139954993
 21
137.9293506427564
  0
LINE
  8
0
  6
CONTINUOUS
 62
     7
 10
43.13344139954993
 20
137.9293506427564
 11
43.12880339173594
 21
137.9525146445101
  0
LINE
  8
0
  6
CONTINUOUS
 62
     7
 10
43.12880339173594
 20
137.9525146445101
 11
43.12526183470397
 21
137.9758847943007
  0
LINE
  8
0
  6
CONTINUOUS
 62
     7
 10
43.12526183470397
 20
137.9758847943007
 11
43.12282857841529
 21
137.9993829081164
  0
LINE
  8
0
  6
CONTINUOUS
 62
     7
 10
149.1984204258445
 20
104.6552072802429
 11
149.0847586960154
 21
104.5926474412254
  0
LINE
  8
0
  6
CONTINUOUS
 62
     7
 10
149.0847586960154
 20
104.5926474412254
 11
149.0053229878604
 21
104.5216583181903
  0
LINE
  8
0
  6
CONTINUOUS
 62
     7
 10
149.0053229878604
 20
104.5216583181903
 11
148.9723221179806
 21
104.4373178383057
  0
LINE
  8
0
  6
CONTINUOUS
 62
     7
 10
106.5444398714236
 20
153.2256320468972
 11
106.5517876716324
 21
153.2062012160255
  0
LINE
  8
0
  6
CONTINUOUS
 62
     7
 10
106.5517876716324
 20
153.2062012160255
 11
106.5583277441107
 21
153.1864649164292
  0
LINE
  8
0
  6
CONTINUOUS
 62
     7
 10
106.5583277441107
 20
153.1864649164292
 11
106.5640442256172
 21
153.1664745220181
  0
LINE
  8
0
  6
CONTINUOUS
 62
     7
 10
106.5640442256172
 20
153.1664745220181
 11
106.5689212529107
 21
153.1462814067023
  0
LINE
  8
0
  6
CONTINUOUS
 62
     7
 10
106.5689212529107
 20
153.1462814067023
 11
106.5730562855188
 21
153.1253082335153
  0
LINE
  8
0
  6
CONTINUOUS
 62
     7
 10
106.5730562855188
 20
153.1253082335153
 11
106.5762940680262
 21
153.1041581324407
  0
LINE
  8
0
  6
CONTINUOUS
 62
     7
 10
106.5762940680262
 20
153.1041581324407
 11
106.5786269570889
 21
153.0828891975249
  0
LINE
  8
0
  6
CONTINUOUS
 62
     7
 10
106.5786269570889
 20
153.0828891975249
 11
106.580047309363
 21
153.0615595228145
  0
LINE
  8
0
  6
CONTINUOUS
 62
     7
 10
106.580047309363
 20
153.0615595228145
 11
106.5805493643007
 21
153.0407918519739
  0
LINE
  8
0
  6
CONTINUOUS
 62
     7
 10
106.5805493643007
 20
153.0407918519739
 11
106.5801880066159
 21
153.0200032847435
  0
LINE
  8
0
  6
CONTINUOUS
 62
     7
 10
106.5801880066159
 20
153.0200032847435
 11
106.5789652738385
 21
152.9992475627744
  0
LINE
  8
0
  6
CONTINUOUS
 62
     7
 10
106.5789652738385
 20
152.9992475627744
 11
106.5768832034983
 21
152.9785784277176
  0
LINE
  8
0
  6
CONTINUOUS
 62
     7
 10
106.5768832034983
 20
152.9785784277176
 11
106.5738426279384
 21
152.957418687304
  0
LINE
  8
0
  6
CONTINUOUS
 62
     7
 10
106.5738426279384
 20
152.957418687304
 11
106.5698967027444
 21
152.936389014905
  0
LINE
  8
0
  6
CONTINUOUS
 62
     7
 10
106.5698967027444
 20
152.936389014905
 11
106.5650574529328
 21
152.9155467723473
  0
LINE
  8
0
  6
CONTINUOUS
 62
     7
 10
106.5650574529328
 20
152.9155467723473
 11
106.55933690352
 21
152.8949493214578
  0
LINE
  8
0
  6
CONTINUOUS
 62
     7
 10
106.55933690352
 20
152.8949493214578
 11
106.5529363922465
 21
152.8751879827083
  0
LINE
  8
0
  6
CONTINUOUS
 62
     7
 10
106.5529363922465
 20
152.8751879827083
 11
106.5457142915529
 21
152.855692724474
  0
LINE
  8
0
  6
CONTINUOUS
 62
     7
 10
106.5457142915529
 20
152.855692724474
 11
106.5376903185294
 21
152.8365135776862
  0
LINE
  8
0
  6
CONTINUOUS
 62
     7
 10
106.5376903185294
 20
152.8365135776862
 11
106.5288841902658
 21
152.8177005732761
  0
LINE
  8
0
  6
CONTINUOUS
 62
     7
 10
106.5288841902658
 20
152.8177005732761
 11
106.519011296629
 21
152.7987419397494
  0
LINE
  8
0
  6
CONTINUOUS
 62
     7
 10
106.519011296629
 20
152.7987419397494
 11
106.5083272404986
 21
152.7802056967827
  0
LINE
  8
0
  6
CONTINUOUS
 62
     7
 10
106.5083272404986
 20
152.7802056967827
 11
106.4968623602577
 21
152.7621419796948
  0
LINE
  8
0
  6
CONTINUOUS
 62
     7
 10
106.4968623602577
 20
152.7621419796948
 11
106.4846469942892
 21
152.7446009238046
  0
LINE
  8
0
  6
CONTINUOUS
 62
     7
 10
106.4846469942892
 20
152.7446009238046
 11
106.4720666510481
 21
152.7280735709912
  0
LINE
  8
0
  6
CONTINUOUS
 62
     7
 10
106.4720666510481
 20
152.7280735709912
 11
106.4587991969447
 21
152.7120692063748
  0
LINE
  8
0
  6
CONTINUOUS
 62
     7
 10
106.4587991969447
 20
152.7120692063748
 11
106.444879799061
 21
152.6966285005166
  0
LINE
  8
0
  6
CONTINUOUS
 62
     7
 10
106.444879799061
 20
152.6966285005166
 11
106.4303436244788
 21
152.6817921239774
  0
LINE
  8
0
  6
CONTINUOUS
 62
     7
 10
106.4303436244788
 20
152.6817921239774
 11
106.4147528050297
 21
152.6671714448131
  0
LINE
  8
0
  6
CONTINUOUS
 62
     7
 10
106.4147528050297
 20
152.6671714448131
 11
106.3985364732164
 21
152.6532177444467
  0
LINE
  8
0
  6
CONTINUOUS
 62
     7
 10
106.3985364732164
 20
152.6532177444467
 11
106.3817398459783
 21
152.6399682723569
  0
LINE
  8
0
  6
CONTINUOUS
 62
     7
 10
106.3817398459783
 20
152.6399682723569
 11
106.3644081402549
 21
152.6274602780224
  0
LINE
  8
0
  6
CONTINUOUS
 62
     7
 10
106.3644081402549
 20
152.6274602780224
 11
106.3470662314127
 21
152.6160286046623
  0
LINE
  8
0
  6
CONTINUOUS
 62
     7
 10
106.3470662314127
 20
152.6160286046623
 11
106.3292490743344
 21
152.6053178437663
  0
LINE
  8
0
  6
CONTINUOUS
 62
     7
 10
106.3292490743344
 20
152.6053178437663
 11
106.3110033142476
 21
152.5953547239357
  0
LINE
  8
0
  6
CONTINUOUS
 62
     7
 10
106.3110033142476
 20
152.5953547239357
 11
106.2923755963801
 21
152.5861659737715
  0
LINE
  8
0
  6
CONTINUOUS
 62
     7
 10
106.2923755963801
 20
152.5861659737715
 11
106.2728241777664
 21
152.5775298211707
  0
LINE
  8
0
  6
CONTINUOUS
 62
     7
 10
106.2728241777664
 20
152.5775298211707
 11
106.2529032998959
 21
152.5697300235199
  0
LINE
  8
0
  6
CONTINUOUS
 62
     7
 10
106.2529032998959
 20
152.5697300235199
 11
106.2326679522769
 21
152.5627867555321
  0
LINE
  8
0
  6
CONTINUOUS
 62
     7
 10
106.2326679522769
 20
152.5627867555321
 11
106.2121731244176
 21
152.5567201919202
  0
LINE
  8
0
  6
CONTINUOUS
 62
     7
 10
106.2121731244176
 20
152.5567201919202
 11
106.1906720207088
 21
152.5513696837905
  0
LINE
  8
0
  6
CONTINUOUS
 62
     7
 10
106.1906720207088
 20
152.5513696837905
 11
106.1689114251003
 21
152.5469725871302
  0
LINE
  8
0
  6
CONTINUOUS
 62
     7
 10
106.1689114251003
 20
152.5469725871302
 11
106.1469560670711
 21
152.5435375569434
  0
LINE
  8
0
  6
CONTINUOUS
 62
     7
 10
106.1469560670711
 20
152.5435375569434
 11
106.1248706761003
 21
152.5410732482338
  0
LINE
  8
0
  6
CONTINUOUS
 62
     7
 10
106.1248706761003
 20
152.5410732482338
 11
106.1027199816669
 21
152.5395883160053
  0
LINE
  8
0
  6
CONTINUOUS
 62
     7
 10
106.1027199816669
 20
152.5395883160053
 11
106.0805687132499
 21
152.5390914152616
  0
LINE
  8
0
  6
CONTINUOUS
 62
     7
 10
107.2490616917867
 20
148.5390914152616
 11
107.2905973371599
 21
148.5382250897628
  0
LINE
  8
0
  6
CONTINUOUS
 62
     7
 10
107.2905973371599
 20
148.5382250897628
 11
107.3320970146769
 21
148.5356320578201
  0
LINE
  8
0
  6
CONTINUOUS
 62
     7
 10
107.3320970146769
 20
148.5356320578201
 11
107.3734535593465
 21
148.5313212362636
  0
LINE
  8
0
  6
CONTINUOUS
 62
     7
 10
107.3734535593465
 20
148.5313212362636
 11
107.4145598061775
 21
148.5253015419236
  0
LINE
  8
0
  6
CONTINUOUS
 62
     7
 10
107.4145598061775
 20
148.5253015419236
 11
107.4565597497405
 21
148.5173229781265
  0
LINE
  8
0
  6
CONTINUOUS
 62
     7
 10
107.4565597497405
 20
148.5173229781265
 11
107.4982184098715
 21
148.5075475762823
  0
LINE
  8
0
  6
CONTINUOUS
 62
     7
 10
107.4982184098715
 20
148.5075475762823
 11
107.5394222967532
 21
148.4960045230967
  0
LINE
  8
0
  6
CONTINUOUS
 62
     7
 10
107.5394222967532
 20
148.4960045230967
 11
107.5800579205684
 21
148.4827230052753
  0
LINE
  8
0
  6
CONTINUOUS
 62
     7
 10
107.5800579205684
 20
148.4827230052753
 11
107.6189654510702
 21
148.4681570932019
  0
LINE
  8
0
  6
CONTINUOUS
 62
     7
 10
107.6189654510702
 20
148.4681570932019
 11
107.657267465469
 21
148.4519736324677
  0
LINE
  8
0
  6
CONTINUOUS
 62
     7
 10
107.657267465469
 20
148.4519736324677
 11
107.6948657844007
 21
148.4342165189698
  0
LINE
  8
0
  6
CONTINUOUS
 62
     7
 10
107.6948657844007
 20
148.4342165189698
 11
107.7316622285011
 21
148.4149296486048
  0
LINE
  8
0
  6
CONTINUOUS
 62
     7
 10
107.7316622285011
 20
148.4149296486048
 11
107.7686536404786
 21
148.393498394746
  0
LINE
  8
0
  6
CONTINUOUS
 62
     7
 10
107.7686536404786
 20
148.393498394746
 11
107.8047281988712
 21
148.3704844989642
  0
LINE
  8
0
  6
CONTINUOUS
 62
     7
 10
107.8047281988712
 20
148.3704844989642
 11
107.839788470712
 21
148.3459530806759
  0
LINE
  8
0
  6
CONTINUOUS
 62
     7
 10
107.839788470712
 20
148.3459530806759
 11
107.8737370230344
 21
148.3199692592974
  0
LINE
  8
0
  6
CONTINUOUS
 62
     7
 10
107.8737370230344
 20
148.3199692592974
 11
107.9056287688772
 21
148.2933462638962
  0
LINE
  8
0
  6
CONTINUOUS
 62
     7
 10
107.9056287688772
 20
148.2933462638962
 11
107.9364137447035
 21
148.2653973939067
  0
LINE
  8
0
  6
CONTINUOUS
 62
     7
 10
107.9364137447035
 20
148.2653973939067
 11
107.9660138467522
 21
148.2361965712728
  0
LINE
  8
0
  6
CONTINUOUS
 62
     7
 10
107.9660138467522
 20
148.2361965712728
 11
107.9943509712622
 21
148.2058177179384
  0
LINE
  8
0
  6
CONTINUOUS
 62
     7
 10
107.9943509712622
 20
148.2058177179384
 11
108.0221622671035
 21
148.1733509670866
  0
LINE
  8
0
  6
CONTINUOUS
 62
     7
 10
108.0221622671035
 20
148.1733509670866
 11
108.0485846089071
 21
148.139694356129
  0
LINE
  8
0
  6
CONTINUOUS
 62
     7
 10
108.0485846089071
 20
148.139694356129
 11
108.0735476264733
 21
148.1049415805802
  0
LINE
  8
0
  6
CONTINUOUS
 62
     7
 10
108.0735476264733
 20
148.1049415805802
 11
108.0969809496017
 21
148.0691863359547
  0
LINE
  8
0
  6
CONTINUOUS
 62
     7
 10
108.0969809496017
 20
148.0691863359547
 11
108.118709184953
 21
148.0327210891052
  0
LINE
  8
0
  6
CONTINUOUS
 62
     7
 10
108.118709184953
 20
148.0327210891052
 11
108.1388884569698
 21
147.9953328149081
  0
LINE
  8
0
  6
CONTINUOUS
 62
     7
 10
108.1388884569698
 20
147.9953328149081
 11
108.1574664430428
 21
147.9571235938935
  0
LINE
  8
0
  6
CONTINUOUS
 62
     7
 10
108.1574664430428
 20
147.9571235938935
 11
108.1743908205622
 21
147.9181955065916
  0
LINE
  8
0
  6
CONTINUOUS
 62
     7
 10
108.1743908205622
 20
147.9181955065916
 11
108.1900777623677
 21
147.8773676923646
  0
LINE
  8
0
  6
CONTINUOUS
 62
     7
 10
108.1900777623677
 20
147.8773676923646
 11
108.2039776938257
 21
147.835853205745
  0
LINE
  8
0
  6
CONTINUOUS
 62
     7
 10
108.2039776938257
 20
147.835853205745
 11
108.2160533953772
 21
147.7937718770128
  0
LINE
  8
0
  6
CONTINUOUS
 62
     7
 10
108.2160533953772
 20
147.7937718770128
 11
108.2262676474632
 21
147.7512435364484
  0
LINE
  8
0
  6
CONTINUOUS
 62
     7
 10
108.9658987573805
 20
139.0166848981385
 11
108.9645361067174
 21
138.995957102676
  0
LINE
  8
0
  6
CONTINUOUS
 62
     7
 10
108.9645361067174
 20
138.995957102676
 11
108.96231177363
 21
138.9752859309828
  0
LINE
  8
0
  6
CONTINUOUS
 62
     7
 10
108.96231177363
 20
138.9752859309828
 11
108.9592326098601
 21
138.9547247120707
  0
LINE
  8
0
  6
CONTINUOUS
 62
     7
 10
108.9592326098601
 20
138.9547247120707
 11
108.9553054671495
 21
138.9343267749513
  0
LINE
  8
0
  6
CONTINUOUS
 62
     7
 10
108.9553054671495
 20
138.9343267749513
 11
108.9503798598985
 21
138.9135262935764
  0
LINE
  8
0
  6
CONTINUOUS
 62
     7
 10
108.9503798598985
 20
138.9135262935764
 11
108.9445643693011
 21
138.8929365111365
  0
LINE
  8
0
  6
CONTINUOUS
 62
     7
 10
108.9445643693011
 20
138.8929365111365
 11
108.937876113319
 21
138.8726134631517
  0
LINE
  8
0
  6
CONTINUOUS
 62
     7
 10
108.937876113319
 20
138.8726134631517
 11
108.9303322099142
 21
138.8526131851427
  0
LINE
  8
0
  6
CONTINUOUS
 62
     7
 10
108.9303322099142
 20
138.8526131851427
 11
108.9221854296261
 21
138.8335048430142
  0
LINE
  8
0
  6
CONTINUOUS
 62
     7
 10
108.9221854296261
 20
138.8335048430142
 11
108.9132442302328
 21
138.814735173549
  0
LINE
  8
0
  6
CONTINUOUS
 62
     7
 10
108.9132442302328
 20
138.814735173549
 11
108.9035327348405
 21
138.7963522363511
  0
LINE
  8
0
  6
CONTINUOUS
 62
     7
 10
108.9035327348405
 20
138.7963522363511
 11
108.8930750665559
 21
138.7784040910242
  0
LINE
  8
0
  6
CONTINUOUS
 62
     7
 10
108.8930750665559
 20
138.7784040910242
 11
108.8815418908686
 21
138.7604065626258
  0
LINE
  8
0
  6
CONTINUOUS
 62
     7
 10
108.8815418908686
 20
138.7604065626258
 11
108.8692386964633
 21
138.7429024457063
  0
LINE
  8
0
  6
CONTINUOUS
 62
     7
 10
108.8692386964633
 20
138.7429024457063
 11
108.8562001919321
 21
138.7259389528003
  0
LINE
  8
0
  6
CONTINUOUS
 62
     7
 10
108.8562001919321
 20
138.7259389528003
 11
108.8424610858666
 21
138.7095632964423
  0
LINE
  8
0
  6
CONTINUOUS
 62
     7
 10
108.8424610858666
 20
138.7095632964423
 11
108.8284489132996
 21
138.6942295167251
  0
LINE
  8
0
  6
CONTINUOUS
 62
     7
 10
108.8284489132996
 20
138.6942295167251
 11
108.813799243865
 21
138.6794782570622
  0
LINE
  8
0
  6
CONTINUOUS
 62
     7
 10
108.813799243865
 20
138.6794782570622
 11
108.7985507501245
 21
138.6653468765715
  0
LINE
  8
0
  6
CONTINUOUS
 62
     7
 10
108.7985507501245
 20
138.6653468765715
 11
108.7827421046397
 21
138.6518727343705
  0
LINE
  8
0
  6
CONTINUOUS
 62
     7
 10
108.7827421046397
 20
138.6518727343705
 11
108.7659023134238
 21
138.6387079910734
  0
LINE
  8
0
  6
CONTINUOUS
 62
     7
 10
108.7659023134238
 20
138.6387079910734
 11
108.7484992806888
 21
138.62626367953
  0
LINE
  8
0
  6
CONTINUOUS
 62
     7
 10
108.7484992806888
 20
138.62626367953
 11
108.7305813838506
 21
138.6145728532022
  0
LINE
  8
0
  6
CONTINUOUS
 62
     7
 10
108.7305813838506
 20
138.6145728532022
 11
108.712197000325
 21
138.6036685655521
  0
LINE
  8
0
  6
CONTINUOUS
 62
     7
 10
108.712197000325
 20
138.6036685655521
 11
108.6938993432994
 21
138.5938374758047
  0
LINE
  8
0
  6
CONTINUOUS
 62
     7
 10
108.6938993432994
 20
138.5938374758047
 11
108.6751929641175
 21
138.5847670523725
  0
LINE
  8
0
  6
CONTINUOUS
 62
     7
 10
108.6751929641175
 20
138.5847670523725
 11
108.6561267193172
 21
138.5764797411199
  0
LINE
  8
0
  6
CONTINUOUS
 62
     7
 10
108.6561267193172
 20
138.5764797411199
 11
108.6367494654361
 21
138.5689979879118
  0
LINE
  8
0
  6
CONTINUOUS
 62
     7
 10
108.6367494654361
 20
138.5689979879118
 11
108.6165016839538
 21
138.5621494745712
  0
LINE
  8
0
  6
CONTINUOUS
 62
     7
 10
108.6165016839538
 20
138.5621494745712
 11
108.5959608970425
 21
138.5561671553923
  0
LINE
  8
0
  6
CONTINUOUS
 62
     7
 10
108.5959608970425
 20
138.5561671553923
 11
108.5751836892852
 21
138.5510662014096
  0
LINE
  8
0
  6
CONTINUOUS
 62
     7
 10
108.5751836892852
 20
138.5510662014096
 11
108.554226645265
 21
138.5468617836576
  0
LINE
  8
0
  6
CONTINUOUS
 62
     7
 10
108.554226645265
 20
138.5468617836576
 11
108.5324352751017
 21
138.5434707411405
  0
LINE
  8
0
  6
CONTINUOUS
 62
     7
 10
108.5324352751017
 20
138.5434707411405
 11
108.5104941948656
 21
138.5410415572772
  0
LINE
  8
0
  6
CONTINUOUS
 62
     7
 10
108.5104941948656
 20
138.5410415572772
 11
108.4884674949167
 21
138.539579894505
  0
LINE
  8
0
  6
CONTINUOUS
 62
     7
 10
108.4884674949167
 20
138.539579894505
 11
108.4664192656153
 21
138.5390914152615
  0
LINE
  8
0
  6
CONTINUOUS
 62
     7
 10
41.53358073438471
 20
138.5390914152615
 11
41.51281271349087
 21
138.5395245777194
  0
LINE
  8
0
  6
CONTINUOUS
 62
     7
 10
41.51281271349087
 20
138.5395245777194
 11
41.49206267631111
 21
138.5408210937765
  0
LINE
  8
0
  6
CONTINUOUS
 62
     7
 10
41.49206267631111
 20
138.5408210937765
 11
41.47138420516742
 21
138.5429765064586
  0
LINE
  8
0
  6
CONTINUOUS
 62
     7
 10
41.47138420516742
 20
138.5429765064586
 11
41.45083088238184
 21
138.5459863587909
  0
LINE
  8
0
  6
CONTINUOUS
 62
     7
 10
41.45083088238184
 20
138.5459863587909
 11
41.42983071117423
 21
138.5499756496379
  0
LINE
  8
0
  6
CONTINUOUS
 62
     7
 10
41.42983071117423
 20
138.5499756496379
 11
41.40900118156905
 21
138.5548633656932
  0
LINE
  8
0
  6
CONTINUOUS
 62
     7
 10
41.40900118156905
 20
138.5548633656932
 11
41.38839903936955
 21
138.5606349152474
  0
LINE
  8
0
  6
CONTINUOUS
 62
     7
 10
41.38839903936955
 20
138.5606349152474
 11
41.36808103037897
 21
138.5672757065912
  0
LINE
  8
0
  6
CONTINUOUS
 62
     7
 10
41.36808103037897
 20
138.5672757065912
 11
41.34862706786247
 21
138.574558708058
  0
LINE
  8
0
  6
CONTINUOUS
 62
     7
 10
41.34862706786247
 20
138.574558708058
 11
41.32947586689223
 21
138.5826504964769
  0
LINE
  8
0
  6
CONTINUOUS
 62
     7
 10
41.32947586689223
 20
138.5826504964769
 11
41.31067651902156
 21
138.5915291248851
  0
LINE
  8
0
  6
CONTINUOUS
 62
     7
 10
41.31067651902156
 20
138.5915291248851
 11
41.2922781158038
 21
138.6011726463198
  0
LINE
  8
0
  6
CONTINUOUS
 62
     7
 10
41.2922781158038
 20
138.6011726463198
 11
41.27378222141288
 21
138.611888385238
  0
LINE
  8
0
  6
CONTINUOUS
 62
     7
 10
41.27378222141288
 20
138.611888385238
 11
41.2557447647521
 21
138.6233954638817
  0
LINE
  8
0
  6
CONTINUOUS
 62
     7
 10
41.2557447647521
 20
138.6233954638817
 11
41.23821446513779
 21
138.6356613224907
  0
LINE
  8
0
  6
CONTINUOUS
 62
     7
 10
41.23821446513779
 20
138.6356613224907
 11
41.22124004188626
 21
138.6486534013046
  0
LINE
  8
0
  6
CONTINUOUS
 62
     7
 10
41.22124004188626
 20
138.6486534013046
 11
41.2052942232904
 21
138.6619649244986
  0
LINE
  8
0
  6
CONTINUOUS
 62
     7
 10
41.2052942232904
 20
138.6619649244986
 11
41.18990179551232
 21
138.6759393884687
  0
LINE
  8
0
  6
CONTINUOUS
 62
     7
 10
41.18990179551232
 20
138.6759393884687
 11
41.17510181182758
 21
138.6905398322577
  0
LINE
  8
0
  6
CONTINUOUS
 62
     7
 10
41.17510181182758
 20
138.6905398322577
 11
41.16093332551174
 21
138.7057292949081
  0
LINE
  8
0
  6
CONTINUOUS
 62
     7
 10
41.16093332551174
 20
138.7057292949081
 11
41.14702775651538
 21
138.7219627229235
  0
LINE
  8
0
  6
CONTINUOUS
 62
     7
 10
41.14702775651538
 20
138.7219627229235
 11
41.1338166766204
 21
138.7387910860685
  0
LINE
  8
0
  6
CONTINUOUS
 62
     7
 10
41.1338166766204
 20
138.7387910860685
 11
41.12133527231604
 21
138.7561675354725
  0
LINE
  8
0
  6
CONTINUOUS
 62
     7
 10
41.12133527231604
 20
138.7561675354725
 11
41.10961873009155
 21
138.7740452222648
  0
LINE
  8
0
  6
CONTINUOUS
 62
     7
 10
41.10961873009155
 20
138.7740452222648
 11
41.09897819269897
 21
138.7918843237627
  0
LINE
  8
0
  6
CONTINUOUS
 62
     7
 10
41.09897819269897
 20
138.7918843237627
 11
41.08907925747607
 21
138.8101657975764
  0
LINE
  8
0
  6
CONTINUOUS
 62
     7
 10
41.08907925747607
 20
138.8101657975764
 11
41.07994653540756
 21
138.8288418412211
  0
LINE
  8
0
  6
CONTINUOUS
 62
     7
 10
41.07994653540756
 20
138.8288418412211
 11
41.07160463747815
 21
138.8478646522117
  0
LINE
  8
0
  6
CONTINUOUS
 62
     7
 10
41.07160463747815
 20
138.8478646522117
 11
41.0638563649704
 21
138.8677854720514
  0
LINE
  8
0
  6
CONTINUOUS
 62
     7
 10
41.0638563649704
 20
138.8677854720514
 11
41.05696029804573
 21
138.8880377887257
  0
LINE
  8
0
  6
CONTINUOUS
 62
     7
 10
41.05696029804573
 20
138.8880377887257
 11
41.05093412619119
 21
138.9085657537128
  0
LINE
  8
0
  6
CONTINUOUS
 62
     7
 10
41.05093412619119
 20
138.9085657537128
 11
41.04579553889384
 21
138.9293135184911
  0
LINE
  8
0
  6
CONTINUOUS
 62
     7
 10
41.04579553889384
 20
138.9293135184911
 11
41.04143215269416
 21
138.9509311928312
  0
LINE
  8
0
  6
CONTINUOUS
 62
     7
 10
41.04143215269416
 20
138.9509311928312
 11
41.03802295690814
 21
138.9727414959084
  0
LINE
  8
0
  6
CONTINUOUS
 62
     7
 10
41.03802295690814
 20
138.9727414959084
 11
41.03557647804639
 21
138.9946806551889
  0
LINE
  8
0
  6
CONTINUOUS
 62
     7
 10
41.03557647804639
 20
138.9946806551889
 11
41.03410124261951
 21
139.0166848981385
  0
LINE
  8
0
  6
CONTINUOUS
 62
     7
 10
41.77371532164814
 20
133.327017755549
 11
41.765751087895
 21
133.367793422473
  0
LINE
  8
0
  6
CONTINUOUS
 62
     7
 10
41.765751087895
 20
133.367793422473
 11
41.75948191040402
 21
133.4089002127459
  0
LINE
  8
0
  6
CONTINUOUS
 62
     7
 10
41.75948191040402
 20
133.4089002127459
 11
41.75492181527552
 21
133.450231510746
  0
LINE
  8
0
  6
CONTINUOUS
 62
     7
 10
41.75492181527552
 20
133.450231510746
 11
41.75208482860982
 21
133.4916807008513
  0
LINE
  8
0
  6
CONTINUOUS
 62
     7
 10
41.75208482860982
 20
133.4916807008513
 11
41.75097259775126
 21
133.5344187792231
  0
LINE
  8
0
  6
CONTINUOUS
 62
     7
 10
41.75097259775126
 20
133.5344187792231
 11
41.75168875711802
 21
133.5772044944389
  0
LINE
  8
0
  6
CONTINUOUS
 62
     7
 10
41.75168875711802
 20
133.5772044944389
 11
41.75422886854386
 21
133.6199207442706
  0
LINE
  8
0
  6
CONTINUOUS
 62
     7
 10
41.75422886854386
 20
133.6199207442706
 11
41.75858849386256
 21
133.6624504264907
  0
LINE
  8
0
  6
CONTINUOUS
 62
     7
 10
41.75858849386256
 20
133.6624504264907
 11
41.76456993599836
 21
133.7035637943992
  0
LINE
  8
0
  6
CONTINUOUS
 62
     7
 10
41.76456993599836
 20
133.7035637943992
 11
41.77226065042971
 21
133.7444285335392
  0
LINE
  8
0
  6
CONTINUOUS
 62
     7
 10
41.77226065042971
 20
133.7444285335392
 11
41.7816385743473
 21
133.7849393769052
  0
LINE
  8
0
  6
CONTINUOUS
 62
     7
 10
41.7816385743473
 20
133.7849393769052
 11
41.79268164494187
 21
133.8249910574919
  0
LINE
  8
0
  6
CONTINUOUS
 62
     7
 10
41.79268164494187
 20
133.8249910574919
 11
41.8057791030346
 21
133.8656882169089
  0
LINE
  8
0
  6
CONTINUOUS
 62
     7
 10
41.8057791030346
 20
133.8656882169089
 11
41.82061780966895
 21
133.9058250516034
  0
LINE
  8
0
  6
CONTINUOUS
 62
     7
 10
41.82061780966895
 20
133.9058250516034
 11
41.83715479822972
 21
133.9452925146201
  0
LINE
  8
0
  6
CONTINUOUS
 62
     7
 10
41.83715479822972
 20
133.9452925146201
 11
41.85534710210179
 21
133.9839815590042
  0
LINE
  8
0
  6
CONTINUOUS
 62
     7
 10
41.85534710210179
 20
133.9839815590042
 11
41.87459973374546
 21
134.0207947660977
  0
LINE
  8
0
  6
CONTINUOUS
 62
     7
 10
41.87459973374546
 20
134.0207947660977
 11
41.89538287563274
 21
134.056807596961
  0
LINE
  8
0
  6
CONTINUOUS
 62
     7
 10
41.89538287563274
 20
134.056807596961
 11
41.91764085724284
 21
134.0919280353596
  0
LINE
  8
0
  6
CONTINUOUS
 62
     7
 10
41.91764085724284
 20
134.0919280353596
 11
41.94131800805489
 21
134.1260640650591
  0
LINE
  8
0
  6
CONTINUOUS
 62
     7
 10
41.94131800805489
 20
134.1260640650591
 11
41.96714720593864
 21
134.1601291207958
  0
LINE
  8
0
  6
CONTINUOUS
 62
     7
 10
41.96714720593864
 20
134.1601291207958
 11
41.99443387097697
 21
134.1930891461817
  0
LINE
  8
0
  6
CONTINUOUS
 62
     7
 10
41.99443387097697
 20
134.1930891461817
 11
42.0231013614102
 21
134.2248554863075
  0
LINE
  8
0
  6
CONTINUOUS
 62
     7
 10
42.0231013614102
 20
134.2248554863075
 11
42.05307303547865
 21
134.2553394862639
  0
LINE
  8
0
  6
CONTINUOUS
 62
     7
 10
42.05307303547865
 20
134.2553394862639
 11
42.08342490372309
 21
134.2837032117346
  0
LINE
  8
0
  6
CONTINUOUS
 62
     7
 10
42.08342490372309
 20
134.2837032117346
 11
42.11495596587673
 21
134.3108051558346
  0
LINE
  8
0
  6
CONTINUOUS
 62
     7
 10
42.11495596587673
 20
134.3108051558346
 11
42.14758323345995
 21
134.3365769372317
  0
LINE
  8
0
  6
CONTINUOUS
 62
     7
 10
42.14758323345995
 20
134.3365769372317
 11
42.18122371799307
 21
134.3609501745937
  0
LINE
  8
0
  6
CONTINUOUS
 62
     7
 10
42.18122371799307
 20
134.3609501745937
 11
42.21687116723498
 21
134.3845441315902
  0
LINE
  8
0
  6
CONTINUOUS
 62
     7
 10
42.21687116723498
 20
134.3845441315902
 11
42.25352802669918
 21
134.4066130951198
  0
LINE
  8
0
  6
CONTINUOUS
 62
     7
 10
42.25352802669918
 20
134.4066130951198
 11
42.29109264396272
 21
134.427098800606
  0
LINE
  8
0
  6
CONTINUOUS
 62
     7
 10
42.29109264396272
 20
134.427098800606
 11
42.3294633666026
 21
134.4459429834726
  0
LINE
  8
0
  6
CONTINUOUS
 62
     7
 10
42.3294633666026
 20
134.4459429834726
 11
42.36749350009178
 21
134.4626618574327
  0
LINE
  8
0
  6
CONTINUOUS
 62
     7
 10
42.36749350009178
 20
134.4626618574327
 11
42.40621870059535
 21
134.4777997884714
  0
LINE
  8
0
  6
CONTINUOUS
 62
     7
 10
42.40621870059535
 20
134.4777997884714
 11
42.44553802659287
 21
134.4913197303711
  0
LINE
  8
0
  6
CONTINUOUS
 62
     7
 10
42.44553802659287
 20
134.4913197303711
 11
42.48535053656391
 21
134.5031846369139
  0
LINE
  8
0
  6
CONTINUOUS
 62
     7
 10
42.48535053656391
 20
134.5031846369139
 11
42.5267988352285
 21
134.5136499350053
  0
LINE
  8
0
  6
CONTINUOUS
 62
     7
 10
42.5267988352285
 20
134.5136499350053
 11
42.56869487027037
 21
134.5223421683807
  0
LINE
  8
0
  6
CONTINUOUS
 62
     7
 10
42.56869487027037
 20
134.5223421683807
 11
42.61092344572121
 21
134.5292400113895
  0
LINE
  8
0
  6
CONTINUOUS
 62
     7
 10
42.61092344572121
 20
134.5292400113895
 11
42.65336936561272
 21
134.5343221383806
  0
LINE
  8
0
  6
CONTINUOUS
 62
     7
 10
42.65336936561272
 20
134.5343221383806
 11
42.7020873491608
 21
134.5378976792299
  0
LINE
  8
0
  6
CONTINUOUS
 62
     7
 10
42.7020873491608
 20
134.5378976792299
 11
42.7509217782141
 21
134.5390914152615
  0
LINE
  8
0
  6
CONTINUOUS
 62
     7
 10
107.2490782217859
 20
134.5390914152615
 11
107.2906153558344
 21
134.5382250853956
  0
LINE
  8
0
  6
CONTINUOUS
 62
     7
 10
107.2906153558344
 20
134.5382250853956
 11
107.3321165230604
 21
134.5356320347098
  0
LINE
  8
0
  6
CONTINUOUS
 62
     7
 10
107.3321165230604
 20
134.5356320347098
 11
107.3734745588089
 21
134.531321171572
  0
LINE
  8
0
  6
CONTINUOUS
 62
     7
 10
107.3734745588089
 20
134.531321171572
 11
107.414582298425
 21
134.5253014043503
  0
LINE
  8
0
  6
CONTINUOUS
 62
     7
 10
107.414582298425
 20
134.5253014043503
 11
107.4565837410566
 21
134.5173227317004
  0
LINE
  8
0
  6
CONTINUOUS
 62
     7
 10
107.4565837410566
 20
134.5173227317004
 11
107.4982438986988
 21
134.5075471715636
  0
LINE
  8
0
  6
CONTINUOUS
 62
     7
 10
107.4982438986988
 20
134.5075471715636
 11
107.5394492753638
 21
134.4960039008123
  0
LINE
  8
0
  6
CONTINUOUS
 62
     7
 10
107.5394492753638
 20
134.4960039008123
 11
107.5800863750641
 21
134.4827220963191
  0
LINE
  8
0
  6
CONTINUOUS
 62
     7
 10
107.5800863750641
 20
134.4827220963191
 11
107.6189953710926
 21
134.4681558099394
  0
LINE
  8
0
  6
CONTINUOUS
 62
     7
 10
107.6189953710926
 20
134.4681558099394
 11
107.657298825711
 21
134.4519718871215
  0
LINE
  8
0
  6
CONTINUOUS
 62
     7
 10
107.657298825711
 20
134.4519718871215
 11
107.6948985473638
 21
134.4342142178234
  0
LINE
  8
0
  6
CONTINUOUS
 62
     7
 10
107.6948985473638
 20
134.4342142178234
 11
107.7316963444956
 21
134.4149266920033
  0
LINE
  8
0
  6
CONTINUOUS
 62
     7
 10
107.7316963444956
 20
134.4149266920033
 11
107.7686891554338
 21
134.3934946101613
  0
LINE
  8
0
  6
CONTINUOUS
 62
     7
 10
107.7686891554338
 20
134.3934946101613
 11
107.8047650392692
 21
134.3704797601845
  0
LINE
  8
0
  6
CONTINUOUS
 62
     7
 10
107.8047650392692
 20
134.3704797601845
 11
107.8398265446258
 21
134.3459472619454
  0
LINE
  8
0
  6
CONTINUOUS
 62
     7
 10
107.8398265446258
 20
134.3459472619454
 11
107.8737762201279
 21
134.3199622353163
  0
LINE
  8
0
  6
CONTINUOUS
 62
     7
 10
107.8737762201279
 20
134.3199622353163
 11
107.9056678289807
 21
134.2933389123498
  0
LINE
  8
0
  6
CONTINUOUS
 62
     7
 10
107.9056678289807
 20
134.2933389123498
 11
107.9364526236841
 21
134.2653896835974
  0
LINE
  8
0
  6
CONTINUOUS
 62
     7
 10
107.9364526236841
 20
134.2653896835974
 11
107.9660524907763
 21
134.2361884711897
  0
LINE
  8
0
  6
CONTINUOUS
 62
     7
 10
107.9660524907763
 20
134.2361884711897
 11
107.9943893167954
 21
134.205809197257
  0
LINE
  8
0
  6
CONTINUOUS
 62
     7
 10
107.9943893167954
 20
134.205809197257
 11
108.0222002921353
 21
134.1733419039371
  0
LINE
  8
0
  6
CONTINUOUS
 62
     7
 10
108.0222002921353
 20
134.1733419039371
 11
108.0486222259025
 21
134.1396847089029
  0
LINE
  8
0
  6
CONTINUOUS
 62
     7
 10
108.0486222259025
 20
134.1396847089029
 11
108.0735847378844
 21
134.1049313152916
  0
LINE
  8
0
  6
CONTINUOUS
 62
     7
 10
108.0735847378844
 20
134.1049313152916
 11
108.097017447868
 21
134.0691754262403
  0
LINE
  8
0
  6
CONTINUOUS
 62
     7
 10
108.097017447868
 20
134.0691754262403
 11
108.1182974863248
 21
134.0334977470611
  0
LINE
  8
0
  6
CONTINUOUS
 62
     7
 10
108.1182974863248
 20
134.0334977470611
 11
108.1380943265362
 21
133.9969353569311
  0
LINE
  8
0
  6
CONTINUOUS
 62
     7
 10
108.1380943265362
 20
133.9969353569311
 11
108.1563587467792
 21
133.9595838608519
  0
LINE
  8
0
  6
CONTINUOUS
 62
     7
 10
108.1563587467792
 20
133.9595838608519
 11
108.1730415253308
 21
133.9215388638253
  0
LINE
  8
0
  6
CONTINUOUS
 62
     7
 10
108.1730415253308
 20
133.9215388638253
 11
108.1885370401013
 21
133.8816978740536
  0
LINE
  8
0
  6
CONTINUOUS
 62
     7
 10
108.1885370401013
 20
133.8816978740536
 11
108.2023281487563
 21
133.8411939258647
  0
LINE
  8
0
  6
CONTINUOUS
 62
     7
 10
108.2023281487563
 20
133.8411939258647
 11
108.2143794751007
 21
133.8001387175163
  0
LINE
  8
0
  6
CONTINUOUS
 62
     7
 10
108.2143794751007
 20
133.8001387175163
 11
108.2246556429394
 21
133.7586439472658
  0
LINE
  8
0
  6
CONTINUOUS
 62
     7
 10
108.2246556429394
 20
133.7586439472658
 11
108.2329271118184
 21
133.717932835724
  0
LINE
  8
0
  6
CONTINUOUS
 62
     7
 10
108.2329271118184
 20
133.717932835724
 11
108.2395061767538
 21
133.6768778236616
  0
LINE
  8
0
  6
CONTINUOUS
 62
     7
 10
108.2395061767538
 20
133.6768778236616
 11
108.2443780462603
 21
133.6355854137771
  0
LINE
  8
0
  6
CONTINUOUS
 62
     7
 10
108.2443780462603
 20
133.6355854137771
 11
108.2475279288527
 21
133.594162108769
  0
LINE
  8
0
  6
CONTINUOUS
 62
     7
 10
108.2475279288527
 20
133.594162108769
 11
108.2489630697566
 21
133.5514371243023
  0
LINE
  8
0
  6
CONTINUOUS
 62
     7
 10
108.2489630697566
 20
133.5514371243023
 11
108.2485705206379
 21
133.5086506944533
  0
LINE
  8
0
  6
CONTINUOUS
 62
     7
 10
108.2485705206379
 20
133.5086506944533
 11
108.2463538764869
 21
133.4659199173454
  0
LINE
  8
0
  6
CONTINUOUS
 62
     7
 10
108.2463538764869
 20
133.4659199173454
 11
108.2423167322933
 21
133.4233618911023
  0
LINE
  8
0
  6
CONTINUOUS
 62
     7
 10
108.2423167322933
 20
133.4233618911023
 11
108.2354768573598
 21
133.3749941071449
  0
LINE
  8
0
  6
CONTINUOUS
 62
     7
 10
108.2354768573598
 20
133.3749941071449
 11
108.2262846783518
 21
133.327017755549
  0
LINE
  8
0
  6
CONTINUOUS
 62
     7
 10
106.8771714215847
 20
137.9993829081164
 11
106.8750902138987
 21
137.9787149924071
  0
LINE
  8
0
  6
CONTINUOUS
 62
     7
 10
106.8750902138987
 20
137.9787149924071
 11
106.8721497655868
 21
137.9581335768109
  0
LINE
  8
0
  6
CONTINUOUS
 62
     7
 10
106.8721497655868
 20
137.9581335768109
 11
106.8683587848187
 21
137.9376917233434
  0
LINE
  8
0
  6
CONTINUOUS
 62
     7
 10
106.8683587848187
 20
137.9376917233434
 11
106.863725979764
 21
137.9174424940199
  0
LINE
  8
0
  6
CONTINUOUS
 62
     7
 10
106.863725979764
 20
137.9174424940199
 11
106.8580813135424
 21
137.8968255951754
  0
LINE
  8
0
  6
CONTINUOUS
 62
     7
 10
106.8580813135424
 20
137.8968255951754
 11
106.8515546051571
 21
137.8764501615072
  0
LINE
  8
0
  6
CONTINUOUS
 62
     7
 10
106.8515546051571
 20
137.8764501615072
 11
106.8441649169218
 21
137.8563715974021
  0
LINE
  8
0
  6
CONTINUOUS
 62
     7
 10
106.8441649169218
 20
137.8563715974021
 11
106.83593131115
 21
137.8366453072467
  0
LINE
  8
0
  6
CONTINUOUS
 62
     7
 10
106.83593131115
 20
137.8366453072467
 11
106.827126193504
 21
137.8178313787046
  0
LINE
  8
0
  6
CONTINUOUS
 62
     7
 10
106.827126193504
 20
137.8178313787046
 11
106.8175389210065
 21
137.7993834814038
  0
LINE
  8
0
  6
CONTINUOUS
 62
     7
 10
106.8175389210065
 20
137.7993834814038
 11
106.8071952754474
 21
137.7813488004738
  0
LINE
  8
0
  6
CONTINUOUS
 62
     7
 10
106.8071952754474
 20
137.7813488004738
 11
106.7961210386165
 21
137.763774521044
  0
LINE
  8
0
  6
CONTINUOUS
 62
     7
 10
106.7961210386165
 20
137.763774521044
 11
106.7839703212581
 21
137.7461882416069
  0
LINE
  8
0
  6
CONTINUOUS
 62
     7
 10
106.7839703212581
 20
137.7461882416069
 11
106.7710672340516
 21
137.7291217573866
  0
LINE
  8
0
  6
CONTINUOUS
 62
     7
 10
106.7710672340516
 20
137.7291217573866
 11
106.7574481024527
 21
137.7126210358211
  0
LINE
  8
0
  6
CONTINUOUS
 62
     7
 10
106.7574481024527
 20
137.7126210358211
 11
106.7431492519171
 21
137.6967320443483
  0
LINE
  8
0
  6
CONTINUOUS
 62
     7
 10
106.7431492519171
 20
137.6967320443483
 11
106.7286127851142
 21
137.681892803027
  0
LINE
  8
0
  6
CONTINUOUS
 62
     7
 10
106.7286127851142
 20
137.681892803027
 11
106.7134594048859
 21
137.6676578555397
  0
LINE
  8
0
  6
CONTINUOUS
 62
     7
 10
106.7134594048859
 20
137.6676578555397
 11
106.6977290578712
 21
137.6540631926886
  0
LINE
  8
0
  6
CONTINUOUS
 62
     7
 10
106.6977290578712
 20
137.6540631926886
 11
106.6814616907092
 21
137.6411448052755
  0
LINE
  8
0
  6
CONTINUOUS
 62
     7
 10
106.6814616907092
 20
137.6411448052755
 11
106.6641745554606
 21
137.6285714119123
  0
LINE
  8
0
  6
CONTINUOUS
 62
     7
 10
106.6641745554606
 20
137.6285714119123
 11
106.6463495089137
 21
137.6167375464942
  0
LINE
  8
0
  6
CONTINUOUS
 62
     7
 10
106.6463495089137
 20
137.6167375464942
 11
106.6280360429815
 21
137.6056745616238
  0
LINE
  8
0
  6
CONTINUOUS
 62
     7
 10
106.6280360429815
 20
137.6056745616238
 11
106.609283649577
 21
137.5954138099037
  0
LINE
  8
0
  6
CONTINUOUS
 62
     7
 10
106.609283649577
 20
137.5954138099037
 11
106.5906541746277
 21
137.5862221405525
  0
LINE
  8
0
  6
CONTINUOUS
 62
     7
 10
106.5906541746277
 20
137.5862221405525
 11
106.5716425620209
 21
137.5778049272269
  0
LINE
  8
0
  6
CONTINUOUS
 62
     7
 10
106.5716425620209
 20
137.5778049272269
 11
106.5522984211468
 21
137.5701829119305
  0
LINE
  8
0
  6
CONTINUOUS
 62
     7
 10
106.5522984211468
 20
137.5701829119305
 11
106.5326713613956
 21
137.5633768366669
  0
LINE
  8
0
  6
CONTINUOUS
 62
     7
 10
106.5326713613956
 20
137.5633768366669
 11
106.5121961656152
 21
137.557233873884
  0
LINE
  8
0
  6
CONTINUOUS
 62
     7
 10
106.5121961656152
 20
137.557233873884
 11
106.4914581461122
 21
137.5519668396106
  0
LINE
  8
0
  6
CONTINUOUS
 62
     7
 10
106.4914581461122
 20
137.5519668396106
 11
106.470514385505
 21
137.5475889404384
  0
LINE
  8
0
  6
CONTINUOUS
 62
     7
 10
106.470514385505
 20
137.5475889404384
 11
106.4494219664121
 21
137.5441133829587
  0
LINE
  8
0
  6
CONTINUOUS
 62
     7
 10
106.4494219664121
 20
137.5441133829587
 11
106.4318716798344
 21
137.54192318563
  0
LINE
  8
0
  6
CONTINUOUS
 62
     7
 10
106.4318716798344
 20
137.54192318563
 11
106.4142549331714
 21
137.5403548232566
  0
LINE
  8
0
  6
CONTINUOUS
 62
     7
 10
106.4142549331714
 20
137.5403548232566
 11
106.3965044837737
 21
137.5394074668026
  0
LINE
  8
0
  6
CONTINUOUS
 62
     7
 10
106.3965044837737
 20
137.5394074668026
 11
106.3787315816591
 21
137.5390914152615
  0
LINE
  8
0
  6
CONTINUOUS
 62
     7
 10
48.19282193751431
 20
123.5390914152616
 11
48.17205161671345
 21
123.5395246403839
  0
LINE
  8
0
  6
CONTINUOUS
 62
     7
 10
48.17205161671345
 20
123.5395246403839
 11
48.15129928292907
 21
123.5408213394556
  0
LINE
  8
0
  6
CONTINUOUS
 62
     7
 10
48.15129928292907
 20
123.5408213394556
 11
48.13061852608709
 21
123.5429770480339
  0
LINE
  8
0
  6
CONTINUOUS
 62
     7
 10
48.13061852608709
 20
123.5429770480339
 11
48.11006293611339
 21
123.545987301676
  0
LINE
  8
0
  6
CONTINUOUS
 62
     7
 10
48.11006293611339
 20
123.545987301676
 11
48.08906043902993
 21
123.5499771117516
  0
LINE
  8
0
  6
CONTINUOUS
 62
     7
 10
48.08906043902993
 20
123.5499771117516
 11
48.0682286060467
 21
123.5548654473935
  0
LINE
  8
0
  6
CONTINUOUS
 62
     7
 10
48.0682286060467
 20
123.5548654473935
 11
48.04762418774659
 21
123.5606377110208
  0
LINE
  8
0
  6
CONTINUOUS
 62
     7
 10
48.04762418774659
 20
123.5606377110208
 11
48.02730393471246
 21
123.5672793050526
  0
LINE
  8
0
  6
CONTINUOUS
 62
     7
 10
48.02730393471246
 20
123.5672793050526
 11
48.00784784212862
 21
123.5745631599742
  0
LINE
  8
0
  6
CONTINUOUS
 62
     7
 10
48.00784784212862
 20
123.5745631599742
 11
47.98869454202706
 21
123.5826558782057
  0
LINE
  8
0
  6
CONTINUOUS
 62
     7
 10
47.98869454202706
 20
123.5826558782057
 11
47.96989312948099
 21
123.591535510301
  0
LINE
  8
0
  6
CONTINUOUS
 62
     7
 10
47.96989312948099
 20
123.591535510301
 11
47.95149269956369
 21
123.601180106814
  0
LINE
  8
0
  6
CONTINUOUS
 62
     7
 10
47.95149269956369
 20
123.601180106814
 11
47.93299477673679
 21
123.6118970160167
  0
LINE
  8
0
  6
CONTINUOUS
 62
     7
 10
47.93299477673679
 20
123.6118970160167
 11
47.91495533449829
 21
123.6234053394431
  0
LINE
  8
0
  6
CONTINUOUS
 62
     7
 10
47.91495533449829
 20
123.6234053394431
 11
47.89742309784977
 21
123.6356725169288
  0
LINE
  8
0
  6
CONTINUOUS
 62
     7
 10
47.89742309784977
 20
123.6356725169288
 11
47.88044679179288
 21
123.6486659883099
  0
LINE
  8
0
  6
CONTINUOUS
 62
     7
 10
47.88044679179288
 20
123.6486659883099
 11
47.86418762831145
 21
123.6622505780522
  0
LINE
  8
0
  6
CONTINUOUS
 62
     7
 10
47.86418762831145
 20
123.6622505780522
 11
47.84850445647315
 21
123.6765246025507
  0
LINE
  8
0
  6
CONTINUOUS
 62
     7
 10
47.84850445647315
 20
123.6765246025507
 11
47.83343865083643
 21
123.6914487820986
  0
LINE
  8
0
  6
CONTINUOUS
 62
     7
 10
47.83343865083643
 20
123.6914487820986
 11
47.81903158595965
 21
123.706983836989
  0
LINE
  8
0
  6
CONTINUOUS
 62
     7
 10
47.81903158595965
 20
123.706983836989
 11
47.80489342624607
 21
123.7236152243864
  0
LINE
  8
0
  6
CONTINUOUS
 62
     7
 10
47.80489342624607
 20
123.7236152243864
 11
47.79148184590601
 21
123.7408643081764
  0
LINE
  8
0
  6
CONTINUOUS
 62
     7
 10
47.79148184590601
 20
123.7408643081764
 11
47.77883406565941
 21
123.7586810141515
  0
LINE
  8
0
  6
CONTINUOUS
 62
     7
 10
47.77883406565941
 20
123.7586810141515
 11
47.76698730622615
 21
123.7770152681038
  0
CIRCLE
  8
0
  6
CONTINUOUS
 62
     7
 10
75.0
 20
160.5390914152615
 40
4.000000000000004
  0
LINE
  8
0
  6
CONTINUOUS
 62
     7
 10
106.4762636238495
 20
138.5505162198069
 11
43.52373637615061
 21
138.5505162198069
  0
LINE
  8
0
  6
CONTINUOUS
 62
     7
 10
103.5323122579762
 20
152.5511605095458
 11
46.46768774202484
 21
152.5511605095458
  0
LINE
  8
0
  6
CONTINUOUS
 62
     7
 10
102.1859350813129
 20
124.5505162198069
 11
47.81406491868728
 21
124.5505162198069
  0
LINE
  8
0
  6
CONTINUOUS
 62
     7
 10
76.95636233767782
 20
103.2121413909692
 11
76.99999999999832
 21
103.1926056368072
  0
POLYLINE
  8
0
  6
CONTINUOUS
 62
     7
 66
     1
  0
VERTEX
  8
0
  6
CONTINUOUS
 62
     7
 10
103.4781637913302
 20
151.5390914152616
  0
VERTEX
  8
0
  6
CONTINUOUS
 62
     7
 10
103.5757126667006
 20
151.54869877506
  0
VERTEX
  8
0
  6
CONTINUOUS
 62
     7
 10
103.6695127934965
 20
151.5771516490059
  0
VERTEX
  8
0
  6
CONTINUOUS
 62
     7
 10
103.7559594854488
 20
151.6233566091103
  0
VERTEX
  8
0
  6
CONTINUOUS
 62
     7
 10
103.8317306446659
 20
151.6855380246683
  0
VERTEX
  8
0
  6
CONTINUOUS
 62
     7
 10
103.8939144279918
 20
151.7613062987518
  0
VERTEX
  8
0
  6
CONTINUOUS
 62
     7
 10
103.9401211475065
 20
151.847749699079
  0
VERTEX
  8
0
  6
CONTINUOUS
 62
     7
 10
103.968575104892
 20
151.9415462542535
  0
VERTEX
  8
0
  6
CONTINUOUS
 62
     7
 10
103.9781828305231
 20
152.0390914152616
  0
SEQEND
  8
0
  6
CONTINUOUS
 62
     7
  0
LINE
  8
0
  6
CONTINUOUS
 62
     7
 10
92.83578937595854
 20
166.5505162198069
 11
57.1642106240416
 21
166.5505162198069
  0
POLYLINE
  8
0
  6
CONTINUOUS
 62
     7
 66
     1
  0
VERTEX
  8
0
  6
CONTINUOUS
 62
     7
 10
59.49999999999997
 20
150.2390914152615
  0
VERTEX
  8
0
  6
CONTINUOUS
 62
     7
 10
59.59754516100804
 20
150.252678273787
  0
VERTEX
  8
0
  6
CONTINUOUS
 62
     7
 10
59.69134171618252
 20
150.2929167140099
  0
VERTEX
  8
0
  6
CONTINUOUS
 62
     7
 10
59.77778511650978
 20
150.3582603952384
  0
VERTEX
  8
0
  6
CONTINUOUS
 62
     7
 10
59.85355339059325
 20
150.4461981964481
  0
VERTEX
  8
0
  6
CONTINUOUS
 62
     7
 10
59.91573480615125
 20
150.5533507172545
  0
VERTEX
  8
0
  6
CONTINUOUS
 62
     7
 10
59.96193976625562
 20
150.675600146375
  0
VERTEX
  8
0
  6
CONTINUOUS
 62
     7
 10
59.99039264020159
 20
150.8082485068066
  0
VERTEX
  8
0
  6
CONTINUOUS
 62
     7
 10
59.99999999999998
 20
150.9461981964481
  0
SEQEND
  8
0
  6
CONTINUOUS
 62
     7
  0
POLYLINE
  8
0
  6
CONTINUOUS
 62
     7
 66
     1
  0
VERTEX
  8
0
  6
CONTINUOUS
 62
     7
 10
56.5218171694769
 20
166.0390914152615
  0
VERTEX
  8
0
  6
CONTINUOUS
 62
     7
 10
56.53142489510805
 20
165.9415462542535
  0
VERTEX
  8
0
  6
CONTINUOUS
 62
     7
 10
56.55987885249353
 20
165.847749699079
  0
VERTEX
  8
0
  6
CONTINUOUS
 62
     7
 10
56.60608557200819
 20
165.7613062987517
  0
VERTEX
  8
0
  6
CONTINUOUS
 62
     7
 10
56.66826935533411
 20
165.6855380246683
  0
VERTEX
  8
0
  6
CONTINUOUS
 62
     7
 10
56.74404051455115
 20
165.6233566091103
  0
VERTEX
  8
0
  6
CONTINUOUS
 62
     7
 10
56.83048720650355
 20
165.5771516490059
  0
VERTEX
  8
0
  6
CONTINUOUS
 62
     7
 10
56.92428733329944
 20
165.5486987750599
  0
VERTEX
  8
0
  6
CONTINUOUS
 62
     7
 10
57.02183620866977
 20
165.5390914152615
  0
SEQEND
  8
0
  6
CONTINUOUS
 62
     7
  0
POLYLINE
  8
0
  6
CONTINUOUS
 62
     7
 66
     1
  0
VERTEX
  8
0
  6
CONTINUOUS
 62
     7
 10
95.5
 20
150.2390914152615
  0
VERTEX
  8
0
  6
CONTINUOUS
 62
     7
 10
95.59754516100807
 20
150.252678273787
  0
VERTEX
  8
0
  6
CONTINUOUS
 62
     7
 10
95.69134171618255
 20
150.2929167140099
  0
VERTEX
  8
0
  6
CONTINUOUS
 62
     7
 10
95.7777851165098
 20
150.3582603952384
  0
VERTEX
  8
0
  6
CONTINUOUS
 62
     7
 10
95.85355339059328
 20
150.4461981964481
  0
VERTEX
  8
0
  6
CONTINUOUS
 62
     7
 10
95.91573480615128
 20
150.5533507172545
  0
VERTEX
  8
0
  6
CONTINUOUS
 62
     7
 10
95.96193976625564
 20
150.675600146375
  0
VERTEX
  8
0
  6
CONTINUOUS
 62
     7
 10
95.99039264020162
 20
150.8082485068066
  0
VERTEX
  8
0
  6
CONTINUOUS
 62
     7
 10
96.0
 20
150.9461981964481
  0
SEQEND
  8
0
  6
CONTINUOUS
 62
     7
  0
POLYLINE
  8
0
  6
CONTINUOUS
 62
     7
 66
     1
  0
VERTEX
  8
0
  6
CONTINUOUS
 62
     7
 10
53.99999999999999
 20
150.9461981964481
  0
VERTEX
  8
0
  6
CONTINUOUS
 62
     7
 10
54.00960735979837
 20
150.8082485068066
  0
VERTEX
  8
0
  6
CONTINUOUS
 62
     7
 10
54.03806023374434
 20
150.675600146375
  0
VERTEX
  8
0
  6
CONTINUOUS
 62
     7
 10
54.08426519384872
 20
150.5533507172545
  0
VERTEX
  8
0
  6
CONTINUOUS
 62
     7
 10
54.14644660940671
 20
150.4461981964481
  0
VERTEX
  8
0
  6
CONTINUOUS
 62
     7
 10
54.22221488349018
 20
150.3582603952384
  0
VERTEX
  8
0
  6
CONTINUOUS
 62
     7
 10
54.30865828381744
 20
150.2929167140099
  0
VERTEX
  8
0
  6
CONTINUOUS
 62
     7
 10
54.40245483899192
 20
150.252678273787
  0
VERTEX
  8
0
  6
CONTINUOUS
 62
     7
 10
54.49999999999999
 20
150.2390914152615
  0
SEQEND
  8
0
  6
CONTINUOUS
 62
     7
  0
POLYLINE
  8
0
  6
CONTINUOUS
 62
     7
 66
     1
  0
VERTEX
  8
0
  6
CONTINUOUS
 62
     7
 10
46.0218171694769
 20
152.0390914152616
  0
VERTEX
  8
0
  6
CONTINUOUS
 62
     7
 10
46.03142489510804
 20
151.9415462542535
  0
VERTEX
  8
0
  6
CONTINUOUS
 62
     7
 10
46.05987885249352
 20
151.847749699079
  0
VERTEX
  8
0
  6
CONTINUOUS
 62
     7
 10
46.10608557200818
 20
151.7613062987518
  0
VERTEX
  8
0
  6
CONTINUOUS
 62
     7
 10
46.1682693553341
 20
151.6855380246683
  0
VERTEX
  8
0
  6
CONTINUOUS
 62
     7
 10
46.24404051455114
 20
151.6233566091103
  0
VERTEX
  8
0
  6
CONTINUOUS
 62
     7
 10
46.33048720650354
 20
151.5771516490059
  0
VERTEX
  8
0
  6
CONTINUOUS
 62
     7
 10
46.42428733329943
 20
151.54869877506
  0
VERTEX
  8
0
  6
CONTINUOUS
 62
     7
 10
46.52183620866976
 20
151.5390914152616
  0
SEQEND
  8
0
  6
CONTINUOUS
 62
     7
  0
LINE
  8
0
  6
CONTINUOUS
 62
     7
 10
151.472322117851
 20
103.2121413909695
 11
153.9723221178426
 21
103.1926056368075
  0
LINE
  8
0
  6
CONTINUOUS
 62
     7
 10
73.00000000000165
 20
103.1926056368072
 11
73.0436376623222
 21
103.2121413909692
  0
POLYLINE
  8
0
  6
CONTINUOUS
 62
     7
 66
     1
  0
VERTEX
  8
0
  6
CONTINUOUS
 62
     7
 10
90.00000000000001
 20
150.9461981964481
  0
VERTEX
  8
0
  6
CONTINUOUS
 62
     7
 10
90.0096073597984
 20
150.8082485068066
  0
VERTEX
  8
0
  6
CONTINUOUS
 62
     7
 10
90.03806023374437
 20
150.675600146375
  0
VERTEX
  8
0
  6
CONTINUOUS
 62
     7
 10
90.08426519384874
 20
150.5533507172545
  0
VERTEX
  8
0
  6
CONTINUOUS
 62
     7
 10
90.14644660940674
 20
150.4461981964481
  0
VERTEX
  8
0
  6
CONTINUOUS
 62
     7
 10
90.22221488349021
 20
150.3582603952384
  0
VERTEX
  8
0
  6
CONTINUOUS
 62
     7
 10
90.30865828381748
 20
150.2929167140099
  0
VERTEX
  8
0
  6
CONTINUOUS
 62
     7
 10
90.40245483899196
 20
150.252678273787
  0
VERTEX
  8
0
  6
CONTINUOUS
 62
     7
 10
90.50000000000001
 20
150.2390914152615
  0
SEQEND
  8
0
  6
CONTINUOUS
 62
     7
  0
POLYLINE
  8
0
  6
CONTINUOUS
 62
     7
 66
     1
  0
VERTEX
  8
0
  6
CONTINUOUS
 62
     7
 10
92.97816379133022
 20
165.5390914152615
  0
VERTEX
  8
0
  6
CONTINUOUS
 62
     7
 10
93.07571266670055
 20
165.5486987750599
  0
VERTEX
  8
0
  6
CONTINUOUS
 62
     7
 10
93.16951279349644
 20
165.5771516490059
  0
VERTEX
  8
0
  6
CONTINUOUS
 62
     7
 10
93.25595948544883
 20
165.6233566091103
  0
VERTEX
  8
0
  6
CONTINUOUS
 62
     7
 10
93.33173064466587
 20
165.6855380246683
  0
VERTEX
  8
0
  6
CONTINUOUS
 62
     7
 10
93.3939144279918
 20
165.7613062987517
  0
VERTEX
  8
0
  6
CONTINUOUS
 62
     7
 10
93.44012114750646
 20
165.847749699079
  0
VERTEX
  8
0
  6
CONTINUOUS
 62
     7
 10
93.46857510489194
 20
165.9415462542535
  0
VERTEX
  8
0
  6
CONTINUOUS
 62
     7
 10
93.47818283052308
 20
166.0390914152615
  0
SEQEND
  8
0
  6
CONTINUOUS
 62
     7
  0
POLYLINE
  8
0
  6
CONTINUOUS
 62
     7
 66
     1
  0
VERTEX
  8
0
  6
CONTINUOUS
 62
     7
 10
155.3013052017038
 20
170.0143148997834
  0
VERTEX
  8
0
  6
CONTINUOUS
 62
     7
 10
155.3007626657534
 20
170.0163274059751
  0
VERTEX
  8
0
  6
CONTINUOUS
 62
     7
 10
155.3002201298029
 20
170.0182543838299
  0
VERTEX
  8
0
  6
CONTINUOUS
 62
     7
 10
155.2996775938525
 20
170.0200958179337
  0
VERTEX
  8
0
  6
CONTINUOUS
 62
     7
 10
155.299135057902
 20
170.0218516928726
  0
VERTEX
  8
0
  6
CONTINUOUS
 62
     7
 10
155.2985925219516
 20
170.0235219932327
  0
VERTEX
  8
0
  6
CONTINUOUS
 62
     7
 10
155.2980499860012
 20
170.0251067036001
  0
VERTEX
  8
0
  6
CONTINUOUS
 62
     7
 10
155.2975074500507
 20
170.026605808561
  0
VERTEX
  8
0
  6
CONTINUOUS
 62
     7
 10
155.2969649141003
 20
170.0280192927013
  0
VERTEX
  8
0
  6
CONTINUOUS
 62
     7
 10
155.2964223781499
 20
170.0293471406072
  0
VERTEX
  8
0
  6
CONTINUOUS
 62
     7
 10
155.2958798421994
 20
170.0305893368647
  0
VERTEX
  8
0
  6
CONTINUOUS
 62
     7
 10
155.295337306249
 20
170.03174586606
  0
VERTEX
  8
0
  6
CONTINUOUS
 62
     7
 10
155.2947947702985
 20
170.032816712779
  0
VERTEX
  8
0
  6
CONTINUOUS
 62
     7
 10
155.2942522343481
 20
170.0338018616079
  0
VERTEX
  8
0
  6
CONTINUOUS
 62
     7
 10
155.2937096983977
 20
170.0347012971329
  0
VERTEX
  8
0
  6
CONTINUOUS
 62
     7
 10
155.2931671624472
 20
170.0355150039399
  0
VERTEX
  8
0
  6
CONTINUOUS
 62
     7
 10
155.2926246264968
 20
170.0362429666149
  0
VERTEX
  8
0
  6
CONTINUOUS
 62
     7
 10
155.2920820905464
 20
170.0368851697443
  0
VERTEX
  8
0
  6
CONTINUOUS
 62
     7
 10
155.2915395545959
 20
170.0374415979139
  0
VERTEX
  8
0
  6
CONTINUOUS
 62
     7
 10
155.2909970186455
 20
170.0379122357099
  0
VERTEX
  8
0
  6
CONTINUOUS
 62
     7
 10
155.2904544826951
 20
170.0382970677184
  0
VERTEX
  8
0
  6
CONTINUOUS
 62
     7
 10
155.2899119467446
 20
170.0385960785254
  0
VERTEX
  8
0
  6
CONTINUOUS
 62
     7
 10
155.2893694107942
 20
170.038809252717
  0
VERTEX
  8
0
  6
CONTINUOUS
 62
     7
 10
155.2888268748437
 20
170.0389365748794
  0
VERTEX
  8
0
  6
CONTINUOUS
 62
     7
 10
155.2882843388933
 20
170.0389780295986
  0
SEQEND
  8
0
  6
CONTINUOUS
 62
     7
  0
TEXT
  8
0
  6
CONTINUOUS
 62
     7
 10
94.56500641615293
 20
93.3284200325122
 40
3.0
  1
WB-FA60L
  0
LINE
  8
0
  6
CONTINUOUS
 62
     7
 10
94.99999999999999
 20
166.5390914152615
 11
95.49395727077007
 21
166.5390914152615
  0
LINE
  8
0
  6
CONTINUOUS
 62
     7
 10
93.44197858553171
 20
166.5487001993253
 11
93.45009626424145
 21
166.5434548491569
  0
LINE
  8
0
  6
CONTINUOUS
 62
     7
 10
103.9747768977034
 20
152.5468607819766
 11
103.9781828305231
 21
152.5434548491569
  0
LINE
  8
0
  6
CONTINUOUS
 62
     7
 10
46.0218171694769
 20
152.5434548491569
 11
44.50000000000001
 21
152.5434548491569
  0
LINE
  8
0
  6
CONTINUOUS
 62
     7
 10
43.08414795374579
 20
138.5434548491569
 11
41.55949410227134
 21
138.5434548491569
  0
LINE
  8
0
  6
CONTINUOUS
 62
     7
 10
102.1859350813131
 20
124.5505162198069
 11
102.6885391189999
 21
124.5462262925053
  0
LINE
  8
0
  6
CONTINUOUS
 62
     7
 10
45.30150365111316
 20
124.5390914152616
 11
45.56787469447712
 21
124.5390914152616
  0
LINE
  8
0
  6
CONTINUOUS
 62
     7
 10
46.0218171694769
 20
152.5434548491569
 11
46.02522310229656
 21
152.5468607819766
  0
LINE
  8
0
  6
CONTINUOUS
 62
     7
 10
43.08675162285155
 20
138.5462262925053
 11
43.52373637615003
 21
138.5505162198069
  0
LINE
  8
0
  6
CONTINUOUS
 62
     7
 10
43.9194312867501
 20
152.5390914152616
 11
44.50000000000001
 21
152.5390914152616
  0
LINE
  8
0
  6
CONTINUOUS
 62
     7
 10
100.4559248959662
 20
120.5390914152616
 11
49.54407510403384
 21
120.5390914152616
  0
LINE
  8
0
  6
CONTINUOUS
 62
     7
 10
46.02522310229656
 20
152.5468607819766
 11
46.46768774202415
 21
152.5511605095458
  0
LINE
  8
0
  6
CONTINUOUS
 62
     7
 10
103.5323122579758
 20
152.5511605095458
 11
103.9747768977034
 21
152.5468607819766
  0
LINE
  8
0
  6
CONTINUOUS
 62
     7
 10
106.9132483771484
 20
138.5462262925053
 11
106.9158520462542
 21
138.5434548491569
  0
LINE
  8
0
  6
CONTINUOUS
 62
     7
 10
47.31146088100005
 20
124.5462262925053
 11
47.8140649186869
 21
124.5505162198069
  0
LINE
  8
0
  6
CONTINUOUS
 62
     7
 10
107.2490782217859
 20
134.5390914152615
 11
42.75092177821409
 21
134.5390914152615
  0
LINE
  8
0
  6
CONTINUOUS
 62
     7
 10
105.5
 20
152.5434548491569
 11
103.9781828305231
 21
152.5434548491569
  0
LINE
  8
0
  6
CONTINUOUS
 62
     7
 10
47.30986117789476
 20
124.5434548491569
 11
45.56550304752776
 21
124.5434548491569
  0
LINE
  8
0
  6
CONTINUOUS
 62
     7
 10
75.5
 20
160.0390914152615
 11
75.5
 21
158.3966628866987
  0
LINE
  8
0
  6
CONTINUOUS
 62
     7
 10
102.6885391189999
 20
124.5462262925053
 11
102.6901388221052
 21
124.5434548491569
  0
LINE
  8
0
  6
CONTINUOUS
 62
     7
 10
92.83578937595868
 20
166.5505162198069
 11
93.44197858553171
 21
166.5487001993253
  0
LINE
  8
0
  6
CONTINUOUS
 62
     7
 10
43.08414795374579
 20
138.5434548491569
 11
43.08675162285155
 21
138.5462262925053
  0
LINE
  8
0
  6
CONTINUOUS
 62
     7
 10
41.53358073438471
 20
138.5390914152615
 11
41.5597547855881
 21
138.5390914152615
  0
LINE
  8
0
  6
CONTINUOUS
 62
     7
 10
108.4402452144119
 20
138.5390914152615
 11
108.4664192656153
 21
138.5390914152615
  0
LINE
  8
0
  6
CONTINUOUS
 62
     7
 10
107.2490616917867
 20
148.5390914152616
 11
42.75093830821333
 21
148.5390914152616
  0
LINE
  8
0
  6
CONTINUOUS
 62
     7
 10
56.55802141446828
 20
166.5487001993253
 11
57.16421062404131
 21
166.5505162198069
  0
LINE
  8
0
  6
CONTINUOUS
 62
     7
 10
56.54990373576303
 20
166.5434548491569
 11
56.55802141446828
 21
166.5487001993253
  0
LINE
  8
0
  6
CONTINUOUS
 62
     7
 10
54.50604272922992
 20
166.5390914152615
 11
54.99999999999999
 21
166.5390914152615
  0
LINE
  8
0
  6
CONTINUOUS
 62
     7
 10
54.99999999999999
 20
166.5434548491569
 11
56.54990373576303
 21
166.5434548491569
  0
LINE
  8
0
  6
CONTINUOUS
 62
     7
 10
104.4321253055229
 20
124.5390914152616
 11
104.6984963488868
 21
124.5390914152616
  0
LINE
  8
0
  6
CONTINUOUS
 62
     7
 10
106.47626362385
 20
138.5505162198069
 11
106.9132483771484
 21
138.5462262925053
  0
LINE
  8
0
  6
CONTINUOUS
 62
     7
 10
108.4405058977287
 20
138.5434548491569
 11
106.9158520462542
 21
138.5434548491569
  0
LINE
  8
0
  6
CONTINUOUS
 62
     7
 10
105.5
 20
152.5390914152616
 11
106.0805687132499
 21
152.5390914152616
  0
LINE
  8
0
  6
CONTINUOUS
 62
     7
 10
104.4344969524722
 20
124.5434548491569
 11
102.6901388221052
 21
124.5434548491569
  0
LINE
  8
0
  6
CONTINUOUS
 62
     7
 10
47.30986117789476
 20
124.5434548491569
 11
47.31146088100005
 21
124.5462262925053
  0
LINE
  8
0
  6
CONTINUOUS
 62
     7
 10
94.99999999999999
 20
166.5434548491569
 11
93.45009626424145
 21
166.5434548491569
  0
LINE
  8
0
  6
CONTINUOUS
 62
     7
 10
72.85757147143715
 20
161.0390914152615
 11
74.5
 21
161.0390914152615
  0
LINE
  8
0
  6
CONTINUOUS
 62
     7
 10
74.5
 20
160.0390914152615
 11
72.85757147143725
 21
160.0390914152615
  0
LINE
  8
0
  6
CONTINUOUS
 62
     7
 10
74.5
 20
161.0390914152615
 11
74.5
 21
162.6815199438244
  0
LINE
  8
0
  6
CONTINUOUS
 62
     7
 10
77.14242852856285
 20
160.0390914152615
 11
75.5
 21
160.0390914152615
  0
LINE
  8
0
  6
CONTINUOUS
 62
     7
 10
75.5
 20
161.0390914152615
 11
77.14242852856283
 21
161.0390914152615
  0
LINE
  8
0
  6
CONTINUOUS
 62
     7
 10
75.5
 20
162.6815199438244
 11
75.5
 21
161.0390914152615
  0
LINE
  8
0
  6
CONTINUOUS
 62
     7
 10
74.5
 20
158.3966628866987
 11
74.5
 21
160.0390914152615
  0
ARC
  8
0
  6
CONTINUOUS
 62
     7
 10
75.0
 20
160.5390914152615
 40
1.21654992179303
 50
65.7324355160329
 51
114.2675644839671
  0
ARC
  8
0
  6
CONTINUOUS
 62
     7
 10
86.40175425099137
 20
109.0390914152616
 40
1.000000000000001
 50
270.0
 51
289.8982525943194
  0
ARC
  8
0
  6
CONTINUOUS
 62
     7
 10
61.5
 20
109.8796719817498
 40
1.000000000000001
 50
180.0
 51
246.2350769663904
  0
ARC
  8
0
  6
CONTINUOUS
 62
     7
 10
75.0
 20
160.5390914152615
 40
1.216549921792999
 50
245.732435516033
 51
294.2675644839671
  0
ARC
  8
0
  6
CONTINUOUS
 62
     7
 10
75.0
 20
140.5390914152615
 40
34.00000000000001
 50
219.5210561173186
 51
241.7144732384614
  0
ARC
  8
0
  6
CONTINUOUS
 62
     7
 10
75.0
 20
140.5390914152615
 40
33.99999999999999
 50
167.7532569727259
 51
182.5663718306347
  0
ARC
  8
0
  6
CONTINUOUS
 62
     7
 10
88.5
 20
109.8796719817498
 40
1.000000000000011
 50
293.7649230336085
 51
0.0
  0
ARC
  8
0
  6
CONTINUOUS
 62
     7
 10
75.0
 20
140.5390914152615
 40
34.5
 50
289.8982525943196
 51
293.7649230336085
  0
ARC
  8
0
  6
CONTINUOUS
 62
     7
 10
45.50000000000001
 20
151.0390914152616
 40
1.000000000000001
 50
180.0
 51
270.0
  0
ARC
  8
0
  6
CONTINUOUS
 62
     7
 10
102.3861278752583
 20
123.0390914152616
 40
1.000000000000001
 50
270.0
 51
327.4210296071955
  0
ARC
  8
0
  6
CONTINUOUS
 62
     7
 10
47.61387212474169
 20
123.0390914152616
 40
0.9999999999999989
 50
212.5789703928045
 51
270.0
  0
ARC
  8
0
  6
CONTINUOUS
 62
     7
 10
74.99999999999999
 20
160.5390914152616
 40
5.000000000000021
 50
170.4063005527517
 51
170.6907948175325
  0
ARC
  8
0
  6
CONTINUOUS
 62
     7
 10
74.99999999999999
 20
160.5390914152616
 40
5.00000000000002
 50
9.309205182467489
 51
9.59369944724828
  0
ARC
  8
0
  6
CONTINUOUS
 62
     7
 10
75.0
 20
160.5390914152615
 40
4.999999999999997
 50
170.6907948175321
 51
9.30920518246785
  0
ARC
  8
0
  6
CONTINUOUS
 62
     7
 10
75.0
 20
140.5390914152615
 40
34.0
 50
298.2855267615386
 51
320.4789438826814
  0
ARC
  8
0
  6
CONTINUOUS
 62
     7
 10
75.0
 20
140.5390914152615
 40
34.0
 50
192.2466077273897
 51
207.5606228407492
  0
ARC
  8
0
  6
CONTINUOUS
 62
     7
 10
75.0
 20
160.5390914152615
 40
2.19999999999998
 50
256.863441213055
 51
283.136558786945
  0
ARC
  8
0
  6
CONTINUOUS
 62
     7
 10
75.0
 20
140.5390914152615
 40
34.00000000000001
 50
357.4336281693655
 51
12.24674302727419
  0
ARC
  8
0
  6
CONTINUOUS
 62
     7
 10
75.0
 20
160.5390914152615
 40
2.199999999999993
 50
166.8634412130551
 51
193.1365587869568
  0
ARC
  8
0
  6
CONTINUOUS
 62
     7
 10
75.0
 20
160.5390914152615
 40
2.199999999999993
 50
346.8634412130552
 51
13.13655878694493
  0
ARC
  8
0
  6
CONTINUOUS
 62
     7
 10
75.0
 20
160.5390914152615
 40
2.200000000000006
 50
76.86344121305518
 51
103.1365587869448
  0
ARC
  8
0
  6
CONTINUOUS
 62
     7
 10
75.0
 20
160.5390914152615
 40
1.216549921793018
 50
335.7324355160326
 51
24.26756448396737
  0
ARC
  8
0
  6
CONTINUOUS
 62
     7
 10
63.59824574900861
 20
109.0390914152616
 40
1.000000000000002
 50
250.1017474056806
 51
270.0
  0
ARC
  8
0
  6
CONTINUOUS
 62
     7
 10
104.5
 20
151.0390914152616
 40
1.000000000000001
 50
269.9999999999992
 51
0.0
  0
ARC
  8
0
  6
CONTINUOUS
 62
     7
 10
75.0
 20
140.5390914152615
 40
34.00000000000001
 50
140.4787724765808
 51
158.09099840437
  0
ARC
  8
0
  6
CONTINUOUS
 62
     7
 10
80.0
 20
164.5390914152615
 40
0.5000000000000004
 50
180.0
 51
270.0
  0
ARC
  8
0
  6
CONTINUOUS
 62
     7
 10
75.0
 20
140.5390914152615
 40
33.49999999999999
 50
327.4210296071959
 51
331.4789441126762
  0
ARC
  8
0
  6
CONTINUOUS
 62
     7
 10
75.0
 20
140.5390914152615
 40
34.00000000000001
 50
21.90900159563003
 51
39.52122752341921
  0
ARC
  8
0
  6
CONTINUOUS
 62
     7
 10
93.99999999999999
 20
165.0390914152615
 40
1.000000000000001
 50
270.0
 51
0.0
  0
ARC
  8
0
  6
CONTINUOUS
 62
     7
 10
75.0
 20
140.5390914152615
 40
34.50000000000001
 50
246.2350769663914
 51
250.1017474056804
  0
ARC
  8
0
  6
CONTINUOUS
 62
     7
 10
75.0
 20
140.5390914152615
 40
33.49999999999999
 50
208.5210558873238
 51
212.5789703928043
  0
ARC
  8
0
  6
CONTINUOUS
 62
     7
 10
75.0
 20
160.5390914152615
 40
1.21654992179303
 50
155.7324355160329
 51
204.2675644839671
  0
ARC
  8
0
  6
CONTINUOUS
 62
     7
 10
75.0
 20
140.5390914152615
 40
33.99999999999999
 50
332.4393771592507
 51
347.7533922726103
  0
ARC
  8
0
  6
CONTINUOUS
 62
     7
 10
75.0
 20
140.5390914152615
 40
34.0
 50
52.28315957587328
 51
127.7168404241268
  0
ARC
  8
0
  6
CONTINUOUS
 62
     7
 10
42.68901115719298
 20
137.0390914152615
 40
0.9999999999999927
 50
186.1823042363936
 51
270.0
  0
ARC
  8
0
  6
CONTINUOUS
 62
     7
 10
107.310988842807
 20
137.0390914152615
 40
1.000000000000001
 50
270.0
 51
353.8176957636064
  0
ARC
  8
0
  6
CONTINUOUS
 62
     7
 10
75.0
 20
140.5390914152615
 40
31.9781828305231
 50
210.0135421467704
 51
211.6125364450265
  0
ARC
  8
0
  6
CONTINUOUS
 62
     7
 10
75.0
 20
140.5390914152615
 40
31.9781828305231
 50
183.5779362909875
 51
184.5552303109846
  0
ARC
  8
0
  6
CONTINUOUS
 62
     7
 10
75.0
 20
140.5390914152615
 40
31.97818283052309
 50
355.4447696890155
 51
356.4220637090127
  0
ARC
  8
0
  6
CONTINUOUS
 62
     7
 10
102.0
 20
167.3033517497539
 40
3.000000000000003
 50
0.0
 51
89.50000000000006
  0
ARC
  8
0
  6
CONTINUOUS
 62
     7
 10
102.0
 20
113.7748310807692
 40
2.999999999999995
 50
270.4999999999999
 51
0.0
  0
ARC
  8
0
  6
CONTINUOUS
 62
     7
 10
55.99999999999999
 20
165.0390914152615
 40
1.000000000000001
 50
180.0
 51
270.0
  0
ARC
  8
0
  6
CONTINUOUS
 62
     7
 10
48.0
 20
113.7748310807692
 40
3.000000000000003
 50
180.0
 51
269.5000000000001
  0
ARC
  8
0
  6
CONTINUOUS
 62
     7
 10
47.99999999999999
 20
167.3033517497539
 40
3.000000000000009
 50
90.49999999999997
 51
180.0
  0
ARC
  8
0
  6
CONTINUOUS
 62
     7
 10
75.0
 20
140.5390914152615
 40
31.97818283052311
 50
328.3874635549736
 51
329.9864578532297
  0
ARC
  8
0
  6
CONTINUOUS
 62
     7
 10
75.0
 20
140.5390914152615
 40
33.49999999999999
 50
183.4152026519563
 51
186.1823042363928
  0
ARC
  8
0
  6
CONTINUOUS
 62
     7
 10
75.0
 20
140.5390914152615
 40
37.4
 50
252.7350086757006
 51
266.9345923740211
  0
ARC
  8
0
  6
CONTINUOUS
 62
     7
 10
75.0
 20
140.5390914152615
 40
37.4
 50
273.065407625979
 51
287.2649913242996
  0
ARC
  8
0
  6
CONTINUOUS
 62
     7
 10
75.0
 20
140.5390914152615
 40
37.3781828305231
 50
266.9997860302747
 51
273.0002139697256
  0
ARC
  8
0
  6
CONTINUOUS
 62
     7
 10
140.3723221179806
 20
160.5390914152615
 40
6.480740698407845
 50
160.6957803932085
 51
162.2494354815828
  0
ARC
  8
0
  6
CONTINUOUS
 62
     7
 10
75.0
 20
140.5390914152615
 40
33.50000000000001
 50
353.8176957636065
 51
356.584797348043
  0
ARC
  8
0
  6
CONTINUOUS
 62
     7
 10
-428.5709785285695
 20
147.3098906182666
 40
584.5436607162233
 50
0.0639392520648437
 51
2.1278640908706
  0
ARC
  8
0
  6
CONTINUOUS
 62
     7
 10
75.0
 20
140.5390914152615
 40
36.3
 50
287.8054050718558
 51
252.1945949281443
  0
ARC
  8
0
  6
CONTINUOUS
 62
     7
 10
70.0
 20
164.5390914152615
 40
0.5000000000000004
 50
270.0
 51
0.0
  0
ARC
  8
0
  6
CONTINUOUS
 62
     7
 10
75.0
 20
140.5390914152615
 40
36.25636566104618
 50
254.646054491712
 51
285.3539455082881
  0
LINE
  8
0
  6
CONTINUOUS
 62
     7
 10
44.50000000000001
 20
152.5434548491569
 11
44.50000000000001
 21
151.0390914152616
  0
LINE
  8
0
  6
CONTINUOUS
 62
     7
 10
103.4781637913302
 20
151.5390914152616
 11
96.0
 21
151.5390914152616
  0
LINE
  8
0
  6
CONTINUOUS
 62
     7
 10
90.00000000000001
 20
151.5390914152616
 11
59.99999999999999
 21
151.5390914152616
  0
LINE
  8
0
  6
CONTINUOUS
 62
     7
 10
89.5
 20
109.8796719817498
 11
89.5
 21
110.5434548491569
  0
LINE
  8
0
  6
CONTINUOUS
 62
     7
 10
53.99999999999998
 20
151.5390914152616
 11
46.52183620866976
 21
151.5390914152616
  0
LINE
  8
0
  6
CONTINUOUS
 62
     7
 10
45.50000000000001
 20
150.0390914152616
 11
104.5
 21
150.0390914152616
  0
LINE
  8
0
  6
CONTINUOUS
 62
     7
 10
46.0218171694769
 20
152.0390914152616
 11
46.0218171694769
 21
152.5434548491569
  0
LINE
  8
0
  6
CONTINUOUS
 62
     7
 10
103.9781828305231
 20
152.5434548491569
 11
103.9781828305231
 21
152.0390914152616
  0
LINE
  8
0
  6
CONTINUOUS
 62
     7
 10
94.99999999999999
 20
165.0390914152615
 11
94.99999999999999
 21
166.5434548491569
  0
LINE
  8
0
  6
CONTINUOUS
 62
     7
 10
63.59824574900861
 20
108.0390914152616
 11
86.40175425099137
 21
108.0390914152616
  0
LINE
  8
0
  6
CONTINUOUS
 62
     7
 10
60.5
 20
110.5434548491569
 11
60.5
 21
109.8796719817498
  0
LINE
  8
0
  6
CONTINUOUS
 62
     7
 10
105.5
 20
151.0390914152616
 11
105.5
 21
152.5434548491569
  0
LINE
  8
0
  6
CONTINUOUS
 62
     7
 10
80.0
 20
164.0390914152615
 11
93.99999999999999
 21
164.0390914152615
  0
LINE
  8
0
  6
CONTINUOUS
 62
     7
 10
79.5
 20
165.5390914152615
 11
79.5
 21
164.5390914152615
  0
LINE
  8
0
  6
CONTINUOUS
 62
     7
 10
92.97816379133022
 20
165.5390914152615
 11
79.5
 21
165.5390914152615
  0
LINE
  8
0
  6
CONTINUOUS
 62
     7
 10
93.47818283052308
 20
166.3782371144281
 11
93.47818283052308
 21
166.0390914152615
  0
LINE
  8
0
  6
CONTINUOUS
 62
     7
 10
93.45009626424145
 20
166.5434548491569
 11
93.47818283052308
 21
166.3782371144281
  0
LINE
  8
0
  6
CONTINUOUS
 62
     7
 10
69.08392665320328
 20
162.5390914152615
 11
49.54413792765093
 21
162.5390914152615
  0
LINE
  8
0
  6
CONTINUOUS
 62
     7
 10
100.455862072349
 20
162.5390914152615
 11
80.91607334679671
 21
162.5390914152615
  0
LINE
  8
0
  6
CONTINUOUS
 62
     7
 10
47.61387212474169
 20
122.0390914152616
 11
102.3861278752583
 21
122.0390914152616
  0
LINE
  8
0
  6
CONTINUOUS
 62
     7
 10
101.8071780624857
 20
123.5390914152616
 11
48.19282193751432
 21
123.5390914152616
  0
LINE
  8
0
  6
CONTINUOUS
 62
     7
 10
96.0
 20
151.7461981964481
 11
96.0
 21
150.9461981964481
  0
LINE
  8
0
  6
CONTINUOUS
 62
     7
 10
56.52181716947689
 20
166.3782371144281
 11
56.52181716947689
 21
166.0390914152615
  0
LINE
  8
0
  6
CONTINUOUS
 62
     7
 10
84.6
 20
105.5767681093442
 11
86.1
 21
106.0099235157511
  0
LINE
  8
0
  6
CONTINUOUS
 62
     7
 10
53.99999999999999
 20
150.9461981964481
 11
53.99999999999999
 21
151.7461981964481
  0
LINE
  8
0
  6
CONTINUOUS
 62
     7
 10
54.49999999999999
 20
150.2390914152615
 11
59.49999999999997
 21
150.2390914152615
  0
LINE
  8
0
  6
CONTINUOUS
 62
     7
 10
59.99999999999999
 20
151.7461981964481
 11
59.99999999999999
 21
150.9461981964481
  0
LINE
  8
0
  6
CONTINUOUS
 62
     7
 10
90.00000000000001
 20
151.7461981964481
 11
90.00000000000001
 21
152.5615773032832
  0
LINE
  8
0
  6
CONTINUOUS
 62
     7
 10
90.00000000000001
 20
150.9461981964481
 11
90.00000000000001
 21
151.7461981964481
  0
LINE
  8
0
  6
CONTINUOUS
 62
     7
 10
75.0
 20
98.23909141526154
 11
75.0
 21
180.8390914152615
  0
LINE
  8
0
  6
CONTINUOUS
 62
     7
 10
115.3
 20
140.5390914152615
 11
34.69999999999998
 21
140.5390914152615
  0
LINE
  8
0
  6
CONTINUOUS
 62
     7
 10
75.0
 20
156.7890914152615
 11
75.0
 21
164.2890914152615
  0
LINE
  8
0
  6
CONTINUOUS
 62
     7
 10
71.24999999999999
 20
160.5390914152615
 11
78.74999999999999
 21
160.5390914152615
  0
LINE
  8
0
  6
CONTINUOUS
 62
     7
 10
54.99999999999999
 20
165.0390914152615
 11
54.99999999999999
 21
166.5434548491569
  0
LINE
  8
0
  6
CONTINUOUS
 62
     7
 10
53.99999999999999
 20
151.7461981964481
 11
53.99999999999999
 21
152.5577636721092
  0
LINE
  8
0
  6
CONTINUOUS
 62
     7
 10
95.70015011756855
 20
170.3584439419367
 11
102.0261796064951
 21
170.3032375189464
  0
LINE
  8
0
  6
CONTINUOUS
 62
     7
 10
105.0
 20
167.3033517497539
 11
105.0
 21
160.9765570115629
  0
LINE
  8
0
  6
CONTINUOUS
 62
     7
 10
105.0
 20
120.1016258189602
 11
105.0
 21
113.7748310807692
  0
LINE
  8
0
  6
CONTINUOUS
 62
     7
 10
63.9
 20
106.0099235157511
 11
65.39999999999999
 21
105.5767681093442
  0
LINE
  8
0
  6
CONTINUOUS
 62
     7
 10
42.68901115719298
 20
136.0390914152615
 11
107.310988842807
 21
136.0390914152615
  0
LINE
  8
0
  6
CONTINUOUS
 62
     7
 10
106.3787315816591
 20
137.5390914152615
 11
43.62126841834085
 21
137.5390914152615
  0
LINE
  8
0
  6
CONTINUOUS
 62
     7
 10
70.0
 20
164.0390914152615
 11
55.99999999999999
 21
164.0390914152615
  0
LINE
  8
0
  6
CONTINUOUS
 62
     7
 10
70.5
 20
165.5390914152615
 11
70.5
 21
164.5390914152615
  0
LINE
  8
0
  6
CONTINUOUS
 62
     7
 10
57.02183620866977
 20
165.5390914152615
 11
70.5
 21
165.5390914152615
  0
LINE
  8
0
  6
CONTINUOUS
 62
     7
 10
56.52181716947689
 20
166.3782371144281
 11
56.54990373576303
 21
166.5434548491569
  0
LINE
  8
0
  6
CONTINUOUS
 62
     7
 10
63.9
 20
104.8562350420592
 11
63.9
 21
104.8242485624644
  0
LINE
  8
0
  6
CONTINUOUS
 62
     7
 10
86.1
 20
106.0099235157511
 11
86.1
 21
104.8562350420592
  0
LINE
  8
0
  6
CONTINUOUS
 62
     7
 10
63.9
 20
104.8562350420592
 11
63.9
 21
106.0099235157511
  0
LINE
  8
0
  6
CONTINUOUS
 62
     7
 10
96.0
 20
152.5577636721092
 11
96.0
 21
151.7461981964481
  0
LINE
  8
0
  6
CONTINUOUS
 62
     7
 10
59.99999999999999
 20
152.5615773032832
 11
59.99999999999999
 21
151.7461981964481
  0
LINE
  8
0
  6
CONTINUOUS
 62
     7
 10
86.1
 20
104.8562350420592
 11
86.1
 21
104.8242485624644
  0
LINE
  8
0
  6
CONTINUOUS
 62
     7
 10
95.5
 20
150.2390914152615
 11
90.50000000000001
 21
150.2390914152615
  0
LINE
  8
0
  6
CONTINUOUS
 62
     7
 10
47.97382039350487
 20
170.3032375189464
 11
54.29984988243145
 21
170.3584439419367
  0
LINE
  8
0
  6
CONTINUOUS
 62
     7
 10
158.9723221179806
 20
124.5390914152615
 11
158.9723221179806
 21
113.7748310807692
  0
LINE
  8
0
  6
CONTINUOUS
 62
     7
 10
158.9723221179806
 20
140.5390914152615
 11
158.9723221179806
 21
156.5390914152615
  0
LINE
  8
0
  6
CONTINUOUS
 62
     7
 10
134.8347508017051
 20
138.557745717532
 11
134.3435195833803
 21
138.562032627429
  0
LINE
  8
0
  6
CONTINUOUS
 62
     7
 10
136.4723221108684
 20
138.543454849219
 11
134.8347508017051
 21
138.557745717532
  0
LINE
  8
0
  6
CONTINUOUS
 62
     7
 10
102.0261796064951
 20
110.7749453115767
 11
95.70015011756855
 21
110.7197388885864
  0
LINE
  8
0
  6
CONTINUOUS
 62
     7
 10
79.5
 20
165.5390914152615
 11
70.5
 21
165.5390914152615
  0
LINE
  8
0
  6
CONTINUOUS
 62
     7
 10
161.9723221179806
 20
174.5390914152616
 11
161.9723221179806
 21
170.3971635855052
  0
LINE
  8
0
  6
CONTINUOUS
 62
     7
 10
150.4723221179806
 20
106.0099235157511
 11
153.9723221179806
 21
105.9778414378663
  0
LINE
  8
0
  6
CONTINUOUS
 62
     7
 10
89.5
 20
110.5434548491569
 11
60.5
 21
110.5434548491569
  0
LINE
  8
0
  6
CONTINUOUS
 62
     7
 10
158.9723221179806
 20
110.681019245018
 11
158.9723221179806
 21
106.5390914152616
  0
LINE
  8
0
  6
CONTINUOUS
 62
     7
 10
59.12548733637018
 20
110.5390914152616
 11
60.5
 21
110.5390914152616
  0
LINE
  8
0
  6
CONTINUOUS
 62
     7
 10
158.9723221179806
 20
124.5390914152615
 11
158.9723221179806
 21
140.5390914152615
  0
LINE
  8
0
  6
CONTINUOUS
 62
     7
 10
134.2559506446314
 20
162.7390914152616
 11
134.2559506446314
 21
162.6815199438244
  0
LINE
  8
0
  6
CONTINUOUS
 62
     7
 10
158.9723221179806
 20
167.3033517497539
 11
158.9723221179806
 21
170.3032375189464
  0
LINE
  8
0
  6
CONTINUOUS
 62
     7
 10
170.9723221179806
 20
110.7749453115767
 11
170.9723221179806
 21
110.5390914152616
  0
LINE
  8
0
  6
CONTINUOUS
 62
     7
 10
155.9723221179806
 20
140.5390914152615
 11
155.9723221179806
 21
174.5390914152615
  0
LINE
  8
0
  6
CONTINUOUS
 62
     7
 10
161.9723221179806
 20
124.5390914152615
 11
161.9723221179806
 21
156.5390914152616
  0
LINE
  8
0
  6
CONTINUOUS
 62
     7
 10
158.9723221179806
 20
124.5390914152615
 11
158.9723221179806
 21
156.5390914152615
  0
LINE
  8
0
  6
CONTINUOUS
 62
     7
 10
161.9723221179806
 20
110.681019245018
 11
158.9723221179806
 21
110.681019245018
  0
LINE
  8
0
  6
CONTINUOUS
 62
     7
 10
170.9723221179806
 20
170.5390914152615
 11
161.9723221179806
 21
170.5390914152615
  0
LINE
  8
0
  6
CONTINUOUS
 62
     7
 10
45.0
 20
113.7748310807692
 11
45.0
 21
120.1016258189602
  0
LINE
  8
0
  6
CONTINUOUS
 62
     7
 10
155.9723221179806
 20
106.5390914152616
 11
155.9723221179806
 21
140.5390914152615
  0
LINE
  8
0
  6
CONTINUOUS
 62
     7
 10
136.9723221179806
 20
105.3787593782994
 11
136.9723221179806
 21
140.5390914152615
  0
LINE
  8
0
  6
CONTINUOUS
 62
     7
 10
161.9723221179806
 20
124.5390914152615
 11
158.9723221179806
 21
124.5390914152615
  0
LINE
  8
0
  6
CONTINUOUS
 62
     7
 10
158.9723221179806
 20
170.3971635855052
 11
158.9723221179806
 21
174.5390914152616
  0
LINE
  8
0
  6
CONTINUOUS
 62
     7
 10
135.2488467350008
 20
164.5390914152615
 11
135.2488467350008
 21
162.5242498386939
  0
LINE
  8
0
  6
CONTINUOUS
 62
     7
 10
170.9723221179806
 20
113.7748310807692
 11
170.9723221179806
 21
110.7749453115767
  0
LINE
  8
0
  6
CONTINUOUS
 62
     7
 10
154.532899289647
 20
112.1159962232156
 11
154.5562412175094
 21
112.0390914153045
  0
LINE
  8
0
  6
CONTINUOUS
 62
     7
 10
170.9723221179806
 20
110.5390914152616
 11
161.9723221179806
 21
110.5390914152616
  0
LINE
  8
0
  6
CONTINUOUS
 62
     7
 10
158.9723221179806
 20
110.7749453115767
 11
158.9723221179806
 21
110.681019245018
  0
LINE
  8
0
  6
CONTINUOUS
 62
     7
 10
136.9723221179806
 20
140.5390914152615
 11
136.9723221179806
 21
175.6994234522237
  0
LINE
  8
0
  6
CONTINUOUS
 62
     7
 10
136.4723221179806
 20
136.9313991075692
 11
136.4723221179806
 21
138.5434548491567
  0
LINE
  8
0
  6
CONTINUOUS
 62
     7
 10
136.9723221179806
 20
136.0390914152615
 11
136.4723221179806
 21
136.0390914152615
  0
LINE
  8
0
  6
CONTINUOUS
 62
     7
 10
158.9723221179806
 20
106.5390914152616
 11
158.9723221179806
 21
110.681019245018
  0
LINE
  8
0
  6
CONTINUOUS
 62
     7
 10
170.9723221179806
 20
170.3032375189464
 11
170.9723221179806
 21
167.3033517497539
  0
LINE
  8
0
  6
CONTINUOUS
 62
     7
 10
161.9723221179806
 20
170.3971635855051
 11
158.9723221179806
 21
170.3971635855051
  0
LINE
  8
0
  6
CONTINUOUS
 62
     7
 10
136.4723221179806
 20
136.0390914152615
 11
136.4723221179806
 21
136.9313991075692
  0
LINE
  8
0
  6
CONTINUOUS
 62
     7
 10
134.8347508017103
 20
134.5204371129911
 11
136.9723221179806
 21
134.5390914152615
  0
LINE
  8
0
  6
CONTINUOUS
 62
     7
 10
54.29984988243145
 20
110.7197388885864
 11
47.97382039350487
 21
110.7749453115767
  0
LINE
  8
0
  6
CONTINUOUS
 62
     7
 10
158.9723221179806
 20
110.7749453115767
 11
158.9723221179806
 21
113.7748310807692
  0
LINE
  8
0
  6
CONTINUOUS
 62
     7
 10
170.9723221179806
 20
170.5390914152615
 11
170.9723221179806
 21
170.3032375189464
  0
LINE
  8
0
  6
CONTINUOUS
 62
     7
 10
134.8347508017103
 20
148.5204371129911
 11
136.9723221179806
 21
148.5390914152616
  0
LINE
  8
0
  6
CONTINUOUS
 62
     7
 10
134.3435195833807
 20
138.562032627429
 11
132.1494278138672
 21
138.5811801762224
  0
LINE
  8
0
  6
CONTINUOUS
 62
     7
 10
59.12548733637018
 20
110.5390914152616
 11
58.88856346787025
 21
110.5987906006212
  0
LINE
  8
0
  6
CONTINUOUS
 62
     7
 10
170.9723221179806
 20
167.3033517497539
 11
170.9723221179806
 21
113.7748310807692
  0
LINE
  8
0
  6
CONTINUOUS
 62
     7
 10
45.0
 20
160.9765570115628
 11
45.0
 21
167.3033517497539
  0
LINE
  8
0
  6
CONTINUOUS
 62
     7
 10
161.9723221179806
 20
110.681019245018
 11
161.9723221179806
 21
106.5390914152616
  0
LINE
  8
0
  6
CONTINUOUS
 62
     7
 10
136.9723221179806
 20
138.5390914152615
 11
136.4723221108684
 21
138.543454849219
  0
LINE
  8
0
  6
CONTINUOUS
 62
     7
 10
161.9723221179806
 20
156.5390914152615
 11
158.9723221179806
 21
156.5390914152615
  0
LINE
  8
0
  6
CONTINUOUS
 62
     7
 10
158.9723221179806
 20
170.3971635855051
 11
158.9723221179806
 21
170.3032375189464
  0
LINE
  8
0
  6
CONTINUOUS
 62
     7
 10
89.5
 20
110.5390914152616
 11
90.87451266362982
 21
110.5390914152616
  0
LINE
  8
0
  6
CONTINUOUS
 62
     7
 10
158.9723221179806
 20
167.3033517497539
 11
158.9723221179806
 21
156.5390914152615
  0
LINE
  8
0
  6
CONTINUOUS
 62
     7
 10
158.9723221179806
 20
174.5390914152616
 11
158.9723221179806
 21
170.3971635855052
  0
LINE
  8
0
  6
CONTINUOUS
 62
     7
 10
153.9723221179806
 20
176.8390914152615
 11
153.9723221179806
 21
105.9778414378664
  0
LINE
  8
0
  6
CONTINUOUS
 62
     7
 10
91.11143653212974
 20
110.5987906006212
 11
90.87451266362982
 21
110.5390914152616
  0
LINE
  8
0
  6
CONTINUOUS
 62
     7
 10
134.8347508017103
 20
162.5204371129911
 11
136.9723221179806
 21
162.5390914152615
  0
LINE
  8
0
  6
CONTINUOUS
 62
     7
 10
133.5304682002007
 20
120.509054811166
 11
134.8347508017107
 21
120.5204371129911
  0
LINE
  8
0
  6
CONTINUOUS
 62
     7
 10
134.3435195833802
 20
110.562032627429
 11
133.8920972832937
 21
110.5659721301597
  0
LINE
  8
0
  6
CONTINUOUS
 62
     7
 10
136.2723221179806
 20
151.7390914152616
 11
136.2723221179806
 21
150.9461981964481
  0
LINE
  8
0
  6
CONTINUOUS
 62
     7
 10
158.9723221179806
 20
174.5390914152615
 11
155.9723221179806
 21
174.5390914152615
  0
LINE
  8
0
  6
CONTINUOUS
 62
     7
 10
148.9723221179806
 20
103.1827257542155
 11
148.9723221179806
 21
104.4373178383058
  0
LINE
  8
0
  6
CONTINUOUS
 62
     7
 10
136.4723221179806
 20
164.0390914152615
 11
136.4723221179806
 21
165.0390914152615
  0
LINE
  8
0
  6
CONTINUOUS
 62
     7
 10
132.7381825139832
 20
148.5021406387299
 11
134.8347508017106
 21
148.5204371129911
  0
LINE
  8
0
  6
CONTINUOUS
 62
     7
 10
136.4723221179806
 20
108.0987929077988
 11
136.4723221179806
 21
108.9644654314956
  0
LINE
  8
0
  6
CONTINUOUS
 62
     7
 10
153.9723221179806
 20
103.1926056368112
 11
153.9723221179806
 21
104.8242485624644
  0
LINE
  8
0
  6
CONTINUOUS
 62
     7
 10
134.8347508017103
 20
120.5204371129911
 11
136.9723221179806
 21
120.5390914152616
  0
LINE
  8
0
  6
CONTINUOUS
 62
     7
 10
136.2723221179806
 20
150.2390914152615
 11
135.1187687273873
 21
151.3926448058548
  0
LINE
  8
0
  6
CONTINUOUS
 62
     7
 10
136.9723221179806
 20
122.0390914152616
 11
136.4723221179806
 21
122.0390914152616
  0
LINE
  8
0
  6
CONTINUOUS
 62
     7
 10
136.9723221179806
 20
166.5390914152615
 11
134.8347508017056
 21
166.557745717532
  0
LINE
  8
0
  6
CONTINUOUS
 62
     7
 10
136.9723221179806
 20
152.5390914152616
 11
134.8347508017056
 21
152.557745717532
  0
LINE
  8
0
  6
CONTINUOUS
 62
     7
 10
136.4723221179806
 20
122.0390914152616
 11
136.4723221179806
 21
122.5006298768
  0
LINE
  8
0
  6
CONTINUOUS
 62
     7
 10
154.3012870218601
 20
111.0638923295485
 11
154.5628123431803
 21
112.0390918788974
  0
LINE
  8
0
  6
CONTINUOUS
 62
     7
 10
136.4723221179806
 20
108.9644654314957
 11
136.4723221179806
 21
109.8796719817498
  0
LINE
  8
0
  6
CONTINUOUS
 62
     7
 10
155.5714255298965
 20
169.0070619145022
 11
155.3013019368811
 21
170.0143272662199
  0
LINE
  8
0
  6
CONTINUOUS
 62
     7
 10
155.6562551109973
 20
111.0391241990991
 11
155.9723221179806
 21
111.0391241991166
  0
LINE
  8
0
  6
CONTINUOUS
 62
     7
 10
153.9723221179806
 20
111.0393093060904
 11
154.2882794800234
 21
111.0393093061132
  0
LINE
  8
0
  6
CONTINUOUS
 62
     7
 10
136.9723221179806
 20
110.5390914152616
 11
134.8347508017056
 21
110.557745717532
  0
LINE
  8
0
  6
CONTINUOUS
 62
     7
 10
134.3435195833806
 20
152.562032627429
 11
132.4604684292583
 21
152.5784657658943
  0
LINE
  8
0
  6
CONTINUOUS
 62
     7
 10
136.4723221179806
 20
122.5006298768
 11
136.4723221179806
 21
124.543454849157
  0
LINE
  8
0
  6
CONTINUOUS
 62
     7
 10
136.4723221179806
 20
109.8796719817498
 11
136.4723221179806
 21
110.5434548491569
  0
LINE
  8
0
  6
CONTINUOUS
 62
     7
 10
134.8347508017056
 20
166.557745717532
 11
134.3435195833804
 21
166.562032627429
  0
LINE
  8
0
  6
CONTINUOUS
 62
     7
 10
136.9723221179806
 20
108.0390914152616
 11
136.4723221179806
 21
108.0390914152616
  0
LINE
  8
0
  6
CONTINUOUS
 62
     7
 10
136.4723221179806
 20
108.0390914152616
 11
136.4723221179806
 21
108.0987929077989
  0
LINE
  8
0
  6
CONTINUOUS
 62
     7
 10
134.3435195833803
 20
124.562032627429
 11
132.6247389828619
 21
124.5770321984911
  0
LINE
  8
0
  6
CONTINUOUS
 62
     7
 10
132.7402582352966
 20
134.5021587532754
 11
134.8347508017101
 21
134.5204371129911
  0
LINE
  8
0
  6
CONTINUOUS
 62
     7
 10
153.9723221179806
 20
104.8242485624644
 11
153.9723221179806
 21
105.9778414378663
  0
LINE
  8
0
  6
CONTINUOUS
 62
     7
 10
136.2723221179806
 20
150.9461981964481
 11
136.2723221179806
 21
150.2390914152615
  0
LINE
  8
0
  6
CONTINUOUS
 62
     7
 10
136.4723221179806
 20
151.7390914152616
 11
136.2723221179806
 21
151.7390914152616
  0
LINE
  8
0
  6
CONTINUOUS
 62
     7
 10
155.288284338896
 20
170.0389780295986
 11
154.6562335284567
 21
170.0389780296438
  0
LINE
  8
0
  6
CONTINUOUS
 62
     7
 10
154.6434423653853
 20
170.0150400930885
 11
154.3817185870004
 21
169.0390909724256
  0
LINE
  8
0
  6
CONTINUOUS
 62
     7
 10
154.5562403420282
 20
112.0390914152616
 11
155.3817299743653
 21
112.0390914152616
  0
LINE
  8
0
  6
CONTINUOUS
 62
     7
 10
155.9723221179806
 20
106.5390914152616
 11
158.9723221179806
 21
106.5390914152616
  0
LINE
  8
0
  6
CONTINUOUS
 62
     7
 10
136.9723221179806
 20
164.0390914152615
 11
136.4723221179806
 21
164.0390914152615
  0
LINE
  8
0
  6
CONTINUOUS
 62
     7
 10
154.3883778353999
 20
169.0390914152615
 11
153.9723221179806
 21
169.0390914152615
  0
LINE
  8
0
  6
CONTINUOUS
 62
     7
 10
134.8347508017056
 20
152.557745717532
 11
134.3435195833803
 21
152.562032627429
  0
LINE
  8
0
  6
CONTINUOUS
 62
     7
 10
136.9723221179806
 20
150.0390914152616
 11
136.4723221179806
 21
150.0390914152616
  0
LINE
  8
0
  6
CONTINUOUS
 62
     7
 10
134.8347508017056
 20
110.557745717532
 11
134.3435195833754
 21
110.5620326274291
  0
LINE
  8
0
  6
CONTINUOUS
 62
     7
 10
133.5960971414615
 20
162.5096275462596
 11
134.8347508017106
 21
162.5204371129911
  0
LINE
  8
0
  6
CONTINUOUS
 62
     7
 10
151.4723221179806
 20
103.2121413909732
 11
151.4723221179806
 21
103.1609085847385
  0
LINE
  8
0
  6
CONTINUOUS
 62
     7
 10
134.3435195833804
 20
166.562032627429
 11
133.5596552931281
 21
166.568873307456
  0
LINE
  8
0
  6
CONTINUOUS
 62
     7
 10
136.4723221179806
 20
150.0390914152616
 11
136.4723221179806
 21
151.0390914152616
  0
LINE
  8
0
  6
CONTINUOUS
 62
     7
 10
150.4723221179806
 20
104.8562350420592
 11
153.9723221179806
 21
104.8242485624644
  0
LINE
  8
0
  6
CONTINUOUS
 62
     7
 10
148.9723221179806
 20
104.4373178383057
 11
148.9723221179806
 21
105.5767681093442
  0
LINE
  8
0
  6
CONTINUOUS
 62
     7
 10
134.9723221179806
 20
151.7461981964481
 11
134.9723221179806
 21
152.5565451508431
  0
LINE
  8
0
  6
CONTINUOUS
 62
     7
 10
136.4723221179806
 20
164.5390914152615
 11
135.2488467350008
 21
164.5390914152615
  0
LINE
  8
0
  6
CONTINUOUS
 62
     7
 10
155.9723221179806
 20
169.0390914152615
 11
155.5628358829714
 21
169.0390914152615
  0
LINE
  8
0
  6
CONTINUOUS
 62
     7
 10
158.9723221179806
 20
106.5390914152616
 11
161.9723221179806
 21
106.5390914152616
  0
LINE
  8
0
  6
CONTINUOUS
 62
     7
 10
161.9723221179806
 20
174.5390914152615
 11
158.9723221179806
 21
174.5390914152615
  0
LINE
  8
0
  6
CONTINUOUS
 62
     7
 10
153.9723221179806
 20
176.8390914152615
 11
137.9635955824818
 21
176.6993853752878
  0
LINE
  8
0
  6
CONTINUOUS
 62
     7
 10
155.3732732767017
 20
112.070625424869
 11
155.6434016199811
 21
111.0633344119855
  0
LINE
  8
0
  6
CONTINUOUS
 62
     7
 10
136.4723221179806
 20
165.0390914152615
 11
136.4723221179806
 21
166.5434548491569
  0
LINE
  8
0
  6
CONTINUOUS
 62
     7
 10
136.4723221179806
 20
151.0390914152616
 11
136.4723221179806
 21
152.5434548491569
  0
LINE
  8
0
  6
CONTINUOUS
 62
     7
 10
132.6086601921098
 20
161.5938847967213
 11
132.0449991108537
 21
154.5953163148606
  0
LINE
  8
0
  6
CONTINUOUS
 62
     7
 10
134.8347508017056
 20
124.557745717532
 11
134.3435195833804
 21
124.562032627429
  0
LINE
  8
0
  6
CONTINUOUS
 62
     7
 10
136.9723221179806
 20
124.5390914152616
 11
134.8347508017056
 21
124.557745717532
  0
LINE
  8
0
  6
CONTINUOUS
 62
     7
 10
148.9723221179806
 20
103.1827257542154
 11
151.4723221179806
 21
103.1609085847385
  0
LINE
  8
0
  6
CONTINUOUS
 62
     7
 10
137.9635955824818
 20
104.3787974552353
 11
148.9723221179806
 21
104.2827257542153
  0
LINE
  8
0
  6
CONTINUOUS
 62
     7
 10
136.9723221179806
 20
174.5390914152615
 11
134.8347508017056
 21
174.5204371129911
  0
LINE
  8
0
  6
CONTINUOUS
 62
     7
 10
129.6495314045841
 20
140.5390914152615
 11
173.9723221179806
 21
140.5390914152615
  0
ARC
  8
0
  6
CONTINUOUS
 62
     7
 10
134.8434773372038
 20
173.5204751899269
 40
1.000000000000002
 50
90.49999999999095
 51
172.3884988888077
  0
ARC
  8
0
  6
CONTINUOUS
 62
     7
 10
381.6495314045841
 20
140.5390914152615
 40
250.0000000000001
 50
172.3884988888077
 51
173.8961022289706
  0
ARC
  8
0
  6
CONTINUOUS
 62
     7
 10
150.348804336634
 20
102.7520065054083
 40
3.260257641443386
 50
87.82877844785868
 51
110.5188671807349
  0
ARC
  8
0
  6
CONTINUOUS
 62
     7
 10
137.9723221179806
 20
175.6994234522237
 40
1.000000000000007
 50
90.50000000002434
 51
180.0
  0
ARC
  8
0
  6
CONTINUOUS
 62
     7
 10
150.3631487621942
 20
101.4112247002307
 40
3.446739775050962
 50
88.18488794140268
 51
109.7503063280603
  0
ARC
  8
0
  6
CONTINUOUS
 62
     7
 10
132.6291022506112
 20
125.0770131600231
 40
0.5000000000000001
 50
183.5530255517596
 51
269.4999999999931
  0
ARC
  8
0
  6
CONTINUOUS
 62
     7
 10
132.7489847707953
 20
133.5021968302112
 40
1.000000000000004
 50
90.50000000000365
 51
181.6194299114471
  0
ARC
  8
0
  6
CONTINUOUS
 62
     7
 10
133.8964605510431
 20
111.0659530916918
 40
0.5000000000000062
 50
186.7841232179925
 51
269.4999999999931
  0
ARC
  8
0
  6
CONTINUOUS
 62
     7
 10
-36208.88290304079
 20
-489.158741139101
 40
36369.22768777708
 50
0.9472046914462828
 51
1.036976015000979
  0
ARC
  8
0
  6
CONTINUOUS
 62
     7
 10
381.6495314045841
 20
140.5390914152615
 40
250.0
 50
184.8448484442994
 51
186.7841232179912
  0
ARC
  8
0
  6
CONTINUOUS
 62
     7
 10
140.3723221179806
 20
160.5390914152615
 40
6.500000000000004
 50
142.020127555148
 51
160.2168296273384
  0
ARC
  8
0
  6
CONTINUOUS
 62
     7
 10
132.1537910816161
 20
139.0811611377545
 40
0.4999999999999916
 50
180.3348045174837
 51
269.4999999999964
  0
ARC
  8
0
  6
CONTINUOUS
 62
     7
 10
381.6495314045841
 20
140.5390914152615
 40
250.0
 50
178.397560120518
 51
180.3348045174846
  0
ARC
  8
0
  6
CONTINUOUS
 62
     7
 10
133.0434172400286
 20
154.5390914152615
 40
0.9999999999999898
 50
175.2089672012496
 51
176.7768508349586
  0
ARC
  8
0
  6
CONTINUOUS
 62
     7
 10
133.5391947356988
 20
119.5090928881018
 40
1.000000000000003
 50
90.50000000000207
 51
184.8448484442993
  0
ARC
  8
0
  6
CONTINUOUS
 62
     7
 10
135.4723221179806
 20
151.7461981964481
 40
0.5000000000000004
 50
180.0
 51
225.0000000000023
  0
ARC
  8
0
  6
CONTINUOUS
 62
     7
 10
137.9723221179806
 20
105.3787593782994
 40
1.000000000000001
 50
180.0
 51
269.4999999999772
  0
ARC
  8
0
  6
CONTINUOUS
 62
     7
 10
133.5640185608773
 20
167.068854268988
 40
0.4999999999999942
 50
173.896102228971
 51
269.4999999999964
  0
ARC
  8
0
  6
CONTINUOUS
 62
     7
 10
133.6048236769597
 20
161.5096656231954
 40
1.000000000000003
 50
90.50000000000207
 51
175.3901781255725
  0
ARC
  8
0
  6
CONTINUOUS
 62
     7
 10
132.7469090494813
 20
147.5021787156657
 40
1.000000000000004
 50
90.50000000000365
 51
178.3975601205182
  0
ARC
  8
0
  6
CONTINUOUS
 62
     7
 10
381.6495314045841
 20
140.5390914152615
 40
250.0
 50
176.7766943411398
 51
177.1192187049598
  0
ARC
  8
0
  6
CONTINUOUS
 62
     7
 10
381.6495314045841
 20
140.5390914152615
 40
250.0
 50
181.6194299114465
 51
183.5530255517604
  0
ARC
  8
0
  6
CONTINUOUS
 62
     7
 10
132.4648316970072
 20
153.0784467274264
 40
0.49999999999999
 50
177.1192187049612
 51
269.4999999999931
  0
ENDSEC
  0
EOF
