  0
SECTION
  2
HEADER
  9
$ACADVER
  1
AC1006
  9
$DWGCODEPAGE
  3
ansi_932
  9
$INSBASE
 10
0.0
 20
0.0
 30
0.0
  9
$EXTMIN
 10
-358.8749999999999
 20
9.950189882437124
  9
$EXTMAX
 10
-187.4994859874633
 20
208.5005140125367
  9
$LIMMIN
 10
0.0
 20
0.0
  9
$LIMMAX
 10
12.0
 20
9.0
  9
$ORTHOMODE
 70
     0
  9
$REGENMODE
 70
     1
  9
$FILLMODE
 70
     1
  9
$QTEXTMODE
 70
     0
  9
$MIRRTEXT
 70
     1
  9
$DRAGMODE
 70
     2
  9
$LTSCALE
 40
1.0
  9
$OSMODE
 70
    37
  9
$ATTMODE
 70
     1
  9
$TEXTSIZE
 40
0.2
  9
$TRACEWID
 40
0.05
  9
$TEXTSTYLE
  7
STANDARD
  9
$CLAYER
  8
0
  9
$CELTYPE
  6
BYLAYER
  9
$CECOLOR
 62
   256
  9
$DIMSCALE
 40
1.0
  9
$DIMASZ
 40
3.0
  9
$DIMEXO
 40
0.0625
  9
$DIMDLI
 40
0.38
  9
$DIMRND
 40
0.0
  9
$DIMDLE
 40
0.0
  9
$DIMEXE
 40
1.5
  9
$DIMTP
 40
0.0
  9
$DIMTM
 40
0.0
  9
$DIMTXT
 40
3.0
  9
$DIMCEN
 40
0.09
  9
$DIMTSZ
 40
0.0
  9
$DIMTOL
 70
     0
  9
$DIMLIM
 70
     0
  9
$DIMTIH
 70
     1
  9
$DIMTOH
 70
     1
  9
$DIMSE1
 70
     0
  9
$DIMSE2
 70
     0
  9
$DIMTAD
 70
     1
  9
$DIMZIN
 70
     0
  9
$DIMBLK
  1

  9
$DIMASO
 70
     1
  9
$DIMSHO
 70
     1
  9
$DIMPOST
  1

  9
$DIMAPOST
  1

  9
$DIMALT
 70
     0
  9
$DIMALTD
 70
     2
  9
$DIMALTF
 40
25.4
  9
$DIMLFAC
 40
1.0
  9
$DIMTOFL
 70
     0
  9
$DIMTVP
 40
0.0
  9
$DIMTIX
 70
     0
  9
$DIMSOXD
 70
     0
  9
$DIMSAH
 70
     0
  9
$DIMBLK1
  1

  9
$DIMBLK2
  1

  9
$LUNITS
 70
     2
  9
$LUPREC
 70
     4
  9
$SKETCHINC
 40
0.1
  9
$FILLETRAD
 40
0.5
  9
$AUNITS
 70
     0
  9
$AUPREC
 70
     0
  9
$MENU
  1
.
  9
$ELEVATION
 40
0.0
  9
$THICKNESS
 40
0.0
  9
$LIMCHECK
 70
     0
  9
$CHAMFERA
 40
0.0
  9
$CHAMFERB
 40
0.0
  9
$SKPOLY
 70
     0
  9
$TDCREATE
 40
2460094.709849572
  9
$TDUPDATE
 40
2460094.709849803
  9
$TDINDWG
 40
0.0000000116
  9
$TDUSRTIMER
 40
0.0000000116
  9
$USRTIMER
 70
     1
  9
$ANGBASE
 50
0.0
  9
$ANGDIR
 70
     0
  9
$PDMODE
 70
     0
  9
$PDSIZE
 40
0.0
  9
$PLINEWID
 40
0.0
  9
$COORDS
 70
     1
  9
$SPLFRAME
 70
     0
  9
$SPLINETYPE
 70
     6
  9
$SPLINESEGS
 70
     8
  9
$ATTDIA
 70
     0
  9
$ATTREQ
 70
     1
  9
$HANDLING
 70
     1
  9
$HANDSEED
  5
355
  9
$SURFTAB1
 70
     6
  9
$SURFTAB2
 70
     6
  9
$SURFTYPE
 70
     6
  9
$SURFU
 70
     6
  9
$SURFV
 70
     6
  9
$UCSNAME
  2

  9
$UCSORG
 10
0.0
 20
0.0
 30
0.0
  9
$UCSXDIR
 10
1.0
 20
0.0
 30
0.0
  9
$UCSYDIR
 10
0.0
 20
1.0
 30
0.0
  9
$USERI1
 70
     0
  9
$USERI2
 70
     0
  9
$USERI3
 70
     0
  9
$USERI4
 70
     0
  9
$USERI5
 70
     0
  9
$USERR1
 40
0.0
  9
$USERR2
 40
0.0
  9
$USERR3
 40
0.0
  9
$USERR4
 40
0.0
  9
$USERR5
 40
0.0
  9
$WORLDVIEW
 70
     1
  0
ENDSEC
  0
SECTION
  2
TABLES
  0
TABLE
  2
VPORT
 70
     1
  0
VPORT
  2
*ACTIVE
 70
     0
 10
0.0
 20
0.0
 11
1.0
 21
1.0
 12
-273.1872429937316
 22
109.2253519474869
 13
0.0
 23
0.0
 14
0.5
 24
0.5
 15
0.5
 25
0.5
 16
0.0
 26
0.0
 36
1.0
 17
0.0
 27
0.0
 37
0.0
 40
198.5503241300996
 41
1.6
 42
50.0
 43
0.0
 44
0.0
 50
0.0
 51
0.0
 71
     0
 72
   100
 73
     1
 74
     3
 75
     0
 76
     0
 77
     0
 78
     0
  0
ENDTAB
  0
TABLE
  2
LTYPE
 70
     3
  0
LTYPE
  2
CONTINUOUS
 70
     0
  3
Solid line
 72
    65
 73
     0
 40
0.0
  0
LTYPE
  2
DOT
 70
     0
  3

 72
    65
 73
     0
 40
0.0
  0
LTYPE
  2
CENTER
 70
     0
  3

 72
    65
 73
     0
 40
0.0
  0
ENDTAB
  0
TABLE
  2
LAYER
 70
     1
  0
LAYER
  2
0
 70
     0
 62
     7
  6
CONTINUOUS
  0
ENDTAB
  0
TABLE
  2
STYLE
 70
     2
  0
STYLE
  2
STANDARD
 70
     0
 40
0.0
 41
1.0
 50
0.0
 71
     0
 42
0.2
  3
txt
  4

  0
STYLE
  2
ＭＳ_ゴシック
 70
     0
 40
0.0
 41
1.0
 50
0.0
 71
     0
 42
0.2
  3
ＭＳ ゴシック.shx
  4

  0
ENDTAB
  0
TABLE
  2
VIEW
 70
     0
  0
ENDTAB
  0
TABLE
  2
UCS
 70
     0
  0
ENDTAB
  0
ENDSEC
  0
SECTION
  2
BLOCKS
  0
BLOCK
  8
0
  2
D_FRAME_VIEW_272
 70
     0
 10
0.0
 20
0.0
 30
0.0
  0
LINE
  5
70
  8
0
  6
CONTINUOUS
 62
     7
 10
-347.4999999999999
 20
196.5005140125367
 30
0.0
 11
-347.4999999999999
 21
73.49948598746333
 31
0.0
  0
LINE
  5
71
  8
0
  6
CONTINUOUS
 62
     9
 10
-333.4738230516921
 20
196.1332256430528
 30
0.0
 11
-347.4999999999999
 21
196.5005140125367
 31
0.0
  0
LINE
  5
72
  8
0
  6
CONTINUOUS
 62
     9
 10
-333.4738230516921
 20
73.86677435694727
 30
0.0
 11
-333.4738230516921
 21
196.1332256430528
 31
0.0
  0
LINE
  5
73
  8
0
  6
CONTINUOUS
 62
     9
 10
-347.4999999999999
 20
73.49948598746333
 30
0.0
 11
-333.4738230516921
 21
73.86677435694727
 31
0.0
  0
LINE
  5
74
  8
0
  6
CONTINUOUS
 62
     7
 10
-347.4999999999999
 20
72.0
 30
0.0
 11
-347.4999999999999
 21
73.49948598746333
 31
0.0
  0
POLYLINE
  5
75
  8
0
  6
CONTINUOUS
 62
     9
 66
     1
 10
0.0
 20
0.0
 30
0.0
  0
VERTEX
  5
153
  8
0
  6
CONTINUOUS
 62
     9
 10
-333.4738230516921
 20
72.36728836948393
 30
0.0
  0
VERTEX
  5
154
  8
0
  6
CONTINUOUS
 62
     9
 10
-333.4692244235966
 20
72.39621567956809
 30
0.0
  0
VERTEX
  5
155
  8
0
  6
CONTINUOUS
 62
     9
 10
-333.4658074553274
 20
72.48161975821786
 30
0.0
  0
VERTEX
  5
156
  8
0
  6
CONTINUOUS
 62
     9
 10
-333.4637033448864
 20
72.62022142822401
 30
0.0
  0
VERTEX
  5
157
  8
0
  6
CONTINUOUS
 62
     9
 10
-333.4629928817525
 20
72.80669893628581
 30
0.0
  0
VERTEX
  5
158
  8
0
  6
CONTINUOUS
 62
     9
 10
-333.4637033448864
 20
73.03389228718827
 30
0.0
  0
VERTEX
  5
159
  8
0
  6
CONTINUOUS
 62
     9
 10
-333.4658074553274
 20
73.29307815916319
 30
0.0
  0
VERTEX
  5
15A
  8
0
  6
CONTINUOUS
 62
     9
 10
-333.4692244235965
 20
73.5743048447772
 30
0.0
  0
VERTEX
  5
15B
  8
0
  6
CONTINUOUS
 62
     9
 10
-333.4738230516921
 20
73.86677435694726
 30
0.0
  0
SEQEND
  5
331
  8
0
  6
CONTINUOUS
 62
     9
  0
LINE
  5
76
  8
0
  6
CONTINUOUS
 62
     7
 10
-333.4738230516921
 20
72.36728836948394
 30
0.0
 11
-347.4999999999999
 21
72.0
 31
0.0
  0
LINE
  5
77
  8
0
  6
CONTINUOUS
 62
     7
 10
-347.4999999999999
 20
198.0
 30
0.0
 11
-333.4738230516921
 21
197.6327116305161
 31
0.0
  0
POLYLINE
  5
78
  8
0
  6
CONTINUOUS
 62
     9
 66
     1
 10
0.0
 20
0.0
 30
0.0
  0
VERTEX
  5
15C
  8
0
  6
CONTINUOUS
 62
     9
 10
-333.4738230516921
 20
196.1332256430528
 30
0.0
  0
VERTEX
  5
15D
  8
0
  6
CONTINUOUS
 62
     9
 10
-333.4692244235965
 20
196.4256951552228
 30
0.0
  0
VERTEX
  5
15E
  8
0
  6
CONTINUOUS
 62
     9
 10
-333.4658074553274
 20
196.7069218408368
 30
0.0
  0
VERTEX
  5
15F
  8
0
  6
CONTINUOUS
 62
     9
 10
-333.4637033448864
 20
196.9661077128117
 30
0.0
  0
VERTEX
  5
160
  8
0
  6
CONTINUOUS
 62
     9
 10
-333.4629928817525
 20
197.1933010637142
 30
0.0
  0
VERTEX
  5
161
  8
0
  6
CONTINUOUS
 62
     9
 10
-333.4637033448864
 20
197.379778571776
 30
0.0
  0
VERTEX
  5
162
  8
0
  6
CONTINUOUS
 62
     9
 10
-333.4658074553274
 20
197.5183802417822
 30
0.0
  0
VERTEX
  5
163
  8
0
  6
CONTINUOUS
 62
     9
 10
-333.4692244235966
 20
197.6037843204319
 30
0.0
  0
VERTEX
  5
164
  8
0
  6
CONTINUOUS
 62
     9
 10
-333.4738230516921
 20
197.6327116305161
 30
0.0
  0
SEQEND
  5
332
  8
0
  6
CONTINUOUS
 62
     9
  0
LINE
  5
79
  8
0
  6
CONTINUOUS
 62
     7
 10
-347.4999999999999
 20
196.5005140125367
 30
0.0
 11
-347.4999999999999
 21
198.0
 31
0.0
  0
LINE
  5
7A
  8
0
  6
CONTINUOUS
 62
     9
 10
-333.4738230516921
 20
196.1332256430528
 30
0.0
 11
-332.4999999999999
 21
196.1332256430528
 31
0.0
  0
LINE
  5
7B
  8
0
  6
CONTINUOUS
 62
     7
 10
-332.4999999999999
 20
196.1332256430528
 30
0.0
 11
-332.4999999999999
 21
73.86677435694727
 31
0.0
  0
LINE
  5
7C
  8
0
  6
CONTINUOUS
 62
     9
 10
-333.4738230516921
 20
73.86677435694727
 30
0.0
 11
-332.4999999999999
 21
73.86677435694727
 31
0.0
  0
LINE
  5
7D
  8
0
  6
CONTINUOUS
 62
     7
 10
-332.4999999999999
 20
73.86677435694727
 30
0.0
 11
-332.4999999999999
 21
73.36694569445947
 31
0.0
  0
ARC
  5
7E
  8
0
  6
CONTINUOUS
 62
     7
 10
-333.4999999999999
 20
73.36694569445947
 30
0.0
 40
1.000000000000001
 50
271.5000000000005
 51
0.0
  0
ARC
  5
7F
  8
0
  6
CONTINUOUS
 62
     7
 10
-333.4999999999999
 20
196.6330543055405
 30
0.0
 40
1.000000000000004
 50
359.9999999999987
 51
88.49999999999987
  0
LINE
  5
80
  8
0
  6
CONTINUOUS
 62
     7
 10
-332.4999999999999
 20
196.6330543055405
 30
0.0
 11
-332.4999999999999
 21
196.1332256430528
 31
0.0
  0
LINE
  5
81
  8
0
  6
DOT
 62
     9
 10
-341.3691152584606
 20
125.9105428669917
 30
0.0
 11
-347.4999999999999
 21
125.75
 31
0.0
  0
LINE
  5
83
  8
0
  6
DOT
 62
     9
 10
-347.4999999999999
 20
144.25
 30
0.0
 11
-341.3691152584606
 21
144.0894571330083
 31
0.0
  0
ARC
  5
84
  8
0
  6
DOT
 62
     9
 10
-341.4999999999999
 20
139.0911705081305
 30
0.0
 40
4.999999999999981
 50
0.0000000000009095
 51
88.49999999999977
  0
ARC
  5
85
  8
0
  6
DOT
 62
     9
 10
-341.4999999999999
 20
130.9088294918695
 30
0.0
 40
4.999999999999965
 50
271.5000000000002
 51
0.0
  0
LINE
  5
86
  8
0
  6
DOT
 62
     9
 10
-336.4999999999999
 20
139.0911705081306
 30
0.0
 11
-336.4999999999999
 21
130.9088294918695
 31
0.0
  0
LINE
  5
87
  8
0
  6
DOT
 62
     9
 10
-333.4738230516921
 20
167.8678023820206
 30
0.0
 11
-333.4738230516921
 21
102.1321976179794
 31
0.0
  0
LINE
  5
88
  8
0
  6
DOT
 62
     9
 10
-333.4738230516921
 20
102.1321976179794
 30
0.0
 11
-333.4738230516921
 21
167.8678023820206
 31
0.0
  0
LINE
  5
89
  8
0
  6
DOT
 62
     9
 10
-347.4999999999999
 20
196.5005140125367
 30
0.0
 11
-333.4738230516921
 21
196.1332256430528
 31
0.0
  0
POLYLINE
  5
8A
  8
0
  6
DOT
 62
     9
 66
     1
 10
0.0
 20
0.0
 30
0.0
  0
VERTEX
  5
165
  8
0
  6
DOT
 62
     9
 10
-333.4738230516921
 20
196.1332256430528
 30
0.0
  0
VERTEX
  5
166
  8
0
  6
DOT
 62
     9
 10
-333.4692244235965
 20
196.4256951552228
 30
0.0
  0
VERTEX
  5
167
  8
0
  6
DOT
 62
     9
 10
-333.4658074553274
 20
196.7069218408368
 30
0.0
  0
VERTEX
  5
168
  8
0
  6
DOT
 62
     9
 10
-333.4637033448864
 20
196.9661077128117
 30
0.0
  0
VERTEX
  5
169
  8
0
  6
DOT
 62
     9
 10
-333.4629928817525
 20
197.1933010637142
 30
0.0
  0
VERTEX
  5
16A
  8
0
  6
DOT
 62
     9
 10
-333.4637033448864
 20
197.379778571776
 30
0.0
  0
VERTEX
  5
16B
  8
0
  6
DOT
 62
     9
 10
-333.4658074553274
 20
197.5183802417822
 30
0.0
  0
VERTEX
  5
16C
  8
0
  6
DOT
 62
     9
 10
-333.4692244235966
 20
197.6037843204319
 30
0.0
  0
VERTEX
  5
16D
  8
0
  6
DOT
 62
     9
 10
-333.4738230516921
 20
197.6327116305161
 30
0.0
  0
SEQEND
  5
333
  8
0
  6
DOT
 62
     9
  0
LINE
  5
8B
  8
0
  6
DOT
 62
     9
 10
-333.4738230516921
 20
196.1332256430528
 30
0.0
 11
-332.4999999999999
 21
196.1332256430528
 31
0.0
  0
LINE
  5
8C
  8
0
  6
DOT
 62
     9
 10
-333.4738230516921
 20
73.86677435694727
 30
0.0
 11
-332.4999999999999
 21
73.86677435694727
 31
0.0
  0
POLYLINE
  5
8D
  8
0
  6
DOT
 62
     9
 66
     1
 10
0.0
 20
0.0
 30
0.0
  0
VERTEX
  5
16E
  8
0
  6
DOT
 62
     9
 10
-333.4738230516921
 20
72.36728836948393
 30
0.0
  0
VERTEX
  5
16F
  8
0
  6
DOT
 62
     9
 10
-333.4692244235966
 20
72.39621567956809
 30
0.0
  0
VERTEX
  5
170
  8
0
  6
DOT
 62
     9
 10
-333.4658074553274
 20
72.48161975821786
 30
0.0
  0
VERTEX
  5
171
  8
0
  6
DOT
 62
     9
 10
-333.4637033448864
 20
72.62022142822401
 30
0.0
  0
VERTEX
  5
172
  8
0
  6
DOT
 62
     9
 10
-333.4629928817525
 20
72.80669893628581
 30
0.0
  0
VERTEX
  5
173
  8
0
  6
DOT
 62
     9
 10
-333.4637033448864
 20
73.03389228718827
 30
0.0
  0
VERTEX
  5
174
  8
0
  6
DOT
 62
     9
 10
-333.4658074553274
 20
73.29307815916319
 30
0.0
  0
VERTEX
  5
175
  8
0
  6
DOT
 62
     9
 10
-333.4692244235965
 20
73.5743048447772
 30
0.0
  0
VERTEX
  5
176
  8
0
  6
DOT
 62
     9
 10
-333.4738230516921
 20
73.86677435694726
 30
0.0
  0
SEQEND
  5
334
  8
0
  6
DOT
 62
     9
  0
LINE
  5
8E
  8
0
  6
DOT
 62
     9
 10
-333.4738230516921
 20
73.86677435694727
 30
0.0
 11
-347.4999999999999
 21
73.49948598746334
 31
0.0
  0
LINE
  5
8F
  8
0
  6
DOT
 62
     9
 10
-333.4738230516921
 20
196.1332256430528
 30
0.0
 11
-333.4738230516921
 21
192.7387306047764
 31
0.0
  0
LINE
  5
90
  8
0
  6
DOT
 62
     9
 10
-333.4738230516921
 20
167.8678023820206
 30
0.0
 11
-333.4738230516921
 21
102.1321976179794
 31
0.0
  0
LINE
  5
91
  8
0
  6
DOT
 62
     9
 10
-333.4738230516921
 20
77.26126939522364
 30
0.0
 11
-333.4738230516921
 21
73.86677435694727
 31
0.0
  0
ENDBLK
  8
0
  0
BLOCK
  8
0
  2
D_FRAME_VIEW_291
 70
     0
 10
0.0
 20
0.0
 30
0.0
  0
LINE
  5
96
  8
0
  6
CONTINUOUS
 62
     7
 10
-280.5005140125367
 20
17.5
 30
0.0
 11
-199.4994859874633
 21
17.5
 31
0.0
  0
LINE
  5
97
  8
0
  6
CONTINUOUS
 62
     9
 10
-280.1332256430527
 20
31.52617694830788
 30
0.0
 11
-280.5005140125367
 21
17.5
 31
0.0
  0
LINE
  5
98
  8
0
  6
CONTINUOUS
 62
     9
 10
-199.8667743569472
 20
31.52617694830788
 30
0.0
 11
-280.1332256430527
 21
31.52617694830788
 31
0.0
  0
LINE
  5
99
  8
0
  6
CONTINUOUS
 62
     9
 10
-199.4994859874633
 20
17.5
 30
0.0
 11
-199.8667743569472
 21
31.52617694830788
 31
0.0
  0
LINE
  5
9A
  8
0
  6
CONTINUOUS
 62
     7
 10
-280.5005140125367
 20
17.5
 30
0.0
 11
-281.9999999999999
 21
17.5
 31
0.0
  0
LINE
  5
9B
  8
0
  6
CONTINUOUS
 62
     7
 10
-281.9999999999999
 20
17.5
 30
0.0
 11
-281.632711630516
 21
31.52617694830788
 31
0.0
  0
POLYLINE
  5
9C
  8
0
  6
CONTINUOUS
 62
     9
 66
     1
 10
0.0
 20
0.0
 30
0.0
  0
VERTEX
  5
177
  8
0
  6
CONTINUOUS
 62
     9
 10
-280.1332256430528
 20
31.52617694830787
 30
0.0
  0
VERTEX
  5
178
  8
0
  6
CONTINUOUS
 62
     9
 10
-280.4256951552227
 20
31.53077557640338
 30
0.0
  0
VERTEX
  5
179
  8
0
  6
CONTINUOUS
 62
     9
 10
-280.7069218408368
 20
31.53419254467257
 30
0.0
  0
VERTEX
  5
17A
  8
0
  6
CONTINUOUS
 62
     9
 10
-280.9661077128117
 20
31.53629665511356
 30
0.0
  0
VERTEX
  5
17B
  8
0
  6
CONTINUOUS
 62
     9
 10
-281.1933010637142
 20
31.5370071182475
 30
0.0
  0
VERTEX
  5
17C
  8
0
  6
CONTINUOUS
 62
     9
 10
-281.379778571776
 20
31.53629665511356
 30
0.0
  0
VERTEX
  5
17D
  8
0
  6
CONTINUOUS
 62
     9
 10
-281.5183802417821
 20
31.53419254467258
 30
0.0
  0
VERTEX
  5
17E
  8
0
  6
CONTINUOUS
 62
     9
 10
-281.6037843204319
 20
31.53077557640338
 30
0.0
  0
VERTEX
  5
17F
  8
0
  6
CONTINUOUS
 62
     9
 10
-281.632711630516
 20
31.52617694830787
 30
0.0
  0
SEQEND
  5
335
  8
0
  6
CONTINUOUS
 62
     9
  0
LINE
  5
9D
  8
0
  6
CONTINUOUS
 62
     7
 10
-198.0
 20
17.5
 30
0.0
 11
-199.4994859874633
 21
17.5
 31
0.0
  0
POLYLINE
  5
9E
  8
0
  6
CONTINUOUS
 62
     9
 66
     1
 10
0.0
 20
0.0
 30
0.0
  0
VERTEX
  5
180
  8
0
  6
CONTINUOUS
 62
     9
 10
-198.3672883694839
 20
31.52617694830787
 30
0.0
  0
VERTEX
  5
181
  8
0
  6
CONTINUOUS
 62
     9
 10
-198.3962156795681
 20
31.53077557640338
 30
0.0
  0
VERTEX
  5
182
  8
0
  6
CONTINUOUS
 62
     9
 10
-198.4816197582178
 20
31.53419254467257
 30
0.0
  0
VERTEX
  5
183
  8
0
  6
CONTINUOUS
 62
     9
 10
-198.620221428224
 20
31.53629665511356
 30
0.0
  0
VERTEX
  5
184
  8
0
  6
CONTINUOUS
 62
     9
 10
-198.8066989362858
 20
31.5370071182475
 30
0.0
  0
VERTEX
  5
185
  8
0
  6
CONTINUOUS
 62
     9
 10
-199.0338922871883
 20
31.53629665511356
 30
0.0
  0
VERTEX
  5
186
  8
0
  6
CONTINUOUS
 62
     9
 10
-199.2930781591632
 20
31.53419254467257
 30
0.0
  0
VERTEX
  5
187
  8
0
  6
CONTINUOUS
 62
     9
 10
-199.5743048447772
 20
31.53077557640338
 30
0.0
  0
VERTEX
  5
188
  8
0
  6
CONTINUOUS
 62
     9
 10
-199.8667743569472
 20
31.52617694830787
 30
0.0
  0
SEQEND
  5
336
  8
0
  6
CONTINUOUS
 62
     9
  0
LINE
  5
9F
  8
0
  6
CONTINUOUS
 62
     7
 10
-198.3672883694839
 20
31.52617694830788
 30
0.0
 11
-198.0
 21
17.5
 31
0.0
  0
LINE
  5
A0
  8
0
  6
CONTINUOUS
 62
     7
 10
-199.8667743569472
 20
32.5
 30
0.0
 11
-199.3669456944594
 21
32.5
 31
0.0
  0
ARC
  5
A1
  8
0
  6
CONTINUOUS
 62
     7
 10
-199.3669456944594
 20
31.5
 30
0.0
 40
1.000000000000001
 50
1.500000000000341
 51
90.0
  0
LINE
  5
A2
  8
0
  6
CONTINUOUS
 62
     9
 10
-199.8667743569472
 20
32.5
 30
0.0
 11
-199.8667743569472
 21
31.52617694830788
 31
0.0
  0
LINE
  5
A3
  8
0
  6
CONTINUOUS
 62
     7
 10
-280.1332256430527
 20
32.5
 30
0.0
 11
-199.8667743569472
 21
32.5
 31
0.0
  0
LINE
  5
A4
  8
0
  6
CONTINUOUS
 62
     9
 10
-280.1332256430527
 20
32.5
 30
0.0
 11
-280.1332256430527
 21
31.52617694830788
 31
0.0
  0
LINE
  5
A5
  8
0
  6
CONTINUOUS
 62
     7
 10
-280.6330543055405
 20
32.5
 30
0.0
 11
-280.1332256430527
 21
32.5
 31
0.0
  0
ARC
  5
A6
  8
0
  6
CONTINUOUS
 62
     7
 10
-280.6330543055405
 20
31.50000000000001
 30
0.0
 40
0.9999999999999764
 50
90.0
 51
178.5
  0
LINE
  5
A7
  8
0
  6
DOT
 62
     9
 10
-263.25
 20
17.5
 30
0.0
 11
-263.0894571330083
 21
23.63088474153937
 31
0.0
  0
LINE
  5
A8
  8
0
  6
DOT
 62
     9
 10
-244.75
 20
17.5
 30
0.0
 11
-244.9105428669916
 21
23.63088474153937
 31
0.0
  0
ARC
  5
A9
  8
0
  6
DOT
 62
     9
 10
-249.9088294918695
 20
23.5
 30
0.0
 40
5.000000000000004
 50
1.5
 51
90.0
  0
ARC
  5
AA
  8
0
  6
DOT
 62
     9
 10
-258.0911705081305
 20
23.5
 30
0.0
 40
5.000000000000004
 50
90.0
 51
178.5
  0
LINE
  5
AB
  8
0
  6
DOT
 62
     9
 10
-249.9088294918695
 20
28.5
 30
0.0
 11
-258.0911705081305
 21
28.5
 31
0.0
  0
LINE
  5
AC
  8
0
  6
DOT
 62
     9
 10
-263.8678023820206
 20
31.52617694830788
 30
0.0
 11
-245.2387306047764
 21
31.52617694830788
 31
0.0
  0
LINE
  5
AD
  8
0
  6
DOT
 62
     9
 10
-245.2387306047764
 20
31.52617694830789
 30
0.0
 11
-263.8678023820206
 21
31.52617694830789
 31
0.0
  0
LINE
  5
AE
  8
0
  6
DOT
 62
     9
 10
-199.8667743569473
 20
32.50000000000001
 30
0.0
 11
-199.8667743569473
 21
31.52617694830789
 31
0.0
  0
POLYLINE
  5
AF
  8
0
  6
DOT
 62
     9
 66
     1
 10
0.0
 20
0.0
 30
0.0
  0
VERTEX
  5
189
  8
0
  6
DOT
 62
     9
 10
-198.3672883694839
 20
31.52617694830789
 30
0.0
  0
VERTEX
  5
18A
  8
0
  6
DOT
 62
     9
 10
-198.3962156795681
 20
31.5307755764034
 30
0.0
  0
VERTEX
  5
18B
  8
0
  6
DOT
 62
     9
 10
-198.4816197582178
 20
31.53419254467259
 30
0.0
  0
VERTEX
  5
18C
  8
0
  6
DOT
 62
     9
 10
-198.620221428224
 20
31.53629665511357
 30
0.0
  0
VERTEX
  5
18D
  8
0
  6
DOT
 62
     9
 10
-198.8066989362858
 20
31.53700711824752
 30
0.0
  0
VERTEX
  5
18E
  8
0
  6
DOT
 62
     9
 10
-199.0338922871883
 20
31.53629665511357
 30
0.0
  0
VERTEX
  5
18F
  8
0
  6
DOT
 62
     9
 10
-199.2930781591632
 20
31.53419254467259
 30
0.0
  0
VERTEX
  5
190
  8
0
  6
DOT
 62
     9
 10
-199.5743048447772
 20
31.5307755764034
 30
0.0
  0
VERTEX
  5
191
  8
0
  6
DOT
 62
     9
 10
-199.8667743569472
 20
31.52617694830789
 30
0.0
  0
SEQEND
  5
337
  8
0
  6
DOT
 62
     9
  0
LINE
  5
B0
  8
0
  6
DOT
 62
     9
 10
-199.8667743569473
 20
31.52617694830789
 30
0.0
 11
-199.4994859874633
 21
17.50000000000001
 31
0.0
  0
LINE
  5
B1
  8
0
  6
DOT
 62
     9
 10
-280.5005140125367
 20
17.50000000000001
 30
0.0
 11
-280.1332256430527
 21
31.52617694830789
 31
0.0
  0
POLYLINE
  5
B2
  8
0
  6
DOT
 62
     9
 66
     1
 10
0.0
 20
0.0
 30
0.0
  0
VERTEX
  5
192
  8
0
  6
DOT
 62
     9
 10
-280.1332256430528
 20
31.52617694830789
 30
0.0
  0
VERTEX
  5
193
  8
0
  6
DOT
 62
     9
 10
-280.4256951552227
 20
31.5307755764034
 30
0.0
  0
VERTEX
  5
194
  8
0
  6
DOT
 62
     9
 10
-280.7069218408368
 20
31.5341925446726
 30
0.0
  0
VERTEX
  5
195
  8
0
  6
DOT
 62
     9
 10
-280.9661077128117
 20
31.53629665511358
 30
0.0
  0
VERTEX
  5
196
  8
0
  6
DOT
 62
     9
 10
-281.1933010637142
 20
31.53700711824752
 30
0.0
  0
VERTEX
  5
197
  8
0
  6
DOT
 62
     9
 10
-281.379778571776
 20
31.53629665511358
 30
0.0
  0
VERTEX
  5
198
  8
0
  6
DOT
 62
     9
 10
-281.5183802417821
 20
31.5341925446726
 30
0.0
  0
VERTEX
  5
199
  8
0
  6
DOT
 62
     9
 10
-281.6037843204319
 20
31.5307755764034
 30
0.0
  0
VERTEX
  5
19A
  8
0
  6
DOT
 62
     9
 10
-281.632711630516
 20
31.52617694830789
 30
0.0
  0
SEQEND
  5
338
  8
0
  6
DOT
 62
     9
  0
LINE
  5
B3
  8
0
  6
DOT
 62
     9
 10
-280.1332256430527
 20
32.50000000000001
 30
0.0
 11
-280.1332256430527
 21
31.52617694830789
 31
0.0
  0
LINE
  5
B4
  8
0
  6
DOT
 62
     9
 10
-280.1332256430527
 20
31.52617694830789
 30
0.0
 11
-263.8678023820206
 21
31.52617694830789
 31
0.0
  0
LINE
  5
B5
  8
0
  6
DOT
 62
     9
 10
-263.8678023820206
 20
31.52617694830789
 30
0.0
 11
-245.2387306047764
 21
31.52617694830789
 31
0.0
  0
LINE
  5
B6
  8
0
  6
DOT
 62
     9
 10
-216.1321976179794
 20
31.52617694830789
 30
0.0
 11
-199.8667743569473
 21
31.52617694830789
 31
0.0
  0
ENDBLK
  8
0
  0
BLOCK
  8
0
  2
D_FRAME_VIEW_36
 70
     0
 10
0.0
 20
0.0
 30
0.0
  0
CIRCLE
  5
BB
  8
0
  6
CONTINUOUS
 62
     7
 10
-240.0
 20
187.5
 30
0.0
 40
5.264231058830235
  0
POLYLINE
  5
BC
  8
0
  6
CONTINUOUS
 62
     9
 66
     1
 10
0.0
 20
0.0
 30
0.0
  0
VERTEX
  5
19D
  8
0
  6
CONTINUOUS
 62
     9
 10
-214.632711630516
 20
167.8678023820206
 30
0.0
  0
VERTEX
  5
19E
  8
0
  6
CONTINUOUS
 62
     9
 10
-214.6613981019709
 20
168.1605127328199
 30
0.0
  0
VERTEX
  5
19F
  8
0
  6
CONTINUOUS
 62
     9
 10
-214.7466232276945
 20
168.4419183713601
 30
0.0
  0
VERTEX
  5
1A0
  8
0
  6
CONTINUOUS
 62
     9
 10
-214.8851147015587
 20
168.701214439477
 30
0.0
  0
VERTEX
  5
1A1
  8
0
  6
CONTINUOUS
 62
     9
 10
-215.0715550013567
 20
168.9284449986433
 30
0.0
  0
VERTEX
  5
1A2
  8
0
  6
CONTINUOUS
 62
     9
 10
-215.2987855605229
 20
169.1148852984413
 30
0.0
  0
VERTEX
  5
1A3
  8
0
  6
CONTINUOUS
 62
     9
 10
-215.5580816286398
 20
169.2533767723055
 30
0.0
  0
VERTEX
  5
1A4
  8
0
  6
CONTINUOUS
 62
     9
 10
-215.8394872671801
 20
169.3386018980291
 30
0.0
  0
VERTEX
  5
1A5
  8
0
  6
CONTINUOUS
 62
     9
 10
-216.1321976179794
 20
169.367288369484
 30
0.0
  0
SEQEND
  5
339
  8
0
  6
CONTINUOUS
 62
     9
  0
LINE
  5
BD
  8
0
  6
CONTINUOUS
 62
     9
 10
-216.1321976179794
 20
169.367288369484
 30
0.0
 11
-216.1321976179794
 21
170.3669456944595
 31
0.0
  0
POLYLINE
  5
BE
  8
0
  6
CONTINUOUS
 62
     9
 66
     1
 10
0.0
 20
0.0
 30
0.0
  0
VERTEX
  5
1A6
  8
0
  6
CONTINUOUS
 62
     9
 10
-213.6330543055405
 20
167.8678023820206
 30
0.0
  0
VERTEX
  5
1A7
  8
0
  6
CONTINUOUS
 62
     9
 10
-213.6810657901564
 20
168.3554522678284
 30
0.0
  0
VERTEX
  5
1A8
  8
0
  6
CONTINUOUS
 62
     9
 10
-213.8232567938008
 20
168.824312537957
 30
0.0
  0
VERTEX
  5
1A9
  8
0
  6
CONTINUOUS
 62
     9
 10
-214.0541677470261
 20
169.2563808213668
 30
0.0
  0
VERTEX
  5
1AA
  8
0
  6
CONTINUOUS
 62
     9
 10
-214.3649325869093
 20
169.6350674130907
 30
0.0
  0
VERTEX
  5
1AB
  8
0
  6
CONTINUOUS
 62
     9
 10
-214.7436191786332
 20
169.9458322529739
 30
0.0
  0
VERTEX
  5
1AC
  8
0
  6
CONTINUOUS
 62
     9
 10
-215.175687462043
 20
170.1767432061992
 30
0.0
  0
VERTEX
  5
1AD
  8
0
  6
CONTINUOUS
 62
     9
 10
-215.6445477321716
 20
170.3189342098436
 30
0.0
  0
VERTEX
  5
1AE
  8
0
  6
CONTINUOUS
 62
     9
 10
-216.1321976179794
 20
170.3669456944595
 30
0.0
  0
SEQEND
  5
33A
  8
0
  6
CONTINUOUS
 62
     9
  0
LINE
  5
BF
  8
0
  6
CONTINUOUS
 62
     9
 10
-214.632711630516
 20
167.8678023820206
 30
0.0
 11
-213.6330543055405
 21
167.8678023820206
 31
0.0
  0
POLYLINE
  5
C0
  8
0
  6
CONTINUOUS
 62
     9
 66
     1
 10
0.0
 20
0.0
 30
0.0
  0
VERTEX
  5
1AF
  8
0
  6
CONTINUOUS
 62
     9
 10
-263.8678023820205
 20
170.3669456944595
 30
0.0
  0
VERTEX
  5
1B0
  8
0
  6
CONTINUOUS
 62
     9
 10
-264.3554522678284
 20
170.3189342098436
 30
0.0
  0
VERTEX
  5
1B1
  8
0
  6
CONTINUOUS
 62
     9
 10
-264.8243125379569
 20
170.1767432061992
 30
0.0
  0
VERTEX
  5
1B2
  8
0
  6
CONTINUOUS
 62
     9
 10
-265.2563808213667
 20
169.9458322529739
 30
0.0
  0
VERTEX
  5
1B3
  8
0
  6
CONTINUOUS
 62
     9
 10
-265.6350674130907
 20
169.6350674130907
 30
0.0
  0
VERTEX
  5
1B4
  8
0
  6
CONTINUOUS
 62
     9
 10
-265.9458322529738
 20
169.2563808213668
 30
0.0
  0
VERTEX
  5
1B5
  8
0
  6
CONTINUOUS
 62
     9
 10
-266.1767432061991
 20
168.824312537957
 30
0.0
  0
VERTEX
  5
1B6
  8
0
  6
CONTINUOUS
 62
     9
 10
-266.3189342098436
 20
168.3554522678284
 30
0.0
  0
VERTEX
  5
1B7
  8
0
  6
CONTINUOUS
 62
     9
 10
-266.3669456944594
 20
167.8678023820206
 30
0.0
  0
SEQEND
  5
33B
  8
0
  6
CONTINUOUS
 62
     9
  0
LINE
  5
C1
  8
0
  6
CONTINUOUS
 62
     9
 10
-263.8678023820206
 20
170.3669456944595
 30
0.0
 11
-263.8678023820206
 21
169.3672883694839
 31
0.0
  0
POLYLINE
  5
C2
  8
0
  6
CONTINUOUS
 62
     9
 66
     1
 10
0.0
 20
0.0
 30
0.0
  0
VERTEX
  5
1B8
  8
0
  6
CONTINUOUS
 62
     9
 10
-263.8678023820206
 20
169.367288369484
 30
0.0
  0
VERTEX
  5
1B9
  8
0
  6
CONTINUOUS
 62
     9
 10
-264.1605127328199
 20
169.3386018980291
 30
0.0
  0
VERTEX
  5
1BA
  8
0
  6
CONTINUOUS
 62
     9
 10
-264.4419183713601
 20
169.2533767723055
 30
0.0
  0
VERTEX
  5
1BB
  8
0
  6
CONTINUOUS
 62
     9
 10
-264.701214439477
 20
169.1148852984413
 30
0.0
  0
VERTEX
  5
1BC
  8
0
  6
CONTINUOUS
 62
     9
 10
-264.9284449986432
 20
168.9284449986433
 30
0.0
  0
VERTEX
  5
1BD
  8
0
  6
CONTINUOUS
 62
     9
 10
-265.1148852984412
 20
168.7012144394771
 30
0.0
  0
VERTEX
  5
1BE
  8
0
  6
CONTINUOUS
 62
     9
 10
-265.2533767723054
 20
168.4419183713602
 30
0.0
  0
VERTEX
  5
1BF
  8
0
  6
CONTINUOUS
 62
     9
 10
-265.338601898029
 20
168.1605127328199
 30
0.0
  0
VERTEX
  5
1C0
  8
0
  6
CONTINUOUS
 62
     9
 10
-265.3672883694839
 20
167.8678023820206
 30
0.0
  0
SEQEND
  5
33C
  8
0
  6
CONTINUOUS
 62
     9
  0
LINE
  5
C3
  8
0
  6
CONTINUOUS
 62
     9
 10
-266.3669456944594
 20
167.8678023820206
 30
0.0
 11
-265.3672883694839
 21
167.8678023820206
 31
0.0
  0
LINE
  5
C4
  8
0
  6
CONTINUOUS
 62
     9
 10
-216.1321976179794
 20
169.367288369484
 30
0.0
 11
-263.8678023820206
 21
169.367288369484
 31
0.0
  0
LINE
  5
C5
  8
0
  6
CONTINUOUS
 62
     9
 10
-263.8678023820206
 20
170.3669456944595
 30
0.0
 11
-216.1321976179794
 21
170.3669456944595
 31
0.0
  0
LINE
  5
C6
  8
0
  6
CONTINUOUS
 62
     9
 10
-266.3669456944594
 20
102.1321976179794
 30
0.0
 11
-266.3669456944594
 21
167.8678023820206
 31
0.0
  0
POLYLINE
  5
C7
  8
0
  6
CONTINUOUS
 62
     9
 66
     1
 10
0.0
 20
0.0
 30
0.0
  0
VERTEX
  5
1C1
  8
0
  6
CONTINUOUS
 62
     9
 10
-266.3669456944594
 20
102.1321976179794
 30
0.0
  0
VERTEX
  5
1C2
  8
0
  6
CONTINUOUS
 62
     9
 10
-266.3189342098436
 20
101.6445477321716
 30
0.0
  0
VERTEX
  5
1C3
  8
0
  6
CONTINUOUS
 62
     9
 10
-266.1767432061991
 20
101.1756874620431
 30
0.0
  0
VERTEX
  5
1C4
  8
0
  6
CONTINUOUS
 62
     9
 10
-265.9458322529738
 20
100.7436191786332
 30
0.0
  0
VERTEX
  5
1C5
  8
0
  6
CONTINUOUS
 62
     9
 10
-265.6350674130907
 20
100.3649325869093
 30
0.0
  0
VERTEX
  5
1C6
  8
0
  6
CONTINUOUS
 62
     9
 10
-265.2563808213667
 20
100.0541677470261
 30
0.0
  0
VERTEX
  5
1C7
  8
0
  6
CONTINUOUS
 62
     9
 10
-264.8243125379569
 20
99.82325679380085
 30
0.0
  0
VERTEX
  5
1C8
  8
0
  6
CONTINUOUS
 62
     9
 10
-264.3554522678284
 20
99.68106579015638
 30
0.0
  0
VERTEX
  5
1C9
  8
0
  6
CONTINUOUS
 62
     9
 10
-263.8678023820205
 20
99.63305430554051
 30
0.0
  0
SEQEND
  5
33D
  8
0
  6
CONTINUOUS
 62
     9
  0
LINE
  5
C8
  8
0
  6
CONTINUOUS
 62
     9
 10
-216.1321976179794
 20
99.63305430554053
 30
0.0
 11
-263.8678023820206
 21
99.63305430554053
 31
0.0
  0
POLYLINE
  5
C9
  8
0
  6
CONTINUOUS
 62
     9
 66
     1
 10
0.0
 20
0.0
 30
0.0
  0
VERTEX
  5
1CA
  8
0
  6
CONTINUOUS
 62
     9
 10
-216.1321976179794
 20
99.63305430554051
 30
0.0
  0
VERTEX
  5
1CB
  8
0
  6
CONTINUOUS
 62
     9
 10
-215.6445477321716
 20
99.68106579015637
 30
0.0
  0
VERTEX
  5
1CC
  8
0
  6
CONTINUOUS
 62
     9
 10
-215.175687462043
 20
99.82325679380085
 30
0.0
  0
VERTEX
  5
1CD
  8
0
  6
CONTINUOUS
 62
     9
 10
-214.7436191786331
 20
100.0541677470261
 30
0.0
  0
VERTEX
  5
1CE
  8
0
  6
CONTINUOUS
 62
     9
 10
-214.3649325869092
 20
100.3649325869093
 30
0.0
  0
VERTEX
  5
1CF
  8
0
  6
CONTINUOUS
 62
     9
 10
-214.0541677470261
 20
100.7436191786332
 30
0.0
  0
VERTEX
  5
1D0
  8
0
  6
CONTINUOUS
 62
     9
 10
-213.8232567938008
 20
101.1756874620431
 30
0.0
  0
VERTEX
  5
1D1
  8
0
  6
CONTINUOUS
 62
     9
 10
-213.6810657901563
 20
101.6445477321716
 30
0.0
  0
VERTEX
  5
1D2
  8
0
  6
CONTINUOUS
 62
     9
 10
-213.6330543055405
 20
102.1321976179794
 30
0.0
  0
SEQEND
  5
33E
  8
0
  6
CONTINUOUS
 62
     9
  0
LINE
  5
CA
  8
0
  6
CONTINUOUS
 62
     9
 10
-213.6330543055405
 20
167.8678023820206
 30
0.0
 11
-213.6330543055405
 21
102.1321976179794
 31
0.0
  0
POLYLINE
  5
CB
  8
0
  6
CONTINUOUS
 62
     9
 66
     1
 10
0.0
 20
0.0
 30
0.0
  0
VERTEX
  5
1D3
  8
0
  6
CONTINUOUS
 62
     9
 10
-199.8667743569473
 20
73.36694569445949
 30
0.0
  0
VERTEX
  5
1D4
  8
0
  6
CONTINUOUS
 62
     9
 10
-199.7692443797857
 20
73.37654799138267
 30
0.0
  0
VERTEX
  5
1D5
  8
0
  6
CONTINUOUS
 62
     9
 10
-199.67547232576
 20
73.40498619211156
 30
0.0
  0
VERTEX
  5
1D6
  8
0
  6
CONTINUOUS
 62
     9
 10
-199.589058669078
 20
73.45116838275662
 30
0.0
  0
VERTEX
  5
1D7
  8
0
  6
CONTINUOUS
 62
     9
 10
-199.5133213507332
 20
73.51332135073325
 30
0.0
  0
VERTEX
  5
1D8
  8
0
  6
CONTINUOUS
 62
     9
 10
-199.4511683827566
 20
73.58905866907803
 30
0.0
  0
VERTEX
  5
1D9
  8
0
  6
CONTINUOUS
 62
     9
 10
-199.4049861921116
 20
73.67547232576
 30
0.0
  0
VERTEX
  5
1DA
  8
0
  6
CONTINUOUS
 62
     9
 10
-199.3765479913827
 20
73.7692443797857
 30
0.0
  0
VERTEX
  5
1DB
  8
0
  6
CONTINUOUS
 62
     9
 10
-199.3669456944595
 20
73.86677435694726
 30
0.0
  0
SEQEND
  5
33F
  8
0
  6
CONTINUOUS
 62
     9
  0
LINE
  5
CC
  8
0
  6
CONTINUOUS
 62
     9
 10
-280.1332256430527
 20
73.36694569445947
 30
0.0
 11
-199.8667743569472
 21
73.36694569445947
 31
0.0
  0
POLYLINE
  5
CD
  8
0
  6
CONTINUOUS
 62
     9
 66
     1
 10
0.0
 20
0.0
 30
0.0
  0
VERTEX
  5
1DC
  8
0
  6
CONTINUOUS
 62
     9
 10
-280.6330543055405
 20
73.86677435694726
 30
0.0
  0
VERTEX
  5
1DD
  8
0
  6
CONTINUOUS
 62
     9
 10
-280.6234520086173
 20
73.7692443797857
 30
0.0
  0
VERTEX
  5
1DE
  8
0
  6
CONTINUOUS
 62
     9
 10
-280.5950138078884
 20
73.67547232576
 30
0.0
  0
VERTEX
  5
1DF
  8
0
  6
CONTINUOUS
 62
     9
 10
-280.5488316172434
 20
73.58905866907803
 30
0.0
  0
VERTEX
  5
1E0
  8
0
  6
CONTINUOUS
 62
     9
 10
-280.4866786492668
 20
73.51332135073325
 30
0.0
  0
VERTEX
  5
1E1
  8
0
  6
CONTINUOUS
 62
     9
 10
-280.410941330922
 20
73.45116838275662
 30
0.0
  0
VERTEX
  5
1E2
  8
0
  6
CONTINUOUS
 62
     9
 10
-280.32452767424
 20
73.40498619211156
 30
0.0
  0
VERTEX
  5
1E3
  8
0
  6
CONTINUOUS
 62
     9
 10
-280.2307556202143
 20
73.37654799138267
 30
0.0
  0
VERTEX
  5
1E4
  8
0
  6
CONTINUOUS
 62
     9
 10
-280.1332256430528
 20
73.36694569445949
 30
0.0
  0
SEQEND
  5
340
  8
0
  6
CONTINUOUS
 62
     9
  0
LINE
  5
CE
  8
0
  6
CONTINUOUS
 62
     9
 10
-280.6330543055405
 20
196.1332256430528
 30
0.0
 11
-280.6330543055405
 21
73.86677435694727
 31
0.0
  0
POLYLINE
  5
CF
  8
0
  6
CONTINUOUS
 62
     9
 66
     1
 10
0.0
 20
0.0
 30
0.0
  0
VERTEX
  5
1E5
  8
0
  6
CONTINUOUS
 62
     9
 10
-280.1332256430528
 20
196.6330543055405
 30
0.0
  0
VERTEX
  5
1E6
  8
0
  6
CONTINUOUS
 62
     9
 10
-280.2307556202143
 20
196.6234520086173
 30
0.0
  0
VERTEX
  5
1E7
  8
0
  6
CONTINUOUS
 62
     9
 10
-280.32452767424
 20
196.5950138078884
 30
0.0
  0
VERTEX
  5
1E8
  8
0
  6
CONTINUOUS
 62
     9
 10
-280.410941330922
 20
196.5488316172434
 30
0.0
  0
VERTEX
  5
1E9
  8
0
  6
CONTINUOUS
 62
     9
 10
-280.4866786492668
 20
196.4866786492668
 30
0.0
  0
VERTEX
  5
1EA
  8
0
  6
CONTINUOUS
 62
     9
 10
-280.5488316172434
 20
196.410941330922
 30
0.0
  0
VERTEX
  5
1EB
  8
0
  6
CONTINUOUS
 62
     9
 10
-280.5950138078884
 20
196.32452767424
 30
0.0
  0
VERTEX
  5
1EC
  8
0
  6
CONTINUOUS
 62
     9
 10
-280.6234520086173
 20
196.2307556202143
 30
0.0
  0
VERTEX
  5
1ED
  8
0
  6
CONTINUOUS
 62
     9
 10
-280.6330543055405
 20
196.1332256430527
 30
0.0
  0
SEQEND
  5
341
  8
0
  6
CONTINUOUS
 62
     9
  0
LINE
  5
D0
  8
0
  6
CONTINUOUS
 62
     9
 10
-199.8667743569473
 20
196.6330543055405
 30
0.0
 11
-280.1332256430528
 21
196.6330543055405
 31
0.0
  0
POLYLINE
  5
D1
  8
0
  6
CONTINUOUS
 62
     9
 66
     1
 10
0.0
 20
0.0
 30
0.0
  0
VERTEX
  5
1EE
  8
0
  6
CONTINUOUS
 62
     9
 10
-199.3669456944595
 20
196.1332256430527
 30
0.0
  0
VERTEX
  5
1EF
  8
0
  6
CONTINUOUS
 62
     9
 10
-199.3765479913826
 20
196.2307556202143
 30
0.0
  0
VERTEX
  5
1F0
  8
0
  6
CONTINUOUS
 62
     9
 10
-199.4049861921116
 20
196.32452767424
 30
0.0
  0
VERTEX
  5
1F1
  8
0
  6
CONTINUOUS
 62
     9
 10
-199.4511683827566
 20
196.410941330922
 30
0.0
  0
VERTEX
  5
1F2
  8
0
  6
CONTINUOUS
 62
     9
 10
-199.5133213507332
 20
196.4866786492668
 30
0.0
  0
VERTEX
  5
1F3
  8
0
  6
CONTINUOUS
 62
     9
 10
-199.589058669078
 20
196.5488316172434
 30
0.0
  0
VERTEX
  5
1F4
  8
0
  6
CONTINUOUS
 62
     9
 10
-199.67547232576
 20
196.5950138078884
 30
0.0
  0
VERTEX
  5
1F5
  8
0
  6
CONTINUOUS
 62
     9
 10
-199.7692443797857
 20
196.6234520086174
 30
0.0
  0
VERTEX
  5
1F6
  8
0
  6
CONTINUOUS
 62
     9
 10
-199.8667743569473
 20
196.6330543055405
 30
0.0
  0
SEQEND
  5
342
  8
0
  6
CONTINUOUS
 62
     9
  0
LINE
  5
D2
  8
0
  6
CONTINUOUS
 62
     9
 10
-199.3669456944594
 20
73.86677435694727
 30
0.0
 11
-199.3669456944594
 21
196.1332256430528
 31
0.0
  0
CIRCLE
  5
D3
  8
0
  6
CONTINUOUS
 62
     7
 10
-240.0
 20
82.49999999999999
 30
0.0
 40
5.264231058830235
  0
CIRCLE
  5
D4
  8
0
  6
CONTINUOUS
 62
     7
 10
-240.0
 20
176.75
 30
0.0
 40
2.58090301686138
  0
CIRCLE
  5
D5
  8
0
  6
CONTINUOUS
 62
     7
 10
-240.0
 20
93.25
 30
0.0
 40
2.58090301686138
  0
LINE
  5
D6
  8
0
  6
CONTINUOUS
 62
     7
 10
-234.0
 20
82.50000000000001
 30
0.0
 11
-202.0
 21
82.50000000000001
 31
0.0
  0
LINE
  5
D7
  8
0
  6
CONTINUOUS
 62
     7
 10
-202.0
 20
82.50000000000001
 30
0.0
 11
-202.0
 21
97.50000000000001
 31
0.0
  0
LINE
  5
D8
  8
0
  6
CONTINUOUS
 62
     7
 10
-202.0
 20
97.5
 30
0.0
 11
-234.0
 21
97.5
 31
0.0
  0
LINE
  5
D9
  8
0
  6
CONTINUOUS
 62
     7
 10
-234.0
 20
97.5
 30
0.0
 11
-234.0
 21
82.5
 31
0.0
  0
LINE
  5
DA
  8
0
  6
CONTINUOUS
 62
     9
 10
-280.1332256430527
 20
197.6327116305161
 30
0.0
 11
-280.1332256430527
 21
196.6330543055405
 31
0.0
  0
LINE
  5
DB
  8
0
  6
CONTINUOUS
 62
     9
 10
-281.632711630516
 20
196.1332256430528
 30
0.0
 11
-280.6330543055405
 21
196.1332256430528
 31
0.0
  0
LINE
  5
DC
  8
0
  6
CONTINUOUS
 62
     9
 10
-199.3669456944595
 20
196.1332256430528
 30
0.0
 11
-198.3672883694839
 21
196.1332256430528
 31
0.0
  0
LINE
  5
DD
  8
0
  6
CONTINUOUS
 62
     9
 10
-199.3669456944594
 20
73.86677435694727
 30
0.0
 11
-198.3672883694839
 21
73.86677435694727
 31
0.0
  0
LINE
  5
DE
  8
0
  6
CONTINUOUS
 62
     9
 10
-199.8667743569473
 20
197.6327116305161
 30
0.0
 11
-199.8667743569473
 21
196.6330543055405
 31
0.0
  0
LINE
  5
DF
  8
0
  6
CONTINUOUS
 62
     9
 10
-263.8678023820206
 20
100.6327116305161
 30
0.0
 11
-216.1321976179794
 21
100.6327116305161
 31
0.0
  0
LINE
  5
E0
  8
0
  6
CONTINUOUS
 62
     9
 10
-216.1321976179794
 20
100.6327116305161
 30
0.0
 11
-216.1321976179794
 21
99.63305430554051
 31
0.0
  0
LINE
  5
E1
  8
0
  6
CONTINUOUS
 62
     9
 10
-263.8678023820206
 20
99.63305430554053
 30
0.0
 11
-263.8678023820206
 21
100.6327116305161
 31
0.0
  0
POLYLINE
  5
E2
  8
0
  6
CONTINUOUS
 62
     9
 66
     1
 10
0.0
 20
0.0
 30
0.0
  0
VERTEX
  5
1F7
  8
0
  6
CONTINUOUS
 62
     9
 10
-216.1321976179794
 20
100.6327116305161
 30
0.0
  0
VERTEX
  5
1F8
  8
0
  6
CONTINUOUS
 62
     9
 10
-215.8394872671801
 20
100.661398101971
 30
0.0
  0
VERTEX
  5
1F9
  8
0
  6
CONTINUOUS
 62
     9
 10
-215.5580816286398
 20
100.7466232276945
 30
0.0
  0
VERTEX
  5
1FA
  8
0
  6
CONTINUOUS
 62
     9
 10
-215.2987855605229
 20
100.8851147015587
 30
0.0
  0
VERTEX
  5
1FB
  8
0
  6
CONTINUOUS
 62
     9
 10
-215.0715550013567
 20
101.0715550013567
 30
0.0
  0
VERTEX
  5
1FC
  8
0
  6
CONTINUOUS
 62
     9
 10
-214.8851147015587
 20
101.298785560523
 30
0.0
  0
VERTEX
  5
1FD
  8
0
  6
CONTINUOUS
 62
     9
 10
-214.7466232276945
 20
101.5580816286399
 30
0.0
  0
VERTEX
  5
1FE
  8
0
  6
CONTINUOUS
 62
     9
 10
-214.6613981019709
 20
101.8394872671801
 30
0.0
  0
VERTEX
  5
1FF
  8
0
  6
CONTINUOUS
 62
     9
 10
-214.632711630516
 20
102.1321976179794
 30
0.0
  0
SEQEND
  5
343
  8
0
  6
CONTINUOUS
 62
     9
  0
LINE
  5
E3
  8
0
  6
CONTINUOUS
 62
     9
 10
-214.632711630516
 20
102.1321976179794
 30
0.0
 11
-213.6330543055405
 21
102.1321976179794
 31
0.0
  0
LINE
  5
E4
  8
0
  6
CONTINUOUS
 62
     9
 10
-214.632711630516
 20
102.1321976179794
 30
0.0
 11
-214.632711630516
 21
167.8678023820206
 31
0.0
  0
LINE
  5
E5
  8
0
  6
CONTINUOUS
 62
     9
 10
-280.1332256430527
 20
73.36694569445947
 30
0.0
 11
-280.1332256430527
 21
72.36728836948392
 31
0.0
  0
LINE
  5
E6
  8
0
  6
CONTINUOUS
 62
     9
 10
-281.632711630516
 20
73.86677435694727
 30
0.0
 11
-280.6330543055405
 21
73.86677435694727
 31
0.0
  0
LINE
  5
E7
  8
0
  6
CONTINUOUS
 62
     9
 10
-199.8667743569472
 20
73.36694569445949
 30
0.0
 11
-199.8667743569472
 21
72.36728836948393
 31
0.0
  0
CIRCLE
  5
E8
  8
0
  6
CONTINUOUS
 62
     7
 10
-240.0
 20
93.25
 30
0.0
 40
1.87479444201252
  0
LINE
  5
E9
  8
0
  6
CONTINUOUS
 62
     7
 10
-234.0
 20
82.50000000000001
 30
0.0
 11
-233.9921442235292
 21
82.50785577647076
 31
0.0
  0
LINE
  5
EA
  8
0
  6
CONTINUOUS
 62
     7
 10
-234.0
 20
97.5
 30
0.0
 11
-233.9921442235292
 21
97.49214422352925
 31
0.0
  0
LINE
  5
EB
  8
0
  6
CONTINUOUS
 62
     7
 10
-233.9921442235292
 20
97.49214422352925
 30
0.0
 11
-233.9921442235292
 21
82.50785577647076
 31
0.0
  0
LINE
  5
EC
  8
0
  6
CONTINUOUS
 62
     7
 10
-202.0
 20
82.50000000000001
 30
0.0
 11
-202.0078557764708
 21
82.50785577647076
 31
0.0
  0
LINE
  5
ED
  8
0
  6
CONTINUOUS
 62
     7
 10
-233.9921442235292
 20
82.50785577647076
 30
0.0
 11
-202.0078557764708
 21
82.50785577647076
 31
0.0
  0
LINE
  5
EE
  8
0
  6
CONTINUOUS
 62
     7
 10
-202.0
 20
97.5
 30
0.0
 11
-202.0078557764708
 21
97.49214422352925
 31
0.0
  0
LINE
  5
EF
  8
0
  6
CONTINUOUS
 62
     7
 10
-202.0078557764708
 20
82.50785577647076
 30
0.0
 11
-202.0078557764708
 21
97.49214422352925
 31
0.0
  0
LINE
  5
F0
  8
0
  6
CONTINUOUS
 62
     7
 10
-202.0078557764708
 20
97.49214422352925
 30
0.0
 11
-233.9921442235292
 21
97.49214422352925
 31
0.0
  0
LINE
  5
F1
  8
0
  6
CONTINUOUS
 62
     9
 10
-266.3669456944594
 20
102.1321976179794
 30
0.0
 11
-265.3672883694839
 21
102.1321976179794
 31
0.0
  0
POLYLINE
  5
F2
  8
0
  6
CONTINUOUS
 62
     9
 66
     1
 10
0.0
 20
0.0
 30
0.0
  0
VERTEX
  5
200
  8
0
  6
CONTINUOUS
 62
     9
 10
-265.3672883694839
 20
102.1321976179794
 30
0.0
  0
VERTEX
  5
201
  8
0
  6
CONTINUOUS
 62
     9
 10
-265.338601898029
 20
101.8394872671801
 30
0.0
  0
VERTEX
  5
202
  8
0
  6
CONTINUOUS
 62
     9
 10
-265.2533767723054
 20
101.5580816286399
 30
0.0
  0
VERTEX
  5
203
  8
0
  6
CONTINUOUS
 62
     9
 10
-265.1148852984412
 20
101.298785560523
 30
0.0
  0
VERTEX
  5
204
  8
0
  6
CONTINUOUS
 62
     9
 10
-264.9284449986432
 20
101.0715550013567
 30
0.0
  0
VERTEX
  5
205
  8
0
  6
CONTINUOUS
 62
     9
 10
-264.701214439477
 20
100.8851147015587
 30
0.0
  0
VERTEX
  5
206
  8
0
  6
CONTINUOUS
 62
     9
 10
-264.4419183713601
 20
100.7466232276945
 30
0.0
  0
VERTEX
  5
207
  8
0
  6
CONTINUOUS
 62
     9
 10
-264.1605127328199
 20
100.661398101971
 30
0.0
  0
VERTEX
  5
208
  8
0
  6
CONTINUOUS
 62
     9
 10
-263.8678023820206
 20
100.6327116305161
 30
0.0
  0
SEQEND
  5
344
  8
0
  6
CONTINUOUS
 62
     9
  0
LINE
  5
F3
  8
0
  6
CONTINUOUS
 62
     9
 10
-265.3672883694839
 20
167.8678023820206
 30
0.0
 11
-265.3672883694839
 21
102.1321976179794
 31
0.0
  0
CIRCLE
  5
F4
  8
0
  6
CONTINUOUS
 62
     7
 10
-240.0
 20
176.75
 30
0.0
 40
1.75
  0
POLYLINE
  5
F5
  8
0
  6
CONTINUOUS
 62
     7
 66
     1
 10
0.0
 20
0.0
 30
0.0
  0
VERTEX
  5
209
  8
0
  6
CONTINUOUS
 62
     7
 10
-280.5005140125367
 20
198.0
 30
0.0
  0
VERTEX
  5
20A
  8
0
  6
CONTINUOUS
 62
     7
 10
-280.7931039440214
 20
197.9711931092305
 30
0.0
  0
VERTEX
  5
20B
  8
0
  6
CONTINUOUS
 62
     7
 10
-281.0744201060985
 20
197.8858785070438
 30
0.0
  0
VERTEX
  5
20C
  8
0
  6
CONTINUOUS
 62
     7
 10
-281.3336610761444
 20
197.7473319351086
 30
0.0
  0
VERTEX
  5
20D
  8
0
  6
CONTINUOUS
 62
     7
 10
-281.5608730311787
 20
197.5608730311787
 30
0.0
  0
VERTEX
  5
20E
  8
0
  6
CONTINUOUS
 62
     7
 10
-281.7473319351086
 20
197.3336610761444
 30
0.0
  0
VERTEX
  5
20F
  8
0
  6
CONTINUOUS
 62
     7
 10
-281.8858785070438
 20
197.0744201060985
 30
0.0
  0
VERTEX
  5
210
  8
0
  6
CONTINUOUS
 62
     7
 10
-281.9711931092305
 20
196.7931039440214
 30
0.0
  0
VERTEX
  5
211
  8
0
  6
CONTINUOUS
 62
     7
 10
-282.0
 20
196.5005140125367
 30
0.0
  0
SEQEND
  5
345
  8
0
  6
CONTINUOUS
 62
     7
  0
LINE
  5
F6
  8
0
  6
CONTINUOUS
 62
     9
 10
-280.5005140125367
 20
198.0
 30
0.0
 11
-280.1332256430528
 21
197.6327116305161
 31
0.0
  0
LINE
  5
F7
  8
0
  6
CONTINUOUS
 62
     9
 10
-281.632711630516
 20
196.1332256430528
 30
0.0
 11
-281.9999999999999
 21
196.5005140125367
 31
0.0
  0
POLYLINE
  5
F8
  8
0
  6
CONTINUOUS
 62
     7
 66
     1
 10
0.0
 20
0.0
 30
0.0
  0
VERTEX
  5
212
  8
0
  6
CONTINUOUS
 62
     7
 10
-265.0
 20
102.4994859874633
 30
0.0
  0
VERTEX
  5
213
  8
0
  6
CONTINUOUS
 62
     7
 10
-264.9711931092305
 20
102.2068960559787
 30
0.0
  0
VERTEX
  5
214
  8
0
  6
CONTINUOUS
 62
     7
 10
-264.8858785070438
 20
101.9255798939015
 30
0.0
  0
VERTEX
  5
215
  8
0
  6
CONTINUOUS
 62
     7
 10
-264.7473319351086
 20
101.6663389238556
 30
0.0
  0
VERTEX
  5
216
  8
0
  6
CONTINUOUS
 62
     7
 10
-264.5608730311787
 20
101.4391269688213
 30
0.0
  0
VERTEX
  5
217
  8
0
  6
CONTINUOUS
 62
     7
 10
-264.3336610761444
 20
101.2526680648914
 30
0.0
  0
VERTEX
  5
218
  8
0
  6
CONTINUOUS
 62
     7
 10
-264.0744201060985
 20
101.1141214929562
 30
0.0
  0
VERTEX
  5
219
  8
0
  6
CONTINUOUS
 62
     7
 10
-263.7931039440214
 20
101.0288068907695
 30
0.0
  0
VERTEX
  5
21A
  8
0
  6
CONTINUOUS
 62
     7
 10
-263.5005140125367
 20
101.0
 30
0.0
  0
SEQEND
  5
346
  8
0
  6
CONTINUOUS
 62
     7
  0
LINE
  5
F9
  8
0
  6
CONTINUOUS
 62
     9
 10
-263.5005140125367
 20
101.0
 30
0.0
 11
-263.8678023820206
 21
100.6327116305161
 31
0.0
  0
LINE
  5
FA
  8
0
  6
CONTINUOUS
 62
     9
 10
-265.3672883694839
 20
102.1321976179794
 30
0.0
 11
-265.0
 21
102.4994859874634
 31
0.0
  0
POLYLINE
  5
FB
  8
0
  6
CONTINUOUS
 62
     7
 66
     1
 10
0.0
 20
0.0
 30
0.0
  0
VERTEX
  5
21B
  8
0
  6
CONTINUOUS
 62
     7
 10
-263.5005140125367
 20
169.0
 30
0.0
  0
VERTEX
  5
21C
  8
0
  6
CONTINUOUS
 62
     7
 10
-263.7931039440214
 20
168.9711931092305
 30
0.0
  0
VERTEX
  5
21D
  8
0
  6
CONTINUOUS
 62
     7
 10
-264.0744201060985
 20
168.8858785070438
 30
0.0
  0
VERTEX
  5
21E
  8
0
  6
CONTINUOUS
 62
     7
 10
-264.3336610761444
 20
168.7473319351086
 30
0.0
  0
VERTEX
  5
21F
  8
0
  6
CONTINUOUS
 62
     7
 10
-264.5608730311787
 20
168.5608730311787
 30
0.0
  0
VERTEX
  5
220
  8
0
  6
CONTINUOUS
 62
     7
 10
-264.7473319351086
 20
168.3336610761444
 30
0.0
  0
VERTEX
  5
221
  8
0
  6
CONTINUOUS
 62
     7
 10
-264.8858785070438
 20
168.0744201060985
 30
0.0
  0
VERTEX
  5
222
  8
0
  6
CONTINUOUS
 62
     7
 10
-264.9711931092305
 20
167.7931039440213
 30
0.0
  0
VERTEX
  5
223
  8
0
  6
CONTINUOUS
 62
     7
 10
-265.0
 20
167.5005140125367
 30
0.0
  0
SEQEND
  5
347
  8
0
  6
CONTINUOUS
 62
     7
  0
LINE
  5
FC
  8
0
  6
CONTINUOUS
 62
     9
 10
-265.0
 20
167.5005140125367
 30
0.0
 11
-265.3672883694839
 21
167.8678023820206
 31
0.0
  0
LINE
  5
FD
  8
0
  6
CONTINUOUS
 62
     9
 10
-263.8678023820206
 20
169.367288369484
 30
0.0
 11
-263.5005140125367
 21
169.0
 31
0.0
  0
POLYLINE
  5
FE
  8
0
  6
CONTINUOUS
 62
     7
 66
     1
 10
0.0
 20
0.0
 30
0.0
  0
VERTEX
  5
224
  8
0
  6
CONTINUOUS
 62
     7
 10
-216.4994859874633
 20
101.0
 30
0.0
  0
VERTEX
  5
225
  8
0
  6
CONTINUOUS
 62
     7
 10
-216.2068960559786
 20
101.0288068907695
 30
0.0
  0
VERTEX
  5
226
  8
0
  6
CONTINUOUS
 62
     7
 10
-215.9255798939015
 20
101.1141214929562
 30
0.0
  0
VERTEX
  5
227
  8
0
  6
CONTINUOUS
 62
     7
 10
-215.6663389238556
 20
101.2526680648914
 30
0.0
  0
VERTEX
  5
228
  8
0
  6
CONTINUOUS
 62
     7
 10
-215.4391269688212
 20
101.4391269688213
 30
0.0
  0
VERTEX
  5
229
  8
0
  6
CONTINUOUS
 62
     7
 10
-215.2526680648913
 20
101.6663389238556
 30
0.0
  0
VERTEX
  5
22A
  8
0
  6
CONTINUOUS
 62
     7
 10
-215.1141214929562
 20
101.9255798939015
 30
0.0
  0
VERTEX
  5
22B
  8
0
  6
CONTINUOUS
 62
     7
 10
-215.0288068907695
 20
102.2068960559786
 30
0.0
  0
VERTEX
  5
22C
  8
0
  6
CONTINUOUS
 62
     7
 10
-215.0
 20
102.4994859874633
 30
0.0
  0
SEQEND
  5
348
  8
0
  6
CONTINUOUS
 62
     7
  0
LINE
  5
FF
  8
0
  6
CONTINUOUS
 62
     9
 10
-215.0
 20
102.4994859874633
 30
0.0
 11
-214.632711630516
 21
102.1321976179794
 31
0.0
  0
LINE
  5
100
  8
0
  6
CONTINUOUS
 62
     9
 10
-216.1321976179794
 20
100.6327116305161
 30
0.0
 11
-216.4994859874633
 21
101.0
 31
0.0
  0
POLYLINE
  5
101
  8
0
  6
CONTINUOUS
 62
     7
 66
     1
 10
0.0
 20
0.0
 30
0.0
  0
VERTEX
  5
22D
  8
0
  6
CONTINUOUS
 62
     7
 10
-282.0
 20
73.49948598746334
 30
0.0
  0
VERTEX
  5
22E
  8
0
  6
CONTINUOUS
 62
     7
 10
-281.9711931092305
 20
73.20689605597865
 30
0.0
  0
VERTEX
  5
22F
  8
0
  6
CONTINUOUS
 62
     7
 10
-281.8858785070438
 20
72.92557989390153
 30
0.0
  0
VERTEX
  5
230
  8
0
  6
CONTINUOUS
 62
     7
 10
-281.7473319351086
 20
72.66633892385562
 30
0.0
  0
VERTEX
  5
231
  8
0
  6
CONTINUOUS
 62
     7
 10
-281.5608730311787
 20
72.43912696882127
 30
0.0
  0
VERTEX
  5
232
  8
0
  6
CONTINUOUS
 62
     7
 10
-281.3336610761444
 20
72.25266806489137
 30
0.0
  0
VERTEX
  5
233
  8
0
  6
CONTINUOUS
 62
     7
 10
-281.0744201060985
 20
72.1141214929562
 30
0.0
  0
VERTEX
  5
234
  8
0
  6
CONTINUOUS
 62
     7
 10
-280.7931039440214
 20
72.02880689076953
 30
0.0
  0
VERTEX
  5
235
  8
0
  6
CONTINUOUS
 62
     7
 10
-280.5005140125367
 20
72.0
 30
0.0
  0
SEQEND
  5
349
  8
0
  6
CONTINUOUS
 62
     7
  0
LINE
  5
102
  8
0
  6
CONTINUOUS
 62
     9
 10
-281.9999999999999
 20
73.49948598746333
 30
0.0
 11
-281.632711630516
 21
73.86677435694726
 31
0.0
  0
LINE
  5
103
  8
0
  6
CONTINUOUS
 62
     9
 10
-280.1332256430527
 20
72.36728836948394
 30
0.0
 11
-280.5005140125366
 21
72.0
 31
0.0
  0
POLYLINE
  5
104
  8
0
  6
CONTINUOUS
 62
     7
 66
     1
 10
0.0
 20
0.0
 30
0.0
  0
VERTEX
  5
236
  8
0
  6
CONTINUOUS
 62
     7
 10
-199.4994859874633
 20
72.00000000000001
 30
0.0
  0
VERTEX
  5
237
  8
0
  6
CONTINUOUS
 62
     7
 10
-199.2068960559787
 20
72.02880689076953
 30
0.0
  0
VERTEX
  5
238
  8
0
  6
CONTINUOUS
 62
     7
 10
-198.9255798939015
 20
72.11412149295622
 30
0.0
  0
VERTEX
  5
239
  8
0
  6
CONTINUOUS
 62
     7
 10
-198.6663389238556
 20
72.25266806489138
 30
0.0
  0
VERTEX
  5
23A
  8
0
  6
CONTINUOUS
 62
     7
 10
-198.4391269688213
 20
72.43912696882128
 30
0.0
  0
VERTEX
  5
23B
  8
0
  6
CONTINUOUS
 62
     7
 10
-198.2526680648914
 20
72.66633892385563
 30
0.0
  0
VERTEX
  5
23C
  8
0
  6
CONTINUOUS
 62
     7
 10
-198.1141214929562
 20
72.92557989390154
 30
0.0
  0
VERTEX
  5
23D
  8
0
  6
CONTINUOUS
 62
     7
 10
-198.0288068907695
 20
73.20689605597866
 30
0.0
  0
VERTEX
  5
23E
  8
0
  6
CONTINUOUS
 62
     7
 10
-198.0
 20
73.49948598746336
 30
0.0
  0
SEQEND
  5
34A
  8
0
  6
CONTINUOUS
 62
     7
  0
LINE
  5
105
  8
0
  6
CONTINUOUS
 62
     9
 10
-199.4994859874633
 20
72.0
 30
0.0
 11
-199.8667743569473
 21
72.36728836948393
 31
0.0
  0
LINE
  5
106
  8
0
  6
CONTINUOUS
 62
     9
 10
-198.3672883694839
 20
73.86677435694727
 30
0.0
 11
-198.0
 21
73.49948598746334
 31
0.0
  0
POLYLINE
  5
107
  8
0
  6
CONTINUOUS
 62
     7
 66
     1
 10
0.0
 20
0.0
 30
0.0
  0
VERTEX
  5
23F
  8
0
  6
CONTINUOUS
 62
     7
 10
-198.0
 20
196.5005140125367
 30
0.0
  0
VERTEX
  5
240
  8
0
  6
CONTINUOUS
 62
     7
 10
-198.0288068907695
 20
196.7931039440213
 30
0.0
  0
VERTEX
  5
241
  8
0
  6
CONTINUOUS
 62
     7
 10
-198.1141214929562
 20
197.0744201060985
 30
0.0
  0
VERTEX
  5
242
  8
0
  6
CONTINUOUS
 62
     7
 10
-198.2526680648914
 20
197.3336610761444
 30
0.0
  0
VERTEX
  5
243
  8
0
  6
CONTINUOUS
 62
     7
 10
-198.4391269688213
 20
197.5608730311787
 30
0.0
  0
VERTEX
  5
244
  8
0
  6
CONTINUOUS
 62
     7
 10
-198.6663389238556
 20
197.7473319351086
 30
0.0
  0
VERTEX
  5
245
  8
0
  6
CONTINUOUS
 62
     7
 10
-198.9255798939016
 20
197.8858785070438
 30
0.0
  0
VERTEX
  5
246
  8
0
  6
CONTINUOUS
 62
     7
 10
-199.2068960559787
 20
197.9711931092305
 30
0.0
  0
VERTEX
  5
247
  8
0
  6
CONTINUOUS
 62
     7
 10
-199.4994859874633
 20
198.0
 30
0.0
  0
SEQEND
  5
34B
  8
0
  6
CONTINUOUS
 62
     7
  0
LINE
  5
108
  8
0
  6
CONTINUOUS
 62
     9
 10
-198.0
 20
196.5005140125367
 30
0.0
 11
-198.3672883694839
 21
196.1332256430528
 31
0.0
  0
LINE
  5
109
  8
0
  6
CONTINUOUS
 62
     9
 10
-199.8667743569473
 20
197.6327116305161
 30
0.0
 11
-199.4994859874633
 21
198.0
 31
0.0
  0
POLYLINE
  5
10A
  8
0
  6
CONTINUOUS
 62
     7
 66
     1
 10
0.0
 20
0.0
 30
0.0
  0
VERTEX
  5
248
  8
0
  6
CONTINUOUS
 62
     7
 10
-215.0
 20
167.5005140125367
 30
0.0
  0
VERTEX
  5
249
  8
0
  6
CONTINUOUS
 62
     7
 10
-215.0288068907695
 20
167.7931039440214
 30
0.0
  0
VERTEX
  5
24A
  8
0
  6
CONTINUOUS
 62
     7
 10
-215.1141214929561
 20
168.0744201060985
 30
0.0
  0
VERTEX
  5
24B
  8
0
  6
CONTINUOUS
 62
     7
 10
-215.2526680648913
 20
168.3336610761444
 30
0.0
  0
VERTEX
  5
24C
  8
0
  6
CONTINUOUS
 62
     7
 10
-215.4391269688212
 20
168.5608730311788
 30
0.0
  0
VERTEX
  5
24D
  8
0
  6
CONTINUOUS
 62
     7
 10
-215.6663389238556
 20
168.7473319351087
 30
0.0
  0
VERTEX
  5
24E
  8
0
  6
CONTINUOUS
 62
     7
 10
-215.9255798939015
 20
168.8858785070438
 30
0.0
  0
VERTEX
  5
24F
  8
0
  6
CONTINUOUS
 62
     7
 10
-216.2068960559786
 20
168.9711931092305
 30
0.0
  0
VERTEX
  5
250
  8
0
  6
CONTINUOUS
 62
     7
 10
-216.4994859874633
 20
169.0
 30
0.0
  0
SEQEND
  5
34C
  8
0
  6
CONTINUOUS
 62
     7
  0
LINE
  5
10B
  8
0
  6
CONTINUOUS
 62
     9
 10
-216.4994859874633
 20
169.0
 30
0.0
 11
-216.1321976179794
 21
169.367288369484
 31
0.0
  0
LINE
  5
10C
  8
0
  6
CONTINUOUS
 62
     9
 10
-214.632711630516
 20
167.8678023820206
 30
0.0
 11
-215.0
 21
167.5005140125367
 31
0.0
  0
LINE
  5
10D
  8
0
  6
CONTINUOUS
 62
     7
 10
-198.0
 20
73.49948598746334
 30
0.0
 11
-198.0
 21
196.5005140125367
 31
0.0
  0
LINE
  5
10E
  8
0
  6
CONTINUOUS
 62
     7
 10
-281.9999999999999
 20
196.5005140125367
 30
0.0
 11
-281.9999999999999
 21
73.49948598746333
 31
0.0
  0
LINE
  5
10F
  8
0
  6
CONTINUOUS
 62
     7
 10
-280.5005140125367
 20
72.0
 30
0.0
 11
-199.4994859874634
 21
72.0
 31
0.0
  0
LINE
  5
110
  8
0
  6
CONTINUOUS
 62
     7
 10
-199.4994859874633
 20
198.0
 30
0.0
 11
-280.5005140125367
 21
198.0
 31
0.0
  0
LINE
  5
111
  8
0
  6
CONTINUOUS
 62
     7
 10
-244.75
 20
101.0
 30
0.0
 11
-216.4994859874633
 21
101.0
 31
0.0
  0
LINE
  5
112
  8
0
  6
CONTINUOUS
 62
     7
 10
-263.5005140125367
 20
101.0
 30
0.0
 11
-263.25
 21
101.0
 31
0.0
  0
LINE
  5
113
  8
0
  6
CONTINUOUS
 62
     7
 10
-263.25
 20
101.0
 30
0.0
 11
-263.0894571330083
 21
100.8394571330083
 31
0.0
  0
ARC
  5
114
  8
0
  6
CONTINUOUS
 62
     7
 10
-258.4906781685237
 20
220.0245178533359
 30
0.0
 40
119.3132318469158
 50
268.1754119692305
 51
270.1918491791944
  0
ARC
  5
115
  8
0
  6
CONTINUOUS
 62
     7
 10
-262.0791189214019
 20
109.2916969994693
 30
0.0
 40
8.522516717837151
 50
263.6035268726381
 51
268.5849933931228
  0
POLYLINE
  5
116
  8
0
  6
CONTINUOUS
 62
     7
 66
     1
 10
0.0
 20
0.0
 30
0.0
  0
VERTEX
  5
251
  8
0
  6
CONTINUOUS
 62
     7
 10
-263.0285934191331
 20
100.8222348333119
 30
0.0
  0
VERTEX
  5
252
  8
0
  6
CONTINUOUS
 62
     7
 10
-263.0313068924362
 20
100.8226847432834
 30
0.0
  0
VERTEX
  5
253
  8
0
  6
CONTINUOUS
 62
     7
 10
-263.0339605777654
 20
100.8231348977221
 30
0.0
  0
VERTEX
  5
254
  8
0
  6
CONTINUOUS
 62
     7
 10
-263.0365544430042
 20
100.8235852911798
 30
0.0
  0
VERTEX
  5
255
  8
0
  6
CONTINUOUS
 62
     7
 10
-263.0390884567606
 20
100.8240359182058
 30
0.0
  0
VERTEX
  5
256
  8
0
  6
CONTINUOUS
 62
     7
 10
-263.0415625883666
 20
100.8244867733462
 30
0.0
  0
VERTEX
  5
257
  8
0
  6
CONTINUOUS
 62
     7
 10
-263.0439768078792
 20
100.8249378511447
 30
0.0
  0
VERTEX
  5
258
  8
0
  6
CONTINUOUS
 62
     7
 10
-263.04633108608
 20
100.8253891461421
 30
0.0
  0
VERTEX
  5
259
  8
0
  6
CONTINUOUS
 62
     7
 10
-263.0486253944767
 20
100.8258406528765
 30
0.0
  0
VERTEX
  5
25A
  8
0
  6
CONTINUOUS
 62
     7
 10
-263.0508597053022
 20
100.8262923658836
 30
0.0
  0
VERTEX
  5
25B
  8
0
  6
CONTINUOUS
 62
     7
 10
-263.053033991516
 20
100.8267442796966
 30
0.0
  0
VERTEX
  5
25C
  8
0
  6
CONTINUOUS
 62
     7
 10
-263.0551482268035
 20
100.8271963888462
 30
0.0
  0
VERTEX
  5
25D
  8
0
  6
CONTINUOUS
 62
     7
 10
-263.0572023855775
 20
100.8276486878607
 30
0.0
  0
VERTEX
  5
25E
  8
0
  6
CONTINUOUS
 62
     7
 10
-263.0591964429773
 20
100.8281011712661
 30
0.0
  0
VERTEX
  5
25F
  8
0
  6
CONTINUOUS
 62
     7
 10
-263.0620747864085
 20
100.8287802301277
 30
0.0
  0
VERTEX
  5
260
  8
0
  6
CONTINUOUS
 62
     7
 10
-263.0648177692402
 20
100.8294596730559
 30
0.0
  0
VERTEX
  5
261
  8
0
  6
CONTINUOUS
 62
     7
 10
-263.0674253167793
 20
100.8301394815491
 30
0.0
  0
VERTEX
  5
262
  8
0
  6
CONTINUOUS
 62
     7
 10
-263.0698973580209
 20
100.8308196370957
 30
0.0
  0
VERTEX
  5
263
  8
0
  6
CONTINUOUS
 62
     7
 10
-263.0722338256498
 20
100.8315001211747
 30
0.0
  0
VERTEX
  5
264
  8
0
  6
CONTINUOUS
 62
     7
 10
-263.0744346560427
 20
100.8321809152561
 30
0.0
  0
VERTEX
  5
265
  8
0
  6
CONTINUOUS
 62
     7
 10
-263.0764997892697
 20
100.8328620008015
 30
0.0
  0
VERTEX
  5
266
  8
0
  6
CONTINUOUS
 62
     7
 10
-263.078429169096
 20
100.8335433592646
 30
0.0
  0
VERTEX
  5
267
  8
0
  6
CONTINUOUS
 62
     7
 10
-263.0807904133003
 20
100.8344522296847
 30
0.0
  0
VERTEX
  5
268
  8
0
  6
CONTINUOUS
 62
     7
 10
-263.0829101108433
 20
100.8353615083081
 30
0.0
  0
VERTEX
  5
269
  8
0
  6
CONTINUOUS
 62
     7
 10
-263.0847881591105
 20
100.8362711511169
 30
0.0
  0
VERTEX
  5
26A
  8
0
  6
CONTINUOUS
 62
     7
 10
-263.0867957627601
 20
100.8374086496764
 30
0.0
  0
VERTEX
  5
26B
  8
0
  6
CONTINUOUS
 62
     7
 10
-263.0887060873251
 20
100.8387741871076
 30
0.0
  0
VERTEX
  5
26C
  8
0
  6
CONTINUOUS
 62
     7
 10
-263.0894571330084
 20
100.8394571330084
 30
0.0
  0
SEQEND
  5
34D
  8
0
  6
CONTINUOUS
 62
     7
  0
LINE
  5
117
  8
0
  6
CONTINUOUS
 62
     7
 10
-258.0911705081305
 20
100.7119548627389
 30
0.0
 11
-249.9088294918694
 21
100.7119548627389
 31
0.0
  0
POLYLINE
  5
118
  8
0
  6
CONTINUOUS
 62
     7
 66
     1
 10
0.0
 20
0.0
 30
0.0
  0
VERTEX
  5
26D
  8
0
  6
CONTINUOUS
 62
     7
 10
-244.9105428669916
 20
100.8394571330083
 30
0.0
  0
VERTEX
  5
26E
  8
0
  6
CONTINUOUS
 62
     7
 10
-244.9121810441433
 20
100.8380913531324
 30
0.0
  0
VERTEX
  5
26F
  8
0
  6
CONTINUOUS
 62
     7
 10
-244.9139619421578
 20
100.8369535957305
 30
0.0
  0
VERTEX
  5
270
  8
0
  6
CONTINUOUS
 62
     7
 10
-244.9161206529072
 20
100.8358162869412
 30
0.0
  0
VERTEX
  5
271
  8
0
  6
CONTINUOUS
 62
     7
 10
-244.918119537908
 20
100.8349068207217
 30
0.0
  0
VERTEX
  5
272
  8
0
  6
CONTINUOUS
 62
     7
 10
-244.9203600223393
 20
100.8339977406989
 30
0.0
  0
VERTEX
  5
273
  8
0
  6
CONTINUOUS
 62
     7
 10
-244.9228419977398
 20
100.8330890908811
 30
0.0
  0
VERTEX
  5
274
  8
0
  6
CONTINUOUS
 62
     7
 10
-244.924861885899
 20
100.8324079123021
 30
0.0
  0
VERTEX
  5
275
  8
0
  6
CONTINUOUS
 62
     7
 10
-244.9270174903797
 20
100.8317270190058
 30
0.0
  0
VERTEX
  5
276
  8
0
  6
CONTINUOUS
 62
     7
 10
-244.9293087524835
 20
100.8310464295333
 30
0.0
  0
VERTEX
  5
277
  8
0
  6
CONTINUOUS
 62
     7
 10
-244.931735609818
 20
100.8303661624175
 30
0.0
  0
VERTEX
  5
278
  8
0
  6
CONTINUOUS
 62
     7
 10
-244.9342979962986
 20
100.8296862361825
 30
0.0
  0
VERTEX
  5
279
  8
0
  6
CONTINUOUS
 62
     7
 10
-244.9369958421499
 20
100.8290066693431
 30
0.0
  0
VERTEX
  5
27A
  8
0
  6
CONTINUOUS
 62
     7
 10
-244.9398290739081
 20
100.8283274804043
 30
0.0
  0
VERTEX
  5
27B
  8
0
  6
CONTINUOUS
 62
     7
 10
-244.9417930715255
 20
100.8278749068567
 30
0.0
  0
VERTEX
  5
27C
  8
0
  6
CONTINUOUS
 62
     7
 10
-244.9438171826745
 20
100.8274225149624
 30
0.0
  0
VERTEX
  5
27D
  8
0
  6
CONTINUOUS
 62
     7
 10
-244.9459013828583
 20
100.8269703101962
 30
0.0
  0
VERTEX
  5
27E
  8
0
  6
CONTINUOUS
 62
     7
 10
-244.9480456468528
 20
100.8265182980312
 30
0.0
  0
VERTEX
  5
27F
  8
0
  6
CONTINUOUS
 62
     7
 10
-244.9502499487071
 20
100.8260664839376
 30
0.0
  0
VERTEX
  5
280
  8
0
  6
CONTINUOUS
 62
     7
 10
-244.9525142617437
 20
100.8256148733836
 30
0.0
  0
VERTEX
  5
281
  8
0
  6
CONTINUOUS
 62
     7
 10
-244.9548385585586
 20
100.8251634718348
 30
0.0
  0
VERTEX
  5
282
  8
0
  6
CONTINUOUS
 62
     7
 10
-244.9572228110223
 20
100.8247122847543
 30
0.0
  0
VERTEX
  5
283
  8
0
  6
CONTINUOUS
 62
     7
 10
-244.9596669902791
 20
100.8242613176026
 30
0.0
  0
VERTEX
  5
284
  8
0
  6
CONTINUOUS
 62
     7
 10
-244.9621710667485
 20
100.8238105758376
 30
0.0
  0
VERTEX
  5
285
  8
0
  6
CONTINUOUS
 62
     7
 10
-244.9647350101249
 20
100.8233600649142
 30
0.0
  0
VERTEX
  5
286
  8
0
  6
CONTINUOUS
 62
     7
 10
-244.9673587893782
 20
100.8229097902848
 30
0.0
  0
VERTEX
  5
287
  8
0
  6
CONTINUOUS
 62
     7
 10
-244.9700423727541
 20
100.8224597573989
 30
0.0
  0
VERTEX
  5
288
  8
0
  6
CONTINUOUS
 62
     7
 10
-244.9727857277745
 20
100.822009971703
 30
0.0
  0
SEQEND
  5
34E
  8
0
  6
CONTINUOUS
 62
     7
  0
ARC
  5
119
  8
0
  6
CONTINUOUS
 62
     7
 10
-246.0526751828663
 20
110.9215580326788
 30
0.0
 40
10.15711732093211
 50
271.1568778823972
 51
276.1031361704346
  0
ARC
  5
11A
  8
0
  6
CONTINUOUS
 62
     7
 10
-249.5585861092302
 20
225.8277499090253
 30
0.0
 40
125.1162852729069
 50
269.8396092579536
 51
271.6996575031507
  0
LINE
  5
11B
  8
0
  6
CONTINUOUS
 62
     7
 10
-244.9105428669916
 20
100.8394571330083
 30
0.0
 11
-244.75
 21
101.0
 31
0.0
  0
ARC
  5
11C
  8
0
  6
CONTINUOUS
 62
     7
 10
-249.5093218314759
 20
49.9754821466985
 30
0.0
 40
119.3132318468814
 50
88.1754119692298
 51
90.19184917919472
  0
ARC
  5
11D
  8
0
  6
CONTINUOUS
 62
     7
 10
-245.9208810785968
 20
160.7083030005512
 30
0.0
 40
8.522516717816613
 50
83.60352687262959
 51
88.58499339312317
  0
POLYLINE
  5
11E
  8
0
  6
CONTINUOUS
 62
     7
 66
     1
 10
0.0
 20
0.0
 30
0.0
  0
VERTEX
  5
289
  8
0
  6
CONTINUOUS
 62
     7
 10
-244.9714065808666
 20
169.1777651666881
 30
0.0
  0
VERTEX
  5
28A
  8
0
  6
CONTINUOUS
 62
     7
 10
-244.9686931075634
 20
169.1773152567165
 30
0.0
  0
VERTEX
  5
28B
  8
0
  6
CONTINUOUS
 62
     7
 10
-244.9660394222343
 20
169.1768651022779
 30
0.0
  0
VERTEX
  5
28C
  8
0
  6
CONTINUOUS
 62
     7
 10
-244.9634455569955
 20
169.1764147088201
 30
0.0
  0
VERTEX
  5
28D
  8
0
  6
CONTINUOUS
 62
     7
 10
-244.9609115432391
 20
169.1759640817942
 30
0.0
  0
VERTEX
  5
28E
  8
0
  6
CONTINUOUS
 62
     7
 10
-244.9584374116331
 20
169.1755132266537
 30
0.0
  0
VERTEX
  5
28F
  8
0
  6
CONTINUOUS
 62
     7
 10
-244.9560231921206
 20
169.1750621488552
 30
0.0
  0
VERTEX
  5
290
  8
0
  6
CONTINUOUS
 62
     7
 10
-244.9536689139197
 20
169.1746108538579
 30
0.0
  0
VERTEX
  5
291
  8
0
  6
CONTINUOUS
 62
     7
 10
-244.951374605523
 20
169.1741593471235
 30
0.0
  0
VERTEX
  5
292
  8
0
  6
CONTINUOUS
 62
     7
 10
-244.9491402946975
 20
169.1737076341163
 30
0.0
  0
VERTEX
  5
293
  8
0
  6
CONTINUOUS
 62
     7
 10
-244.9469660084838
 20
169.1732557203033
 30
0.0
  0
VERTEX
  5
294
  8
0
  6
CONTINUOUS
 62
     7
 10
-244.9448517731962
 20
169.1728036111538
 30
0.0
  0
VERTEX
  5
295
  8
0
  6
CONTINUOUS
 62
     7
 10
-244.9427976144223
 20
169.1723513121393
 30
0.0
  0
VERTEX
  5
296
  8
0
  6
CONTINUOUS
 62
     7
 10
-244.9408035570225
 20
169.1718988287338
 30
0.0
  0
VERTEX
  5
297
  8
0
  6
CONTINUOUS
 62
     7
 10
-244.9379252135913
 20
169.1712197698723
 30
0.0
  0
VERTEX
  5
298
  8
0
  6
CONTINUOUS
 62
     7
 10
-244.9351822307596
 20
169.1705403269441
 30
0.0
  0
VERTEX
  5
299
  8
0
  6
CONTINUOUS
 62
     7
 10
-244.9325746832204
 20
169.1698605184509
 30
0.0
  0
VERTEX
  5
29A
  8
0
  6
CONTINUOUS
 62
     7
 10
-244.9301026419789
 20
169.1691803629043
 30
0.0
  0
VERTEX
  5
29B
  8
0
  6
CONTINUOUS
 62
     7
 10
-244.9277661743499
 20
169.1684998788253
 30
0.0
  0
VERTEX
  5
29C
  8
0
  6
CONTINUOUS
 62
     7
 10
-244.9255653439571
 20
169.1678190847438
 30
0.0
  0
VERTEX
  5
29D
  8
0
  6
CONTINUOUS
 62
     7
 10
-244.9235002107301
 20
169.1671379991984
 30
0.0
  0
VERTEX
  5
29E
  8
0
  6
CONTINUOUS
 62
     7
 10
-244.9215708309038
 20
169.1664566407353
 30
0.0
  0
VERTEX
  5
29F
  8
0
  6
CONTINUOUS
 62
     7
 10
-244.9192095866995
 20
169.1655477703152
 30
0.0
  0
VERTEX
  5
2A0
  8
0
  6
CONTINUOUS
 62
     7
 10
-244.9170898891566
 20
169.1646384916918
 30
0.0
  0
VERTEX
  5
2A1
  8
0
  6
CONTINUOUS
 62
     7
 10
-244.9152118408894
 20
169.163728848883
 30
0.0
  0
VERTEX
  5
2A2
  8
0
  6
CONTINUOUS
 62
     7
 10
-244.9132042372398
 20
169.1625913503235
 30
0.0
  0
VERTEX
  5
2A3
  8
0
  6
CONTINUOUS
 62
     7
 10
-244.9112939126748
 20
169.1612258128923
 30
0.0
  0
VERTEX
  5
2A4
  8
0
  6
CONTINUOUS
 62
     7
 10
-244.9105428669916
 20
169.1605428669916
 30
0.0
  0
SEQEND
  5
34F
  8
0
  6
CONTINUOUS
 62
     7
  0
LINE
  5
11F
  8
0
  6
CONTINUOUS
 62
     7
 10
-249.9088294918695
 20
169.2880451372611
 30
0.0
 11
-258.0911705081305
 21
169.2880451372611
 31
0.0
  0
POLYLINE
  5
120
  8
0
  6
CONTINUOUS
 62
     7
 66
     1
 10
0.0
 20
0.0
 30
0.0
  0
VERTEX
  5
2A5
  8
0
  6
CONTINUOUS
 62
     7
 10
-263.0894571330083
 20
169.1605428669917
 30
0.0
  0
VERTEX
  5
2A6
  8
0
  6
CONTINUOUS
 62
     7
 10
-263.0878189558566
 20
169.1619086468676
 30
0.0
  0
VERTEX
  5
2A7
  8
0
  6
CONTINUOUS
 62
     7
 10
-263.0860380578422
 20
169.1630464042695
 30
0.0
  0
VERTEX
  5
2A8
  8
0
  6
CONTINUOUS
 62
     7
 10
-263.0838793470928
 20
169.1641837130588
 30
0.0
  0
VERTEX
  5
2A9
  8
0
  6
CONTINUOUS
 62
     7
 10
-263.081880462092
 20
169.1650931792783
 30
0.0
  0
VERTEX
  5
2AA
  8
0
  6
CONTINUOUS
 62
     7
 10
-263.0796399776606
 20
169.1660022593011
 30
0.0
  0
VERTEX
  5
2AB
  8
0
  6
CONTINUOUS
 62
     7
 10
-263.0771580022602
 20
169.1669109091188
 30
0.0
  0
VERTEX
  5
2AC
  8
0
  6
CONTINUOUS
 62
     7
 10
-263.075138114101
 20
169.1675920876979
 30
0.0
  0
VERTEX
  5
2AD
  8
0
  6
CONTINUOUS
 62
     7
 10
-263.0729825096204
 20
169.1682729809942
 30
0.0
  0
VERTEX
  5
2AE
  8
0
  6
CONTINUOUS
 62
     7
 10
-263.0706912475165
 20
169.1689535704667
 30
0.0
  0
VERTEX
  5
2AF
  8
0
  6
CONTINUOUS
 62
     7
 10
-263.0682643901819
 20
169.1696338375825
 30
0.0
  0
VERTEX
  5
2B0
  8
0
  6
CONTINUOUS
 62
     7
 10
-263.0657020037014
 20
169.1703137638174
 30
0.0
  0
VERTEX
  5
2B1
  8
0
  6
CONTINUOUS
 62
     7
 10
-263.0630041578501
 20
169.1709933306569
 30
0.0
  0
VERTEX
  5
2B2
  8
0
  6
CONTINUOUS
 62
     7
 10
-263.0601709260919
 20
169.1716725195957
 30
0.0
  0
VERTEX
  5
2B3
  8
0
  6
CONTINUOUS
 62
     7
 10
-263.0582069284745
 20
169.1721250931433
 30
0.0
  0
VERTEX
  5
2B4
  8
0
  6
CONTINUOUS
 62
     7
 10
-263.0561828173255
 20
169.1725774850376
 30
0.0
  0
VERTEX
  5
2B5
  8
0
  6
CONTINUOUS
 62
     7
 10
-263.0540986171417
 20
169.1730296898037
 30
0.0
  0
VERTEX
  5
2B6
  8
0
  6
CONTINUOUS
 62
     7
 10
-263.0519543531472
 20
169.1734817019688
 30
0.0
  0
VERTEX
  5
2B7
  8
0
  6
CONTINUOUS
 62
     7
 10
-263.049750051293
 20
169.1739335160624
 30
0.0
  0
VERTEX
  5
2B8
  8
0
  6
CONTINUOUS
 62
     7
 10
-263.0474857382563
 20
169.1743851266164
 30
0.0
  0
VERTEX
  5
2B9
  8
0
  6
CONTINUOUS
 62
     7
 10
-263.0451614414413
 20
169.1748365281652
 30
0.0
  0
VERTEX
  5
2BA
  8
0
  6
CONTINUOUS
 62
     7
 10
-263.0427771889777
 20
169.1752877152456
 30
0.0
  0
VERTEX
  5
2BB
  8
0
  6
CONTINUOUS
 62
     7
 10
-263.0403330097208
 20
169.1757386823973
 30
0.0
  0
VERTEX
  5
2BC
  8
0
  6
CONTINUOUS
 62
     7
 10
-263.0378289332514
 20
169.1761894241625
 30
0.0
  0
VERTEX
  5
2BD
  8
0
  6
CONTINUOUS
 62
     7
 10
-263.035264989875
 20
169.1766399350858
 30
0.0
  0
VERTEX
  5
2BE
  8
0
  6
CONTINUOUS
 62
     7
 10
-263.0326412106218
 20
169.1770902097152
 30
0.0
  0
VERTEX
  5
2BF
  8
0
  6
CONTINUOUS
 62
     7
 10
-263.0299576272459
 20
169.1775402426011
 30
0.0
  0
VERTEX
  5
2C0
  8
0
  6
CONTINUOUS
 62
     7
 10
-263.0272142722254
 20
169.177990028297
 30
0.0
  0
SEQEND
  5
350
  8
0
  6
CONTINUOUS
 62
     7
  0
ARC
  5
121
  8
0
  6
CONTINUOUS
 62
     7
 10
-261.9473248171344
 20
159.0784419673307
 30
0.0
 40
10.15711732092263
 50
91.15687788239734
 51
96.10313617043664
  0
ARC
  5
122
  8
0
  6
CONTINUOUS
 62
     7
 10
-258.4414138907704
 20
44.17225009102351
 30
0.0
 40
125.1162852728581
 50
89.83960925795424
 51
91.69965750315134
  0
LINE
  5
123
  8
0
  6
CONTINUOUS
 62
     7
 10
-263.0894571330083
 20
169.1605428669917
 30
0.0
 11
-263.25
 21
169.0
 31
0.0
  0
LINE
  5
124
  8
0
  6
CONTINUOUS
 62
     7
 10
-263.25
 20
169.0
 30
0.0
 11
-263.5005140125367
 21
169.0
 31
0.0
  0
LINE
  5
125
  8
0
  6
CONTINUOUS
 62
     7
 10
-216.4994859874633
 20
169.0
 30
0.0
 11
-244.75
 21
169.0
 31
0.0
  0
LINE
  5
126
  8
0
  6
CONTINUOUS
 62
     7
 10
-244.75
 20
169.0
 30
0.0
 11
-244.9105428669916
 21
169.1605428669917
 31
0.0
  0
ARC
  5
127
  8
0
  6
CONTINUOUS
 62
     7
 10
-334.024517853349
 20
130.5093218314764
 30
0.0
 40
119.3132318469289
 50
358.1754119692307
 51
0.1918491791943779
  0
ARC
  5
128
  8
0
  6
CONTINUOUS
 62
     7
 10
-223.2916969994728
 20
126.9208810785985
 30
0.0
 40
8.522516717840693
 50
353.6035268726386
 51
358.5849933931212
  0
POLYLINE
  5
129
  8
0
  6
CONTINUOUS
 62
     7
 66
     1
 10
0.0
 20
0.0
 30
0.0
  0
VERTEX
  5
2C1
  8
0
  6
CONTINUOUS
 62
     7
 10
-214.8222348333119
 20
125.9714065808669
 30
0.0
  0
VERTEX
  5
2C2
  8
0
  6
CONTINUOUS
 62
     7
 10
-214.8226847432834
 20
125.9686931075638
 30
0.0
  0
VERTEX
  5
2C3
  8
0
  6
CONTINUOUS
 62
     7
 10
-214.8231348977221
 20
125.9660394222346
 30
0.0
  0
VERTEX
  5
2C4
  8
0
  6
CONTINUOUS
 62
     7
 10
-214.8235852911798
 20
125.9634455569958
 30
0.0
  0
VERTEX
  5
2C5
  8
0
  6
CONTINUOUS
 62
     7
 10
-214.8240359182058
 20
125.9609115432394
 30
0.0
  0
VERTEX
  5
2C6
  8
0
  6
CONTINUOUS
 62
     7
 10
-214.8244867733462
 20
125.9584374116333
 30
0.0
  0
VERTEX
  5
2C7
  8
0
  6
CONTINUOUS
 62
     7
 10
-214.8249378511447
 20
125.9560231921208
 30
0.0
  0
VERTEX
  5
2C8
  8
0
  6
CONTINUOUS
 62
     7
 10
-214.825389146142
 20
125.9536689139199
 30
0.0
  0
VERTEX
  5
2C9
  8
0
  6
CONTINUOUS
 62
     7
 10
-214.8258406528765
 20
125.9513746055233
 30
0.0
  0
VERTEX
  5
2CA
  8
0
  6
CONTINUOUS
 62
     7
 10
-214.8262923658836
 20
125.9491402946978
 30
0.0
  0
VERTEX
  5
2CB
  8
0
  6
CONTINUOUS
 62
     7
 10
-214.8267442796966
 20
125.946966008484
 30
0.0
  0
VERTEX
  5
2CC
  8
0
  6
CONTINUOUS
 62
     7
 10
-214.8271963888462
 20
125.9448517731965
 30
0.0
  0
VERTEX
  5
2CD
  8
0
  6
CONTINUOUS
 62
     7
 10
-214.8276486878606
 20
125.9427976144225
 30
0.0
  0
VERTEX
  5
2CE
  8
0
  6
CONTINUOUS
 62
     7
 10
-214.8281011712661
 20
125.9408035570227
 30
0.0
  0
VERTEX
  5
2CF
  8
0
  6
CONTINUOUS
 62
     7
 10
-214.8287802301277
 20
125.9379252135915
 30
0.0
  0
VERTEX
  5
2D0
  8
0
  6
CONTINUOUS
 62
     7
 10
-214.8294596730559
 20
125.9351822307598
 30
0.0
  0
VERTEX
  5
2D1
  8
0
  6
CONTINUOUS
 62
     7
 10
-214.8301394815491
 20
125.9325746832207
 30
0.0
  0
VERTEX
  5
2D2
  8
0
  6
CONTINUOUS
 62
     7
 10
-214.8308196370957
 20
125.9301026419791
 30
0.0
  0
VERTEX
  5
2D3
  8
0
  6
CONTINUOUS
 62
     7
 10
-214.8315001211747
 20
125.9277661743501
 30
0.0
  0
VERTEX
  5
2D4
  8
0
  6
CONTINUOUS
 62
     7
 10
-214.8321809152561
 20
125.9255653439572
 30
0.0
  0
VERTEX
  5
2D5
  8
0
  6
CONTINUOUS
 62
     7
 10
-214.8328620008015
 20
125.9235002107303
 30
0.0
  0
VERTEX
  5
2D6
  8
0
  6
CONTINUOUS
 62
     7
 10
-214.8335433592646
 20
125.921570830904
 30
0.0
  0
VERTEX
  5
2D7
  8
0
  6
CONTINUOUS
 62
     7
 10
-214.8344522296847
 20
125.9192095866997
 30
0.0
  0
VERTEX
  5
2D8
  8
0
  6
CONTINUOUS
 62
     7
 10
-214.8353615083081
 20
125.9170898891567
 30
0.0
  0
VERTEX
  5
2D9
  8
0
  6
CONTINUOUS
 62
     7
 10
-214.8362711511169
 20
125.9152118408895
 30
0.0
  0
VERTEX
  5
2DA
  8
0
  6
CONTINUOUS
 62
     7
 10
-214.8374086496764
 20
125.91320423724
 30
0.0
  0
VERTEX
  5
2DB
  8
0
  6
CONTINUOUS
 62
     7
 10
-214.8387741871076
 20
125.9112939126749
 30
0.0
  0
VERTEX
  5
2DC
  8
0
  6
CONTINUOUS
 62
     7
 10
-214.8394571330083
 20
125.9105428669917
 30
0.0
  0
SEQEND
  5
351
  8
0
  6
CONTINUOUS
 62
     7
  0
LINE
  5
12A
  8
0
  6
CONTINUOUS
 62
     7
 10
-214.7119548627389
 20
130.9088294918695
 30
0.0
 11
-214.7119548627389
 21
139.0911705081305
 31
0.0
  0
POLYLINE
  5
12B
  8
0
  6
CONTINUOUS
 62
     7
 66
     1
 10
0.0
 20
0.0
 30
0.0
  0
VERTEX
  5
2DD
  8
0
  6
CONTINUOUS
 62
     7
 10
-214.8394571330083
 20
144.0894571330083
 30
0.0
  0
VERTEX
  5
2DE
  8
0
  6
CONTINUOUS
 62
     7
 10
-214.8380913531323
 20
144.0878189558567
 30
0.0
  0
VERTEX
  5
2DF
  8
0
  6
CONTINUOUS
 62
     7
 10
-214.8369535957305
 20
144.0860380578422
 30
0.0
  0
VERTEX
  5
2E0
  8
0
  6
CONTINUOUS
 62
     7
 10
-214.8358162869412
 20
144.0838793470928
 30
0.0
  0
VERTEX
  5
2E1
  8
0
  6
CONTINUOUS
 62
     7
 10
-214.8349068207217
 20
144.081880462092
 30
0.0
  0
VERTEX
  5
2E2
  8
0
  6
CONTINUOUS
 62
     7
 10
-214.8339977406988
 20
144.0796399776606
 30
0.0
  0
VERTEX
  5
2E3
  8
0
  6
CONTINUOUS
 62
     7
 10
-214.8330890908811
 20
144.0771580022602
 30
0.0
  0
VERTEX
  5
2E4
  8
0
  6
CONTINUOUS
 62
     7
 10
-214.8324079123021
 20
144.075138114101
 30
0.0
  0
VERTEX
  5
2E5
  8
0
  6
CONTINUOUS
 62
     7
 10
-214.8317270190057
 20
144.0729825096203
 30
0.0
  0
VERTEX
  5
2E6
  8
0
  6
CONTINUOUS
 62
     7
 10
-214.8310464295333
 20
144.0706912475165
 30
0.0
  0
VERTEX
  5
2E7
  8
0
  6
CONTINUOUS
 62
     7
 10
-214.8303661624175
 20
144.068264390182
 30
0.0
  0
VERTEX
  5
2E8
  8
0
  6
CONTINUOUS
 62
     7
 10
-214.8296862361825
 20
144.0657020037014
 30
0.0
  0
VERTEX
  5
2E9
  8
0
  6
CONTINUOUS
 62
     7
 10
-214.8290066693431
 20
144.0630041578501
 30
0.0
  0
VERTEX
  5
2EA
  8
0
  6
CONTINUOUS
 62
     7
 10
-214.8283274804043
 20
144.0601709260919
 30
0.0
  0
VERTEX
  5
2EB
  8
0
  6
CONTINUOUS
 62
     7
 10
-214.8278749068567
 20
144.0582069284745
 30
0.0
  0
VERTEX
  5
2EC
  8
0
  6
CONTINUOUS
 62
     7
 10
-214.8274225149623
 20
144.0561828173255
 30
0.0
  0
VERTEX
  5
2ED
  8
0
  6
CONTINUOUS
 62
     7
 10
-214.8269703101962
 20
144.0540986171417
 30
0.0
  0
VERTEX
  5
2EE
  8
0
  6
CONTINUOUS
 62
     7
 10
-214.8265182980311
 20
144.0519543531472
 30
0.0
  0
VERTEX
  5
2EF
  8
0
  6
CONTINUOUS
 62
     7
 10
-214.8260664839376
 20
144.0497500512929
 30
0.0
  0
VERTEX
  5
2F0
  8
0
  6
CONTINUOUS
 62
     7
 10
-214.8256148733836
 20
144.0474857382563
 30
0.0
  0
VERTEX
  5
2F1
  8
0
  6
CONTINUOUS
 62
     7
 10
-214.8251634718348
 20
144.0451614414413
 30
0.0
  0
VERTEX
  5
2F2
  8
0
  6
CONTINUOUS
 62
     7
 10
-214.8247122847543
 20
144.0427771889777
 30
0.0
  0
VERTEX
  5
2F3
  8
0
  6
CONTINUOUS
 62
     7
 10
-214.8242613176026
 20
144.0403330097209
 30
0.0
  0
VERTEX
  5
2F4
  8
0
  6
CONTINUOUS
 62
     7
 10
-214.8238105758375
 20
144.0378289332515
 30
0.0
  0
VERTEX
  5
2F5
  8
0
  6
CONTINUOUS
 62
     7
 10
-214.8233600649141
 20
144.035264989875
 30
0.0
  0
VERTEX
  5
2F6
  8
0
  6
CONTINUOUS
 62
     7
 10
-214.8229097902848
 20
144.0326412106218
 30
0.0
  0
VERTEX
  5
2F7
  8
0
  6
CONTINUOUS
 62
     7
 10
-214.8224597573989
 20
144.0299576272459
 30
0.0
  0
VERTEX
  5
2F8
  8
0
  6
CONTINUOUS
 62
     7
 10
-214.822009971703
 20
144.0272142722254
 30
0.0
  0
SEQEND
  5
352
  8
0
  6
CONTINUOUS
 62
     7
  0
ARC
  5
12C
  8
0
  6
CONTINUOUS
 62
     7
 10
-224.9215580326766
 20
142.9473248171337
 30
0.0
 40
10.15711732092992
 50
1.156877882396941
 51
6.103136170435334
  0
ARC
  5
12D
  8
0
  6
CONTINUOUS
 62
     7
 10
-339.827749909052
 20
139.4414138907694
 30
0.0
 40
125.1162852729337
 50
359.8396092579538
 51
1.699657503150547
  0
LINE
  5
12E
  8
0
  6
CONTINUOUS
 62
     7
 10
-214.8394571330083
 20
144.0894571330083
 30
0.0
 11
-215.0
 21
144.25
 31
0.0
  0
LINE
  5
12F
  8
0
  6
CONTINUOUS
 62
     7
 10
-215.0
 20
144.25
 30
0.0
 11
-215.0
 21
167.5005140125367
 31
0.0
  0
LINE
  5
130
  8
0
  6
CONTINUOUS
 62
     7
 10
-215.0
 20
102.4994859874633
 30
0.0
 11
-215.0
 21
125.75
 31
0.0
  0
LINE
  5
131
  8
0
  6
CONTINUOUS
 62
     7
 10
-215.0
 20
125.75
 30
0.0
 11
-214.8394571330083
 21
125.9105428669917
 31
0.0
  0
LINE
  5
132
  8
0
  6
CONTINUOUS
 62
     7
 10
-265.0
 20
125.75
 30
0.0
 11
-265.0
 21
102.4994859874633
 31
0.0
  0
LINE
  5
133
  8
0
  6
CONTINUOUS
 62
     7
 10
-265.0
 20
167.5005140125367
 30
0.0
 11
-265.0
 21
144.25
 31
0.0
  0
LINE
  5
134
  8
0
  6
CONTINUOUS
 62
     7
 10
-265.0
 20
144.25
 30
0.0
 11
-265.1605428669917
 21
144.0894571330083
 31
0.0
  0
ARC
  5
135
  8
0
  6
CONTINUOUS
 62
     7
 10
-145.9754821466986
 20
139.4906781685241
 30
0.0
 40
119.3132318468813
 50
178.1754119692298
 51
180.1918491791947
  0
ARC
  5
136
  8
0
  6
CONTINUOUS
 62
     7
 10
-256.7083030005496
 20
143.079118921403
 30
0.0
 40
8.52251671781821
 50
173.6035268726298
 51
178.5849933931224
  0
POLYLINE
  5
137
  8
0
  6
CONTINUOUS
 62
     7
 66
     1
 10
0.0
 20
0.0
 30
0.0
  0
VERTEX
  5
2F9
  8
0
  6
CONTINUOUS
 62
     7
 10
-265.1777651666881
 20
144.0285934191334
 30
0.0
  0
VERTEX
  5
2FA
  8
0
  6
CONTINUOUS
 62
     7
 10
-265.1773152567165
 20
144.0313068924365
 30
0.0
  0
VERTEX
  5
2FB
  8
0
  6
CONTINUOUS
 62
     7
 10
-265.1768651022779
 20
144.0339605777656
 30
0.0
  0
VERTEX
  5
2FC
  8
0
  6
CONTINUOUS
 62
     7
 10
-265.1764147088201
 20
144.0365544430045
 30
0.0
  0
VERTEX
  5
2FD
  8
0
  6
CONTINUOUS
 62
     7
 10
-265.1759640817942
 20
144.0390884567609
 30
0.0
  0
VERTEX
  5
2FE
  8
0
  6
CONTINUOUS
 62
     7
 10
-265.1755132266537
 20
144.041562588367
 30
0.0
  0
VERTEX
  5
2FF
  8
0
  6
CONTINUOUS
 62
     7
 10
-265.1750621488552
 20
144.0439768078794
 30
0.0
  0
VERTEX
  5
300
  8
0
  6
CONTINUOUS
 62
     7
 10
-265.1746108538579
 20
144.0463310860803
 30
0.0
  0
VERTEX
  5
301
  8
0
  6
CONTINUOUS
 62
     7
 10
-265.1741593471235
 20
144.048625394477
 30
0.0
  0
VERTEX
  5
302
  8
0
  6
CONTINUOUS
 62
     7
 10
-265.1737076341163
 20
144.0508597053025
 30
0.0
  0
VERTEX
  5
303
  8
0
  6
CONTINUOUS
 62
     7
 10
-265.1732557203033
 20
144.0530339915162
 30
0.0
  0
VERTEX
  5
304
  8
0
  6
CONTINUOUS
 62
     7
 10
-265.1728036111538
 20
144.0551482268038
 30
0.0
  0
VERTEX
  5
305
  8
0
  6
CONTINUOUS
 62
     7
 10
-265.1723513121393
 20
144.0572023855777
 30
0.0
  0
VERTEX
  5
306
  8
0
  6
CONTINUOUS
 62
     7
 10
-265.1718988287338
 20
144.0591964429775
 30
0.0
  0
VERTEX
  5
307
  8
0
  6
CONTINUOUS
 62
     7
 10
-265.1712197698722
 20
144.0620747864087
 30
0.0
  0
VERTEX
  5
308
  8
0
  6
CONTINUOUS
 62
     7
 10
-265.1705403269441
 20
144.0648177692404
 30
0.0
  0
VERTEX
  5
309
  8
0
  6
CONTINUOUS
 62
     7
 10
-265.1698605184509
 20
144.0674253167795
 30
0.0
  0
VERTEX
  5
30A
  8
0
  6
CONTINUOUS
 62
     7
 10
-265.1691803629043
 20
144.0698973580211
 30
0.0
  0
VERTEX
  5
30B
  8
0
  6
CONTINUOUS
 62
     7
 10
-265.1684998788252
 20
144.07223382565
 30
0.0
  0
VERTEX
  5
30C
  8
0
  6
CONTINUOUS
 62
     7
 10
-265.1678190847438
 20
144.0744346560429
 30
0.0
  0
VERTEX
  5
30D
  8
0
  6
CONTINUOUS
 62
     7
 10
-265.1671379991984
 20
144.0764997892699
 30
0.0
  0
VERTEX
  5
30E
  8
0
  6
CONTINUOUS
 62
     7
 10
-265.1664566407353
 20
144.0784291690961
 30
0.0
  0
VERTEX
  5
30F
  8
0
  6
CONTINUOUS
 62
     7
 10
-265.1655477703152
 20
144.0807904133005
 30
0.0
  0
VERTEX
  5
310
  8
0
  6
CONTINUOUS
 62
     7
 10
-265.1646384916918
 20
144.0829101108434
 30
0.0
  0
VERTEX
  5
311
  8
0
  6
CONTINUOUS
 62
     7
 10
-265.163728848883
 20
144.0847881591106
 30
0.0
  0
VERTEX
  5
312
  8
0
  6
CONTINUOUS
 62
     7
 10
-265.1625913503235
 20
144.0867957627601
 30
0.0
  0
VERTEX
  5
313
  8
0
  6
CONTINUOUS
 62
     7
 10
-265.1612258128923
 20
144.0887060873252
 30
0.0
  0
VERTEX
  5
314
  8
0
  6
CONTINUOUS
 62
     7
 10
-265.1605428669916
 20
144.0894571330084
 30
0.0
  0
SEQEND
  5
353
  8
0
  6
CONTINUOUS
 62
     7
  0
LINE
  5
138
  8
0
  6
CONTINUOUS
 62
     7
 10
-265.2880451372611
 20
139.0911705081305
 30
0.0
 11
-265.2880451372611
 21
130.9088294918694
 31
0.0
  0
POLYLINE
  5
139
  8
0
  6
CONTINUOUS
 62
     7
 66
     1
 10
0.0
 20
0.0
 30
0.0
  0
VERTEX
  5
315
  8
0
  6
CONTINUOUS
 62
     7
 10
-265.1605428669916
 20
125.9105428669917
 30
0.0
  0
VERTEX
  5
316
  8
0
  6
CONTINUOUS
 62
     7
 10
-265.1619086468676
 20
125.9121810441433
 30
0.0
  0
VERTEX
  5
317
  8
0
  6
CONTINUOUS
 62
     7
 10
-265.1630464042694
 20
125.9139619421578
 30
0.0
  0
VERTEX
  5
318
  8
0
  6
CONTINUOUS
 62
     7
 10
-265.1641837130588
 20
125.9161206529072
 30
0.0
  0
VERTEX
  5
319
  8
0
  6
CONTINUOUS
 62
     7
 10
-265.1650931792783
 20
125.918119537908
 30
0.0
  0
VERTEX
  5
31A
  8
0
  6
CONTINUOUS
 62
     7
 10
-265.1660022593011
 20
125.9203600223394
 30
0.0
  0
VERTEX
  5
31B
  8
0
  6
CONTINUOUS
 62
     7
 10
-265.1669109091189
 20
125.9228419977398
 30
0.0
  0
VERTEX
  5
31C
  8
0
  6
CONTINUOUS
 62
     7
 10
-265.1675920876979
 20
125.924861885899
 30
0.0
  0
VERTEX
  5
31D
  8
0
  6
CONTINUOUS
 62
     7
 10
-265.1682729809943
 20
125.9270174903797
 30
0.0
  0
VERTEX
  5
31E
  8
0
  6
CONTINUOUS
 62
     7
 10
-265.1689535704667
 20
125.9293087524835
 30
0.0
  0
VERTEX
  5
31F
  8
0
  6
CONTINUOUS
 62
     7
 10
-265.1696338375825
 20
125.931735609818
 30
0.0
  0
VERTEX
  5
320
  8
0
  6
CONTINUOUS
 62
     7
 10
-265.1703137638174
 20
125.9342979962986
 30
0.0
  0
VERTEX
  5
321
  8
0
  6
CONTINUOUS
 62
     7
 10
-265.1709933306569
 20
125.9369958421499
 30
0.0
  0
VERTEX
  5
322
  8
0
  6
CONTINUOUS
 62
     7
 10
-265.1716725195957
 20
125.9398290739081
 30
0.0
  0
VERTEX
  5
323
  8
0
  6
CONTINUOUS
 62
     7
 10
-265.1721250931432
 20
125.9417930715255
 30
0.0
  0
VERTEX
  5
324
  8
0
  6
CONTINUOUS
 62
     7
 10
-265.1725774850377
 20
125.9438171826745
 30
0.0
  0
VERTEX
  5
325
  8
0
  6
CONTINUOUS
 62
     7
 10
-265.1730296898037
 20
125.9459013828582
 30
0.0
  0
VERTEX
  5
326
  8
0
  6
CONTINUOUS
 62
     7
 10
-265.1734817019689
 20
125.9480456468528
 30
0.0
  0
VERTEX
  5
327
  8
0
  6
CONTINUOUS
 62
     7
 10
-265.1739335160624
 20
125.9502499487071
 30
0.0
  0
VERTEX
  5
328
  8
0
  6
CONTINUOUS
 62
     7
 10
-265.1743851266164
 20
125.9525142617437
 30
0.0
  0
VERTEX
  5
329
  8
0
  6
CONTINUOUS
 62
     7
 10
-265.1748365281651
 20
125.9548385585586
 30
0.0
  0
VERTEX
  5
32A
  8
0
  6
CONTINUOUS
 62
     7
 10
-265.1752877152456
 20
125.9572228110223
 30
0.0
  0
VERTEX
  5
32B
  8
0
  6
CONTINUOUS
 62
     7
 10
-265.1757386823974
 20
125.9596669902791
 30
0.0
  0
VERTEX
  5
32C
  8
0
  6
CONTINUOUS
 62
     7
 10
-265.1761894241624
 20
125.9621710667485
 30
0.0
  0
VERTEX
  5
32D
  8
0
  6
CONTINUOUS
 62
     7
 10
-265.1766399350858
 20
125.964735010125
 30
0.0
  0
VERTEX
  5
32E
  8
0
  6
CONTINUOUS
 62
     7
 10
-265.1770902097152
 20
125.9673587893782
 30
0.0
  0
VERTEX
  5
32F
  8
0
  6
CONTINUOUS
 62
     7
 10
-265.1775402426011
 20
125.9700423727541
 30
0.0
  0
VERTEX
  5
330
  8
0
  6
CONTINUOUS
 62
     7
 10
-265.177990028297
 20
125.9727857277745
 30
0.0
  0
SEQEND
  5
354
  8
0
  6
CONTINUOUS
 62
     7
  0
ARC
  5
13A
  8
0
  6
CONTINUOUS
 62
     7
 10
-255.0784419673288
 20
127.0526751828658
 30
0.0
 40
10.15711732092446
 50
181.1568778823979
 51
186.1031361704365
  0
ARC
  5
13B
  8
0
  6
CONTINUOUS
 62
     7
 10
-140.172250091008
 20
130.5585861092297
 30
0.0
 40
125.1162852728736
 50
179.8396092579543
 51
181.6996575031513
  0
LINE
  5
13C
  8
0
  6
CONTINUOUS
 62
     7
 10
-265.1605428669916
 20
125.9105428669917
 30
0.0
 11
-264.9999999999999
 21
125.75
 31
0.0
  0
CIRCLE
  5
13D
  8
0
  6
CONTINUOUS
 62
     9
 10
-240.0
 20
82.49999999999999
 30
0.0
 40
4.462921564539148
  0
CIRCLE
  5
13E
  8
0
  6
CONTINUOUS
 62
     9
 10
-240.0
 20
187.5
 30
0.0
 40
4.462921564539148
  0
CIRCLE
  5
13F
  8
0
  6
CONTINUOUS
 62
     7
 10
-240.0
 20
187.5
 30
0.0
 40
1.75
  0
CIRCLE
  5
140
  8
0
  6
CONTINUOUS
 62
     7
 10
-240.0
 20
82.50000000000001
 30
0.0
 40
1.75
  0
ENDBLK
  8
0
  0
ENDSEC
  0
SECTION
  2
ENTITIES
  0
INSERT
  5
92
  8
0
  6
CONTINUOUS
 62
     7
  2
D_FRAME_VIEW_272
 10
0.0
 20
0.0
 30
0.0
  0
INSERT
  5
B7
  8
0
  6
CONTINUOUS
 62
     7
  2
D_FRAME_VIEW_291
 10
0.0
 20
0.0
 30
0.0
  0
INSERT
  5
141
  8
0
  6
CONTINUOUS
 62
     7
  2
D_FRAME_VIEW_36
 10
0.0
 20
0.0
 30
0.0
  0
LINE
  5
142
  8
0
  6
CENTER
 62
     1
 10
-247.2642310588302
 20
82.49999999999999
 30
0.0
 11
-232.7357689411698
 21
82.49999999999999
 31
0.0
  0
LINE
  5
144
  8
0
  6
CENTER
 62
     1
 10
-247.2642310588302
 20
187.5
 30
0.0
 11
-232.7357689411698
 21
187.5
 31
0.0
  0
LINE
  5
145
  8
0
  6
CENTER
 62
     1
 10
-244.5809030168614
 20
93.25
 30
0.0
 11
-235.4190969831386
 21
93.25
 31
0.0
  0
LINE
  5
146
  8
0
  6
CENTER
 62
     1
 10
-244.5809030168614
 20
176.75
 30
0.0
 11
-235.4190969831386
 21
176.75
 31
0.0
  0
TEXT
  5
147
  8
0
  6
CONTINUOUS
 62
     7
 10
-358.7727741653119
 20
17.4659090909091
 30
0.0
 40
5.0
  1
%%UＷＢ－ＨＳ
  0
LINE
  5
148
  8
0
  6
CENTER
 62
     1
 10
-327.2937301599036
 20
135.0
 30
0.0
 11
-355.3247151763445
 21
135.0
 31
0.0
  0
LINE
  5
149
  8
0
  6
CENTER
 62
     1
 10
-240.0
 20
9.950189882437124
 30
0.0
 11
-240.0
 21
37.98117489887841
 31
0.0
  0
LINE
  5
14A
  8
0
  6
CENTER
 62
     1
 10
-240.0
 20
208.5005140125367
 30
0.0
 11
-240.0
 21
61.49948598746332
 31
0.0
  0
LINE
  5
14B
  8
0
  6
CENTER
 62
     1
 10
-187.4994859874633
 20
135.0
 30
0.0
 11
-292.5005140125367
 21
135.0
 31
0.0
  0
ENDSEC
  0
EOF
