  0
SECTION
  2
HEADER
  9
$ACADVER
  1
AC1006
  9
$DWGCODEPAGE
  3
ansi_932
  9
$INSBASE
 10
0.0
 20
0.0
 30
0.0
  9
$EXTMIN
 10
-2158.208927630985
 20
-452.2
  9
$EXTMAX
 10
-1117.8
 20
444.7089276309849
  9
$LIMMIN
 10
0.0
 20
0.0
  9
$LIMMAX
 10
12.0
 20
9.0
  9
$ORTHOMODE
 70
     0
  9
$REGENMODE
 70
     1
  9
$FILLMODE
 70
     1
  9
$QTEXTMODE
 70
     0
  9
$MIRRTEXT
 70
     1
  9
$DRAGMODE
 70
     2
  9
$LTSCALE
 40
1.0
  9
$OSMODE
 70
    37
  9
$ATTMODE
 70
     1
  9
$TEXTSIZE
 40
0.2
  9
$TRACEWID
 40
0.05
  9
$TEXTSTYLE
  7
STANDARD
  9
$CLAYER
  8
0
  9
$CELTYPE
  6
BYLAYER
  9
$CECOLOR
 62
   256
  9
$DIMSCALE
 40
1.0
  9
$DIMASZ
 40
3.0
  9
$DIMEXO
 40
0.0625
  9
$DIMDLI
 40
0.38
  9
$DIMRND
 40
0.0
  9
$DIMDLE
 40
0.0
  9
$DIMEXE
 40
1.5
  9
$DIMTP
 40
0.0
  9
$DIMTM
 40
0.0
  9
$DIMTXT
 40
3.0
  9
$DIMCEN
 40
0.09
  9
$DIMTSZ
 40
0.0
  9
$DIMTOL
 70
     0
  9
$DIMLIM
 70
     0
  9
$DIMTIH
 70
     1
  9
$DIMTOH
 70
     1
  9
$DIMSE1
 70
     0
  9
$DIMSE2
 70
     0
  9
$DIMTAD
 70
     1
  9
$DIMZIN
 70
     0
  9
$DIMBLK
  1

  9
$DIMASO
 70
     1
  9
$DIMSHO
 70
     1
  9
$DIMPOST
  1

  9
$DIMAPOST
  1

  9
$DIMALT
 70
     0
  9
$DIMALTD
 70
     2
  9
$DIMALTF
 40
25.4
  9
$DIMLFAC
 40
1.0
  9
$DIMTOFL
 70
     0
  9
$DIMTVP
 40
0.0
  9
$DIMTIX
 70
     0
  9
$DIMSOXD
 70
     0
  9
$DIMSAH
 70
     0
  9
$DIMBLK1
  1

  9
$DIMBLK2
  1

  9
$LUNITS
 70
     2
  9
$LUPREC
 70
     4
  9
$SKETCHINC
 40
0.1
  9
$FILLETRAD
 40
0.5
  9
$AUNITS
 70
     0
  9
$AUPREC
 70
     0
  9
$MENU
  1
.
  9
$ELEVATION
 40
0.0
  9
$THICKNESS
 40
0.0
  9
$LIMCHECK
 70
     0
  9
$CHAMFERA
 40
0.0
  9
$CHAMFERB
 40
0.0
  9
$SKPOLY
 70
     0
  9
$TDCREATE
 40
2460347.761756342
  9
$TDUPDATE
 40
2460347.761757303
  9
$TDINDWG
 40
0.0000000116
  9
$TDUSRTIMER
 40
0.0000000116
  9
$USRTIMER
 70
     1
  9
$ANGBASE
 50
0.0
  9
$ANGDIR
 70
     0
  9
$PDMODE
 70
     0
  9
$PDSIZE
 40
0.0
  9
$PLINEWID
 40
0.0
  9
$COORDS
 70
     1
  9
$SPLFRAME
 70
     0
  9
$SPLINETYPE
 70
     6
  9
$SPLINESEGS
 70
     8
  9
$ATTDIA
 70
     0
  9
$ATTREQ
 70
     1
  9
$HANDLING
 70
     1
  9
$HANDSEED
  5
931
  9
$SURFTAB1
 70
     6
  9
$SURFTAB2
 70
     6
  9
$SURFTYPE
 70
     6
  9
$SURFU
 70
     6
  9
$SURFV
 70
     6
  9
$UCSNAME
  2

  9
$UCSORG
 10
0.0
 20
0.0
 30
0.0
  9
$UCSXDIR
 10
1.0
 20
0.0
 30
0.0
  9
$UCSYDIR
 10
0.0
 20
1.0
 30
0.0
  9
$USERI1
 70
     0
  9
$USERI2
 70
     0
  9
$USERI3
 70
     0
  9
$USERI4
 70
     0
  9
$USERI5
 70
     0
  9
$USERR1
 40
0.0
  9
$USERR2
 40
0.0
  9
$USERR3
 40
0.0
  9
$USERR4
 40
0.0
  9
$USERR5
 40
0.0
  9
$WORLDVIEW
 70
     1
  0
ENDSEC
  0
SECTION
  2
TABLES
  0
TABLE
  2
VPORT
 70
     1
  0
VPORT
  2
*ACTIVE
 70
     0
 10
0.0
 20
0.0
 11
1.0
 21
1.0
 12
-1638.004463815493
 22
-3.745536184507557
 13
0.0
 23
0.0
 14
0.5
 24
0.5
 15
0.5
 25
0.5
 16
0.0
 26
0.0
 36
1.0
 17
0.0
 27
0.0
 37
0.0
 40
896.9089276309849
 41
1.6
 42
50.0
 43
0.0
 44
0.0
 50
0.0
 51
0.0
 71
     0
 72
   100
 73
     1
 74
     3
 75
     0
 76
     0
 77
     0
 78
     0
  0
ENDTAB
  0
TABLE
  2
LTYPE
 70
     1
  0
LTYPE
  2
CONTINUOUS
 70
     0
  3
Solid line
 72
    65
 73
     0
 40
0.0
  0
ENDTAB
  0
TABLE
  2
LAYER
 70
     1
  0
LAYER
  2
0
 70
     0
 62
     7
  6
CONTINUOUS
  0
ENDTAB
  0
TABLE
  2
STYLE
 70
     2
  0
STYLE
  2
STANDARD
 70
     0
 40
0.0
 41
1.0
 50
0.0
 71
     0
 42
0.2
  3
txt
  4

  0
STYLE
  2
ＭＳ_ゴシック
 70
     0
 40
0.0
 41
1.0
 50
0.0
 71
     0
 42
0.2
  3
ＭＳ ゴシック.shx
  4

  0
ENDTAB
  0
TABLE
  2
VIEW
 70
     0
  0
ENDTAB
  0
TABLE
  2
UCS
 70
     0
  0
ENDTAB
  0
ENDSEC
  0
SECTION
  2
BLOCKS
  0
ENDSEC
  0
SECTION
  2
ENTITIES
  0
LINE
  5
6F
  8
0
  6
CONTINUOUS
 62
   253
 10
-1850.194278094106
 20
-18.21589783677216
 30
0.0
 11
-1850.172544550302
 21
-18.24771906956568
 31
0.0
  0
LINE
  5
70
  8
0
  6
CONTINUOUS
 62
   253
 10
-1850.127434078354
 20
-18.30259946956522
 30
0.0
 11
-1850.104154056846
 21
-18.32554074230577
 31
0.0
  0
LINE
  5
71
  8
0
  6
CONTINUOUS
 62
   253
 10
-1850.215401188567
 20
-18.18124498366238
 30
0.0
 11
-1850.194278094106
 21
-18.21589783677216
 31
0.0
  0
LINE
  5
72
  8
0
  6
CONTINUOUS
 62
   253
 10
-1850.172544550302
 20
-18.24771906956568
 30
0.0
 11
-1850.150247245308
 21
-18.27664032344442
 31
0.0
  0
LINE
  5
73
  8
0
  6
CONTINUOUS
 62
   253
 10
-1850.235868456903
 20
-18.14383495174179
 30
0.0
 11
-1850.215401188567
 21
-18.18124498366238
 31
0.0
  0
LINE
  5
74
  8
0
  6
CONTINUOUS
 62
   253
 10
-1850.150247245308
 20
-18.27664032344442
 30
0.0
 11
-1850.127434078354
 21
-18.30259946956522
 31
0.0
  0
LINE
  5
75
  8
0
  6
CONTINUOUS
 62
     7
 10
-1321.18740051741
 20
405.4999999705171
 30
0.0
 11
-1292.940997155725
 21
405.4999999704709
 31
0.0
  0
LINE
  5
76
  8
0
  6
CONTINUOUS
 62
     7
 10
-1314.455925050003
 20
-18.8000000288632
 30
0.0
 11
-1314.510635260943
 21
-18.80000002884413
 31
0.0
  0
LINE
  5
77
  8
0
  6
CONTINUOUS
 62
     7
 10
-1332.895988215638
 20
409.7999999706287
 30
0.0
 11
-1321.29999998022
 21
409.7999999706097
 31
0.0
  0
LINE
  5
78
  8
0
  6
CONTINUOUS
 62
     7
 10
-1338.299999980578
 20
409.7999999711454
 30
0.0
 11
-1332.895988215638
 21
409.7999999711455
 31
0.0
  0
LINE
  5
79
  8
0
  6
CONTINUOUS
 62
   253
 10
-1332.913105278918
 20
408.995090292553
 30
0.0
 11
-1332.913440622012
 21
408.7999999705351
 31
0.0
  0
LINE
  5
7A
  8
0
  6
CONTINUOUS
 62
   253
 10
-1332.913440622012
 20
408.7999999705351
 30
0.0
 11
-1332.913440622012
 21
-17.80000002931098
 31
0.0
  0
ARC
  5
7B
  8
0
  6
CONTINUOUS
 62
     7
 10
-1338.299999980582
 20
408.7999999711458
 30
0.0
 40
1.000000000000001
 50
90.0
 51
180.0
  0
LINE
  5
7C
  8
0
  6
CONTINUOUS
 62
     7
 10
-1339.299999980582
 20
-17.80000002870033
 30
0.0
 11
-1339.299999980582
 21
408.7999999711459
 31
0.0
  0
LINE
  5
7D
  8
0
  6
CONTINUOUS
 62
     7
 10
-1308.052627170731
 20
-18.80000002887164
 30
0.0
 11
-1308.253970259659
 21
-18.80000002891605
 31
0.0
  0
LINE
  5
7E
  8
0
  6
CONTINUOUS
 62
     7
 10
-1291.802090933925
 20
-18.80000002863069
 30
0.0
 11
-1292.542960456527
 21
-18.80000002863069
 31
0.0
  0
LINE
  5
7F
  8
0
  6
CONTINUOUS
 62
     7
 10
-1341.799999995973
 20
234.9999999937837
 30
0.0
 11
-1341.799999995973
 21
237.4999999940186
 31
0.0
  0
LINE
  5
80
  8
0
  6
CONTINUOUS
 62
     7
 10
-1293.299999980126
 20
397.9999999704741
 30
0.0
 11
-1292.940997155725
 21
397.9999999704735
 31
0.0
  0
LINE
  5
81
  8
0
  6
CONTINUOUS
 62
   253
 10
-1332.895988215638
 20
409.7999999706291
 30
0.0
 11
-1332.899393011218
 21
409.780785251014
 31
0.0
  0
LINE
  5
82
  8
0
  6
CONTINUOUS
 62
   253
 10
-1332.9104993612
 20
409.3555702035706
 30
0.0
 11
-1332.91211213668
 21
409.1826834029073
 31
0.0
  0
LINE
  5
83
  8
0
  6
CONTINUOUS
 62
     7
 10
-1292.940997155725
 20
-7.000000029380504
 30
0.0
 11
-1293.299999980126
 21
-7.000000029379922
 31
0.0
  0
LINE
  5
84
  8
0
  6
CONTINUOUS
 62
     7
 10
-1321.29999998022
 20
409.7999999706091
 30
0.0
 11
-1321.273814058649
 21
408.7999999705146
 31
0.0
  0
LINE
  5
85
  8
0
  6
CONTINUOUS
 62
   253
 10
-1339.299999980577
 20
-17.80000002870033
 30
0.0
 11
-1332.913440622012
 21
-17.80000002870033
 31
0.0
  0
LINE
  5
86
  8
0
  6
CONTINUOUS
 62
     7
 10
-1292.940997155737
 20
397.999999971219
 30
0.0
 11
-1291.922557746732
 21
397.999999971219
 31
0.0
  0
LINE
  5
87
  8
0
  6
CONTINUOUS
 62
     7
 10
-1291.92255774674
 20
402.9516924055862
 30
0.0
 11
-1291.299999980643
 21
402.9625591918149
 31
0.0
  0
LINE
  5
88
  8
0
  6
CONTINUOUS
 62
     7
 10
-1321.18740051741
 20
405.4999999705171
 30
0.0
 11
-1321.273814058588
 21
408.799999970516
 31
0.0
  0
LINE
  5
89
  8
0
  6
CONTINUOUS
 62
   253
 10
-1340.799999995973
 20
238.4999999940186
 30
0.0
 11
-1340.799999995973
 21
234.9999999936897
 31
0.0
  0
ARC
  5
8A
  8
0
  6
CONTINUOUS
 62
     7
 10
-1340.799999995973
 20
237.4999999940177
 30
0.0
 40
1.000000000000001
 50
89.99999999999682
 51
180.0
  0
LINE
  5
8B
  8
0
  6
CONTINUOUS
 62
     7
 10
-1292.940997155737
 20
405.4999999712164
 30
0.0
 11
-1291.299999980644
 21
405.4999999712164
 31
0.0
  0
LINE
  5
8C
  8
0
  6
CONTINUOUS
 62
   253
 10
-1332.91211213668
 20
409.1826834029073
 30
0.0
 11
-1332.913105278918
 21
408.995090292553
 31
0.0
  0
LINE
  5
8D
  8
0
  6
CONTINUOUS
 62
   253
 10
-1340.799999995751
 20
234.9999999937837
 30
0.0
 11
-1341.799999995813
 21
234.9999999937837
 31
0.0
  0
LINE
  5
8E
  8
0
  6
CONTINUOUS
 62
     7
 10
-1293.299999980126
 20
-7.000000029379922
 30
0.0
 11
-1293.299999980126
 21
397.9999999704741
 31
0.0
  0
LINE
  5
8F
  8
0
  6
CONTINUOUS
 62
     7
 10
-1291.922557746732
 20
-7.000000028634962
 30
0.0
 11
-1292.940997155737
 21
-7.000000028634962
 31
0.0
  0
LINE
  5
90
  8
0
  6
CONTINUOUS
 62
     7
 10
-1332.895988215638
 20
-18.80000002869994
 30
0.0
 11
-1338.299999980576
 21
-18.80000002869994
 31
0.0
  0
LINE
  5
91
  8
0
  6
CONTINUOUS
 62
   253
 10
-1332.902666962412
 20
409.7238795031044
 30
0.0
 11
-1332.905684253114
 21
409.6314695828794
 31
0.0
  0
LINE
  5
92
  8
0
  6
CONTINUOUS
 62
     7
 10
-1314.510635260943
 20
-18.80000002884413
 30
0.0
 11
-1314.634867067126
 21
-18.80000002886112
 31
0.0
  0
LINE
  5
93
  8
0
  6
CONTINUOUS
 62
   253
 10
-1332.905684253114
 20
409.6314695828794
 30
0.0
 11
-1332.908328930534
 21
409.5071067517492
 31
0.0
  0
LINE
  5
94
  8
0
  6
CONTINUOUS
 62
     7
 10
-1292.940997155725
 20
397.9999999704735
 30
0.0
 11
-1292.940997155725
 21
405.4999999704709
 31
0.0
  0
LINE
  5
95
  8
0
  6
CONTINUOUS
 62
   253
 10
-1332.899393011218
 20
409.780785251014
 30
0.0
 11
-1332.902666962412
 21
409.7238795031044
 31
0.0
  0
LINE
  5
96
  8
0
  6
CONTINUOUS
 62
   253
 10
-1332.908328930534
 20
409.5071067517492
 30
0.0
 11
-1332.9104993612
 21
409.3555702035706
 31
0.0
  0
LINE
  5
97
  8
0
  6
CONTINUOUS
 62
   253
 10
-1321.273814058588
 20
408.799999970516
 30
0.0
 11
-1332.913440622012
 21
408.7999999705351
 31
0.0
  0
LINE
  5
98
  8
0
  6
CONTINUOUS
 62
   253
 10
-1332.913440622012
 20
408.7999999711458
 30
0.0
 11
-1339.299999980575
 21
408.7999999711458
 31
0.0
  0
LINE
  5
99
  8
0
  6
CONTINUOUS
 62
     7
 10
-1291.922557746718
 20
397.9999999707538
 30
0.0
 11
-1291.922557746718
 21
402.9516924051157
 31
0.0
  0
LINE
  5
9A
  8
0
  6
CONTINUOUS
 62
     7
 10
-1291.922557746718
 20
-11.95169246346209
 30
0.0
 11
-1291.922557746718
 21
-7.000000029100228
 31
0.0
  0
ARC
  5
9B
  8
0
  6
CONTINUOUS
 62
     7
 10
-1338.299999980582
 20
-17.80000002870033
 30
0.0
 40
1.000000000000001
 50
180.0
 51
270.0
  0
LINE
  5
9C
  8
0
  6
CONTINUOUS
 62
     7
 10
-1308.253970259659
 20
-18.80000002891605
 30
0.0
 11
-1308.264936481452
 21
-18.80000002893009
 31
0.0
  0
LINE
  5
9D
  8
0
  6
CONTINUOUS
 62
     7
 10
-1292.940997155725
 20
-17.80000002937657
 30
0.0
 11
-1292.940997155725
 21
-7.000000029380504
 31
0.0
  0
LINE
  5
9E
  8
0
  6
CONTINUOUS
 62
     7
 10
-1314.444213300017
 20
-18.80000002888754
 30
0.0
 11
-1314.455925050003
 21
-18.8000000288632
 31
0.0
  0
LINE
  5
9F
  8
0
  6
CONTINUOUS
 62
     7
 10
-1332.852357219312
 20
409.8
 30
0.0
 11
-1335.8
 21
409.8
 31
0.0
  0
LINE
  5
A0
  8
0
  6
CONTINUOUS
 62
   253
 10
-1131.3
 20
435.9994668518463
 30
0.0
 11
-1143.3
 21
435.9994668518463
 31
0.0
  0
LINE
  5
A1
  8
0
  6
CONTINUOUS
 62
   253
 10
-1151.298746363972
 20
435.9994668518463
 30
0.0
 11
-1143.3
 21
435.9994668518463
 31
0.0
  0
LINE
  5
A2
  8
0
  6
CONTINUOUS
 62
     7
 10
-1341.8
 20
233.434535196077
 30
0.0
 11
-1343.326176948308
 21
233.3945708462079
 31
0.0
  0
LINE
  5
A3
  8
0
  6
CONTINUOUS
 62
     7
 10
-1119.799923846128
 20
435.8999716251633
 30
0.0
 11
-1117.8
 21
435.8999716251633
 31
0.0
  0
LINE
  5
A4
  8
0
  6
CONTINUOUS
 62
     7
 10
-1151.298746363972
 20
-40.9994668518463
 30
0.0
 11
-1151.298746363972
 21
-20.49999999999999
 31
0.0
  0
LINE
  5
A5
  8
0
  6
CONTINUOUS
 62
     7
 10
-1151.3
 20
415.460981177401
 30
0.0
 11
-1151.298746363972
 21
415.5
 31
0.0
  0
LINE
  5
A6
  8
0
  6
CONTINUOUS
 62
     7
 10
-1151.298746363972
 20
415.5
 30
0.0
 11
-1151.298746363972
 21
435.9994668518463
 31
0.0
  0
LINE
  5
A7
  8
0
  6
CONTINUOUS
 62
   253
 10
-1332.950356879487
 20
-38.51258320520385
 30
0.0
 11
-1332.958335531616
 21
-39.16894360642049
 31
0.0
  0
LINE
  5
A8
  8
0
  6
CONTINUOUS
 62
     7
 10
-1131.3
 20
444.7089276309849
 30
0.0
 11
-1131.3
 21
435.9994668518463
 31
0.0
  0
LINE
  5
A9
  8
0
  6
CONTINUOUS
 62
   253
 10
-1340.799999995751
 20
155.9999999937182
 30
0.0
 11
-1339.299999995751
 21
155.9999999937182
 31
0.0
  0
LINE
  5
AA
  8
0
  6
CONTINUOUS
 62
     7
 10
-1119.799923846128
 20
-40.89997162516323
 30
0.0
 11
-1119.799923846128
 21
435.8999716251631
 31
0.0
  0
LINE
  5
AB
  8
0
  6
CONTINUOUS
 62
     7
 10
-1119.799923846128
 20
-49.59964035582151
 30
0.0
 11
-1119.799923846128
 21
-40.89997162516323
 31
0.0
  0
LINE
  5
AC
  8
0
  6
CONTINUOUS
 62
     7
 10
-1117.8
 20
442.5821872848248
 30
0.0
 11
-1117.8
 21
435.8999716251633
 31
0.0
  0
LINE
  5
AD
  8
0
  6
CONTINUOUS
 62
   253
 10
-1340.799999995751
 20
234.9999999936897
 30
0.0
 11
-1340.799999995751
 21
155.9999999937182
 31
0.0
  0
ARC
  5
AE
  8
0
  6
CONTINUOUS
 62
     7
 10
-1340.799999995973
 20
153.499999994048
 30
0.0
 40
1.000000000000112
 50
180.0
 51
270.0000000000015
  0
LINE
  5
AF
  8
0
  6
CONTINUOUS
 62
     7
 10
-1131.3
 20
-40.9994668518463
 30
0.0
 11
-1131.3
 21
-49.70892763098492
 31
0.0
  0
LINE
  5
B0
  8
0
  6
CONTINUOUS
 62
   253
 10
-1332.958335531616
 20
-39.16894360642049
 30
0.0
 11
-1332.963248711272
 21
-39.77386911051204
 31
0.0
  0
LINE
  5
B1
  8
0
  6
CONTINUOUS
 62
     7
 10
-1143.3
 20
444.4994668518463
 30
0.0
 11
-1151.29912245478
 21
439.5000153176088
 31
0.0
  0
LINE
  5
B2
  8
0
  6
CONTINUOUS
 62
     7
 10
-1341.799999995814
 20
155.9999999938121
 30
0.0
 11
-1341.799999995814
 21
234.9999999937836
 31
0.0
  0
LINE
  5
B3
  8
0
  6
CONTINUOUS
 62
   253
 10
-1332.963248711272
 20
-39.77386911051204
 30
0.0
 11
-1332.964907680699
 21
-40.30412175519461
 31
0.0
  0
LINE
  5
B4
  8
0
  6
CONTINUOUS
 62
   253
 10
-1332.964907680699
 20
-40.30412175519461
 30
0.0
 11
-1332.963248711272
 21
-40.73933210510024
 31
0.0
  0
LINE
  5
B5
  8
0
  6
CONTINUOUS
 62
   253
 10
-1332.963248711272
 20
-40.73933210510024
 30
0.0
 11
-1332.958335531616
 21
-41.06278173518605
 31
0.0
  0
LINE
  5
B6
  8
0
  6
CONTINUOUS
 62
     7
 10
-1143.3
 20
-40.9994668518463
 30
0.0
 11
-1143.3
 21
-49.49946685184631
 31
0.0
  0
LINE
  5
B7
  8
0
  6
CONTINUOUS
 62
     7
 10
-1151.298746085638
 20
-41.00055495410923
 30
0.0
 11
-1151.298746363972
 21
-40.9994668518463
 31
0.0
  0
LINE
  5
B8
  8
0
  6
CONTINUOUS
 62
   253
 10
-1332.958335531616
 20
-41.06278173518605
 30
0.0
 11
-1332.950356879487
 21
-41.26204546209674
 31
0.0
  0
LINE
  5
B9
  8
0
  6
CONTINUOUS
 62
   253
 10
-1332.950356879487
 20
-41.26204546209674
 30
0.0
 11
-1332.939619251498
 21
-41.32946865242837
 31
0.0
  0
LINE
  5
BA
  8
0
  6
CONTINUOUS
 62
   253
 10
-1341.799999995814
 20
155.9999999938121
 30
0.0
 11
-1340.799999995751
 21
155.9999999938121
 31
0.0
  0
LINE
  5
BB
  8
0
  6
CONTINUOUS
 62
     7
 10
-1119.799923846128
 20
435.8999716251633
 30
0.0
 11
-1119.799923846128
 21
444.5996403558215
 31
0.0
  0
LINE
  5
BC
  8
0
  6
CONTINUOUS
 62
   253
 10
-1332.939619251498
 20
-37.830001719381
 30
0.0
 11
-1151.298746085638
 21
-41.00055495410923
 31
0.0
  0
LINE
  5
BD
  8
0
  6
CONTINUOUS
 62
     7
 10
-1151.298746363972
 20
-20.49999999999999
 30
0.0
 11
-1151.3
 21
-20.46098117740106
 31
0.0
  0
LINE
  5
BE
  8
0
  6
CONTINUOUS
 62
   253
 10
-1332.939619251498
 20
-37.83000171938103
 30
0.0
 11
-1332.950356879487
 21
-38.51258320520385
 31
0.0
  0
LINE
  5
BF
  8
0
  6
CONTINUOUS
 62
     7
 10
-1151.299122051303
 20
-44.50001532465148
 30
0.0
 11
-1332.939619251498
 21
-41.32946865242837
 31
0.0
  0
LINE
  5
C0
  8
0
  6
CONTINUOUS
 62
   253
 10
-1332.427385335399
 20
436.3384097286923
 30
0.0
 11
-1332.438122963388
 21
436.2709865383604
 31
0.0
  0
LINE
  5
C1
  8
0
  6
CONTINUOUS
 62
   253
 10
-1332.438122963388
 20
436.2709865383604
 30
0.0
 11
-1332.446101615516
 21
436.0717228114495
 31
0.0
  0
LINE
  5
C2
  8
0
  6
CONTINUOUS
 62
     7
 10
-1143.3
 20
435.9994668518463
 30
0.0
 11
-1143.3
 21
-40.9994668518463
 31
0.0
  0
LINE
  5
C3
  8
0
  6
CONTINUOUS
 62
     7
 10
-1117.8
 20
-47.58218728482477
 30
0.0
 11
-1119.799923846128
 21
-49.59964035582151
 31
0.0
  0
LINE
  5
C4
  8
0
  6
CONTINUOUS
 62
   253
 10
-1339.299999995751
 20
234.9999999936897
 30
0.0
 11
-1340.799999995751
 21
234.9999999936897
 31
0.0
  0
LINE
  5
C5
  8
0
  6
CONTINUOUS
 62
     7
 10
-1340.799999995973
 20
238.4999999940173
 30
0.0
 11
-1339.299999995973
 21
238.4999999940173
 31
0.0
  0
LINE
  5
C6
  8
0
  6
CONTINUOUS
 62
     7
 10
-1339.299999995973
 20
152.4999999940483
 30
0.0
 11
-1340.799999995973
 21
152.4999999940483
 31
0.0
  0
LINE
  5
C7
  8
0
  6
CONTINUOUS
 62
   253
 10
-1119.799923846128
 20
435.8999716251633
 30
0.0
 11
-1131.3
 21
436.0003312693417
 31
0.0
  0
LINE
  5
C8
  8
0
  6
CONTINUOUS
 62
     7
 10
-1119.799923846128
 20
-40.89997162516323
 30
0.0
 11
-1117.8
 21
-40.89997162516323
 31
0.0
  0
LINE
  5
C9
  8
0
  6
CONTINUOUS
 62
   253
 10
-1131.3
 20
-41.00033126934171
 30
0.0
 11
-1119.799923846128
 21
-40.89997162516323
 31
0.0
  0
LINE
  5
CA
  8
0
  6
CONTINUOUS
 62
     7
 10
-1131.3
 20
-49.70892763098492
 30
0.0
 11
-1143.3
 21
-49.49946685184631
 31
0.0
  0
LINE
  5
CB
  8
0
  6
CONTINUOUS
 62
     7
 10
-1131.3
 20
444.7
 30
0.0
 11
-1119.799923846128
 21
444.5996403558215
 31
0.0
  0
LINE
  5
CC
  8
0
  6
CONTINUOUS
 62
   253
 10
-1340.799999995973
 20
155.9999999937182
 30
0.0
 11
-1340.799999995973
 21
152.4999999940471
 31
0.0
  0
LINE
  5
CD
  8
0
  6
CONTINUOUS
 62
     7
 10
-1117.8
 20
-40.89997162516323
 30
0.0
 11
-1117.8
 21
-47.58218728482474
 31
0.0
  0
LINE
  5
CE
  8
0
  6
CONTINUOUS
 62
     7
 10
-1119.799923846128
 20
444.5996403558215
 30
0.0
 11
-1117.8
 21
442.5821872848248
 31
0.0
  0
LINE
  5
CF
  8
0
  6
CONTINUOUS
 62
   253
 10
-1143.3
 20
-40.9994668518463
 30
0.0
 11
-1131.3
 21
-40.9994668518463
 31
0.0
  0
LINE
  5
D0
  8
0
  6
CONTINUOUS
 62
     7
 10
-1131.3
 20
435.9994668518463
 30
0.0
 11
-1131.3
 21
-40.9994668518463
 31
0.0
  0
LINE
  5
D1
  8
0
  6
CONTINUOUS
 62
     7
 10
-1151.299122051303
 20
-44.50001532465148
 30
0.0
 11
-1151.298746085638
 21
-41.00055495410923
 31
0.0
  0
ARC
  5
D2
  8
0
  6
CONTINUOUS
 62
     7
 10
-1343.3
 20
232.3949135212324
 30
0.0
 40
1.000000000000001
 50
91.49999999999956
 51
150.4847589816486
  0
LINE
  5
D3
  8
0
  6
CONTINUOUS
 62
     7
 10
-1341.8
 20
157.565464803923
 30
0.0
 11
-1343.326176948308
 21
157.605429153792
 31
0.0
  0
LINE
  5
D4
  8
0
  6
CONTINUOUS
 62
     7
 10
-1117.8
 20
435.8999716251633
 30
0.0
 11
-1117.8
 21
-40.89997162516318
 31
0.0
  0
ARC
  5
D5
  8
0
  6
CONTINUOUS
 62
     7
 10
-1343.3
 20
158.6050864787676
 30
0.0
 40
1.000000000000001
 50
209.1640197272341
 51
268.5000000000005
  0
LINE
  5
D6
  8
0
  6
CONTINUOUS
 62
   253
 10
-1151.298746363972
 20
-40.9994668518463
 30
0.0
 11
-1143.3
 21
-40.9994668518463
 31
0.0
  0
LINE
  5
D7
  8
0
  6
CONTINUOUS
 62
     7
 10
-1151.29912245478
 20
-44.50001531760878
 30
0.0
 11
-1143.3
 21
-49.49946685184631
 31
0.0
  0
LINE
  5
D8
  8
0
  6
CONTINUOUS
 62
     7
 10
-1151.298746363972
 20
435.9994668518463
 30
0.0
 11
-1151.298746085638
 21
436.0005549541092
 31
0.0
  0
LINE
  5
D9
  8
0
  6
CONTINUOUS
 62
     7
 10
-1143.3
 20
444.4994668518463
 30
0.0
 11
-1143.3
 21
435.9994668518463
 31
0.0
  0
LINE
  5
DA
  8
0
  6
CONTINUOUS
 62
     7
 10
-1143.3
 20
444.4994668518463
 30
0.0
 11
-1131.3
 21
444.7089276309849
 31
0.0
  0
LINE
  5
DB
  8
0
  6
CONTINUOUS
 62
     7
 10
-1151.298746085638
 20
436.0005549541092
 30
0.0
 11
-1151.299122051303
 21
439.5000153246515
 31
0.0
  0
LINE
  5
DC
  8
0
  6
CONTINUOUS
 62
     7
 10
-1151.3
 20
-20.46098117740106
 30
0.0
 11
-1151.3
 21
415.460981177401
 31
0.0
  0
LINE
  5
DD
  8
0
  6
CONTINUOUS
 62
     7
 10
-1341.799999995973
 20
153.4999999940471
 30
0.0
 11
-1341.799999995973
 21
155.9999999938121
 31
0.0
  0
LINE
  5
DE
  8
0
  6
CONTINUOUS
 62
     7
 10
-1119.799923846128
 20
-49.59964035582151
 30
0.0
 11
-1131.3
 21
-49.7
 31
0.0
  0
LINE
  5
DF
  8
0
  6
CONTINUOUS
 62
   253
 10
-1339.243768671711
 20
436.1535990564268
 30
0.0
 11
-1339.868280696512
 21
435.9476833616272
 31
0.0
  0
LINE
  5
E0
  8
0
  6
CONTINUOUS
 62
   253
 10
-1339.868280696512
 20
435.9476833616272
 30
0.0
 11
-1340.442509766531
 21
435.6207956317522
 31
0.0
  0
LINE
  5
E1
  8
0
  6
CONTINUOUS
 62
   253
 10
-1340.442509766531
 20
435.6207956317522
 30
0.0
 11
-1340.944858229896
 21
435.1852306246946
 31
0.0
  0
LINE
  5
E2
  8
0
  6
CONTINUOUS
 62
   253
 10
-1340.944858229896
 20
435.1852306246946
 30
0.0
 11
-1341.356431976579
 21
434.6573706204205
 31
0.0
  0
LINE
  5
E3
  8
0
  6
CONTINUOUS
 62
   253
 10
-1341.661751075375
 20
434.0570692578422
 30
0.0
 11
-1341.849331998282
 21
433.4069048084611
 31
0.0
  0
LINE
  5
E4
  8
0
  6
CONTINUOUS
 62
     7
 10
-1338.592462564435
 20
436.230797905372
 30
0.0
 11
-1332.427385335399
 21
436.3384097286923
 31
0.0
  0
LINE
  5
E5
  8
0
  6
CONTINUOUS
 62
   253
 10
-1332.446101615516
 20
436.0717228114495
 30
0.0
 11
-1332.451014795173
 21
435.7482731813637
 31
0.0
  0
LINE
  5
E6
  8
0
  6
CONTINUOUS
 62
   253
 10
-1338.592462564436
 20
436.230797905372
 30
0.0
 11
-1339.243768671711
 21
436.1535990564268
 31
0.0
  0
LINE
  5
E7
  8
0
  6
CONTINUOUS
 62
   253
 10
-1341.62920640952
 20
414.7928932188134
 30
0.0
 11
-1341.482833344019
 21
414.6685303876974
 31
0.0
  0
LINE
  5
E8
  8
0
  6
CONTINUOUS
 62
   253
 10
-1341.482833344019
 20
414.6685303876974
 30
0.0
 11
-1341.315837518242
 21
414.5761204674887
 31
0.0
  0
LINE
  5
E9
  8
0
  6
CONTINUOUS
 62
   253
 10
-1332.424444074576
 20
414.9444297669804
 30
0.0
 11
-1332.422273643901
 21
414.7928932188134
 31
0.0
  0
LINE
  5
EA
  8
0
  6
CONTINUOUS
 62
   253
 10
-1341.912119533917
 20
415.5
 30
0.0
 11
-1341.893559540013
 21
415.3049096779839
 31
0.0
  0
LINE
  5
EB
  8
0
  6
CONTINUOUS
 62
   253
 10
-1341.134636488122
 20
414.5192147195968
 30
0.0
 11
-1340.946193707628
 21
414.5
 31
0.0
  0
LINE
  5
EC
  8
0
  6
CONTINUOUS
 62
   253
 10
-1341.356431976579
 20
434.6573706204205
 30
0.0
 11
-1341.661751075375
 21
434.0570692578422
 31
0.0
  0
LINE
  5
ED
  8
0
  6
CONTINUOUS
 62
   253
 10
-1341.912119533917
 20
415.5
 30
0.0
 11
-1332.427385335399
 21
415.5
 31
0.0
  0
LINE
  5
EE
  8
0
  6
CONTINUOUS
 62
     7
 10
-1332.409932928962
 20
414.5
 30
0.0
 11
-1340.946193707628
 21
414.5
 31
0.0
  0
LINE
  5
EF
  8
0
  6
CONTINUOUS
 62
   253
 10
-1332.939619251498
 20
-20.49999999999999
 30
0.0
 11
-1332.939619251498
 21
-37.830001719381
 31
0.0
  0
LINE
  5
F0
  8
0
  6
CONTINUOUS
 62
     7
 10
-1307.0
 20
-20.79999999999999
 30
0.0
 11
-1315.6
 21
-20.79999999999999
 31
0.0
  0
LINE
  5
F1
  8
0
  6
CONTINUOUS
 62
   253
 10
-1332.446101615516
 20
434.1778846826841
 30
0.0
 11
-1332.438122963388
 21
433.5215242814676
 31
0.0
  0
LINE
  5
F2
  8
0
  6
CONTINUOUS
 62
   253
 10
-1341.912119533917
 20
415.5
 30
0.0
 11
-1341.912119533917
 21
432.7313309723247
 31
0.0
  0
LINE
  5
F3
  8
0
  6
CONTINUOUS
 62
   253
 10
-1332.451014795173
 20
434.7828101867755
 30
0.0
 11
-1332.446101615516
 21
434.1778846826841
 31
0.0
  0
LINE
  5
F4
  8
0
  6
CONTINUOUS
 62
   253
 10
-1332.426056850062
 20
415.1173165676349
 30
0.0
 11
-1332.424444074576
 21
414.9444297669804
 31
0.0
  0
LINE
  5
F5
  8
0
  6
CONTINUOUS
 62
     7
 10
-1291.3
 20
411.4999999999999
 30
0.0
 11
-1291.3
 21
405.9999999999999
 31
0.0
  0
LINE
  5
F6
  8
0
  6
CONTINUOUS
 62
   253
 10
-1332.931862882572
 20
-19.66853038769744
 30
0.0
 11
-1332.934507560001
 21
-19.79289321881344
 31
0.0
  0
LINE
  5
F7
  8
0
  6
CONTINUOUS
 62
   253
 10
-1341.83859280846
 20
415.1173165676349
 30
0.0
 11
-1341.749331679925
 21
414.9444297669804
 31
0.0
  0
LINE
  5
F8
  8
0
  6
CONTINUOUS
 62
   253
 10
-1332.451014795173
 20
435.7482731813637
 30
0.0
 11
-1332.452673764599
 21
435.3130628314581
 31
0.0
  0
LINE
  5
F9
  8
0
  6
CONTINUOUS
 62
   253
 10
-1341.749331679925
 20
414.9444297669804
 30
0.0
 11
-1341.62920640952
 21
414.7928932188134
 31
0.0
  0
LINE
  5
FA
  8
0
  6
CONTINUOUS
 62
   253
 10
-1340.8
 20
-37.75282477519784
 30
0.0
 11
-1332.939619251498
 21
-37.830001719381
 31
0.0
  0
LINE
  5
FB
  8
0
  6
CONTINUOUS
 62
     7
 10
-1332.427385335399
 20
436.3384097286923
 30
0.0
 11
-1151.299122051303
 21
439.5000153246515
 31
0.0
  0
LINE
  5
FC
  8
0
  6
CONTINUOUS
 62
   253
 10
-1332.922166845061
 20
-19.49999999999999
 30
0.0
 11
-1332.925571640653
 21
-19.51921471959676
 31
0.0
  0
LINE
  5
FD
  8
0
  6
CONTINUOUS
 62
   253
 10
-1332.422166845061
 20
411.4999999999999
 30
0.0
 11
-1291.3
 21
411.4999999999999
 31
0.0
  0
LINE
  5
FE
  8
0
  6
CONTINUOUS
 62
   253
 10
-1332.939283908402
 20
-20.30490967798386
 30
0.0
 11
-1332.939619251498
 21
-20.49999999999999
 31
0.0
  0
LINE
  5
FF
  8
0
  6
CONTINUOUS
 62
   253
 10
-1332.427049992303
 20
415.3049096779839
 30
0.0
 11
-1332.426056850062
 21
415.1173165676349
 31
0.0
  0
LINE
  5
100
  8
0
  6
CONTINUOUS
 62
   253
 10
-1332.427385335399
 20
432.838942795645
 30
0.0
 11
-1332.427385335399
 21
415.5
 31
0.0
  0
LINE
  5
101
  8
0
  6
CONTINUOUS
 62
   253
 10
-1332.41661167576
 20
414.5761204674887
 30
0.0
 11
-1332.413337724553
 21
414.5192147195968
 31
0.0
  0
LINE
  5
102
  8
0
  6
CONTINUOUS
 62
     7
 10
-1332.922166845061
 20
-19.49999999999999
 30
0.0
 11
-1315.6
 21
-19.49999999999999
 31
0.0
  0
LINE
  5
103
  8
0
  6
CONTINUOUS
 62
   253
 10
-1341.315837518242
 20
414.5761204674887
 30
0.0
 11
-1341.134636488122
 21
414.5192147195968
 31
0.0
  0
LINE
  5
104
  8
0
  6
CONTINUOUS
 62
     7
 10
-1340.8
 20
-37.75282477519784
 30
0.0
 11
-1340.8
 21
-20.49999999999999
 31
0.0
  0
LINE
  5
105
  8
0
  6
CONTINUOUS
 62
     7
 10
-1307.0
 20
-20.49999999999999
 30
0.0
 11
-1307.0
 21
-19.49999999999999
 31
0.0
  0
LINE
  5
106
  8
0
  6
CONTINUOUS
 62
   253
 10
-1332.925571640653
 20
-19.51921471959676
 30
0.0
 11
-1332.928845591859
 21
-19.5761204674887
 31
0.0
  0
LINE
  5
107
  8
0
  6
CONTINUOUS
 62
   253
 10
-1332.452673764599
 20
435.3130628314581
 30
0.0
 11
-1332.451014795173
 21
434.7828101867755
 31
0.0
  0
LINE
  5
108
  8
0
  6
CONTINUOUS
 62
   253
 10
-1341.893559540013
 20
415.3049096779839
 30
0.0
 11
-1341.83859280846
 21
415.1173165676349
 31
0.0
  0
LINE
  5
109
  8
0
  6
CONTINUOUS
 62
   253
 10
-1341.849331998282
 20
433.4069048084611
 30
0.0
 11
-1341.912119533917
 21
432.7313309723247
 31
0.0
  0
LINE
  5
10A
  8
0
  6
CONTINUOUS
 62
   253
 10
-1332.419628966473
 20
414.6685303876974
 30
0.0
 11
-1332.41661167576
 21
414.5761204674887
 31
0.0
  0
LINE
  5
10B
  8
0
  6
CONTINUOUS
 62
   253
 10
-1332.936677990675
 20
-19.94442976698039
 30
0.0
 11
-1332.938290766161
 21
-20.1173165676349
 31
0.0
  0
LINE
  5
10C
  8
0
  6
CONTINUOUS
 62
     7
 10
-1315.6
 20
-19.49999999999999
 30
0.0
 11
-1315.6
 21
-20.49999999999999
 31
0.0
  0
LINE
  5
10D
  8
0
  6
CONTINUOUS
 62
   253
 10
-1151.298746085638
 20
436.0005549541092
 30
0.0
 11
-1332.427385335399
 21
432.838942795645
 31
0.0
  0
LINE
  5
10E
  8
0
  6
CONTINUOUS
 62
     7
 10
-1315.6
 20
-20.79999999999999
 30
0.0
 11
-1315.6
 21
-20.49999999999999
 31
0.0
  0
LINE
  5
10F
  8
0
  6
CONTINUOUS
 62
   253
 10
-1332.934507560001
 20
-19.79289321881344
 30
0.0
 11
-1332.936677990675
 21
-19.94442976698039
 31
0.0
  0
LINE
  5
110
  8
0
  6
CONTINUOUS
 62
   253
 10
-1332.427385335399
 20
415.5
 30
0.0
 11
-1332.427049992303
 21
415.3049096779839
 31
0.0
  0
LINE
  5
111
  8
0
  6
CONTINUOUS
 62
     7
 10
-1151.3
 20
414.5
 30
0.0
 11
-1332.409932928962
 21
414.5
 31
0.0
  0
LINE
  5
112
  8
0
  6
CONTINUOUS
 62
   253
 10
-1315.6
 20
-20.49999999999999
 30
0.0
 11
-1332.939619251498
 21
-20.49999999999999
 31
0.0
  0
LINE
  5
113
  8
0
  6
CONTINUOUS
 62
   253
 10
-1332.422273643901
 20
414.7928932188134
 30
0.0
 11
-1332.419628966473
 21
414.6685303876974
 31
0.0
  0
LINE
  5
114
  8
0
  6
CONTINUOUS
 62
   253
 10
-1332.413337724553
 20
414.5192147195968
 30
0.0
 11
-1332.409932928962
 21
414.5
 31
0.0
  0
LINE
  5
115
  8
0
  6
CONTINUOUS
 62
   253
 10
-1332.928845591859
 20
-19.5761204674887
 30
0.0
 11
-1332.931862882572
 21
-19.66853038769744
 31
0.0
  0
LINE
  5
116
  8
0
  6
CONTINUOUS
 62
   253
 10
-1332.422166845061
 20
414.5
 30
0.0
 11
-1332.422166845061
 21
411.4999999999999
 31
0.0
  0
LINE
  5
117
  8
0
  6
CONTINUOUS
 62
   253
 10
-1151.298746363972
 20
-20.49999999999999
 30
0.0
 11
-1307.0
 21
-20.49999999999999
 31
0.0
  0
LINE
  5
118
  8
0
  6
CONTINUOUS
 62
   253
 10
-1332.427385335399
 20
415.5
 30
0.0
 11
-1151.298746363972
 21
415.5
 31
0.0
  0
LINE
  5
119
  8
0
  6
CONTINUOUS
 62
   253
 10
-1332.938290766161
 20
-20.1173165676349
 30
0.0
 11
-1332.939283908402
 21
-20.30490967798386
 31
0.0
  0
LINE
  5
11A
  8
0
  6
CONTINUOUS
 62
     7
 10
-1307.0
 20
-20.49999999999999
 30
0.0
 11
-1307.0
 21
-20.79999999999999
 31
0.0
  0
LINE
  5
11B
  8
0
  6
CONTINUOUS
 62
   253
 10
-1332.438122963388
 20
433.5215242814676
 30
0.0
 11
-1332.427385335399
 21
432.838942795645
 31
0.0
  0
LINE
  5
11C
  8
0
  6
CONTINUOUS
 62
     7
 10
-1307.0
 20
-19.49999999999999
 30
0.0
 11
-1151.3
 21
-19.49999999999999
 31
0.0
  0
LINE
  5
11D
  8
0
  6
CONTINUOUS
 62
     7
 10
-1291.3
 20
405.9999999999999
 30
0.0
 11
-1291.3
 21
-19.49999999999996
 31
0.0
  0
LINE
  5
11E
  8
0
  6
CONTINUOUS
 62
   253
 10
-1332.427385335399
 20
432.8389427956449
 30
0.0
 11
-1341.912119533917
 21
432.7313309723247
 31
0.0
  0
LINE
  5
11F
  8
0
  6
CONTINUOUS
 62
   253
 10
-1332.421831501965
 20
411.3049096779838
 30
0.0
 11
-1332.420838359724
 21
411.1173165676349
 31
0.0
  0
LINE
  5
120
  8
0
  6
CONTINUOUS
 62
     7
 10
-1339.3
 20
-19.49999999999999
 30
0.0
 11
-1332.922166845061
 21
-19.49999999999999
 31
0.0
  0
LINE
  5
121
  8
0
  6
CONTINUOUS
 62
     7
 10
-1339.8
 20
-19.49999999999999
 30
0.0
 11
-1339.3
 21
-19.49999999999999
 31
0.0
  0
LINE
  5
122
  8
0
  6
CONTINUOUS
 62
   253
 10
-1355.31927762695
 20
435.3611206828265
 30
0.0
 11
-1355.821626090315
 21
434.9255556757689
 31
0.0
  0
LINE
  5
123
  8
0
  6
CONTINUOUS
 62
   253
 10
-1356.788887394336
 20
415.5
 30
0.0
 11
-1356.770327400433
 21
415.3049096779839
 31
0.0
  0
LINE
  5
124
  8
0
  6
CONTINUOUS
 62
   253
 10
-1356.770327400433
 20
415.3049096779839
 30
0.0
 11
-1356.715360668879
 21
415.1173165676349
 31
0.0
  0
LINE
  5
125
  8
0
  6
CONTINUOUS
 62
   253
 10
-1356.715360668879
 20
415.1173165676349
 30
0.0
 11
-1356.626099540345
 21
414.9444297669804
 31
0.0
  0
LINE
  5
126
  8
0
  6
CONTINUOUS
 62
   253
 10
-1356.626099540345
 20
414.9444297669804
 30
0.0
 11
-1356.505974269939
 21
414.7928932188134
 31
0.0
  0
LINE
  5
127
  8
0
  6
CONTINUOUS
 62
   253
 10
-1340.210729188946
 20
-20.30490967798413
 30
0.0
 11
-1340.228571428572
 21
-20.5000000000003
 31
0.0
  0
LINE
  5
128
  8
0
  6
CONTINUOUS
 62
   253
 10
-1340.07207892571
 20
-19.94442976698055
 30
0.0
 11
-1340.157888137332
 21
-20.11731656763511
 31
0.0
  0
LINE
  5
129
  8
0
  6
CONTINUOUS
 62
   253
 10
-1332.420838359724
 20
411.1173165676349
 30
0.0
 11
-1332.419225584238
 21
410.9444297669804
 31
0.0
  0
LINE
  5
12A
  8
0
  6
CONTINUOUS
 62
   253
 10
-1340.228571428572
 20
-20.49999999999999
 30
0.0
 11
-1340.8
 21
-20.49999999999999
 31
0.0
  0
LINE
  5
12B
  8
0
  6
CONTINUOUS
 62
   253
 10
-1339.815886644947
 20
-19.66853038769751
 30
0.0
 11
-1339.956599153959
 21
-19.79289321881355
 31
0.0
  0
LINE
  5
12C
  8
0
  6
CONTINUOUS
 62
     7
 10
-1292.119333813208
 20
410.5192147195967
 30
0.0
 11
-1291.928378998478
 21
410.5761204674886
 31
0.0
  0
LINE
  5
12D
  8
0
  6
CONTINUOUS
 62
     7
 10
-1291.319559051043
 20
411.3049096779838
 30
0.0
 11
-1291.3
 21
411.4999999999999
 31
0.0
  0
LINE
  5
12E
  8
0
  6
CONTINUOUS
 62
   253
 10
-1332.422166845061
 20
411.4999999999999
 30
0.0
 11
-1332.421831501965
 21
411.3049096779838
 31
0.0
  0
LINE
  5
12F
  8
0
  6
CONTINUOUS
 62
   253
 10
-1332.417055153564
 20
410.7928932188134
 30
0.0
 11
-1332.414410476135
 21
410.6685303876974
 31
0.0
  0
LINE
  5
130
  8
0
  6
CONTINUOUS
 62
   253
 10
-1332.411393185422
 20
410.5761204674886
 30
0.0
 11
-1332.408119234216
 21
410.5192147195967
 31
0.0
  0
LINE
  5
131
  8
0
  6
CONTINUOUS
 62
     7
 10
-1315.6
 20
-19.49999999999999
 30
0.0
 11
-1315.577308415594
 21
-20.79999999999999
 31
0.0
  0
LINE
  5
132
  8
0
  6
CONTINUOUS
 62
   253
 10
-1339.481155299015
 20
-19.51921471959676
 30
0.0
 11
-1339.655348901482
 21
-19.57612046748873
 31
0.0
  0
LINE
  5
133
  8
0
  6
CONTINUOUS
 62
     7
 10
-1299.856290910049
 20
410.4999999999998
 30
0.0
 11
-1299.856290910049
 21
405.9999999999999
 31
0.0
  0
LINE
  5
134
  8
0
  6
CONTINUOUS
 62
     7
 10
-1291.928378998478
 20
410.5761204674886
 30
0.0
 11
-1291.752394033322
 21
410.6685303876974
 31
0.0
  0
LINE
  5
135
  8
0
  6
CONTINUOUS
 62
     7
 10
-1291.598141921258
 20
410.7928932188134
 30
0.0
 11
-1291.471550484446
 21
410.9444297669804
 31
0.0
  0
LINE
  5
136
  8
0
  6
CONTINUOUS
 62
     7
 10
-1291.471550484446
 20
410.9444297669804
 30
0.0
 11
-1291.37748456081
 21
411.1173165676349
 31
0.0
  0
LINE
  5
137
  8
0
  6
CONTINUOUS
 62
     7
 10
-1332.404714438624
 20
410.4999999999999
 30
0.0
 11
-1338.3
 21
410.4999999999999
 31
0.0
  0
LINE
  5
138
  8
0
  6
CONTINUOUS
 62
     7
 10
-1339.3
 20
411.4999999999999
 30
0.0
 11
-1339.3
 21
414.4999999999999
 31
0.0
  0
ARC
  5
139
  8
0
  6
CONTINUOUS
 62
     7
 10
-1339.8
 20
-20.49999999999999
 30
0.0
 40
1.000000000000001
 50
90.0
 51
180.0
  0
LINE
  5
13A
  8
0
  6
CONTINUOUS
 62
     7
 10
-1307.022691584406
 20
-20.79999999999999
 30
0.0
 11
-1307.0
 21
-19.49999999999999
 31
0.0
  0
LINE
  5
13B
  8
0
  6
CONTINUOUS
 62
   253
 10
-1302.056780063594
 20
410.4999999999998
 30
0.0
 11
-1302.056780063594
 21
405.9999999999999
 31
0.0
  0
LINE
  5
13C
  8
0
  6
CONTINUOUS
 62
   253
 10
-1339.655348901482
 20
-19.57612046748873
 30
0.0
 11
-1339.815886644947
 21
-19.66853038769751
 31
0.0
  0
LINE
  5
13D
  8
0
  6
CONTINUOUS
 62
     7
 10
-1291.37748456081
 20
411.1173165676349
 30
0.0
 11
-1291.319559051043
 21
411.3049096779838
 31
0.0
  0
LINE
  5
13E
  8
0
  6
CONTINUOUS
 62
     7
 10
-1291.752394033322
 20
410.6685303876974
 30
0.0
 11
-1291.598141921258
 21
410.7928932188134
 31
0.0
  0
LINE
  5
13F
  8
0
  6
CONTINUOUS
 62
     7
 10
-1315.6
 20
-19.49999999999996
 30
0.0
 11
-1315.419070392154
 21
-19.49999999999996
 31
0.0
  0
LINE
  5
140
  8
0
  6
CONTINUOUS
 62
   253
 10
-1302.939726132731
 20
405.9999999999999
 30
0.0
 11
-1302.939726132731
 21
410.4999999999998
 31
0.0
  0
LINE
  5
141
  8
0
  6
CONTINUOUS
 62
     7
 10
-1302.056780063593
 20
405.9999999999999
 30
0.0
 11
-1302.939726132731
 21
405.9999999999999
 31
0.0
  0
LINE
  5
142
  8
0
  6
CONTINUOUS
 62
     7
 10
-1302.056780063594
 20
405.9999999999999
 30
0.0
 11
-1299.856290910049
 21
405.9999999999999
 31
0.0
  0
LINE
  5
143
  8
0
  6
CONTINUOUS
 62
     7
 10
-1303.3
 20
405.9999999999999
 30
0.0
 11
-1302.939726132731
 21
405.9999999999999
 31
0.0
  0
LINE
  5
144
  8
0
  6
CONTINUOUS
 62
   253
 10
-1356.788887394336
 20
432.471656023399
 30
0.0
 11
-1356.788887394336
 21
415.5
 31
0.0
  0
LINE
  5
145
  8
0
  6
CONTINUOUS
 62
   253
 10
-1339.3
 20
-19.49999999999999
 30
0.0
 11
-1339.481155299015
 21
-19.51921471959676
 31
0.0
  0
LINE
  5
146
  8
0
  6
CONTINUOUS
 62
   253
 10
-1341.912119533917
 20
432.7313309723247
 30
0.0
 11
-1356.788887394336
 21
432.471656023399
 31
0.0
  0
LINE
  5
147
  8
0
  6
CONTINUOUS
 62
   253
 10
-1354.120536532131
 20
435.8939241075012
 30
0.0
 11
-1354.745048556932
 21
435.6880084127015
 31
0.0
  0
LINE
  5
148
  8
0
  6
CONTINUOUS
 62
   253
 10
-1332.408119234216
 20
410.5192147195967
 30
0.0
 11
-1332.404714438624
 21
410.4999999999999
 31
0.0
  0
LINE
  5
149
  8
0
  6
CONTINUOUS
 62
   253
 10
-1332.939619251498
 20
-20.49999999999999
 30
0.0
 11
-1340.228571428571
 21
-20.49999999999999
 31
0.0
  0
LINE
  5
14A
  8
0
  6
CONTINUOUS
 62
   253
 10
-1354.745048556932
 20
435.6880084127015
 30
0.0
 11
-1355.31927762695
 21
435.3611206828265
 31
0.0
  0
LINE
  5
14B
  8
0
  6
CONTINUOUS
 62
     7
 10
-1332.939619251498
 20
-41.32946865242837
 30
0.0
 11
-1337.36108342253
 21
-41.25229170824521
 31
0.0
  0
ARC
  5
14C
  8
0
  6
CONTINUOUS
 62
     7
 10
-1337.3
 20
-37.75282477519784
 30
0.0
 40
3.499999999999997
 50
180.0
 51
268.9999999999998
  0
LINE
  5
14D
  8
0
  6
CONTINUOUS
 62
     7
 10
-1307.180929607846
 20
-19.49999999999999
 30
0.0
 11
-1307.0
 21
-19.49999999999999
 31
0.0
  0
LINE
  5
14E
  8
0
  6
CONTINUOUS
 62
   253
 10
-1355.821626090315
 20
434.9255556757689
 30
0.0
 11
-1356.233199836998
 21
434.3976956714949
 31
0.0
  0
ARC
  5
14F
  8
0
  6
CONTINUOUS
 62
     7
 10
-1338.3
 20
411.4999999999999
 30
0.0
 40
1.000000000000001
 50
180.0
 51
270.0
  0
LINE
  5
150
  8
0
  6
CONTINUOUS
 62
   253
 10
-1353.469230424855
 20
435.9711229564464
 30
0.0
 11
-1354.120536532131
 21
435.8939241075012
 31
0.0
  0
LINE
  5
151
  8
0
  6
CONTINUOUS
 62
     7
 10
-1303.3
 20
410.4999999999999
 30
0.0
 11
-1303.3
 21
405.9999999999999
 31
0.0
  0
LINE
  5
152
  8
0
  6
CONTINUOUS
 62
   253
 10
-1356.788887394336
 20
415.5
 30
0.0
 11
-1341.912119533917
 21
415.5
 31
0.0
  0
LINE
  5
153
  8
0
  6
CONTINUOUS
 62
   253
 10
-1340.157888137332
 20
-20.11731656763511
 30
0.0
 11
-1340.210729188946
 21
-20.30490967798413
 31
0.0
  0
LINE
  5
154
  8
0
  6
CONTINUOUS
 62
     7
 10
-1292.317920191071
 20
410.4999999999999
 30
0.0
 11
-1292.119333813208
 21
410.5192147195967
 31
0.0
  0
LINE
  5
155
  8
0
  6
CONTINUOUS
 62
   253
 10
-1332.419225584238
 20
410.9444297669804
 30
0.0
 11
-1332.417055153564
 21
410.7928932188134
 31
0.0
  0
LINE
  5
156
  8
0
  6
CONTINUOUS
 62
   253
 10
-1356.233199836998
 20
434.3976956714949
 30
0.0
 11
-1356.538518935794
 21
433.7973943089166
 31
0.0
  0
LINE
  5
157
  8
0
  6
CONTINUOUS
 62
   253
 10
-1356.538518935794
 20
433.7973943089166
 30
0.0
 11
-1356.726099858701
 21
433.1472298595355
 31
0.0
  0
LINE
  5
158
  8
0
  6
CONTINUOUS
 62
     7
 10
-1353.469230424855
 20
435.9711229564464
 30
0.0
 11
-1338.592462564436
 21
436.2307979053721
 31
0.0
  0
LINE
  5
159
  8
0
  6
CONTINUOUS
 62
     7
 10
-1292.317920191071
 20
410.4999999999998
 30
0.0
 11
-1332.404714438624
 21
410.4999999999999
 31
0.0
  0
LINE
  5
15A
  8
0
  6
CONTINUOUS
 62
   253
 10
-1332.414410476135
 20
410.6685303876974
 30
0.0
 11
-1332.411393185422
 21
410.5761204674886
 31
0.0
  0
LINE
  5
15B
  8
0
  6
CONTINUOUS
 62
   253
 10
-1339.3
 20
411.4999999999999
 30
0.0
 11
-1332.422166845061
 21
411.4999999999999
 31
0.0
  0
LINE
  5
15C
  8
0
  6
CONTINUOUS
 62
   253
 10
-1356.726099858701
 20
433.1472298595355
 30
0.0
 11
-1356.788887394336
 21
432.4716560233991
 31
0.0
  0
LINE
  5
15D
  8
0
  6
CONTINUOUS
 62
     7
 10
-1299.856290910049
 20
405.9999999999999
 30
0.0
 11
-1291.3
 21
405.9999999999999
 31
0.0
  0
LINE
  5
15E
  8
0
  6
CONTINUOUS
 62
   253
 10
-1339.956599153959
 20
-19.79289321881355
 30
0.0
 11
-1340.07207892571
 21
-19.94442976698055
 31
0.0
  0
LINE
  5
15F
  8
0
  6
CONTINUOUS
 62
     7
 10
-1850.411878598951
 20
-24.0181785863354
 30
0.0
 11
-1850.142208577054
 21
-24.06002603853931
 31
0.0
  0
LINE
  5
160
  8
0
  6
CONTINUOUS
 62
     7
 10
-1850.142208577054
 20
-24.06002603853931
 30
0.0
 11
-1849.687969449535
 21
-24.09871077780635
 31
0.0
  0
LINE
  5
161
  8
0
  6
CONTINUOUS
 62
   253
 10
-1846.873540229885
 20
-19.07493664203659
 30
0.0
 11
-1846.207529944109
 21
-19.08124038832876
 31
0.0
  0
LINE
  5
162
  8
0
  6
CONTINUOUS
 62
   253
 10
-1850.295861175554
 20
-19.81570833355108
 30
0.0
 11
-1850.380523442599
 21
-20.09087821353859
 31
0.0
  0
LINE
  5
163
  8
0
  6
CONTINUOUS
 62
     7
 10
-1849.687969449535
 20
-24.09871077780635
 30
0.0
 11
-1849.067174080033
 21
-24.13269875986073
 31
0.0
  0
LINE
  5
164
  8
0
  6
CONTINUOUS
 62
   253
 10
-1356.788887394336
 20
415.5
 30
0.0
 11
-1357.3
 21
415.5
 31
0.0
  0
ARC
  5
165
  8
0
  6
CONTINUOUS
 62
     7
 10
-1356.3
 20
415.5
 30
0.0
 40
1.000000000000001
 50
180.0
 51
269.9999999999968
  0
LINE
  5
166
  8
0
  6
CONTINUOUS
 62
     7
 10
-1357.3
 20
-26.90917206495644
 30
0.0
 11
-1357.3
 21
-24.2
 31
0.0
  0
LINE
  5
167
  8
0
  6
CONTINUOUS
 62
   253
 10
-1846.207529944109
 20
-19.08124038832876
 30
0.0
 11
-1845.514018442906
 21
-19.07516024876451
 31
0.0
  0
LINE
  5
168
  8
0
  6
CONTINUOUS
 62
   253
 10
-1850.161013200568
 20
-19.5612172257984
 30
0.0
 11
-1850.295861175554
 21
-19.81570833355108
 31
0.0
  0
LINE
  5
169
  8
0
  6
CONTINUOUS
 62
   253
 10
-1353.215959391695
 20
-28.03437574610573
 30
0.0
 11
-1353.212858340868
 21
-28.46193452764584
 31
0.0
  0
LINE
  5
16A
  8
0
  6
CONTINUOUS
 62
   253
 10
-1356.505974269939
 20
414.7928932188134
 30
0.0
 11
-1356.359601204438
 21
414.6685303876974
 31
0.0
  0
LINE
  5
16B
  8
0
  6
CONTINUOUS
 62
     7
 10
-1357.3
 20
-24.2
 30
0.0
 11
-1353.168240888335
 21
-24.01960350131385
 31
0.0
  0
LINE
  5
16C
  8
0
  6
CONTINUOUS
 62
   253
 10
-1847.485638646166
 20
-19.05649898510043
 30
0.0
 11
-1846.873540229885
 21
-19.07493664203659
 31
0.0
  0
LINE
  5
16D
  8
0
  6
CONTINUOUS
 62
   253
 10
-1353.168240888335
 20
-27.0899131063018
 30
0.0
 11
-1353.200897658242
 21
-27.57121570967282
 31
0.0
  0
LINE
  5
16E
  8
0
  6
CONTINUOUS
 62
   253
 10
-1850.142208576713
 20
-20.43197242676881
 30
0.0
 11
-1849.687969449194
 21
-20.48066315825647
 31
0.0
  0
LINE
  5
16F
  8
0
  6
CONTINUOUS
 62
   253
 10
-1353.099118541674
 20
-29.38011775674946
 30
0.0
 11
-1353.031162888054
 21
-29.52617590438111
 31
0.0
  0
LINE
  5
170
  8
0
  6
CONTINUOUS
 62
   253
 10
-1846.478570549308
 20
-20.57530484752437
 30
0.0
 11
-1845.487839833304
 21
-20.56922470798805
 31
0.0
  0
LINE
  5
171
  8
0
  6
CONTINUOUS
 62
   253
 10
-1845.514018442915
 20
-19.07516024876465
 30
0.0
 11
-1845.487839833399
 21
-20.56922470798972
 31
0.0
  0
LINE
  5
172
  8
0
  6
CONTINUOUS
 62
   253
 10
-1357.297544385
 20
-26.90927948419366
 30
0.0
 11
-1353.168240888335
 21
-27.08991310630176
 31
0.0
  0
LINE
  5
173
  8
0
  6
CONTINUOUS
 62
   253
 10
-1353.212858340868
 20
-28.46193452764584
 30
0.0
 11
-1353.191711399003
 21
-28.83777534567836
 31
0.0
  0
LINE
  5
174
  8
0
  6
CONTINUOUS
 62
   253
 10
-1356.192605378661
 20
414.5761204674887
 30
0.0
 11
-1356.011404348541
 21
414.5192147195968
 31
0.0
  0
ARC
  5
175
  8
0
  6
CONTINUOUS
 62
     7
 10
-1354.811924000397
 20
-26.91103833922201
 30
0.0
 40
2.485621096416918
 50
179.9594567318337
 51
254.6863658069454
  0
LINE
  5
176
  8
0
  6
CONTINUOUS
 62
   253
 10
-1356.011404348541
 20
414.5192147195968
 30
0.0
 11
-1355.822961568047
 21
414.5
 31
0.0
  0
LINE
  5
177
  8
0
  6
CONTINUOUS
 62
   253
 10
-1353.168240888335
 20
-24.01960350131385
 30
0.0
 11
-1353.168240888335
 21
-27.08991310630176
 31
0.0
  0
LINE
  5
178
  8
0
  6
CONTINUOUS
 62
   253
 10
-1848.454109174027
 20
-18.98659869915133
 30
0.0
 11
-1848.019552415378
 21
-19.02665856325417
 31
0.0
  0
LINE
  5
179
  8
0
  6
CONTINUOUS
 62
   253
 10
-1353.200897658242
 20
-27.57121570967282
 30
0.0
 11
-1353.215959391695
 21
-28.03437574610573
 31
0.0
  0
LINE
  5
17A
  8
0
  6
CONTINUOUS
 62
   253
 10
-1847.430013814702
 20
-20.56900110120538
 30
0.0
 11
-1846.478570549308
 21
-20.57530484752437
 31
0.0
  0
LINE
  5
17B
  8
0
  6
CONTINUOUS
 62
     7
 10
-1356.3
 20
414.5
 30
0.0
 11
-1355.822961568047
 21
414.5
 31
0.0
  0
LINE
  5
17C
  8
0
  6
CONTINUOUS
 62
     7
 10
-1357.3
 20
415.5
 30
0.0
 11
-1357.3
 21
432.4648162038823
 31
0.0
  0
LINE
  5
17D
  8
0
  6
CONTINUOUS
 62
   253
 10
-1848.019552415378
 20
-19.02665856325417
 30
0.0
 11
-1847.485638646166
 21
-19.05649898510043
 31
0.0
  0
LINE
  5
17E
  8
0
  6
CONTINUOUS
 62
   253
 10
-1848.304440123675
 20
-20.55056344424457
 30
0.0
 11
-1847.430013814702
 21
-20.56900110120538
 31
0.0
  0
LINE
  5
17F
  8
0
  6
CONTINUOUS
 62
   253
 10
-1848.960845578614
 20
-18.8825172009696
 30
0.0
 11
-1849.242681952204
 21
-18.91929320655052
 31
0.0
  0
LINE
  5
180
  8
0
  6
CONTINUOUS
 62
   253
 10
-1849.762313892958
 20
-19.1506942003713
 30
0.0
 11
-1849.980951211657
 21
-19.33678769278342
 31
0.0
  0
LINE
  5
181
  8
0
  6
CONTINUOUS
 62
   253
 10
-1849.242681952204
 20
-18.91929320655052
 30
0.0
 11
-1849.513162157872
 21
-19.0097978074878
 31
0.0
  0
LINE
  5
182
  8
0
  6
CONTINUOUS
 62
     7
 10
-1340.8
 20
-30.64356294817777
 30
0.0
 11
-1352.952009801037
 21
-29.58039985153113
 31
0.0
  0
LINE
  5
183
  8
0
  6
CONTINUOUS
 62
     7
 10
-1353.031162888054
 20
-29.52617590438111
 30
0.0
 11
-1352.952009801036
 21
-29.58039985153113
 31
0.0
  0
LINE
  5
184
  8
0
  6
CONTINUOUS
 62
   253
 10
-1353.191711399003
 20
-28.83777534567836
 30
0.0
 11
-1353.153315694155
 21
-29.14773098574929
 31
0.0
  0
LINE
  5
185
  8
0
  6
CONTINUOUS
 62
   253
 10
-1356.359601204438
 20
414.6685303876974
 30
0.0
 11
-1356.192605378661
 21
414.5761204674887
 31
0.0
  0
LINE
  5
186
  8
0
  6
CONTINUOUS
 62
     7
 10
-1340.946193707628
 20
414.5
 30
0.0
 11
-1355.822961568047
 21
414.5
 31
0.0
  0
LINE
  5
187
  8
0
  6
CONTINUOUS
 62
     7
 10
-1315.437400518631
 20
-18.80000000000009
 30
0.0
 11
-1315.385028675492
 21
-20.79999999999999
 31
0.0
  0
LINE
  5
188
  8
0
  6
CONTINUOUS
 62
     7
 10
-1353.168240888335
 20
-24.01960350131385
 30
0.0
 11
-1340.8
 21
-23.47959444200956
 31
0.0
  0
ARC
  5
189
  8
0
  6
CONTINUOUS
 62
     7
 10
-1353.569081949313
 20
432.2344324632485
 30
0.0
 40
3.738024367081127
 50
88.4693113351936
 51
176.4664791138942
  0
LINE
  5
18A
  8
0
  6
CONTINUOUS
 62
     7
 10
-1307.214971285765
 20
-20.79999999999999
 30
0.0
 11
-1307.162599443393
 21
-18.80000002925891
 31
0.0
  0
ARC
  5
18B
  8
0
  6
CONTINUOUS
 62
     7
 10
-1340.37448793311
 20
125.8710043811446
 30
0.0
 40
155.9117545788621
 50
264.4444657584027
 51
265.3436937181617
  0
LINE
  5
18C
  8
0
  6
CONTINUOUS
 62
   253
 10
-1848.960845578614
 20
-18.88251720096958
 30
0.0
 11
-1848.772076563289
 21
-18.93790796767648
 31
0.0
  0
LINE
  5
18D
  8
0
  6
CONTINUOUS
 62
   253
 10
-1848.772076563289
 20
-18.93790796767648
 30
0.0
 11
-1848.454109174027
 21
-18.98659869915133
 31
0.0
  0
LINE
  5
18E
  8
0
  6
CONTINUOUS
 62
     7
 10
-1357.3
 20
-26.90917206495644
 30
0.0
 11
-1357.297544385
 21
-26.90927948419366
 31
0.0
  0
LINE
  5
18F
  8
0
  6
CONTINUOUS
 62
   253
 10
-1850.411878598609
 20
-20.37658166005431
 30
0.0
 11
-1850.142208576713
 21
-20.43197242676881
 31
0.0
  0
LINE
  5
190
  8
0
  6
CONTINUOUS
 62
   253
 10
-1849.687969449194
 20
-20.48066315825647
 30
0.0
 11
-1849.067174079694
 21
-20.52072302237681
 31
0.0
  0
LINE
  5
191
  8
0
  6
CONTINUOUS
 62
   253
 10
-1849.067174079694
 20
-20.52072302237681
 30
0.0
 11
-1848.304440123675
 21
-20.55056344424457
 31
0.0
  0
LINE
  5
192
  8
0
  6
CONTINUOUS
 62
   253
 10
-1356.788887394336
 20
432.471656023399
 30
0.0
 11
-1357.3
 21
432.4648162038823
 31
0.0
  0
LINE
  5
193
  8
0
  6
CONTINUOUS
 62
   253
 10
-1849.513162157872
 20
-19.0097978074878
 30
0.0
 11
-1849.762313892958
 21
-19.1506942003713
 31
0.0
  0
LINE
  5
194
  8
0
  6
CONTINUOUS
 62
   253
 10
-1849.980951211657
 20
-19.33678769278342
 30
0.0
 11
-1850.161013200568
 21
-19.5612172257984
 31
0.0
  0
LINE
  5
195
  8
0
  6
CONTINUOUS
 62
   253
 10
-1353.153315694155
 20
-29.14773098574929
 30
0.0
 11
-1353.099118541674
 21
-29.38011775674946
 31
0.0
  0
LINE
  5
196
  8
0
  6
CONTINUOUS
 62
   253
 10
-1353.168240888335
 20
-27.08991310630176
 30
0.0
 11
-1340.8
 21
-28.17199397178885
 31
0.0
  0
LINE
  5
197
  8
0
  6
CONTINUOUS
 62
   253
 10
-1850.380523442599
 20
-20.09087821353859
 30
0.0
 11
-1850.411878598609
 21
-20.37658166005429
 31
0.0
  0
LINE
  5
198
  8
0
  6
CONTINUOUS
 62
   253
 10
-1850.411878598951
 20
-24.0181785863354
 30
0.0
 11
-1850.411878598609
 21
-20.37658166005429
 31
0.0
  0
LINE
  5
199
  8
0
  6
CONTINUOUS
 62
   253
 10
-1845.487839833304
 20
-20.56922470798805
 30
0.0
 11
-1845.487839833645
 21
-24.19857508548426
 31
0.0
  0
LINE
  5
19A
  8
0
  6
CONTINUOUS
 62
     7
 10
-1831.813913261542
 20
-18.46997733206801
 30
0.0
 11
-1831.421171100661
 21
-18.54114280761418
 31
0.0
  0
LINE
  5
19B
  8
0
  6
CONTINUOUS
 62
     7
 10
-1830.892629068424
 20
-18.6067491367834
 30
0.0
 11
-1830.24859873872
 21
-18.66427510513813
 31
0.0
  0
LINE
  5
19C
  8
0
  6
CONTINUOUS
 62
   253
 10
-1820.707676416579
 20
-20.50320128460119
 30
0.0
 11
-1820.08688104717
 21
-20.46314142059752
 31
0.0
  0
LINE
  5
19D
  8
0
  6
CONTINUOUS
 62
   253
 10
-1824.287010662787
 20
-20.55170296953973
 30
0.0
 11
-1834.387425248028
 21
-20.37472612588575
 31
0.0
  0
LINE
  5
19E
  8
0
  6
CONTINUOUS
 62
   253
 10
-1824.287010662787
 20
-20.55170296953973
 30
0.0
 11
-1823.296279946797
 21
-20.55778310926224
 31
0.0
  0
LINE
  5
19F
  8
0
  6
CONTINUOUS
 62
     7
 10
-1823.296279947139
 20
-24.19424664818928
 30
0.0
 11
-1822.344836681779
 21
-24.18143297450657
 31
0.0
  0
LINE
  5
1A0
  8
0
  6
CONTINUOUS
 62
   253
 10
-1821.002773932951
 20
-18.92038622984539
 30
0.0
 11
-1820.8140049177
 21
-18.86499546317397
 31
0.0
  0
LINE
  5
1A1
  8
0
  6
CONTINUOUS
 62
   253
 10
-1819.36297189797
 20
-20.35905992253143
 30
0.0
 11
-1819.394327053924
 21
-20.07335647600983
 31
0.0
  0
LINE
  5
1A2
  8
0
  6
CONTINUOUS
 62
     7
 10
-1823.740107681922
 20
-18.38791245135353
 30
0.0
 11
-1824.043193249816
 21
-18.30528743307563
 31
0.0
  0
LINE
  5
1A3
  8
0
  6
CONTINUOUS
 62
     7
 10
-1832.137425248355
 20
-18.32201687525771
 30
0.0
 11
-1832.055762690076
 21
-18.39598755946006
 31
0.0
  0
LINE
  5
1A4
  8
0
  6
CONTINUOUS
 62
   253
 10
-1831.761151399665
 20
-18.17564859321607
 30
0.0
 11
-1834.387425248447
 21
-18.13153497037712
 31
0.0
  0
LINE
  5
1A5
  8
0
  6
CONTINUOUS
 62
   253
 10
-1834.387425248028
 20
-20.37472612588575
 30
0.0
 11
-1845.487839833304
 21
-20.56922470798805
 31
0.0
  0
LINE
  5
1A6
  8
0
  6
CONTINUOUS
 62
   253
 10
-1824.260832053086
 20
-19.05763851032097
 30
0.0
 11
-1824.287010662882
 21
-20.55170296953807
 31
0.0
  0
LINE
  5
1A7
  8
0
  6
CONTINUOUS
 62
     7
 10
-1824.28701066313
 20
-24.19857508747649
 30
0.0
 11
-1823.296279947139
 21
-24.19424664818928
 31
0.0
  0
LINE
  5
1A8
  8
0
  6
CONTINUOUS
 62
   253
 10
-1819.613837295854
 20
-19.54369548822838
 30
0.0
 11
-1819.793899284725
 21
-19.31926595517955
 31
0.0
  0
LINE
  5
1A9
  8
0
  6
CONTINUOUS
 62
   253
 10
-1820.532168544111
 20
-18.9017714688079
 30
0.0
 11
-1820.8140049177
 21
-18.86499546317401
 31
0.0
  0
LINE
  5
1AA
  8
0
  6
CONTINUOUS
 62
     7
 10
-1832.042292041828
 20
-18.24545198462787
 30
0.0
 11
-1832.137425248355
 21
-18.32201687525771
 31
0.0
  0
LINE
  5
1AB
  8
0
  6
CONTINUOUS
 62
     7
 10
-1849.067174080033
 20
-24.13269875986073
 30
0.0
 11
-1848.304440124015
 21
-24.16064219044807
 31
0.0
  0
LINE
  5
1AC
  8
0
  6
CONTINUOUS
 62
   253
 10
-1821.755298080731
 20
-19.00913682528165
 30
0.0
 11
-1821.320741322143
 21
-18.96907696126048
 31
0.0
  0
LINE
  5
1AD
  8
0
  6
CONTINUOUS
 62
   253
 10
-1819.394327053924
 20
-20.07335647600983
 30
0.0
 11
-1819.478989320916
 21
-19.79818659600641
 31
0.0
  0
LINE
  5
1AE
  8
0
  6
CONTINUOUS
 62
     7
 10
-1831.761151399665
 20
-18.17564859321609
 30
0.0
 11
-1832.042292041828
 21
-18.24545198462787
 31
0.0
  0
LINE
  5
1AF
  8
0
  6
CONTINUOUS
 62
   253
 10
-1819.632641919754
 20
-20.41445068919523
 30
0.0
 11
-1819.36297189797
 21
-20.35905992253141
 31
0.0
  0
LINE
  5
1B0
  8
0
  6
CONTINUOUS
 62
   253
 10
-1824.260832053077
 20
-19.0576385103211
 30
0.0
 11
-1823.567320551884
 21
-19.06371865001569
 31
0.0
  0
LINE
  5
1B1
  8
0
  6
CONTINUOUS
 62
   253
 10
-1820.8140049177
 20
-18.86499546317399
 30
0.0
 11
-1819.79378269214
 21
-18.37666494563634
 31
0.0
  0
LINE
  5
1B2
  8
0
  6
CONTINUOUS
 62
     7
 10
-1831.421171100661
 20
-18.54114280761418
 30
0.0
 11
-1830.892629068424
 21
-18.6067491367834
 31
0.0
  0
LINE
  5
1B3
  8
0
  6
CONTINUOUS
 62
     7
 10
-1830.24859873872
 20
-18.66427510513813
 30
0.0
 11
-1829.513829835943
 21
-18.71151002197545
 31
0.0
  0
LINE
  5
1B4
  8
0
  6
CONTINUOUS
 62
   253
 10
-1821.470410372522
 20
-20.5330417063256
 30
0.0
 11
-1820.707676416579
 21
-20.50320128460119
 31
0.0
  0
LINE
  5
1B5
  8
0
  6
CONTINUOUS
 62
     7
 10
-1829.513829835943
 20
-18.71151002197545
 30
0.0
 11
-1828.716559116963
 21
-18.74663867593093
 31
0.0
  0
LINE
  5
1B6
  8
0
  6
CONTINUOUS
 62
     7
 10
-1828.716559116963
 20
-18.74663867593093
 30
0.0
 11
-1827.887425248397
 21
-18.76831109253346
 31
0.0
  0
LINE
  5
1B7
  8
0
  6
CONTINUOUS
 62
     7
 10
-1827.887425248397
 20
-18.76831109253346
 30
0.0
 11
-1827.058291379829
 21
-18.77569441296702
 31
0.0
  0
LINE
  5
1B8
  8
0
  6
CONTINUOUS
 62
     7
 10
-1821.470410372863
 20
-24.16064219296966
 30
0.0
 11
-1820.707676416921
 21
-24.13269876252567
 31
0.0
  0
LINE
  5
1B9
  8
0
  6
CONTINUOUS
 62
     7
 10
-1827.058291379829
 20
-18.77569441296702
 30
0.0
 11
-1826.261020660845
 21
-18.76850490036796
 31
0.0
  0
LINE
  5
1BA
  8
0
  6
CONTINUOUS
 62
   253
 10
-1820.261688338456
 20
-18.99227606979601
 30
0.0
 11
-1820.532168544111
 21
-18.9017714688079
 31
0.0
  0
LINE
  5
1BB
  8
0
  6
CONTINUOUS
 62
     7
 10
-1826.261020660845
 20
-18.76850490036796
 30
0.0
 11
-1825.526251758062
 21
-18.74701884367355
 31
0.0
  0
LINE
  5
1BC
  8
0
  6
CONTINUOUS
 62
   253
 10
-1820.08688104717
 20
-20.46314142059752
 30
0.0
 11
-1819.632641919754
 21
-20.41445068919523
 31
0.0
  0
LINE
  5
1BD
  8
0
  6
CONTINUOUS
 62
     7
 10
-1825.526251758062
 20
-18.74701884367355
 30
0.0
 11
-1824.882221428349
 21
-18.71206193999303
 31
0.0
  0
LINE
  5
1BE
  8
0
  6
CONTINUOUS
 62
     7
 10
-1846.478570549648
 20
-24.19424664601084
 30
0.0
 11
-1845.487839833645
 21
-24.19857508548425
 31
0.0
  0
LINE
  5
1BF
  8
0
  6
CONTINUOUS
 62
   253
 10
-1845.514018442906
 20
-19.07516024876452
 30
0.0
 11
-1834.387425247974
 21
-18.88020297186119
 31
0.0
  0
LINE
  5
1C0
  8
0
  6
CONTINUOUS
 62
     7
 10
-1824.28701066313
 20
-24.1985750874765
 30
0.0
 11
-1845.487839833645
 21
-24.19857508548426
 31
0.0
  0
LINE
  5
1C1
  8
0
  6
CONTINUOUS
 62
     7
 10
-1820.086881047511
 20
-24.09871078058796
 30
0.0
 11
-1819.632641920097
 21
-24.06002604140629
 31
0.0
  0
LINE
  5
1C2
  8
0
  6
CONTINUOUS
 62
   253
 10
-1823.567320551884
 20
-19.06371865001569
 30
0.0
 11
-1822.901310266133
 21
-19.05741490384869
 31
0.0
  0
LINE
  5
1C3
  8
0
  6
CONTINUOUS
 62
   253
 10
-1819.478989320916
 20
-19.79818659600641
 30
0.0
 11
-1819.613837295854
 21
-19.54369548822838
 31
0.0
  0
LINE
  5
1C4
  8
0
  6
CONTINUOUS
 62
     7
 10
-1834.387425247974
 20
-18.88020297186119
 30
0.0
 11
-1834.387425248447
 21
-18.13153497037712
 31
0.0
  0
LINE
  5
1C5
  8
0
  6
CONTINUOUS
 62
   253
 10
-1834.387425248447
 20
-18.13153497037712
 30
0.0
 11
-1849.982530525093
 21
-18.393486550532
 31
0.0
  0
LINE
  5
1C6
  8
0
  6
CONTINUOUS
 62
   253
 10
-1819.36297189797
 20
-20.35905992253143
 30
0.0
 11
-1819.362971898314
 21
-24.01817858925306
 31
0.0
  0
LINE
  5
1C7
  8
0
  6
CONTINUOUS
 62
     7
 10
-1847.430013815042
 20
-24.18143297214932
 30
0.0
 11
-1846.478570549648
 21
-24.19424664601084
 31
0.0
  0
LINE
  5
1C8
  8
0
  6
CONTINUOUS
 62
     7
 10
-1834.387425247983
 20
-18.88020297186124
 30
0.0
 11
-1834.387425248123
 21
-20.37472612588575
 31
0.0
  0
LINE
  5
1C9
  8
0
  6
CONTINUOUS
 62
   253
 10
-1834.387425247974
 20
-18.88020297186119
 30
0.0
 11
-1824.260832053077
 21
-19.05763851032113
 31
0.0
  0
LINE
  5
1CA
  8
0
  6
CONTINUOUS
 62
   253
 10
-1819.793899284725
 20
-19.31926595517955
 30
0.0
 11
-1820.012536603392
 21
-19.13317246272634
 31
0.0
  0
LINE
  5
1CB
  8
0
  6
CONTINUOUS
 62
   253
 10
-1820.012536603392
 20
-19.13317246272634
 30
0.0
 11
-1820.261688338456
 21
-18.99227606979601
 31
0.0
  0
LINE
  5
1CC
  8
0
  6
CONTINUOUS
 62
     7
 10
-1832.055762690076
 20
-18.39598755946006
 30
0.0
 11
-1831.813913261542
 21
-18.46997733206801
 31
0.0
  0
LINE
  5
1CD
  8
0
  6
CONTINUOUS
 62
     7
 10
-1819.632641920097
 20
-24.06002604140629
 30
0.0
 11
-1819.362971898314
 21
-24.01817858925305
 31
0.0
  0
LINE
  5
1CE
  8
0
  6
CONTINUOUS
 62
   253
 10
-1824.28701066313
 20
-24.1985750874765
 30
0.0
 11
-1824.287010662787
 21
-20.55170296953973
 31
0.0
  0
LINE
  5
1CF
  8
0
  6
CONTINUOUS
 62
   253
 10
-1823.296279946797
 20
-20.55778310926224
 30
0.0
 11
-1822.344836681438
 21
-20.55147936312207
 31
0.0
  0
LINE
  5
1D0
  8
0
  6
CONTINUOUS
 62
   253
 10
-1822.344836681438
 20
-20.55147936312207
 30
0.0
 11
-1821.470410372522
 21
-20.5330417063256
 31
0.0
  0
LINE
  5
1D1
  8
0
  6
CONTINUOUS
 62
   253
 10
-1821.320741322143
 20
-18.96907696126048
 30
0.0
 11
-1821.002773932951
 21
-18.92038622984539
 31
0.0
  0
LINE
  5
1D2
  8
0
  6
CONTINUOUS
 62
   253
 10
-1849.982530525093
 20
-18.393486550532
 30
0.0
 11
-1848.960845578614
 21
-18.88251720096959
 31
0.0
  0
LINE
  5
1D3
  8
0
  6
CONTINUOUS
 62
   253
 10
-1819.79378269214
 20
-18.37666494563634
 30
0.0
 11
-1824.043193249816
 21
-18.30528743307563
 31
0.0
  0
LINE
  5
1D4
  8
0
  6
CONTINUOUS
 62
     7
 10
-1823.637425248369
 20
-18.47095166984829
 30
0.0
 11
-1823.740107681922
 21
-18.38791245135353
 31
0.0
  0
LINE
  5
1D5
  8
0
  6
CONTINUOUS
 62
     7
 10
-1848.304440124015
 20
-24.16064219044807
 30
0.0
 11
-1847.430013815042
 21
-24.18143297214932
 31
0.0
  0
LINE
  5
1D6
  8
0
  6
CONTINUOUS
 62
     7
 10
-1820.707676416921
 20
-24.13269876252567
 30
0.0
 11
-1820.086881047511
 21
-24.09871078058796
 31
0.0
  0
LINE
  5
1D7
  8
0
  6
CONTINUOUS
 62
   253
 10
-1822.901310266133
 20
-19.05741490384869
 30
0.0
 11
-1822.289211849891
 21
-19.03897724702757
 31
0.0
  0
LINE
  5
1D8
  8
0
  6
CONTINUOUS
 62
   253
 10
-1822.289211849891
 20
-19.03897724702757
 30
0.0
 11
-1821.755298080731
 21
-19.00913682528165
 31
0.0
  0
LINE
  5
1D9
  8
0
  6
CONTINUOUS
 62
     7
 10
-1822.344836681779
 20
-24.18143297450657
 30
0.0
 11
-1821.470410372863
 21
-24.16064219296966
 31
0.0
  0
LINE
  5
1DA
  8
0
  6
CONTINUOUS
 62
   253
 10
-1819.672159160417
 20
-18.30871913743298
 30
0.0
 11
-1819.648879138914
 21
-18.28577786469679
 31
0.0
  0
LINE
  5
1DB
  8
0
  6
CONTINUOUS
 62
   253
 10
-1851.002636158135
 20
-18.84775704234582
 30
0.0
 11
-1851.182698147047
 21
-19.07218657536081
 31
0.0
  0
LINE
  5
1DC
  8
0
  6
CONTINUOUS
 62
   253
 10
-1818.773677059165
 20
-18.8309354376419
 30
0.0
 11
-1818.992314377833
 21
-18.64484194518869
 31
0.0
  0
LINE
  5
1DD
  8
0
  6
CONTINUOUS
 62
   253
 10
-1819.648879138914
 20
-18.28577786469679
 30
0.0
 11
-1819.626065971963
 21
-18.25981871858029
 31
0.0
  0
LINE
  5
1DE
  8
0
  6
CONTINUOUS
 62
   253
 10
-1819.626065971963
 20
-18.25981871858029
 30
0.0
 11
-1819.603768666972
 21
-18.23089746470574
 31
0.0
  0
LINE
  5
1DF
  8
0
  6
CONTINUOUS
 62
   253
 10
-1819.603768666972
 20
-18.23089746470574
 30
0.0
 11
-1819.58203512317
 21
-18.19907623191633
 31
0.0
  0
LINE
  5
1E0
  8
0
  6
CONTINUOUS
 62
   253
 10
-1819.58203512317
 20
-18.19907623191633
 30
0.0
 11
-1819.56091202871
 21
-18.1644233788105
 31
0.0
  0
LINE
  5
1E1
  8
0
  6
CONTINUOUS
 62
   253
 10
-1819.56091202871
 20
-18.1644233788105
 30
0.0
 11
-1819.540444760374
 21
-18.12701334689376
 31
0.0
  0
LINE
  5
1E2
  8
0
  6
CONTINUOUS
 62
     7
 10
-1825.228124382986
 20
-17.2177478455422
 30
0.0
 11
-1825.868643975613
 21
-16.73770651490774
 31
0.0
  0
LINE
  5
1E3
  8
0
  6
CONTINUOUS
 62
   253
 10
-1850.264366898683
 20
-18.43026255611292
 30
0.0
 11
-1850.53484710435
 21
-18.52076715705019
 31
0.0
  0
LINE
  5
1E4
  8
0
  6
CONTINUOUS
 62
   253
 10
-1850.783998839436
 20
-18.6616635499337
 30
0.0
 11
-1851.002636158135
 21
-18.84775704234582
 31
0.0
  0
LINE
  5
1E5
  8
0
  6
CONTINUOUS
 62
   253
 10
-1818.593615070295
 20
-19.05536497069073
 30
0.0
 11
-1818.773677059165
 21
-18.8309354376419
 31
0.0
  0
LINE
  5
1E6
  8
0
  6
CONTINUOUS
 62
   253
 10
-1851.402208389077
 20
-19.601847563101
 30
0.0
 11
-1851.433563545088
 21
-19.88755100961671
 31
0.0
  0
LINE
  5
1E7
  8
0
  6
CONTINUOUS
 62
   253
 10
-1819.511946318552
 20
-18.41344095127025
 30
0.0
 11
-1819.79378269214
 21
-18.37666494563636
 31
0.0
  0
LINE
  5
1E8
  8
0
  6
CONTINUOUS
 62
   253
 10
-1851.777916056232
 20
-18.93166812934627
 30
0.0
 11
-1851.875104874493
 21
-18.33266610329132
 31
0.0
  0
LINE
  5
1E9
  8
0
  6
CONTINUOUS
 62
     7
 10
-1824.882221428349
 20
-18.71206193999303
 30
0.0
 11
-1824.353679396101
 21
-18.66497756353078
 31
0.0
  0
LINE
  5
1EA
  8
0
  6
CONTINUOUS
 62
     7
 10
-1831.533558070952
 20
-18.07505152765732
 30
0.0
 11
-1831.651088831672
 21
-18.1404348489278
 31
0.0
  0
LINE
  5
1EB
  8
0
  6
CONTINUOUS
 62
   253
 10
-1818.34274967241
 20
-19.87072940499376
 30
0.0
 11
-1819.36297189797
 21
-20.35905992253143
 31
0.0
  0
LINE
  5
1EC
  8
0
  6
CONTINUOUS
 62
     7
 10
-1851.875104874493
 20
-18.33266610329131
 30
0.0
 11
-1851.887425248648
 21
-18.54039899279999
 31
0.0
  0
LINE
  5
1ED
  8
0
  6
CONTINUOUS
 62
     7
 10
-1824.353679396101
 20
-18.66497756353078
 30
0.0
 11
-1823.960937235209
 21
-18.60757514046903
 31
0.0
  0
LINE
  5
1EE
  8
0
  6
CONTINUOUS
 62
     7
 10
-1831.651088831672
 20
-18.1404348489278
 30
0.0
 11
-1831.761151399665
 21
-18.17564859321607
 31
0.0
  0
LINE
  5
1EF
  8
0
  6
CONTINUOUS
 62
   253
 10
-1851.182698147047
 20
-19.07218657536081
 30
0.0
 11
-1851.317546122032
 21
-19.32667768311349
 31
0.0
  0
LINE
  5
1F0
  8
0
  6
CONTINUOUS
 62
   253
 10
-1818.34274967241
 20
-19.87072940499377
 30
0.0
 11
-1818.374104828365
 21
-19.58502595847218
 31
0.0
  0
LINE
  5
1F1
  8
0
  6
CONTINUOUS
 62
     7
 10
-1823.960937235209
 20
-18.60757514046903
 30
0.0
 11
-1823.719087806662
 21
-18.54206061373439
 31
0.0
  0
LINE
  5
1F2
  8
0
  6
CONTINUOUS
 62
     7
 10
-1828.429528590226
 20
-16.152775151915
 30
0.0
 11
-1829.339948743736
 21
-16.37065520221721
 31
0.0
  0
LINE
  5
1F3
  8
0
  6
CONTINUOUS
 62
     7
 10
-1824.043193249816
 20
-18.30528743307563
 30
0.0
 11
-1824.14693386119
 21
-18.27089353477512
 31
0.0
  0
LINE
  5
1F4
  8
0
  6
CONTINUOUS
 62
     7
 10
-1829.339948743736
 20
-16.37065520221721
 30
0.0
 11
-1830.013039157093
 21
-16.69574635889338
 31
0.0
  0
LINE
  5
1F5
  8
0
  6
CONTINUOUS
 62
   253
 10
-1818.992314377833
 20
-18.64484194518869
 30
0.0
 11
-1819.241466112896
 21
-18.50394555225836
 31
0.0
  0
LINE
  5
1F6
  8
0
  6
CONTINUOUS
 62
     7
 10
-1851.887425248648
 20
-18.54039899279999
 30
0.0
 11
-1851.887425249129
 21
-23.65281329852647
 31
0.0
  0
LINE
  5
1F7
  8
0
  6
CONTINUOUS
 62
   253
 10
-1851.530062479231
 20
-19.78973876705147
 30
0.0
 11
-1851.433563545088
 21
-19.8875510096167
 31
0.0
  0
LINE
  5
1F8
  8
0
  6
CONTINUOUS
 62
   253
 10
-1818.154644790537
 20
-19.57597070229091
 30
0.0
 11
-1818.071071998254
 21
-19.28664117137038
 31
0.0
  0
LINE
  5
1F9
  8
0
  6
CONTINUOUS
 62
   253
 10
-1818.374104828365
 20
-19.58502595847218
 30
0.0
 11
-1818.458767095357
 21
-19.30985607846875
 31
0.0
  0
LINE
  5
1FA
  8
0
  6
CONTINUOUS
 62
   253
 10
-1818.071071998254
 20
-19.28664117137038
 30
0.0
 11
-1817.998397161334
 21
-18.91484652478801
 31
0.0
  0
LINE
  5
1FB
  8
0
  6
CONTINUOUS
 62
   253
 10
-1817.899745622753
 20
-18.30682934222741
 30
0.0
 11
-1817.998397161334
 21
-18.91484652478803
 31
0.0
  0
LINE
  5
1FC
  8
0
  6
CONTINUOUS
 62
   253
 10
-1851.70524121933
 20
-19.30346277594229
 30
0.0
 11
-1851.621668427041
 21
-19.59279230687852
 31
0.0
  0
LINE
  5
1FD
  8
0
  6
CONTINUOUS
 62
     7
 10
-1817.887425248646
 20
-18.51456223173836
 30
0.0
 11
-1817.887425249129
 21
-23.65281330172148
 31
0.0
  0
LINE
  5
1FE
  8
0
  6
CONTINUOUS
 62
     7
 10
-1826.575177974938
 20
-16.38942219969314
 30
0.0
 11
-1827.49276345111
 21
-16.15913382338234
 31
0.0
  0
LINE
  5
1FF
  8
0
  6
CONTINUOUS
 62
     7
 10
-1830.62122402023
 20
-17.14515180449657
 30
0.0
 11
-1831.145932428517
 21
-17.70514895864582
 31
0.0
  0
LINE
  5
200
  8
0
  6
CONTINUOUS
 62
   253
 10
-1851.621668427041
 20
-19.59279230687852
 30
0.0
 11
-1851.530062479231
 21
-19.78973876705147
 31
0.0
  0
LINE
  5
201
  8
0
  6
CONTINUOUS
 62
     7
 10
-1824.674564269933
 20
-17.81384877848082
 30
0.0
 11
-1825.228124382986
 21
-17.2177478455422
 31
0.0
  0
LINE
  5
202
  8
0
  6
CONTINUOUS
 62
     7
 10
-1824.14693386119
 20
-18.27089353477512
 30
0.0
 11
-1824.261015134643
 21
-18.20811076815249
 31
0.0
  0
LINE
  5
203
  8
0
  6
CONTINUOUS
 62
   253
 10
-1818.458767095357
 20
-19.30985607846875
 30
0.0
 11
-1818.593615070295
 21
-19.05536497069073
 31
0.0
  0
LINE
  5
204
  8
0
  6
CONTINUOUS
 62
     7
 10
-1850.411878598951
 20
-24.0181785863354
 30
0.0
 11
-1851.887425249129
 21
-23.65281329852647
 31
0.0
  0
LINE
  5
205
  8
0
  6
CONTINUOUS
 62
   253
 10
-1818.246250738317
 20
-19.77291716244665
 30
0.0
 11
-1818.154644790537
 21
-19.57597070229091
 31
0.0
  0
LINE
  5
206
  8
0
  6
CONTINUOUS
 62
     7
 10
-1817.887425249129
 20
-23.65281330172148
 30
0.0
 11
-1819.362971898314
 21
-24.01817858925306
 31
0.0
  0
ARC
  5
207
  8
0
  6
CONTINUOUS
 62
     7
 10
-1832.510012598885
 20
-16.6637620907922
 30
0.0
 40
1.716158885339272
 50
304.678903130553
 51
322.6406103188675
  0
LINE
  5
208
  8
0
  6
CONTINUOUS
 62
   253
 10
-1819.79378269214
 20
-18.37666494563636
 30
0.0
 11
-1819.76893481161
 21
-18.36941921170357
 31
0.0
  0
LINE
  5
209
  8
0
  6
CONTINUOUS
 62
   253
 10
-1819.76893481161
 20
-18.36941921170357
 30
0.0
 11
-1819.744295881182
 21
-18.35897592545416
 31
0.0
  0
LINE
  5
20A
  8
0
  6
CONTINUOUS
 62
   253
 10
-1819.744295881182
 20
-18.35897592545416
 30
0.0
 11
-1819.719918830383
 21
-18.34535752122995
 31
0.0
  0
LINE
  5
20B
  8
0
  6
CONTINUOUS
 62
   253
 10
-1819.719918830383
 20
-18.34535752122995
 30
0.0
 11
-1819.695856026166
 21
-18.32859325418365
 31
0.0
  0
LINE
  5
20C
  8
0
  6
CONTINUOUS
 62
     7
 10
-1823.719087806662
 20
-18.54206061373439
 30
0.0
 11
-1823.637425248369
 21
-18.47095166984829
 31
0.0
  0
LINE
  5
20D
  8
0
  6
CONTINUOUS
 62
     7
 10
-1827.49276345111
 20
-16.15913382338234
 30
0.0
 11
-1828.429528590226
 21
-16.152775151915
 31
0.0
  0
LINE
  5
20E
  8
0
  6
CONTINUOUS
 62
     7
 10
-1830.013039157093
 20
-16.69574635889338
 30
0.0
 11
-1830.62122402023
 21
-17.14515180449657
 31
0.0
  0
LINE
  5
20F
  8
0
  6
CONTINUOUS
 62
   253
 10
-1850.411878598609
 20
-20.37658166005429
 30
0.0
 11
-1851.433563545088
 21
-19.8875510096167
 31
0.0
  0
LINE
  5
210
  8
0
  6
CONTINUOUS
 62
   253
 10
-1850.53484710435
 20
-18.52076715705019
 30
0.0
 11
-1850.783998839436
 21
-18.6616635499337
 31
0.0
  0
ARC
  5
211
  8
0
  6
CONTINUOUS
 62
     7
 10
-1823.261829121959
 20
-16.7460240630175
 30
0.0
 40
1.770895316294694
 50
217.084039901928
 51
235.6514067804681
  0
LINE
  5
212
  8
0
  6
CONTINUOUS
 62
   253
 10
-1851.317546122032
 20
-19.32667768311349
 30
0.0
 11
-1851.402208389077
 21
-19.601847563101
 31
0.0
  0
LINE
  5
213
  8
0
  6
CONTINUOUS
 62
   253
 10
-1819.241466112896
 20
-18.50394555225836
 30
0.0
 11
-1819.511946318552
 21
-18.41344095127025
 31
0.0
  0
LINE
  5
214
  8
0
  6
CONTINUOUS
 62
   253
 10
-1818.34274967241
 20
-19.87072940499374
 30
0.0
 11
-1818.246250738317
 21
-19.77291716244665
 31
0.0
  0
LINE
  5
215
  8
0
  6
CONTINUOUS
 62
     7
 10
-1817.887425248646
 20
-18.51456223173836
 30
0.0
 11
-1817.899745622753
 21
-18.30682934222738
 31
0.0
  0
LINE
  5
216
  8
0
  6
CONTINUOUS
 62
   253
 10
-1819.695856026166
 20
-18.32859325418365
 30
0.0
 11
-1819.672159160417
 21
-18.30871913743298
 31
0.0
  0
LINE
  5
217
  8
0
  6
CONTINUOUS
 62
     7
 10
-1825.868643975613
 20
-16.73770651490774
 30
0.0
 11
-1826.575177974938
 21
-16.38942219969314
 31
0.0
  0
LINE
  5
218
  8
0
  6
CONTINUOUS
 62
   253
 10
-1851.777916056232
 20
-18.93166812934626
 30
0.0
 11
-1851.70524121933
 21
-19.30346277594229
 31
0.0
  0
LINE
  5
219
  8
0
  6
CONTINUOUS
 62
   253
 10
-1849.982530525093
 20
-18.39348655053199
 30
0.0
 11
-1850.264366898683
 21
-18.43026255611292
 31
0.0
  0
LINE
  5
21A
  8
0
  6
CONTINUOUS
 62
   253
 10
-1819.465990213447
 20
-17.95149385441036
 30
0.0
 11
-1819.449430181048
 21
-17.90161555671957
 31
0.0
  0
LINE
  5
21B
  8
0
  6
CONTINUOUS
 62
   253
 10
-1817.998397161334
 20
-18.91484652478805
 30
0.0
 11
-1818.067383363231
 21
-18.70779698576116
 31
0.0
  0
LINE
  5
21C
  8
0
  6
CONTINUOUS
 62
   253
 10
-1819.520677286093
 20
-18.0869265006626
 30
0.0
 11
-1819.501652070497
 21
-18.04424895496509
 31
0.0
  0
LINE
  5
21D
  8
0
  6
CONTINUOUS
 62
   253
 10
-1819.483409983688
 20
-17.99907239000837
 30
0.0
 11
-1819.465990213447
 21
-17.95149385441036
 31
0.0
  0
LINE
  5
21E
  8
0
  6
CONTINUOUS
 62
   253
 10
-1819.540444760374
 20
-18.12701334689376
 30
0.0
 11
-1819.520677286093
 21
-18.0869265006626
 31
0.0
  0
LINE
  5
21F
  8
0
  6
CONTINUOUS
 62
   253
 10
-1819.501652070497
 20
-18.04424895496509
 30
0.0
 11
-1819.483409983688
 21
-17.99907239000837
 31
0.0
  0
LINE
  5
220
  8
0
  6
CONTINUOUS
 62
     7
 10
-2149.036731859006
 20
411.3049096779838
 30
0.0
 11
-2148.978806349239
 21
411.1173165676349
 31
0.0
  0
LINE
  5
221
  8
0
  6
CONTINUOUS
 62
     7
 10
-2148.978806349239
 20
411.1173165676349
 30
0.0
 11
-2148.884740425603
 21
410.9444297669804
 31
0.0
  0
LINE
  5
222
  8
0
  6
CONTINUOUS
 62
     7
 10
-2148.838790525602
 20
414.5
 30
0.0
 11
-2152.000076164022
 21
414.5000000000001
 31
0.0
  0
LINE
  5
223
  8
0
  6
CONTINUOUS
 62
     7
 10
-1521.396103123273
 20
410.6685303876974
 30
0.0
 11
-1521.241851011208
 21
410.7928932188134
 31
0.0
  0
LINE
  5
224
  8
0
  6
CONTINUOUS
 62
     7
 10
-1517.026223178954
 20
-20.27153598353288
 30
0.0
 11
-1517.08750124642
 21
-20.09044097997871
 31
0.0
  0
LINE
  5
225
  8
0
  6
CONTINUOUS
 62
     7
 10
-2148.603896876727
 20
410.6685303876974
 30
0.0
 11
-2148.427911911571
 21
410.5761204674886
 31
0.0
  0
LINE
  5
226
  8
0
  6
CONTINUOUS
 62
     7
 10
-1547.830302779823
 20
410.4999999999999
 30
0.0
 11
-1547.830302779823
 21
409.7999999729373
 31
0.0
  0
LINE
  5
227
  8
0
  6
CONTINUOUS
 62
     7
 10
-1517.000533148154
 20
-20.46098117740106
 30
0.0
 11
-1517.026223178954
 21
-20.27153598353288
 31
0.0
  0
LINE
  5
228
  8
0
  6
CONTINUOUS
 62
     7
 10
-1517.08750124642
 20
-20.09044097997871
 30
0.0
 11
-1517.182127682647
 21
-19.92431505477166
 31
0.0
  0
LINE
  5
229
  8
0
  6
CONTINUOUS
 62
     7
 10
-2152.69335603841
 20
414.7792299872361
 30
0.0
 11
-2152.543500894375
 21
414.6604885289582
 31
0.0
  0
LINE
  5
22A
  8
0
  6
CONTINUOUS
 62
     7
 10
-2152.373783979588
 20
414.5724305921485
 30
0.0
 11
-2152.190408321381
 21
414.518274629071
 31
0.0
  0
LINE
  5
22B
  8
0
  6
CONTINUOUS
 62
     7
 10
-1516.999749625636
 20
435.9994668518463
 30
0.0
 11
-1516.999749620777
 21
436.0005549541092
 31
0.0
  0
LINE
  5
22C
  8
0
  6
CONTINUOUS
 62
     7
 10
-2152.999466851846
 20
415.460981177401
 30
0.0
 11
-2152.973776821046
 21
415.2715359835328
 31
0.0
  0
LINE
  5
22D
  8
0
  6
CONTINUOUS
 62
     7
 10
-2151.5
 20
414.5
 30
0.0
 11
-2151.5
 21
-19.50000000000002
 31
0.0
  0
LINE
  5
22E
  8
0
  6
CONTINUOUS
 62
     7
 10
-1518.5
 20
-19.49999999999999
 30
0.0
 11
-1518.5
 21
414.5000000000003
 31
0.0
  0
LINE
  5
22F
  8
0
  6
CONTINUOUS
 62
     7
 10
-1520.943709089951
 20
411.4999999999999
 30
0.0
 11
-1520.943709089951
 21
405.9999999999999
 31
0.0
  0
LINE
  5
230
  8
0
  6
CONTINUOUS
 62
     7
 10
-2152.543500894375
 20
414.6604885289582
 30
0.0
 11
-2152.373783979588
 21
414.5724305921485
 31
0.0
  0
LINE
  5
231
  8
0
  6
CONTINUOUS
 62
     7
 10
-2149.056290910049
 20
411.4999999999999
 30
0.0
 11
-2149.056290910049
 21
405.9999999999999
 31
0.0
  0
LINE
  5
232
  8
0
  6
CONTINUOUS
 62
     7
 10
-2148.427911911571
 20
410.5761204674886
 30
0.0
 11
-2148.236957096841
 21
410.5192147195967
 31
0.0
  0
LINE
  5
233
  8
0
  6
CONTINUOUS
 62
     7
 10
-2152.190408321381
 20
414.518274629071
 30
0.0
 11
-2152.000076164021
 21
414.5
 31
0.0
  0
LINE
  5
234
  8
0
  6
CONTINUOUS
 62
     7
 10
-1520.943709089951
 20
405.9999999999999
 30
0.0
 11
-1520.943709089951
 21
-19.49999999999996
 31
0.0
  0
LINE
  5
235
  8
0
  6
CONTINUOUS
 62
     7
 10
-1521.115259574397
 20
410.9444297669804
 30
0.0
 11
-1521.021193650761
 21
411.1173165676349
 31
0.0
  0
LINE
  5
236
  8
0
  6
CONTINUOUS
 62
     7
 10
-1521.021193650761
 20
411.1173165676349
 30
0.0
 11
-1520.963268140994
 21
411.3049096779838
 31
0.0
  0
LINE
  5
237
  8
0
  6
CONTINUOUS
 62
     7
 10
-1521.961629281021
 20
410.4999999999998
 30
0.0
 11
-1522.661346877376
 21
410.4999999999999
 31
0.0
  0
LINE
  5
238
  8
0
  6
CONTINUOUS
 62
     7
 10
-1521.241851011208
 20
410.7928932188134
 30
0.0
 11
-1521.115259574397
 21
410.9444297669804
 31
0.0
  0
LINE
  5
239
  8
0
  6
CONTINUOUS
 62
     7
 10
-2120.5
 20
-19.49999999999996
 30
0.0
 11
-2120.5
 21
-18.79999999999998
 31
0.0
  0
LINE
  5
23A
  8
0
  6
CONTINUOUS
 62
     7
 10
-1517.182127682647
 20
-19.92431505477166
 30
0.0
 11
-1517.306643961589
 21
-19.77922998723621
 31
0.0
  0
LINE
  5
23B
  8
0
  6
CONTINUOUS
 62
     7
 10
-1517.306643961589
 20
-19.77922998723621
 30
0.0
 11
-1517.456499105625
 21
-19.66048852895825
 31
0.0
  0
LINE
  5
23C
  8
0
  6
CONTINUOUS
 62
     7
 10
-1520.963268140994
 20
411.3049096779838
 30
0.0
 11
-1520.943709089951
 21
411.4999999999999
 31
0.0
  0
LINE
  5
23D
  8
0
  6
CONTINUOUS
 62
     7
 10
-1516.999749625636
 20
415.5
 30
0.0
 11
-1516.999749625636
 21
435.9994668518463
 31
0.0
  0
LINE
  5
23E
  8
0
  6
CONTINUOUS
 62
   253
 10
-2149.056290910049
 20
411.4999999999999
 30
0.0
 11
-2148.33850081778
 21
411.4999999999999
 31
0.0
  0
LINE
  5
23F
  8
0
  6
CONTINUOUS
 62
     7
 10
-2153.000250379223
 20
436.0005549541092
 30
0.0
 11
-2153.000250374364
 21
435.9994668518463
 31
0.0
  0
LINE
  5
240
  8
0
  6
CONTINUOUS
 62
     7
 10
-2153.000250374364
 20
415.5
 30
0.0
 11
-2152.999466851846
 21
415.460981177401
 31
0.0
  0
LINE
  5
241
  8
0
  6
CONTINUOUS
 62
     7
 10
-2152.817872317353
 20
414.9243150547716
 30
0.0
 11
-2152.69335603841
 21
414.7792299872361
 31
0.0
  0
LINE
  5
242
  8
0
  6
CONTINUOUS
 62
     7
 10
-2149.056290910049
 20
-19.49999999999999
 30
0.0
 11
-2149.056290910049
 21
405.9999999999999
 31
0.0
  0
LINE
  5
243
  8
0
  6
CONTINUOUS
 62
     7
 10
-2120.5
 20
410.4999999999999
 30
0.0
 11
-2120.5
 21
409.8
 31
0.0
  0
LINE
  5
244
  8
0
  6
CONTINUOUS
 62
     7
 10
-2152.973776821046
 20
415.2715359835328
 30
0.0
 11
-2152.91249875358
 21
415.0904409799787
 31
0.0
  0
LINE
  5
245
  8
0
  6
CONTINUOUS
 62
     7
 10
-1517.456499105625
 20
-19.66048852895825
 30
0.0
 11
-1517.626216020412
 21
-19.57243059214853
 31
0.0
  0
LINE
  5
246
  8
0
  6
CONTINUOUS
 62
     7
 10
-2153.000250374364
 20
435.9994668518463
 30
0.0
 11
-2153.000250374364
 21
415.5
 31
0.0
  0
LINE
  5
247
  8
0
  6
CONTINUOUS
 62
     7
 10
-2149.056290910049
 20
411.4999999999999
 30
0.0
 11
-2149.036731859006
 21
411.3049096779838
 31
0.0
  0
LINE
  5
248
  8
0
  6
CONTINUOUS
 62
     7
 10
-2148.758148988791
 20
410.7928932188134
 30
0.0
 11
-2148.603896876727
 21
410.6685303876974
 31
0.0
  0
LINE
  5
249
  8
0
  6
CONTINUOUS
 62
     7
 10
-1521.961629281021
 20
410.4999999999999
 30
0.0
 11
-1521.763042903159
 21
410.5192147195967
 31
0.0
  0
LINE
  5
24A
  8
0
  6
CONTINUOUS
 62
     7
 10
-2122.169697220177
 20
410.4999999999999
 30
0.0
 11
-2122.169697220177
 21
409.8
 31
0.0
  0
LINE
  5
24B
  8
0
  6
CONTINUOUS
 62
     7
 10
-1516.999749625636
 20
-20.49999999999999
 30
0.0
 11
-1517.000533148154
 21
-20.46098117740106
 31
0.0
  0
LINE
  5
24C
  8
0
  6
CONTINUOUS
 62
   253
 10
-1521.66149918222
 20
411.4999999999999
 30
0.0
 11
-1520.943709089951
 21
411.4999999999999
 31
0.0
  0
LINE
  5
24D
  8
0
  6
CONTINUOUS
 62
     7
 10
-2152.91249875358
 20
415.0904409799787
 30
0.0
 11
-2152.817872317353
 21
414.9243150547716
 31
0.0
  0
LINE
  5
24E
  8
0
  6
CONTINUOUS
 62
     7
 10
-2147.338653122623
 20
410.4999999999999
 30
0.0
 11
-2148.038370718979
 21
410.4999999999998
 31
0.0
  0
LINE
  5
24F
  8
0
  6
CONTINUOUS
 62
     7
 10
-2148.884740425603
 20
410.9444297669804
 30
0.0
 11
-2148.758148988791
 21
410.7928932188134
 31
0.0
  0
LINE
  5
250
  8
0
  6
CONTINUOUS
 62
     7
 10
-1521.572088088428
 20
410.5761204674886
 30
0.0
 11
-1521.396103123273
 21
410.6685303876974
 31
0.0
  0
LINE
  5
251
  8
0
  6
CONTINUOUS
 62
     7
 10
-1549.5
 20
-18.80000002675128
 30
0.0
 11
-1549.5
 21
-19.49999999999996
 31
0.0
  0
LINE
  5
252
  8
0
  6
CONTINUOUS
 62
     7
 10
-2148.236957096841
 20
410.5192147195967
 30
0.0
 11
-2148.038370718979
 21
410.4999999999999
 31
0.0
  0
LINE
  5
253
  8
0
  6
CONTINUOUS
 62
     7
 10
-1521.763042903159
 20
410.5192147195967
 30
0.0
 11
-1521.572088088428
 21
410.5761204674886
 31
0.0
  0
LINE
  5
254
  8
0
  6
CONTINUOUS
 62
     7
 10
-1549.5
 20
409.7999999730942
 30
0.0
 11
-1549.5
 21
410.4999999999999
 31
0.0
  0
LINE
  5
255
  8
0
  6
CONTINUOUS
 62
     7
 10
-1517.626216020412
 20
-19.57243059214853
 30
0.0
 11
-1517.809591678619
 21
-19.51827462907096
 31
0.0
  0
LINE
  5
256
  8
0
  6
CONTINUOUS
 62
     7
 10
-1517.809591678619
 20
-19.51827462907096
 30
0.0
 11
-1517.999923835978
 21
-19.49999999999999
 31
0.0
  0
LINE
  5
257
  8
0
  6
CONTINUOUS
 62
   253
 10
-2153.000250374364
 20
415.5
 30
0.0
 11
-2149.838638220758
 21
415.5
 31
0.0
  0
LINE
  5
258
  8
0
  6
CONTINUOUS
 62
   253
 10
-1819.271459390825
 20
-24.01960350131385
 30
0.0
 11
-1819.271459390825
 21
-27.08991310630176
 31
0.0
  0
LINE
  5
259
  8
0
  6
CONTINUOUS
 62
   253
 10
-1583.136120661288
 20
414.9444297669804
 30
0.0
 11
-1583.112203213981
 21
415.1173165676349
 31
0.0
  0
LINE
  5
25A
  8
0
  6
CONTINUOUS
 62
   253
 10
-1583.112203213981
 20
415.1173165676349
 30
0.0
 11
-1583.097474922651
 21
415.3049096779839
 31
0.0
  0
LINE
  5
25B
  8
0
  6
CONTINUOUS
 62
   253
 10
-2086.749593957175
 20
434.3976956714948
 30
0.0
 11
-2086.834211614956
 21
433.7973943089166
 31
0.0
  0
LINE
  5
25C
  8
0
  6
CONTINUOUS
 62
     7
 10
-1849.383836090412
 20
-24.13412367471282
 30
0.0
 11
-1848.621102134432
 21
-24.16206710522848
 31
0.0
  0
LINE
  5
25D
  8
0
  6
CONTINUOUS
 62
   253
 10
-2086.887514636764
 20
433.1472298595355
 30
0.0
 11
-2086.907498212727
 21
432.471656023399
 31
0.0
  0
LINE
  5
25E
  8
0
  6
CONTINUOUS
 62
   253
 10
-2083.025212536189
 20
415.5
 30
0.0
 11
-1586.97478746381
 21
415.5
 31
0.0
  0
LINE
  5
25F
  8
0
  6
CONTINUOUS
 62
   253
 10
-2083.025212536189
 20
415.5
 30
0.0
 11
-2083.025212536189
 21
414.5
 31
0.0
  0
LINE
  5
260
  8
0
  6
CONTINUOUS
 62
   253
 10
-1583.168308130483
 20
414.7928932188134
 30
0.0
 11
-1583.136120661288
 21
414.9444297669804
 31
0.0
  0
LINE
  5
261
  8
0
  6
CONTINUOUS
 62
     7
 10
-1847.746675825487
 20
-24.18285788684756
 30
0.0
 11
-1846.79523256011
 21
-24.19567156061968
 31
0.0
  0
LINE
  5
262
  8
0
  6
CONTINUOUS
 62
     7
 10
-1819.271459390825
 20
-24.01960350131385
 30
0.0
 11
-1817.09060481831
 21
-23.47959444200956
 31
0.0
  0
LINE
  5
263
  8
0
  6
CONTINUOUS
 62
     7
 10
-1851.887425249112
 20
-23.47959444200956
 30
0.0
 11
-1852.90939518169
 21
-23.47959444200956
 31
0.0
  0
LINE
  5
264
  8
0
  6
CONTINUOUS
 62
     7
 10
-1821.378897865568
 20
-24.16206710522848
 30
0.0
 11
-1820.616163909588
 21
-24.13412367471282
 31
0.0
  0
LINE
  5
265
  8
0
  6
CONTINUOUS
 62
     7
 10
-1852.90939518169
 20
-23.47959444200956
 30
0.0
 11
-1850.728540609175
 21
-24.01960350131385
 31
0.0
  0
LINE
  5
266
  8
0
  6
CONTINUOUS
 62
   253
 10
-1586.974787463811
 20
432.4648162038823
 30
0.0
 11
-1586.974787463811
 21
435.9642831369296
 31
0.0
  0
LINE
  5
267
  8
0
  6
CONTINUOUS
 62
     7
 10
-1824.195498155886
 20
-24.2
 30
0.0
 11
-1823.204767439889
 21
-24.19567156061968
 31
0.0
  0
LINE
  5
268
  8
0
  6
CONTINUOUS
 62
   253
 10
-1586.974787463811
 20
432.4648162038823
 30
0.0
 11
-2083.025212536189
 21
432.4648162038823
 31
0.0
  0
LINE
  5
269
  8
0
  6
CONTINUOUS
 62
   253
 10
-1845.804501844113
 20
-26.90917206495644
 30
0.0
 11
-1824.195498155886
 21
-26.90917206495644
 31
0.0
  0
LINE
  5
26A
  8
0
  6
CONTINUOUS
 62
     7
 10
-1822.253324174513
 20
-24.18285788684756
 30
0.0
 11
-1821.378897865568
 21
-24.16206710522848
 31
0.0
  0
LINE
  5
26B
  8
0
  6
CONTINUOUS
 62
   253
 10
-1583.092501787273
 20
415.5
 30
0.0
 11
-1586.974787463811
 21
415.5
 31
0.0
  0
LINE
  5
26C
  8
0
  6
CONTINUOUS
 62
   253
 10
-1583.351320832375
 20
414.5
 30
0.0
 11
-1583.300827741522
 21
414.5192147195968
 31
0.0
  0
LINE
  5
26D
  8
0
  6
CONTINUOUS
 62
   253
 10
-1850.728540609175
 20
-27.08991310630176
 30
0.0
 11
-1850.728540609175
 21
-24.01960350131385
 31
0.0
  0
LINE
  5
26E
  8
0
  6
CONTINUOUS
 62
   253
 10
-1583.300827741522
 20
414.5192147195968
 30
0.0
 11
-1583.252275071834
 21
414.5761204674887
 31
0.0
  0
LINE
  5
26F
  8
0
  6
CONTINUOUS
 62
     7
 10
-1586.974787463811
 20
414.5
 30
0.0
 11
-1583.351320832375
 21
414.5
 31
0.0
  0
LINE
  5
270
  8
0
  6
CONTINUOUS
 62
   253
 10
-1583.112485363235
 20
433.1472298595355
 30
0.0
 11
-1583.165788385043
 21
433.7973943089166
 31
0.0
  0
LINE
  5
271
  8
0
  6
CONTINUOUS
 62
   253
 10
-1583.499796767701
 20
435.3611206828266
 30
0.0
 11
-1583.655189860258
 21
435.6880084127015
 31
0.0
  0
LINE
  5
272
  8
0
  6
CONTINUOUS
 62
     7
 10
-1850.458870587335
 20
-24.06145095349243
 30
0.0
 11
-1850.004631459867
 21
-24.10013569271678
 31
0.0
  0
LINE
  5
273
  8
0
  6
CONTINUOUS
 62
   253
 10
-1583.097474922651
 20
415.3049096779839
 30
0.0
 11
-1583.092501787273
 21
415.5
 31
0.0
  0
LINE
  5
274
  8
0
  6
CONTINUOUS
 62
   253
 10
-1586.974787463811
 20
414.5
 30
0.0
 11
-1586.974787463811
 21
415.5
 31
0.0
  0
LINE
  5
275
  8
0
  6
CONTINUOUS
 62
   253
 10
-2086.001631554868
 20
435.9711229564464
 30
0.0
 11
-2086.176509564801
 21
435.8939241075012
 31
0.0
  0
LINE
  5
276
  8
0
  6
CONTINUOUS
 62
   253
 10
-1583.250406042825
 20
434.3976956714948
 30
0.0
 11
-1583.363155734355
 21
434.9255556757689
 31
0.0
  0
LINE
  5
277
  8
0
  6
CONTINUOUS
 62
   253
 10
-2086.907498212726
 20
432.471656023399
 30
0.0
 11
-2083.025212536189
 21
432.4648162038823
 31
0.0
  0
LINE
  5
278
  8
0
  6
CONTINUOUS
 62
   253
 10
-2086.344810139742
 20
435.6880084127015
 30
0.0
 11
-2086.500203232299
 21
435.3611206828266
 31
0.0
  0
LINE
  5
279
  8
0
  6
CONTINUOUS
 62
     7
 10
-1817.09060481831
 20
-23.47959444200956
 30
0.0
 11
-1817.887425249112
 21
-23.47959444200953
 31
0.0
  0
LINE
  5
27A
  8
0
  6
CONTINUOUS
 62
   253
 10
-2086.636844265644
 20
434.9255556757689
 30
0.0
 11
-2086.749593957175
 21
434.3976956714948
 31
0.0
  0
LINE
  5
27B
  8
0
  6
CONTINUOUS
 62
   253
 10
-1583.655189860258
 20
435.6880084127015
 30
0.0
 11
-1583.823490435199
 21
435.8939241075012
 31
0.0
  0
LINE
  5
27C
  8
0
  6
CONTINUOUS
 62
   253
 10
-1586.974787463811
 20
432.4648162038823
 30
0.0
 11
-1583.092501787273
 21
432.471656023399
 31
0.0
  0
LINE
  5
27D
  8
0
  6
CONTINUOUS
 62
   253
 10
-2083.025212536189
 20
435.9642831369296
 30
0.0
 11
-1586.97478746381
 21
435.9642831369296
 31
0.0
  0
LINE
  5
27E
  8
0
  6
CONTINUOUS
 62
   253
 10
-1824.195498155886
 20
-26.90917206495644
 30
0.0
 11
-1824.195498155886
 21
-24.2
 31
0.0
  0
LINE
  5
27F
  8
0
  6
CONTINUOUS
 62
   253
 10
-2086.176509564801
 20
435.8939241075012
 30
0.0
 11
-2086.344810139742
 21
435.6880084127015
 31
0.0
  0
LINE
  5
280
  8
0
  6
CONTINUOUS
 62
   253
 10
-2086.834211614956
 20
433.7973943089166
 30
0.0
 11
-2086.887514636764
 21
433.1472298595355
 31
0.0
  0
LINE
  5
281
  8
0
  6
CONTINUOUS
 62
   253
 10
-2086.001631554867
 20
435.9711229564463
 30
0.0
 11
-2083.025212536189
 21
435.9642831369296
 31
0.0
  0
LINE
  5
282
  8
0
  6
CONTINUOUS
 62
   253
 10
-1583.823490435199
 20
435.8939241075012
 30
0.0
 11
-1583.998368445132
 21
435.9711229564464
 31
0.0
  0
LINE
  5
283
  8
0
  6
CONTINUOUS
 62
   253
 10
-1583.363155734355
 20
434.9255556757689
 30
0.0
 11
-1583.499796767701
 21
435.3611206828266
 31
0.0
  0
LINE
  5
284
  8
0
  6
CONTINUOUS
 62
   253
 10
-1586.974787463811
 20
435.9642831369296
 30
0.0
 11
-1583.998368445132
 21
435.9711229564463
 31
0.0
  0
LINE
  5
285
  8
0
  6
CONTINUOUS
 62
   253
 10
-2083.025212536189
 20
432.4648162038823
 30
0.0
 11
-2083.025212536189
 21
415.5
 31
0.0
  0
LINE
  5
286
  8
0
  6
CONTINUOUS
 62
   253
 10
-2083.025212536189
 20
415.5
 30
0.0
 11
-2086.907498212727
 21
415.5
 31
0.0
  0
LINE
  5
287
  8
0
  6
CONTINUOUS
 62
   253
 10
-1583.165788385043
 20
433.7973943089166
 30
0.0
 11
-1583.250406042825
 21
434.3976956714948
 31
0.0
  0
LINE
  5
288
  8
0
  6
CONTINUOUS
 62
     7
 10
-1848.621102134432
 20
-24.16206710522848
 30
0.0
 11
-1847.746675825487
 21
-24.18285788684756
 31
0.0
  0
LINE
  5
289
  8
0
  6
CONTINUOUS
 62
   253
 10
-1583.092501787273
 20
432.471656023399
 30
0.0
 11
-1583.112485363235
 21
433.1472298595355
 31
0.0
  0
LINE
  5
28A
  8
0
  6
CONTINUOUS
 62
   253
 10
-2086.907498212727
 20
415.5
 30
0.0
 11
-2086.907498212727
 21
432.471656023399
 31
0.0
  0
LINE
  5
28B
  8
0
  6
CONTINUOUS
 62
   253
 10
-1845.804501844113
 20
-24.2
 30
0.0
 11
-1845.804501844113
 21
-26.90917206495644
 31
0.0
  0
LINE
  5
28C
  8
0
  6
CONTINUOUS
 62
     7
 10
-1819.995368540132
 20
-24.10013569271678
 30
0.0
 11
-1819.541129412665
 21
-24.06145095349243
 31
0.0
  0
LINE
  5
28D
  8
0
  6
CONTINUOUS
 62
     7
 10
-1819.541129412665
 20
-24.06145095349243
 30
0.0
 11
-1819.271459390825
 21
-24.01960350131385
 31
0.0
  0
LINE
  5
28E
  8
0
  6
CONTINUOUS
 62
   253
 10
-2083.025212536189
 20
435.9642831369296
 30
0.0
 11
-2083.025212536189
 21
432.4648162038823
 31
0.0
  0
LINE
  5
28F
  8
0
  6
CONTINUOUS
 62
   253
 10
-1583.252275071834
 20
414.5761204674887
 30
0.0
 11
-1583.207528675178
 21
414.6685303876974
 31
0.0
  0
LINE
  5
290
  8
0
  6
CONTINUOUS
 62
     7
 10
-1850.004631459867
 20
-24.10013569271678
 30
0.0
 11
-1849.383836090412
 21
-24.13412367471282
 31
0.0
  0
LINE
  5
291
  8
0
  6
CONTINUOUS
 62
   253
 10
-1583.207528675178
 20
414.6685303876974
 30
0.0
 11
-1583.168308130483
 21
414.7928932188134
 31
0.0
  0
LINE
  5
292
  8
0
  6
CONTINUOUS
 62
   253
 10
-2086.500203232299
 20
435.3611206828266
 30
0.0
 11
-2086.636844265644
 21
434.9255556757689
 31
0.0
  0
LINE
  5
293
  8
0
  6
CONTINUOUS
 62
   253
 10
-1586.974787463811
 20
415.5
 30
0.0
 11
-1586.974787463811
 21
432.4648162038823
 31
0.0
  0
LINE
  5
294
  8
0
  6
CONTINUOUS
 62
     7
 10
-1846.79523256011
 20
-24.19567156061968
 30
0.0
 11
-1845.804501844113
 21
-24.2
 31
0.0
  0
LINE
  5
295
  8
0
  6
CONTINUOUS
 62
     7
 10
-1823.204767439889
 20
-24.19567156061968
 30
0.0
 11
-1822.253324174513
 21
-24.18285788684756
 31
0.0
  0
LINE
  5
296
  8
0
  6
CONTINUOUS
 62
     7
 10
-1820.616163909588
 20
-24.13412367471282
 30
0.0
 11
-1819.995368540132
 21
-24.10013569271678
 31
0.0
  0
LINE
  5
297
  8
0
  6
CONTINUOUS
 62
     7
 10
-1845.804501844113
 20
-24.2
 30
0.0
 11
-1824.195498155886
 21
-24.2
 31
0.0
  0
LINE
  5
298
  8
0
  6
CONTINUOUS
 62
   253
 10
-2142.428351720219
 20
415.5
 30
0.0
 11
-2142.423378584841
 21
415.3049096779839
 31
0.0
  0
LINE
  5
299
  8
0
  6
CONTINUOUS
 62
   253
 10
-2142.22002576597
 20
414.5192147195968
 30
0.0
 11
-2142.169532675117
 21
414.5
 31
0.0
  0
LINE
  5
29A
  8
0
  6
CONTINUOUS
 62
   253
 10
-1583.092501787273
 20
415.5
 30
0.0
 11
-1527.57164827978
 21
415.5
 31
0.0
  0
LINE
  5
29B
  8
0
  6
CONTINUOUS
 62
     7
 10
-1819.590751575599
 20
-30.64356294817777
 30
0.0
 11
-1850.409248424401
 21
-30.64356294817774
 31
0.0
  0
LINE
  5
29C
  8
0
  6
CONTINUOUS
 62
   253
 10
-1527.576621415159
 20
415.3049096779839
 30
0.0
 11
-1527.571648279781
 21
415.5
 31
0.0
  0
LINE
  5
29D
  8
0
  6
CONTINUOUS
 62
     7
 10
-1825.244796179957
 20
-30.18032830675114
 30
0.0
 11
-1824.716254147714
 21
-30.12398295393469
 31
0.0
  0
LINE
  5
29E
  8
0
  6
CONTINUOUS
 62
     7
 10
-1824.716254147714
 20
-30.12398295393469
 30
0.0
 11
-1824.323511986827
 21
-30.05969900462991
 31
0.0
  0
LINE
  5
29F
  8
0
  6
CONTINUOUS
 62
   253
 10
-2086.747724928166
 20
414.5761204674887
 30
0.0
 11
-2086.699172258478
 21
414.5192147195968
 31
0.0
  0
LINE
  5
2A0
  8
0
  6
CONTINUOUS
 62
     7
 10
-1824.323511986827
 20
-30.05969900462991
 30
0.0
 11
-1824.081662558286
 21
-29.98994685495773
 31
0.0
  0
LINE
  5
2A1
  8
0
  6
CONTINUOUS
 62
   253
 10
-1819.590751575599
 20
-30.64356294817777
 30
0.0
 11
-1821.733478773356
 21
-29.58039985153113
 31
0.0
  0
LINE
  5
2A2
  8
0
  6
CONTINUOUS
 62
   253
 10
-1527.57164827978
 20
432.7313309723247
 30
0.0
 11
-1527.591631855743
 21
433.4069048084611
 31
0.0
  0
LINE
  5
2A3
  8
0
  6
CONTINUOUS
 62
   253
 10
-1527.644934877551
 20
434.0570692578422
 30
0.0
 11
-1527.729552535332
 21
434.6573706204205
 31
0.0
  0
LINE
  5
2A4
  8
0
  6
CONTINUOUS
 62
   253
 10
-1583.998368445132
 20
435.9711229564464
 30
0.0
 11
-1528.477514937639
 21
436.2307979053721
 31
0.0
  0
LINE
  5
2A5
  8
0
  6
CONTINUOUS
 62
   253
 10
-2142.021056739792
 20
435.6207956317522
 30
0.0
 11
-2142.157697773137
 21
435.1852306246946
 31
0.0
  0
LINE
  5
2A6
  8
0
  6
CONTINUOUS
 62
   253
 10
-2141.522485062361
 20
436.2307979053721
 30
0.0
 11
-2086.001631554868
 21
435.9711229564464
 31
0.0
  0
LINE
  5
2A7
  8
0
  6
CONTINUOUS
 62
   253
 10
-2141.522485062361
 20
436.230797905372
 30
0.0
 11
-2141.697363072294
 21
436.1535990564268
 31
0.0
  0
LINE
  5
2A8
  8
0
  6
CONTINUOUS
 62
   253
 10
-2086.699172258478
 20
414.5192147195968
 30
0.0
 11
-2086.648679167625
 21
414.5
 31
0.0
  0
LINE
  5
2A9
  8
0
  6
CONTINUOUS
 62
   253
 10
-1527.591631855743
 20
433.4069048084611
 30
0.0
 11
-1527.644934877551
 21
434.0570692578422
 31
0.0
  0
LINE
  5
2AA
  8
0
  6
CONTINUOUS
 62
   253
 10
-1527.842302226863
 20
435.1852306246946
 30
0.0
 11
-1527.978943260208
 21
435.6207956317522
 31
0.0
  0
LINE
  5
2AB
  8
0
  6
CONTINUOUS
 62
   253
 10
-2141.865663647235
 20
435.9476833616272
 30
0.0
 11
-2142.021056739792
 21
435.6207956317522
 31
0.0
  0
LINE
  5
2AC
  8
0
  6
CONTINUOUS
 62
   253
 10
-1527.729552535332
 20
434.6573706204205
 30
0.0
 11
-1527.842302226863
 21
435.1852306246946
 31
0.0
  0
LINE
  5
2AD
  8
0
  6
CONTINUOUS
 62
   253
 10
-2142.313324832314
 20
414.6685303876974
 30
0.0
 11
-2142.268578435658
 21
414.5761204674887
 31
0.0
  0
LINE
  5
2AE
  8
0
  6
CONTINUOUS
 62
   253
 10
-1528.302636927706
 20
436.1535990564268
 30
0.0
 11
-1528.477514937639
 21
436.230797905372
 31
0.0
  0
LINE
  5
2AF
  8
0
  6
CONTINUOUS
 62
   253
 10
-2142.428351720219
 20
415.5
 30
0.0
 11
-2086.907498212727
 21
415.5
 31
0.0
  0
LINE
  5
2B0
  8
0
  6
CONTINUOUS
 62
     7
 10
-2086.648679167625
 20
414.5
 30
0.0
 11
-2083.025212536189
 21
414.5
 31
0.0
  0
LINE
  5
2B1
  8
0
  6
CONTINUOUS
 62
   253
 10
-2086.863879338713
 20
414.9444297669804
 30
0.0
 11
-2086.831691869517
 21
414.7928932188134
 31
0.0
  0
LINE
  5
2B2
  8
0
  6
CONTINUOUS
 62
   253
 10
-2142.428351720219
 20
432.7313309723247
 30
0.0
 11
-2142.428351720219
 21
415.5
 31
0.0
  0
LINE
  5
2B3
  8
0
  6
CONTINUOUS
 62
   253
 10
-1527.57164827978
 20
415.5
 30
0.0
 11
-1527.57164827978
 21
432.7313309723247
 31
0.0
  0
LINE
  5
2B4
  8
0
  6
CONTINUOUS
 62
   253
 10
-1527.830467324883
 20
414.5
 30
0.0
 11
-1527.77997423403
 21
414.5192147195968
 31
0.0
  0
LINE
  5
2B5
  8
0
  6
CONTINUOUS
 62
   253
 10
-1527.686675167686
 20
414.6685303876974
 30
0.0
 11
-1527.647454622991
 21
414.7928932188134
 31
0.0
  0
LINE
  5
2B6
  8
0
  6
CONTINUOUS
 62
   253
 10
-2086.902525077349
 20
415.3049096779839
 30
0.0
 11
-2086.887796786019
 21
415.1173165676349
 31
0.0
  0
LINE
  5
2B7
  8
0
  6
CONTINUOUS
 62
   253
 10
-2142.423378584841
 20
415.3049096779839
 30
0.0
 11
-2142.408650293511
 21
415.1173165676349
 31
0.0
  0
LINE
  5
2B8
  8
0
  6
CONTINUOUS
 62
   253
 10
-2086.907498212727
 20
432.471656023399
 30
0.0
 11
-2142.42835172022
 21
432.7313309723247
 31
0.0
  0
LINE
  5
2B9
  8
0
  6
CONTINUOUS
 62
   253
 10
-1527.647454622991
 20
414.7928932188134
 30
0.0
 11
-1527.615267153795
 21
414.9444297669804
 31
0.0
  0
LINE
  5
2BA
  8
0
  6
CONTINUOUS
 62
   253
 10
-2142.268578435658
 20
414.5761204674887
 30
0.0
 11
-2142.22002576597
 21
414.5192147195968
 31
0.0
  0
LINE
  5
2BB
  8
0
  6
CONTINUOUS
 62
   253
 10
-2086.831691869517
 20
414.7928932188134
 30
0.0
 11
-2086.792471324822
 21
414.6685303876974
 31
0.0
  0
LINE
  5
2BC
  8
0
  6
CONTINUOUS
 62
   253
 10
-1824.195498155886
 20
-29.3996588101858
 30
0.0
 11
-1845.804501844113
 21
-29.3996588101858
 31
0.0
  0
LINE
  5
2BD
  8
0
  6
CONTINUOUS
 62
   253
 10
-1848.266521226644
 20
-29.58039985153113
 30
0.0
 11
-1850.409248424401
 21
-30.64356294817774
 31
0.0
  0
LINE
  5
2BE
  8
0
  6
CONTINUOUS
 62
   253
 10
-2142.384732846205
 20
414.9444297669804
 30
0.0
 11
-2142.352545377009
 21
414.7928932188134
 31
0.0
  0
LINE
  5
2BF
  8
0
  6
CONTINUOUS
 62
     7
 10
-1828.25
 20
-30.28923386089776
 30
0.0
 11
-1827.420866131431
 21
-30.28208931281319
 31
0.0
  0
LINE
  5
2C0
  8
0
  6
CONTINUOUS
 62
     7
 10
-2086.648679167625
 20
414.5
 30
0.0
 11
-2142.169532675117
 21
414.5
 31
0.0
  0
LINE
  5
2C1
  8
0
  6
CONTINUOUS
 62
     7
 10
-1827.420866131431
 20
-30.28208931281319
 30
0.0
 11
-1826.623595412448
 21
-30.26093022953565
 31
0.0
  0
LINE
  5
2C2
  8
0
  6
CONTINUOUS
 62
   253
 10
-2086.792471324822
 20
414.6685303876974
 30
0.0
 11
-2086.747724928166
 21
414.5761204674887
 31
0.0
  0
LINE
  5
2C3
  8
0
  6
CONTINUOUS
 62
   253
 10
-2086.887796786019
 20
415.1173165676349
 30
0.0
 11
-2086.863879338713
 21
414.9444297669804
 31
0.0
  0
LINE
  5
2C4
  8
0
  6
CONTINUOUS
 62
   253
 10
-1583.092501787273
 20
432.471656023399
 30
0.0
 11
-1583.092501787273
 21
415.5
 31
0.0
  0
LINE
  5
2C5
  8
0
  6
CONTINUOUS
 62
     7
 10
-1825.888826509667
 20
-30.22656974276935
 30
0.0
 11
-1825.244796179957
 21
-30.18032830675114
 31
0.0
  0
LINE
  5
2C6
  8
0
  6
CONTINUOUS
 62
   253
 10
-1527.77997423403
 20
414.5192147195968
 30
0.0
 11
-1527.731421564342
 21
414.5761204674887
 31
0.0
  0
LINE
  5
2C7
  8
0
  6
CONTINUOUS
 62
   253
 10
-2086.907498212727
 20
415.5
 30
0.0
 11
-2086.902525077349
 21
415.3049096779839
 31
0.0
  0
LINE
  5
2C8
  8
0
  6
CONTINUOUS
 62
   253
 10
-1528.134336352765
 20
435.9476833616272
 30
0.0
 11
-1528.302636927706
 21
436.1535990564268
 31
0.0
  0
LINE
  5
2C9
  8
0
  6
CONTINUOUS
 62
     7
 10
-1527.830467324883
 20
414.5
 30
0.0
 11
-1583.351320832375
 21
414.5
 31
0.0
  0
LINE
  5
2CA
  8
0
  6
CONTINUOUS
 62
   253
 10
-1527.615267153795
 20
414.9444297669804
 30
0.0
 11
-1527.591349706489
 21
415.1173165676349
 31
0.0
  0
LINE
  5
2CB
  8
0
  6
CONTINUOUS
 62
   253
 10
-1527.978943260208
 20
435.6207956317522
 30
0.0
 11
-1528.134336352765
 21
435.9476833616272
 31
0.0
  0
LINE
  5
2CC
  8
0
  6
CONTINUOUS
 62
     7
 10
-1586.974787463811
 20
414.5
 30
0.0
 11
-2083.025212536189
 21
414.5
 31
0.0
  0
LINE
  5
2CD
  8
0
  6
CONTINUOUS
 62
   253
 10
-1527.57164827978
 20
432.7313309723247
 30
0.0
 11
-1583.092501787273
 21
432.471656023399
 31
0.0
  0
LINE
  5
2CE
  8
0
  6
CONTINUOUS
 62
   253
 10
-2142.270447464668
 20
434.6573706204205
 30
0.0
 11
-2142.355065122449
 21
434.0570692578422
 31
0.0
  0
LINE
  5
2CF
  8
0
  6
CONTINUOUS
 62
   253
 10
-2142.355065122449
 20
434.0570692578422
 30
0.0
 11
-2142.408368144257
 21
433.4069048084611
 31
0.0
  0
LINE
  5
2D0
  8
0
  6
CONTINUOUS
 62
   253
 10
-2142.352545377009
 20
414.7928932188134
 30
0.0
 11
-2142.313324832314
 21
414.6685303876974
 31
0.0
  0
LINE
  5
2D1
  8
0
  6
CONTINUOUS
 62
   253
 10
-1527.731421564342
 20
414.5761204674887
 30
0.0
 11
-1527.686675167686
 21
414.6685303876974
 31
0.0
  0
LINE
  5
2D2
  8
0
  6
CONTINUOUS
 62
   253
 10
-1527.591349706489
 20
415.1173165676349
 30
0.0
 11
-1527.576621415159
 21
415.3049096779839
 31
0.0
  0
LINE
  5
2D3
  8
0
  6
CONTINUOUS
 62
     7
 10
-1826.623595412448
 20
-30.26093022953565
 30
0.0
 11
-1825.888826509667
 21
-30.22656974276935
 31
0.0
  0
LINE
  5
2D4
  8
0
  6
CONTINUOUS
 62
   253
 10
-2142.408650293511
 20
415.1173165676349
 30
0.0
 11
-2142.384732846205
 21
414.9444297669804
 31
0.0
  0
LINE
  5
2D5
  8
0
  6
CONTINUOUS
 62
   253
 10
-2141.697363072294
 20
436.1535990564268
 30
0.0
 11
-2141.865663647235
 21
435.9476833616272
 31
0.0
  0
LINE
  5
2D6
  8
0
  6
CONTINUOUS
 62
   253
 10
-2142.157697773137
 20
435.1852306246946
 30
0.0
 11
-2142.270447464668
 21
434.6573706204205
 31
0.0
  0
LINE
  5
2D7
  8
0
  6
CONTINUOUS
 62
   253
 10
-2142.408368144257
 20
433.4069048084611
 30
0.0
 11
-2142.42835172022
 21
432.7313309723247
 31
0.0
  0
LINE
  5
2D8
  8
0
  6
CONTINUOUS
 62
     7
 10
-1829.876404587552
 20
-29.57388385228952
 30
0.0
 11
-1830.611173490333
 21
-29.60824433905582
 31
0.0
  0
LINE
  5
2D9
  8
0
  6
CONTINUOUS
 62
     7
 10
-1818.198916437903
 20
-30.22850707175698
 30
0.0
 11
-1817.820601308719
 21
-29.921910639845
 31
0.0
  0
LINE
  5
2DA
  8
0
  6
CONTINUOUS
 62
     7
 10
-1817.510459822739
 20
-29.54791981956126
 30
0.0
 11
-1817.280182693921
 21
-29.12063211124526
 31
0.0
  0
LINE
  5
2DB
  8
0
  6
CONTINUOUS
 62
   253
 10
-1520.897369164702
 20
432.7981586671662
 30
0.0
 11
-1520.363084746573
 21
432.8181644511172
 31
0.0
  0
LINE
  5
2DC
  8
0
  6
CONTINUOUS
 62
   253
 10
-1520.228784969573
 20
433.5215242814678
 30
0.0
 11
-1520.428048696484
 21
434.1778846826845
 31
0.0
  0
LINE
  5
2DD
  8
0
  6
CONTINUOUS
 62
   253
 10
-1520.428048696484
 20
434.1778846826845
 30
0.0
 11
-1520.75149832657
 21
434.782810186776
 31
0.0
  0
LINE
  5
2DE
  8
0
  6
CONTINUOUS
 62
   253
 10
-1521.186708676475
 20
435.3130628314586
 30
0.0
 11
-1521.716961321158
 21
435.7482731813642
 31
0.0
  0
LINE
  5
2DF
  8
0
  6
CONTINUOUS
 62
     7
 10
-1851.368855293907
 20
-30.45615203135679
 30
0.0
 11
-1850.899006634627
 21
-30.59626449279784
 31
0.0
  0
LINE
  5
2E0
  8
0
  6
CONTINUOUS
 62
     7
 10
-1829.876404587552
 20
-30.26093022953565
 30
0.0
 11
-1829.079133868569
 21
-30.28208931281319
 31
0.0
  0
LINE
  5
2E1
  8
0
  6
CONTINUOUS
 62
     7
 10
-1824.081662558286
 20
-29.84486722686745
 30
0.0
 11
-1824.323511986827
 21
-29.77511507719526
 31
0.0
  0
LINE
  5
2E2
  8
0
  6
CONTINUOUS
 62
     7
 10
-1824.716254147714
 20
-29.71083112789048
 30
0.0
 11
-1825.244796179957
 21
-29.65448577507404
 31
0.0
  0
LINE
  5
2E3
  8
0
  6
CONTINUOUS
 62
     7
 10
-1832.176488013173
 20
-29.77511507719526
 30
0.0
 11
-1832.418337441714
 21
-29.84486722686744
 31
0.0
  0
LINE
  5
2E4
  8
0
  6
CONTINUOUS
 62
     7
 10
-1819.590751575599
 20
-30.64356294817777
 30
0.0
 11
-1819.100993365373
 21
-30.59626449279783
 31
0.0
  0
LINE
  5
2E5
  8
0
  6
CONTINUOUS
 62
     7
 10
-1831.255203820043
 20
-30.18032830675114
 30
0.0
 11
-1830.611173490333
 21
-30.22656974276935
 31
0.0
  0
LINE
  5
2E6
  8
0
  6
CONTINUOUS
 62
     7
 10
-1832.5
 20
-29.91740704091259
 30
0.0
 11
-1832.418337441714
 21
-29.98994685495773
 31
0.0
  0
LINE
  5
2E7
  8
0
  6
CONTINUOUS
 62
     7
 10
-1817.820601308719
 20
-29.921910639845
 30
0.0
 11
-1817.510459822739
 21
-29.54791981956126
 31
0.0
  0
LINE
  5
2E8
  8
0
  6
CONTINUOUS
 62
     7
 10
-1817.138450167144
 20
-28.65615402951271
 30
0.0
 11
-1817.09060481831
 21
-28.17199397178884
 31
0.0
  0
LINE
  5
2E9
  8
0
  6
CONTINUOUS
 62
     7
 10
-1850.899006634627
 20
-30.59626449279784
 30
0.0
 11
-1850.409248424401
 21
-30.64356294817777
 31
0.0
  0
LINE
  5
2EA
  8
0
  6
CONTINUOUS
 62
   253
 10
-1527.57164827978
 20
432.7313309723247
 30
0.0
 11
-1525.84347890751
 21
432.7385784313149
 31
0.0
  0
LINE
  5
2EB
  8
0
  6
CONTINUOUS
 62
   253
 10
-1528.477514937639
 20
436.230797905372
 30
0.0
 11
-1523.660828712289
 21
436.3384097286923
 31
0.0
  0
LINE
  5
2EC
  8
0
  6
CONTINUOUS
 62
     7
 10
-1830.611173490333
 20
-30.22656974276935
 30
0.0
 11
-1829.876404587552
 21
-30.26093022953565
 31
0.0
  0
LINE
  5
2ED
  8
0
  6
CONTINUOUS
 62
     7
 10
-1828.25
 20
-29.54558022092741
 30
0.0
 11
-1829.079133868569
 21
-29.55272476901198
 31
0.0
  0
LINE
  5
2EE
  8
0
  6
CONTINUOUS
 62
     7
 10
-1829.079133868569
 20
-29.55272476901198
 30
0.0
 11
-1829.876404587552
 21
-29.57388385228952
 31
0.0
  0
LINE
  5
2EF
  8
0
  6
CONTINUOUS
 62
   253
 10
-1524.261833055918
 20
432.7493000847345
 30
0.0
 11
-1522.880401410707
 21
432.7631319744171
 31
0.0
  0
LINE
  5
2F0
  8
0
  6
CONTINUOUS
 62
   253
 10
-1852.90939518169
 20
-28.17199397178885
 30
0.0
 11
-1850.728540609175
 21
-27.08991310630176
 31
0.0
  0
LINE
  5
2F1
  8
0
  6
CONTINUOUS
 62
     7
 10
-1520.500533148154
 20
439.5000153176088
 30
0.0
 11
-2149.499466851847
 21
439.5000153176088
 31
0.0
  0
LINE
  5
2F2
  8
0
  6
CONTINUOUS
 62
     7
 10
-1824.0
 20
-29.91740704091259
 30
0.0
 11
-1824.081662558286
 21
-29.84486722686745
 31
0.0
  0
LINE
  5
2F3
  8
0
  6
CONTINUOUS
 62
   253
 10
-1819.271459390825
 20
-27.08991310630176
 30
0.0
 11
-1817.09060481831
 21
-28.17199397178885
 31
0.0
  0
LINE
  5
2F4
  8
0
  6
CONTINUOUS
 62
     7
 10
-1852.489540177261
 20
-29.54791981956126
 30
0.0
 11
-1852.17939869128
 21
-29.921910639845
 31
0.0
  0
LINE
  5
2F5
  8
0
  6
CONTINUOUS
 62
   253
 10
-2146.339171287711
 20
436.3384097286923
 30
0.0
 11
-2141.522485062361
 21
436.230797905372
 31
0.0
  0
LINE
  5
2F6
  8
0
  6
CONTINUOUS
 62
     7
 10
-1831.255203820043
 20
-29.65448577507404
 30
0.0
 11
-1831.783745852286
 21
-29.71083112789048
 31
0.0
  0
LINE
  5
2F7
  8
0
  6
CONTINUOUS
 62
     7
 10
-1852.861549832855
 20
-28.65615402951271
 30
0.0
 11
-1852.719817306078
 21
-29.12063211124526
 31
0.0
  0
LINE
  5
2F8
  8
0
  6
CONTINUOUS
 62
   253
 10
-1521.746078168958
 20
432.7796045618495
 30
0.0
 11
-1520.897369164702
 21
432.7981586671662
 31
0.0
  0
LINE
  5
2F9
  8
0
  6
CONTINUOUS
 62
     7
 10
-1818.631144706092
 20
-30.45615203135679
 30
0.0
 11
-1818.198916437903
 21
-30.22850707175698
 31
0.0
  0
LINE
  5
2FA
  8
0
  6
CONTINUOUS
 62
     7
 10
-1826.623595412448
 20
-29.57388385228952
 30
0.0
 11
-1827.420866131431
 21
-29.55272476901198
 31
0.0
  0
LINE
  5
2FB
  8
0
  6
CONTINUOUS
 62
     7
 10
-1852.17939869128
 20
-29.921910639845
 30
0.0
 11
-1851.801083562097
 21
-30.22850707175698
 31
0.0
  0
LINE
  5
2FC
  8
0
  6
CONTINUOUS
 62
   253
 10
-1522.880401410707
 20
432.7631319744171
 30
0.0
 11
-1521.746078168958
 21
432.7796045618495
 31
0.0
  0
LINE
  5
2FD
  8
0
  6
CONTINUOUS
 62
     7
 10
-1824.081662558286
 20
-29.98994685495773
 30
0.0
 11
-1824.0
 21
-29.91740704091259
 31
0.0
  0
LINE
  5
2FE
  8
0
  6
CONTINUOUS
 62
     7
 10
-1520.49922311633
 20
439.5000153246515
 30
0.0
 11
-1520.500533148154
 21
439.5000153176088
 31
0.0
  0
LINE
  5
2FF
  8
0
  6
CONTINUOUS
 62
   253
 10
-1523.660828712289
 20
436.3384097286923
 30
0.0
 11
-1520.49922311633
 21
439.5000153246515
 31
0.0
  0
LINE
  5
300
  8
0
  6
CONTINUOUS
 62
     7
 10
-1830.611173490333
 20
-29.60824433905582
 30
0.0
 11
-1831.255203820043
 21
-29.65448577507404
 31
0.0
  0
LINE
  5
301
  8
0
  6
CONTINUOUS
 62
     7
 10
-1817.280182693921
 20
-29.12063211124526
 30
0.0
 11
-1817.138450167144
 21
-28.65615402951271
 31
0.0
  0
LINE
  5
302
  8
0
  6
CONTINUOUS
 62
     7
 10
-1851.801083562097
 20
-30.22850707175698
 30
0.0
 11
-1851.368855293907
 21
-30.45615203135679
 31
0.0
  0
LINE
  5
303
  8
0
  6
CONTINUOUS
 62
     7
 10
-1825.888826509667
 20
-29.60824433905582
 30
0.0
 11
-1826.623595412448
 21
-29.57388385228952
 31
0.0
  0
LINE
  5
304
  8
0
  6
CONTINUOUS
 62
     7
 10
-1852.719817306078
 20
-29.12063211124526
 30
0.0
 11
-1852.489540177261
 21
-29.54791981956126
 31
0.0
  0
LINE
  5
305
  8
0
  6
CONTINUOUS
 62
   253
 10
-2149.50077688367
 20
439.5000153246515
 30
0.0
 11
-2146.339171287711
 21
436.3384097286923
 31
0.0
  0
LINE
  5
306
  8
0
  6
CONTINUOUS
 62
     7
 10
-1831.783745852286
 20
-29.71083112789048
 30
0.0
 11
-1832.176488013173
 21
-29.77511507719526
 31
0.0
  0
LINE
  5
307
  8
0
  6
CONTINUOUS
 62
     7
 10
-1852.90939518169
 20
-28.17199397178884
 30
0.0
 11
-1852.861549832855
 21
-28.65615402951271
 31
0.0
  0
LINE
  5
308
  8
0
  6
CONTINUOUS
 62
     7
 10
-1817.09060481831
 20
-28.17199397178885
 30
0.0
 11
-1817.09060481831
 21
-23.47959444200956
 31
0.0
  0
LINE
  5
309
  8
0
  6
CONTINUOUS
 62
     7
 10
-1825.244796179957
 20
-29.65448577507404
 30
0.0
 11
-1825.888826509667
 21
-29.60824433905582
 31
0.0
  0
LINE
  5
30A
  8
0
  6
CONTINUOUS
 62
   253
 10
-1520.363084746573
 20
432.8181644511172
 30
0.0
 11
-1520.161361779242
 21
432.838942795645
 31
0.0
  0
LINE
  5
30B
  8
0
  6
CONTINUOUS
 62
   253
 10
-1520.161361779242
 20
432.838942795645
 30
0.0
 11
-1520.228784969573
 21
433.5215242814678
 31
0.0
  0
LINE
  5
30C
  8
0
  6
CONTINUOUS
 62
   253
 10
-1520.75149832657
 20
434.782810186776
 30
0.0
 11
-1521.186708676475
 21
435.3130628314586
 31
0.0
  0
LINE
  5
30D
  8
0
  6
CONTINUOUS
 62
     7
 10
-1832.176488013173
 20
-30.05969900462991
 30
0.0
 11
-1831.783745852286
 21
-30.12398295393469
 31
0.0
  0
LINE
  5
30E
  8
0
  6
CONTINUOUS
 62
     7
 10
-1824.323511986827
 20
-29.77511507719526
 30
0.0
 11
-1824.716254147714
 21
-29.71083112789048
 31
0.0
  0
LINE
  5
30F
  8
0
  6
CONTINUOUS
 62
     7
 10
-1819.100993365373
 20
-30.59626449279783
 30
0.0
 11
-1818.631144706092
 21
-30.45615203135679
 31
0.0
  0
LINE
  5
310
  8
0
  6
CONTINUOUS
 62
     7
 10
-1852.90939518169
 20
-28.17199397178885
 30
0.0
 11
-1852.90939518169
 21
-23.47959444200956
 31
0.0
  0
LINE
  5
311
  8
0
  6
CONTINUOUS
 62
     7
 10
-1832.418337441714
 20
-29.98994685495773
 30
0.0
 11
-1832.176488013173
 21
-30.05969900462991
 31
0.0
  0
LINE
  5
312
  8
0
  6
CONTINUOUS
 62
     7
 10
-1829.079133868569
 20
-30.28208931281319
 30
0.0
 11
-1828.25
 21
-30.28923386089776
 31
0.0
  0
LINE
  5
313
  8
0
  6
CONTINUOUS
 62
     7
 10
-1827.420866131431
 20
-29.55272476901198
 30
0.0
 11
-1828.25
 21
-29.54558022092741
 31
0.0
  0
LINE
  5
314
  8
0
  6
CONTINUOUS
 62
     7
 10
-2149.499466851847
 20
439.5000153176088
 30
0.0
 11
-2149.50077688367
 21
439.5000153246515
 31
0.0
  0
LINE
  5
315
  8
0
  6
CONTINUOUS
 62
     7
 10
-1832.418337441714
 20
-29.84486722686744
 30
0.0
 11
-1832.5
 21
-29.91740704091259
 31
0.0
  0
LINE
  5
316
  8
0
  6
CONTINUOUS
 62
   253
 10
-1525.84347890751
 20
432.7385784313149
 30
0.0
 11
-1524.261833055918
 21
432.7493000847345
 31
0.0
  0
LINE
  5
317
  8
0
  6
CONTINUOUS
 62
     7
 10
-1831.783745852286
 20
-30.12398295393469
 30
0.0
 11
-1831.255203820043
 21
-30.18032830675114
 31
0.0
  0
LINE
  5
318
  8
0
  6
CONTINUOUS
 62
   253
 10
-2144.571026183469
 20
-19.5761204674887
 30
0.0
 11
-2144.635193766902
 21
-19.66853038769743
 31
0.0
  0
LINE
  5
319
  8
0
  6
CONTINUOUS
 62
   253
 10
-2144.635193766902
 20
-19.66853038769743
 30
0.0
 11
-2144.69143712418
 21
-19.79289321881342
 31
0.0
  0
LINE
  5
31A
  8
0
  6
CONTINUOUS
 62
   253
 10
-2149.819426427656
 20
415.3049096779839
 30
0.0
 11
-2149.762529346785
 21
415.1173165676349
 31
0.0
  0
LINE
  5
31B
  8
0
  6
CONTINUOUS
 62
   253
 10
-1528.169084416757
 20
-20.49999999999999
 30
0.0
 11
-1817.887425248832
 21
-20.49999999999999
 31
0.0
  0
LINE
  5
31C
  8
0
  6
CONTINUOUS
 62
   253
 10
-1528.169084416757
 20
-19.49999999999999
 30
0.0
 11
-1528.169084416757
 21
-20.49999999999999
 31
0.0
  0
LINE
  5
31D
  8
0
  6
CONTINUOUS
 62
   253
 10
-2144.69143712418
 20
-19.79289321881342
 30
0.0
 11
-2144.737594854623
 21
-19.94442976698036
 31
0.0
  0
LINE
  5
31E
  8
0
  6
CONTINUOUS
 62
   253
 10
-2141.830915583243
 20
-19.49999999999999
 30
0.0
 11
-2141.830915583243
 21
-20.49999999999999
 31
0.0
  0
LINE
  5
31F
  8
0
  6
CONTINUOUS
 62
   253
 10
-1520.180573572344
 20
415.3049096779839
 30
0.0
 11
-1520.161361779242
 21
415.5
 31
0.0
  0
LINE
  5
320
  8
0
  6
CONTINUOUS
 62
   253
 10
-2145.738166944082
 20
432.7493000847345
 30
0.0
 11
-2144.15652109249
 21
432.7385784313149
 31
0.0
  0
LINE
  5
321
  8
0
  6
CONTINUOUS
 62
   253
 10
-2144.737594854623
 20
-19.94442976698036
 30
0.0
 11
-2144.771893142535
 21
-20.11731656763486
 31
0.0
  0
LINE
  5
322
  8
0
  6
CONTINUOUS
 62
     7
 10
-1521.161209474398
 20
414.5
 30
0.0
 11
-1527.830467324883
 21
414.5
 31
0.0
  0
LINE
  5
323
  8
0
  6
CONTINUOUS
 62
   253
 10
-2149.545789611001
 20
414.7928932188134
 30
0.0
 11
-2149.394276142584
 21
414.6685303876974
 31
0.0
  0
LINE
  5
324
  8
0
  6
CONTINUOUS
 62
   253
 10
-1527.57164827978
 20
415.5
 30
0.0
 11
-1520.161361779242
 21
415.5
 31
0.0
  0
LINE
  5
325
  8
0
  6
CONTINUOUS
 62
   253
 10
-2149.829697144494
 20
-37.830001719381
 30
0.0
 11
-2141.830915583243
 21
-37.75282477519784
 31
0.0
  0
LINE
  5
326
  8
0
  6
CONTINUOUS
 62
   253
 10
-1528.169084416757
 20
-41.25229170824521
 30
0.0
 11
-2141.830915583243
 21
-41.25229170824521
 31
0.0
  0
LINE
  5
327
  8
0
  6
CONTINUOUS
 62
   253
 10
-1521.716961321158
 20
435.7482731813642
 30
0.0
 11
-1522.32188682525
 21
436.0717228114501
 31
0.0
  0
LINE
  5
328
  8
0
  6
CONTINUOUS
 62
   253
 10
-1520.329866498945
 20
414.9444297669804
 30
0.0
 11
-1520.237470653214
 21
415.1173165676349
 31
0.0
  0
LINE
  5
329
  8
0
  6
CONTINUOUS
 62
   253
 10
-2144.771893142535
 20
-20.11731656763486
 30
0.0
 11
-2144.793013923948
 21
-20.30490967798381
 31
0.0
  0
LINE
  5
32A
  8
0
  6
CONTINUOUS
 62
     7
 10
-2144.428991794596
 20
-19.49999999999999
 30
0.0
 11
-2141.830915583243
 21
-19.49999999999999
 31
0.0
  0
LINE
  5
32B
  8
0
  6
CONTINUOUS
 62
   253
 10
-1522.32188682525
 20
436.0717228114501
 30
0.0
 11
-1522.978247226466
 21
436.2709865383607
 31
0.0
  0
LINE
  5
32C
  8
0
  6
CONTINUOUS
 62
   253
 10
-1520.161361779242
 20
432.838942795645
 30
0.0
 11
-1520.161361779242
 21
415.5
 31
0.0
  0
LINE
  5
32D
  8
0
  6
CONTINUOUS
 62
   253
 10
-2149.838638220758
 20
432.838942795645
 30
0.0
 11
-2149.636915253427
 21
432.8181644511172
 31
0.0
  0
LINE
  5
32E
  8
0
  6
CONTINUOUS
 62
   253
 10
-2147.021752773534
 20
436.2709865383607
 30
0.0
 11
-2147.678113174751
 21
436.07172281145
 31
0.0
  0
LINE
  5
32F
  8
0
  6
CONTINUOUS
 62
   253
 10
-1522.978247226466
 20
436.2709865383607
 30
0.0
 11
-1523.660828712289
 21
436.3384097286923
 31
0.0
  0
LINE
  5
330
  8
0
  6
CONTINUOUS
 62
   253
 10
-2148.253921831042
 20
432.7796045618495
 30
0.0
 11
-2147.119598589293
 21
432.7631319744171
 31
0.0
  0
LINE
  5
331
  8
0
  6
CONTINUOUS
 62
   253
 10
-1521.161209474398
 20
414.5
 30
0.0
 11
-1520.966148865583
 21
414.5192147195968
 31
0.0
  0
LINE
  5
332
  8
0
  6
CONTINUOUS
 62
   253
 10
-1520.778584326573
 20
414.5761204674887
 30
0.0
 11
-1520.605723857416
 21
414.6685303876974
 31
0.0
  0
LINE
  5
333
  8
0
  6
CONTINUOUS
 62
   253
 10
-2149.838638220758
 20
415.5
 30
0.0
 11
-2149.838638220758
 21
432.838942795645
 31
0.0
  0
LINE
  5
334
  8
0
  6
CONTINUOUS
 62
   253
 10
-2149.838638220758
 20
415.5
 30
0.0
 11
-2149.819426427656
 21
415.3049096779839
 31
0.0
  0
LINE
  5
335
  8
0
  6
CONTINUOUS
 62
   253
 10
-2149.670133501055
 20
414.9444297669804
 30
0.0
 11
-2149.545789611001
 21
414.7928932188134
 31
0.0
  0
LINE
  5
336
  8
0
  6
CONTINUOUS
 62
   253
 10
-2141.830915583243
 20
-37.75282477519784
 30
0.0
 11
-1528.169084416757
 21
-37.75282477519784
 31
0.0
  0
LINE
  5
337
  8
0
  6
CONTINUOUS
 62
   253
 10
-1520.966148865583
 20
414.5192147195968
 30
0.0
 11
-1520.778584326573
 21
414.5761204674887
 31
0.0
  0
LINE
  5
338
  8
0
  6
CONTINUOUS
 62
   253
 10
-2141.830915583243
 20
-20.49999999999999
 30
0.0
 11
-2141.830915583243
 21
-37.75282477519784
 31
0.0
  0
LINE
  5
339
  8
0
  6
CONTINUOUS
 62
   253
 10
-2148.813291323524
 20
435.3130628314586
 30
0.0
 11
-2149.24850167343
 21
434.782810186776
 31
0.0
  0
LINE
  5
33A
  8
0
  6
CONTINUOUS
 62
   253
 10
-2149.762529346785
 20
415.1173165676349
 30
0.0
 11
-2149.670133501055
 21
414.9444297669804
 31
0.0
  0
LINE
  5
33B
  8
0
  6
CONTINUOUS
 62
   253
 10
-2149.033851134417
 20
414.5192147195968
 30
0.0
 11
-2148.838790525602
 21
414.5
 31
0.0
  0
LINE
  5
33C
  8
0
  6
CONTINUOUS
 62
   253
 10
-2149.636915253427
 20
432.8181644511172
 30
0.0
 11
-2149.102630835298
 21
432.7981586671662
 31
0.0
  0
LINE
  5
33D
  8
0
  6
CONTINUOUS
 62
   253
 10
-1851.887425248832
 20
-20.49999999999999
 30
0.0
 11
-2141.830915583243
 21
-20.49999999999999
 31
0.0
  0
LINE
  5
33E
  8
0
  6
CONTINUOUS
 62
   253
 10
-2144.15652109249
 20
432.7385784313149
 30
0.0
 11
-2142.428351720219
 21
432.7313309723247
 31
0.0
  0
LINE
  5
33F
  8
0
  6
CONTINUOUS
 62
   253
 10
-2147.119598589293
 20
432.7631319744171
 30
0.0
 11
-2145.738166944082
 21
432.7493000847345
 31
0.0
  0
LINE
  5
340
  8
0
  6
CONTINUOUS
 62
   253
 10
-2148.283038678842
 20
435.7482731813642
 30
0.0
 11
-2148.813291323524
 21
435.3130628314586
 31
0.0
  0
LINE
  5
341
  8
0
  6
CONTINUOUS
 62
   253
 10
-2149.771215030427
 20
433.5215242814678
 30
0.0
 11
-2149.838638220758
 21
432.838942795645
 31
0.0
  0
LINE
  5
342
  8
0
  6
CONTINUOUS
 62
   253
 10
-2147.678113174751
 20
436.07172281145
 30
0.0
 11
-2148.283038678842
 21
435.7482731813642
 31
0.0
  0
LINE
  5
343
  8
0
  6
CONTINUOUS
 62
   253
 10
-2149.24850167343
 20
434.782810186776
 30
0.0
 11
-2149.571951303516
 21
434.1778846826845
 31
0.0
  0
LINE
  5
344
  8
0
  6
CONTINUOUS
 62
   253
 10
-1520.605723857416
 20
414.6685303876974
 30
0.0
 11
-1520.454210388999
 21
414.7928932188134
 31
0.0
  0
LINE
  5
345
  8
0
  6
CONTINUOUS
 62
   253
 10
-2149.838638220758
 20
415.5
 30
0.0
 11
-2142.428351720219
 21
415.5
 31
0.0
  0
LINE
  5
346
  8
0
  6
CONTINUOUS
 62
   253
 10
-2149.221415673427
 20
414.5761204674887
 30
0.0
 11
-2149.033851134417
 21
414.5192147195968
 31
0.0
  0
LINE
  5
347
  8
0
  6
CONTINUOUS
 62
   253
 10
-2149.571951303516
 20
434.1778846826845
 30
0.0
 11
-2149.771215030427
 21
433.5215242814678
 31
0.0
  0
LINE
  5
348
  8
0
  6
CONTINUOUS
 62
   253
 10
-1528.169084416757
 20
-37.75282477519784
 30
0.0
 11
-1528.169084416757
 21
-20.49999999999999
 31
0.0
  0
LINE
  5
349
  8
0
  6
CONTINUOUS
 62
   253
 10
-2149.394276142584
 20
414.6685303876974
 30
0.0
 11
-2149.221415673427
 21
414.5761204674887
 31
0.0
  0
LINE
  5
34A
  8
0
  6
CONTINUOUS
 62
   253
 10
-2149.829697144494
 20
-37.830001719381
 30
0.0
 11
-2149.829697144494
 21
-20.49999999999999
 31
0.0
  0
LINE
  5
34B
  8
0
  6
CONTINUOUS
 62
   253
 10
-2149.102630835298
 20
432.7981586671662
 30
0.0
 11
-2148.253921831042
 21
432.7796045618495
 31
0.0
  0
LINE
  5
34C
  8
0
  6
CONTINUOUS
 62
   253
 10
-2146.339171287711
 20
436.3384097286923
 30
0.0
 11
-2147.021752773534
 21
436.2709865383607
 31
0.0
  0
LINE
  5
34D
  8
0
  6
CONTINUOUS
 62
   253
 10
-1520.237470653214
 20
415.1173165676349
 30
0.0
 11
-1520.180573572344
 21
415.3049096779839
 31
0.0
  0
LINE
  5
34E
  8
0
  6
CONTINUOUS
 62
   253
 10
-2144.800145539075
 20
-20.49999999999999
 30
0.0
 11
-2149.829697144494
 21
-20.49999999999999
 31
0.0
  0
LINE
  5
34F
  8
0
  6
CONTINUOUS
 62
   253
 10
-2141.830915583243
 20
-20.49999999999999
 30
0.0
 11
-2144.800145539075
 21
-20.49999999999999
 31
0.0
  0
LINE
  5
350
  8
0
  6
CONTINUOUS
 62
     7
 10
-1817.887425248739
 20
-19.49999999999999
 30
0.0
 11
-1528.169084416757
 21
-19.49999999999999
 31
0.0
  0
LINE
  5
351
  8
0
  6
CONTINUOUS
 62
   253
 10
-2141.830915583243
 20
-41.25229170824521
 30
0.0
 11
-2141.830915583243
 21
-37.75282477519784
 31
0.0
  0
LINE
  5
352
  8
0
  6
CONTINUOUS
 62
     7
 10
-2142.169532675117
 20
414.5
 30
0.0
 11
-2148.838790525602
 21
414.5
 31
0.0
  0
LINE
  5
353
  8
0
  6
CONTINUOUS
 62
   253
 10
-1520.454210388999
 20
414.7928932188134
 30
0.0
 11
-1520.329866498945
 21
414.9444297669804
 31
0.0
  0
LINE
  5
354
  8
0
  6
CONTINUOUS
 62
     7
 10
-2141.830915583243
 20
-19.49999999999999
 30
0.0
 11
-1851.887425248739
 21
-19.49999999999999
 31
0.0
  0
LINE
  5
355
  8
0
  6
CONTINUOUS
 62
   253
 10
-1528.169084416757
 20
-41.25229170824521
 30
0.0
 11
-1528.169084416757
 21
-37.75282477519784
 31
0.0
  0
LINE
  5
356
  8
0
  6
CONTINUOUS
 62
   253
 10
-2144.428991794596
 20
-19.49999999999999
 30
0.0
 11
-2144.501400298124
 21
-19.51921471959676
 31
0.0
  0
LINE
  5
357
  8
0
  6
CONTINUOUS
 62
   253
 10
-2144.501400298124
 20
-19.51921471959676
 30
0.0
 11
-2144.571026183469
 21
-19.5761204674887
 31
0.0
  0
LINE
  5
358
  8
0
  6
CONTINUOUS
 62
   253
 10
-2148.33850081778
 20
411.4999999999999
 30
0.0
 11
-2148.319289024678
 21
411.3049096779838
 31
0.0
  0
LINE
  5
359
  8
0
  6
CONTINUOUS
 62
   253
 10
-2148.319289024678
 20
411.3049096779838
 30
0.0
 11
-2148.262391943807
 21
411.1173165676349
 31
0.0
  0
LINE
  5
35A
  8
0
  6
CONTINUOUS
 62
   253
 10
-2148.262391943807
 20
411.1173165676349
 30
0.0
 11
-2148.169996098077
 21
410.9444297669804
 31
0.0
  0
LINE
  5
35B
  8
0
  6
CONTINUOUS
 62
   253
 10
-2148.045652208022
 20
410.7928932188134
 30
0.0
 11
-2147.894138739605
 21
410.6685303876974
 31
0.0
  0
LINE
  5
35C
  8
0
  6
CONTINUOUS
 62
   253
 10
-2147.894138739605
 20
410.6685303876974
 30
0.0
 11
-2147.721278270448
 21
410.5761204674886
 31
0.0
  0
LINE
  5
35D
  8
0
  6
CONTINUOUS
 62
   253
 10
-2147.721278270448
 20
410.5761204674886
 30
0.0
 11
-2147.533713731439
 21
410.5192147195967
 31
0.0
  0
LINE
  5
35E
  8
0
  6
CONTINUOUS
 62
   253
 10
-2148.169996098077
 20
410.9444297669804
 30
0.0
 11
-2148.045652208022
 21
410.7928932188134
 31
0.0
  0
LINE
  5
35F
  8
0
  6
CONTINUOUS
 62
   253
 10
-2148.804350247261
 20
-40.30412175519459
 30
0.0
 11
-2148.274097602578
 21
-40.73933210510021
 31
0.0
  0
LINE
  5
360
  8
0
  6
CONTINUOUS
 62
   253
 10
-1520.338807575209
 20
-19.94442976698038
 30
0.0
 11
-1520.463151465263
 21
-19.79289321881344
 31
0.0
  0
LINE
  5
361
  8
0
  6
CONTINUOUS
 62
   253
 10
-2147.533713731439
 20
410.5192147195967
 30
0.0
 11
-2147.338653122623
 21
410.4999999999999
 31
0.0
  0
LINE
  5
362
  8
0
  6
CONTINUOUS
 62
   253
 10
-1521.19564975274
 20
-40.3041217551946
 30
0.0
 11
-1520.760439402834
 21
-39.77386911051202
 31
0.0
  0
LINE
  5
363
  8
0
  6
CONTINUOUS
 62
   253
 10
-1520.436989772748
 20
-39.16894360642047
 30
0.0
 11
-1520.237726045837
 21
-38.51258320520382
 31
0.0
  0
LINE
  5
364
  8
0
  6
CONTINUOUS
 62
   253
 10
-1525.364806233097
 20
-19.66853038769743
 30
0.0
 11
-1525.428973816531
 21
-19.5761204674887
 31
0.0
  0
LINE
  5
365
  8
0
  6
CONTINUOUS
 62
   253
 10
-2148.274097602578
 20
-40.73933210510021
 30
0.0
 11
-2147.669172098487
 21
-41.06278173518604
 31
0.0
  0
LINE
  5
366
  8
0
  6
CONTINUOUS
 62
   253
 10
-1520.975089941847
 20
-19.51921471959676
 30
0.0
 11
-1521.170150550662
 21
-19.49999999999999
 31
0.0
  0
LINE
  5
367
  8
0
  6
CONTINUOUS
 62
   253
 10
-1528.169084416757
 20
-37.75282477519784
 30
0.0
 11
-1520.170302855506
 21
-37.830001719381
 31
0.0
  0
LINE
  5
368
  8
0
  6
CONTINUOUS
 62
     7
 10
-1528.169084416757
 20
-19.49999999999999
 30
0.0
 11
-1525.571008205403
 21
-19.49999999999999
 31
0.0
  0
LINE
  5
369
  8
0
  6
CONTINUOUS
 62
   253
 10
-1520.760439402834
 20
-39.77386911051202
 30
0.0
 11
-1520.436989772748
 21
-39.16894360642047
 31
0.0
  0
LINE
  5
36A
  8
0
  6
CONTINUOUS
 62
   253
 10
-1520.170302855506
 20
-20.49999999999999
 30
0.0
 11
-1520.170302855506
 21
-37.830001719381
 31
0.0
  0
LINE
  5
36B
  8
0
  6
CONTINUOUS
 62
   253
 10
-1525.199854460924
 20
-20.49999999999999
 30
0.0
 11
-1528.169084416757
 21
-20.49999999999999
 31
0.0
  0
LINE
  5
36C
  8
0
  6
CONTINUOUS
 62
   253
 10
-1520.237726045837
 20
-38.51258320520382
 30
0.0
 11
-1520.170302855506
 21
-37.83000171938102
 31
0.0
  0
LINE
  5
36D
  8
0
  6
CONTINUOUS
 62
   253
 10
-1523.669769788553
 20
-41.32946865242837
 30
0.0
 11
-1528.169084416757
 21
-41.25229170824521
 31
0.0
  0
LINE
  5
36E
  8
0
  6
CONTINUOUS
 62
   253
 10
-1525.428973816531
 20
-19.5761204674887
 30
0.0
 11
-1525.498599701876
 21
-19.51921471959676
 31
0.0
  0
LINE
  5
36F
  8
0
  6
CONTINUOUS
 62
   253
 10
-2144.793013923948
 20
-20.30490967798381
 30
0.0
 11
-2144.800145539075
 21
-20.49999999999993
 31
0.0
  0
LINE
  5
370
  8
0
  6
CONTINUOUS
 62
   253
 10
-1520.170302855506
 20
-20.49999999999999
 30
0.0
 11
-1525.199854460925
 21
-20.49999999999999
 31
0.0
  0
LINE
  5
371
  8
0
  6
CONTINUOUS
 62
   253
 10
-1522.330827901514
 20
-41.06278173518604
 30
0.0
 11
-1521.725902397422
 21
-40.73933210510022
 31
0.0
  0
LINE
  5
372
  8
0
  6
CONTINUOUS
 62
   253
 10
-1525.30856287582
 20
-19.79289321881342
 30
0.0
 11
-1525.364806233097
 21
-19.66853038769743
 31
0.0
  0
LINE
  5
373
  8
0
  6
CONTINUOUS
 62
   253
 10
-2141.830915583243
 20
-41.25229170824521
 30
0.0
 11
-2146.330230211447
 21
-41.32946865242837
 31
0.0
  0
LINE
  5
374
  8
0
  6
CONTINUOUS
 62
   253
 10
-2149.563010227252
 20
-39.16894360642047
 30
0.0
 11
-2149.239560597166
 21
-39.77386911051201
 31
0.0
  0
LINE
  5
375
  8
0
  6
CONTINUOUS
 62
   253
 10
-1520.170302855506
 20
-20.49999999999999
 30
0.0
 11
-1520.189514648608
 21
-20.30490967798386
 31
0.0
  0
LINE
  5
376
  8
0
  6
CONTINUOUS
 62
   253
 10
-2147.01281169727
 20
-41.26204546209672
 30
0.0
 11
-2146.330230211447
 21
-41.32946865242836
 31
0.0
  0
LINE
  5
377
  8
0
  6
CONTINUOUS
 62
   253
 10
-1525.498599701876
 20
-19.51921471959676
 30
0.0
 11
-1525.571008205404
 21
-19.49999999999999
 31
0.0
  0
LINE
  5
378
  8
0
  6
CONTINUOUS
 62
   253
 10
-1520.463151465263
 20
-19.79289321881344
 30
0.0
 11
-1520.61466493368
 21
-19.66853038769744
 31
0.0
  0
LINE
  5
379
  8
0
  6
CONTINUOUS
 62
   253
 10
-1525.262405145377
 20
-19.94442976698036
 30
0.0
 11
-1525.30856287582
 21
-19.79289321881342
 31
0.0
  0
LINE
  5
37A
  8
0
  6
CONTINUOUS
 62
   253
 10
-1520.787525402837
 20
-19.5761204674887
 30
0.0
 11
-1520.975089941847
 21
-19.51921471959676
 31
0.0
  0
LINE
  5
37B
  8
0
  6
CONTINUOUS
 62
   253
 10
-1520.189514648608
 20
-20.30490967798386
 30
0.0
 11
-1520.246411729478
 21
-20.1173165676349
 31
0.0
  0
LINE
  5
37C
  8
0
  6
CONTINUOUS
 62
   253
 10
-1523.669769788553
 20
-41.32946865242836
 30
0.0
 11
-1522.98718830273
 21
-41.26204546209672
 31
0.0
  0
LINE
  5
37D
  8
0
  6
CONTINUOUS
 62
   253
 10
-1521.725902397422
 20
-40.73933210510022
 30
0.0
 11
-1521.19564975274
 21
-40.3041217551946
 31
0.0
  0
LINE
  5
37E
  8
0
  6
CONTINUOUS
 62
   253
 10
-2148.829849449337
 20
-19.49999999999999
 30
0.0
 11
-2149.024910058153
 21
-19.51921471959676
 31
0.0
  0
LINE
  5
37F
  8
0
  6
CONTINUOUS
 62
   253
 10
-2149.829697144494
 20
-37.83000171938101
 30
0.0
 11
-2149.762273954163
 21
-38.51258320520382
 31
0.0
  0
LINE
  5
380
  8
0
  6
CONTINUOUS
 62
     7
 10
-2148.829849449337
 20
-19.49999999999999
 30
0.0
 11
-2144.428991794596
 21
-19.49999999999999
 31
0.0
  0
LINE
  5
381
  8
0
  6
CONTINUOUS
 62
   253
 10
-2149.024910058153
 20
-19.51921471959676
 30
0.0
 11
-2149.212474597162
 21
-19.5761204674887
 31
0.0
  0
LINE
  5
382
  8
0
  6
CONTINUOUS
 62
   253
 10
-1520.246411729478
 20
-20.1173165676349
 30
0.0
 11
-1520.338807575209
 21
-19.94442976698038
 31
0.0
  0
LINE
  5
383
  8
0
  6
CONTINUOUS
 62
     7
 10
-1525.571008205403
 20
-19.49999999999999
 30
0.0
 11
-1521.170150550662
 21
-19.49999999999999
 31
0.0
  0
LINE
  5
384
  8
0
  6
CONTINUOUS
 62
   253
 10
-2149.385335066319
 20
-19.66853038769744
 30
0.0
 11
-2149.536848534736
 21
-19.79289321881344
 31
0.0
  0
LINE
  5
385
  8
0
  6
CONTINUOUS
 62
   253
 10
-2149.753588270521
 20
-20.1173165676349
 30
0.0
 11
-2149.810485351392
 21
-20.30490967798386
 31
0.0
  0
LINE
  5
386
  8
0
  6
CONTINUOUS
 62
   253
 10
-2149.536848534736
 20
-19.79289321881344
 30
0.0
 11
-2149.661192424791
 21
-19.94442976698039
 31
0.0
  0
LINE
  5
387
  8
0
  6
CONTINUOUS
 62
   253
 10
-1525.206986076052
 20
-20.30490967798382
 30
0.0
 11
-1525.228106857465
 21
-20.11731656763486
 31
0.0
  0
LINE
  5
388
  8
0
  6
CONTINUOUS
 62
   253
 10
-2147.669172098487
 20
-41.06278173518604
 30
0.0
 11
-2147.01281169727
 21
-41.26204546209672
 31
0.0
  0
LINE
  5
389
  8
0
  6
CONTINUOUS
 62
   253
 10
-2149.810485351392
 20
-20.30490967798386
 30
0.0
 11
-2149.829697144494
 21
-20.49999999999999
 31
0.0
  0
LINE
  5
38A
  8
0
  6
CONTINUOUS
 62
   253
 10
-1528.660433048315
 20
411.4999999999999
 30
0.0
 11
-1528.660433048315
 21
414.4999999999999
 31
0.0
  0
LINE
  5
38B
  8
0
  6
CONTINUOUS
 62
   253
 10
-1522.98718830273
 20
-41.26204546209672
 30
0.0
 11
-1522.330827901514
 21
-41.06278173518604
 31
0.0
  0
LINE
  5
38C
  8
0
  6
CONTINUOUS
 62
   253
 10
-1525.199854460925
 20
-20.49999999999994
 30
0.0
 11
-1525.206986076052
 21
-20.30490967798382
 31
0.0
  0
LINE
  5
38D
  8
0
  6
CONTINUOUS
 62
   253
 10
-2149.239560597166
 20
-39.77386911051201
 30
0.0
 11
-2148.804350247261
 21
-40.30412175519459
 31
0.0
  0
LINE
  5
38E
  8
0
  6
CONTINUOUS
 62
   253
 10
-2141.339566951685
 20
411.4999999999999
 30
0.0
 11
-1528.660433048314
 21
411.4999999999999
 31
0.0
  0
LINE
  5
38F
  8
0
  6
CONTINUOUS
 62
   253
 10
-1520.61466493368
 20
-19.66853038769744
 30
0.0
 11
-1520.787525402837
 21
-19.5761204674887
 31
0.0
  0
LINE
  5
390
  8
0
  6
CONTINUOUS
 62
   253
 10
-2148.33850081778
 20
411.4999999999999
 30
0.0
 11
-2141.339566951685
 21
411.4999999999999
 31
0.0
  0
LINE
  5
391
  8
0
  6
CONTINUOUS
 62
   253
 10
-1525.228106857465
 20
-20.11731656763486
 30
0.0
 11
-1525.262405145377
 21
-19.94442976698036
 31
0.0
  0
LINE
  5
392
  8
0
  6
CONTINUOUS
 62
   253
 10
-2149.661192424791
 20
-19.94442976698039
 30
0.0
 11
-2149.753588270521
 21
-20.1173165676349
 31
0.0
  0
LINE
  5
393
  8
0
  6
CONTINUOUS
 62
   253
 10
-2149.762273954163
 20
-38.51258320520382
 30
0.0
 11
-2149.563010227252
 21
-39.16894360642047
 31
0.0
  0
LINE
  5
394
  8
0
  6
CONTINUOUS
 62
   253
 10
-2149.212474597162
 20
-19.5761204674887
 30
0.0
 11
-2149.385335066319
 21
-19.66853038769744
 31
0.0
  0
LINE
  5
395
  8
0
  6
CONTINUOUS
 62
   253
 10
-2141.339566951685
 20
414.4999999999999
 30
0.0
 11
-2141.339566951685
 21
411.4999999999999
 31
0.0
  0
LINE
  5
396
  8
0
  6
CONTINUOUS
 62
   253
 10
-2148.33850081778
 20
411.4999999999999
 30
0.0
 11
-2148.33850081778
 21
414.5
 31
0.0
  0
LINE
  5
397
  8
0
  6
CONTINUOUS
 62
     7
 10
-2141.339566951685
 20
410.4999999999999
 30
0.0
 11
-2147.338653122623
 21
410.4999999999999
 31
0.0
  0
LINE
  5
398
  8
0
  6
CONTINUOUS
 62
     7
 10
-2149.50077688367
 20
-44.5000153246515
 30
0.0
 11
-2149.499466851846
 21
-44.50001531760878
 31
0.0
  0
LINE
  5
399
  8
0
  6
CONTINUOUS
 62
     7
 10
-1517.000533148154
 20
415.460981177401
 30
0.0
 11
-1516.999749625636
 21
415.5
 31
0.0
  0
LINE
  5
39A
  8
0
  6
CONTINUOUS
 62
     7
 10
-1517.999923835978
 20
414.5
 30
0.0
 11
-1517.809591678619
 21
414.518274629071
 31
0.0
  0
LINE
  5
39B
  8
0
  6
CONTINUOUS
 62
     7
 10
-1517.809591678619
 20
414.518274629071
 30
0.0
 11
-1517.626216020412
 21
414.5724305921485
 31
0.0
  0
LINE
  5
39C
  8
0
  6
CONTINUOUS
 62
     7
 10
-1517.626216020412
 20
414.5724305921485
 30
0.0
 11
-1517.456499105625
 21
414.6604885289582
 31
0.0
  0
LINE
  5
39D
  8
0
  6
CONTINUOUS
 62
   253
 10
-2146.330230211447
 20
-41.32946865242837
 30
0.0
 11
-2149.50077688367
 21
-44.5000153246515
 31
0.0
  0
LINE
  5
39E
  8
0
  6
CONTINUOUS
 62
   253
 10
-1521.737608056193
 20
411.1173165676349
 30
0.0
 11
-1521.680710975322
 21
411.3049096779839
 31
0.0
  0
LINE
  5
39F
  8
0
  6
CONTINUOUS
 62
   253
 10
-1516.999749625636
 20
-20.49999999999999
 30
0.0
 11
-1519.717525117257
 21
-20.49999999999999
 31
0.0
  0
LINE
  5
3A0
  8
0
  6
CONTINUOUS
 62
   253
 10
-1520.49922311633
 20
-44.50001532465148
 30
0.0
 11
-1523.669769788553
 21
-41.32946865242837
 31
0.0
  0
LINE
  5
3A1
  8
0
  6
CONTINUOUS
 62
   253
 10
-2153.000250379223
 20
-41.00055495410923
 30
0.0
 11
-2149.829697144495
 21
-37.830001719381
 31
0.0
  0
LINE
  5
3A2
  8
0
  6
CONTINUOUS
 62
     7
 10
-1516.999749620777
 20
-41.00055495410923
 30
0.0
 11
-1516.999749625636
 21
-40.9994668518463
 31
0.0
  0
LINE
  5
3A3
  8
0
  6
CONTINUOUS
 62
   253
 10
-1520.170302855506
 20
-37.830001719381
 30
0.0
 11
-1516.999749620778
 21
-41.00055495410923
 31
0.0
  0
LINE
  5
3A4
  8
0
  6
CONTINUOUS
 62
   253
 10
-2149.838638220758
 20
432.838942795645
 30
0.0
 11
-2153.000250379222
 21
436.0005549541092
 31
0.0
  0
ARC
  5
3A5
  8
0
  6
CONTINUOUS
 62
     7
 10
-2149.500495092113
 20
436.0002600364605
 30
0.0
 40
3.499755299535596
 50
90.0046133130908
 51
179.9951717948398
  0
LINE
  5
3A6
  8
0
  6
CONTINUOUS
 62
     7
 10
-1522.661346877376
 20
410.4999999999999
 30
0.0
 11
-1528.660433048315
 21
410.4999999999999
 31
0.0
  0
LINE
  5
3A7
  8
0
  6
CONTINUOUS
 62
   253
 10
-1519.86763867564
 20
-20.49999999999999
 30
0.0
 11
-1520.170302855506
 21
-20.49999999999999
 31
0.0
  0
LINE
  5
3A8
  8
0
  6
CONTINUOUS
 62
   253
 10
-2141.339566951685
 20
410.4999999999999
 30
0.0
 11
-2141.339566951685
 21
411.4999999999999
 31
0.0
  0
LINE
  5
3A9
  8
0
  6
CONTINUOUS
 62
   253
 10
-1522.105861260394
 20
410.6685303876974
 30
0.0
 11
-1521.954347791978
 21
410.7928932188134
 31
0.0
  0
LINE
  5
3AA
  8
0
  6
CONTINUOUS
 62
   253
 10
-1522.278721729552
 20
410.5761204674887
 30
0.0
 11
-1522.105861260394
 21
410.6685303876974
 31
0.0
  0
LINE
  5
3AB
  8
0
  6
CONTINUOUS
 62
     7
 10
-2149.499466851847
 20
-44.50001531760878
 30
0.0
 11
-1520.500533148154
 21
-44.50001531760878
 31
0.0
  0
LINE
  5
3AC
  8
0
  6
CONTINUOUS
 62
   253
 10
-1521.680710975322
 20
411.3049096779839
 30
0.0
 11
-1521.66149918222
 21
411.5000000000001
 31
0.0
  0
LINE
  5
3AD
  8
0
  6
CONTINUOUS
 62
   253
 10
-2149.829697144494
 20
-20.49999999999999
 30
0.0
 11
-2150.132361324359
 21
-20.49999999999999
 31
0.0
  0
LINE
  5
3AE
  8
0
  6
CONTINUOUS
 62
   253
 10
-1528.660433048315
 20
411.4999999999999
 30
0.0
 11
-1521.66149918222
 21
411.4999999999999
 31
0.0
  0
LINE
  5
3AF
  8
0
  6
CONTINUOUS
 62
     7
 10
-2153.000250374364
 20
-40.9994668518463
 30
0.0
 11
-2153.000250379223
 21
-41.00055495410923
 31
0.0
  0
LINE
  5
3B0
  8
0
  6
CONTINUOUS
 62
     7
 10
-2149.132208996316
 20
-19.49999999999999
 30
0.0
 11
-2148.829849449338
 21
-19.49999999999999
 31
0.0
  0
LINE
  5
3B1
  8
0
  6
CONTINUOUS
 62
     7
 10
-1516.999749625636
 20
-40.9994668518463
 30
0.0
 11
-1516.999749625636
 21
-20.49999999999999
 31
0.0
  0
ARC
  5
3B2
  8
0
  6
CONTINUOUS
 62
     7
 10
-1520.499504716669
 20
436.0002602276793
 30
0.0
 40
3.499755108301363
 50
0.0048250749104524
 51
89.99538981715813
  0
LINE
  5
3B3
  8
0
  6
CONTINUOUS
 62
   253
 10
-1521.830003901923
 20
410.9444297669804
 30
0.0
 11
-1521.737608056193
 21
411.1173165676349
 31
0.0
  0
LINE
  5
3B4
  8
0
  6
CONTINUOUS
 62
     7
 10
-1520.500533148154
 20
-44.50001531760878
 30
0.0
 11
-1520.49922311633
 21
-44.50001532465148
 31
0.0
  0
ARC
  5
3B5
  8
0
  6
CONTINUOUS
 62
     7
 10
-2149.500495283331
 20
-41.00026022767925
 30
0.0
 40
3.499755108301474
 50
180.0048250749114
 51
269.9953898171572
  0
LINE
  5
3B6
  8
0
  6
CONTINUOUS
 62
   253
 10
-2150.282474882742
 20
-20.49999999999999
 30
0.0
 11
-2153.000250374364
 21
-20.49999999999999
 31
0.0
  0
LINE
  5
3B7
  8
0
  6
CONTINUOUS
 62
   253
 10
-1522.661346877376
 20
410.4999999999999
 30
0.0
 11
-1522.466286268561
 21
410.5192147195967
 31
0.0
  0
ARC
  5
3B8
  8
0
  6
CONTINUOUS
 62
     7
 10
-1520.499504907887
 20
-41.00026003646062
 30
0.0
 40
3.49975529953543
 50
270.0046133130899
 51
359.995171794842
  0
LINE
  5
3B9
  8
0
  6
CONTINUOUS
 62
   253
 10
-1521.954347791978
 20
410.7928932188134
 30
0.0
 11
-1521.830003901923
 21
410.9444297669804
 31
0.0
  0
LINE
  5
3BA
  8
0
  6
CONTINUOUS
 62
     7
 10
-2153.000250374364
 20
-20.49999999999999
 30
0.0
 11
-2153.000250374364
 21
-40.9994668518463
 31
0.0
  0
LINE
  5
3BB
  8
0
  6
CONTINUOUS
 62
   253
 10
-1516.999749620777
 20
436.0005549541092
 30
0.0
 11
-1520.161361779242
 21
432.8389427956449
 31
0.0
  0
LINE
  5
3BC
  8
0
  6
CONTINUOUS
 62
   253
 10
-1520.161361779242
 20
415.5
 30
0.0
 11
-1516.999749625636
 21
415.5
 31
0.0
  0
LINE
  5
3BD
  8
0
  6
CONTINUOUS
 62
     7
 10
-1521.170150550662
 20
-19.49999999999999
 30
0.0
 11
-1520.867791003684
 21
-19.49999999999999
 31
0.0
  0
LINE
  5
3BE
  8
0
  6
CONTINUOUS
 62
   253
 10
-1522.466286268561
 20
410.5192147195967
 30
0.0
 11
-1522.278721729552
 21
410.5761204674887
 31
0.0
  0
LINE
  5
3BF
  8
0
  6
CONTINUOUS
 62
     7
 10
-1528.660433048315
 20
410.4999999999999
 30
0.0
 11
-2141.339566951685
 21
410.4999999999999
 31
0.0
  0
LINE
  5
3C0
  8
0
  6
CONTINUOUS
 62
   253
 10
-1521.66149918222
 20
414.5
 30
0.0
 11
-1521.66149918222
 21
411.4999999999999
 31
0.0
  0
LINE
  5
3C1
  8
0
  6
CONTINUOUS
 62
   253
 10
-1528.660433048315
 20
410.4999999999999
 30
0.0
 11
-1528.660433048315
 21
411.4999999999999
 31
0.0
  0
LINE
  5
3C2
  8
0
  6
CONTINUOUS
 62
     7
 10
-1517.026223178954
 20
415.2715359835328
 30
0.0
 11
-1517.000533148154
 21
415.460981177401
 31
0.0
  0
LINE
  5
3C3
  8
0
  6
CONTINUOUS
 62
     7
 10
-1517.999923835978
 20
414.5
 30
0.0
 11
-1521.161209474398
 21
414.4999999999999
 31
0.0
  0
LINE
  5
3C4
  8
0
  6
CONTINUOUS
 62
     7
 10
-1517.306643961589
 20
414.7792299872361
 30
0.0
 11
-1517.182127682647
 21
414.9243150547716
 31
0.0
  0
LINE
  5
3C5
  8
0
  6
CONTINUOUS
 62
     7
 10
-1517.456499105625
 20
414.6604885289582
 30
0.0
 11
-1517.306643961589
 21
414.7792299872361
 31
0.0
  0
LINE
  5
3C6
  8
0
  6
CONTINUOUS
 62
     7
 10
-1517.182127682647
 20
414.9243150547716
 30
0.0
 11
-1517.08750124642
 21
415.0904409799787
 31
0.0
  0
LINE
  5
3C7
  8
0
  6
CONTINUOUS
 62
     7
 10
-1517.08750124642
 20
415.0904409799787
 30
0.0
 11
-1517.026223178954
 21
415.2715359835328
 31
0.0
  0
LINE
  5
3C8
  8
0
  6
CONTINUOUS
 62
   253
 10
-1818.374597559704
 20
-18.32755209788017
 30
0.0
 11
-1818.600136559291
 21
-18.17006216086028
 31
0.0
  0
LINE
  5
3C9
  8
0
  6
CONTINUOUS
 62
   253
 10
-1818.600136559291
 20
-18.17006216086028
 30
0.0
 11
-1818.861835550463
 21
-18.04333436038391
 31
0.0
  0
LINE
  5
3CA
  8
0
  6
CONTINUOUS
 62
   253
 10
-1818.861835550463
 20
-18.04333436038391
 30
0.0
 11
-1819.148885471578
 21
-17.9526029871957
 31
0.0
  0
LINE
  5
3CB
  8
0
  6
CONTINUOUS
 62
   253
 10
-1819.148885471578
 20
-17.9526029871957
 30
0.0
 11
-1819.449430181048
 21
-17.90161555671956
 31
0.0
  0
LINE
  5
3CC
  8
0
  6
CONTINUOUS
 62
   253
 10
-1850.326883036221
 20
-17.91843716155048
 30
0.0
 11
-1850.310323003825
 21
-17.9683154592444
 31
0.0
  0
LINE
  5
3CD
  8
0
  6
CONTINUOUS
 62
   253
 10
-1850.274661146779
 20
-18.06107055980588
 30
0.0
 11
-1850.255635931183
 21
-18.10374810550694
 31
0.0
  0
LINE
  5
3CE
  8
0
  6
CONTINUOUS
 62
   253
 10
-1818.067383363231
 20
-18.70779698576116
 30
0.0
 11
-1818.194534082263
 21
-18.50929929945329
 31
0.0
  0
LINE
  5
3CF
  8
0
  6
CONTINUOUS
 62
   253
 10
-1850.255635931183
 20
-18.10374810550694
 30
0.0
 11
-1850.235868456903
 21
-18.14383495174179
 31
0.0
  0
LINE
  5
3D0
  8
0
  6
CONTINUOUS
 62
   253
 10
-1850.310323003825
 20
-17.9683154592444
 30
0.0
 11
-1850.292903233586
 21
-18.01589399484568
 31
0.0
  0
LINE
  5
3D1
  8
0
  6
CONTINUOUS
 62
   253
 10
-1850.292903233586
 20
-18.01589399484568
 30
0.0
 11
-1850.274661146779
 21
-18.06107055980588
 31
0.0
  0
LINE
  5
3D2
  8
0
  6
CONTINUOUS
 62
   253
 10
-1818.194534082263
 20
-18.50929929945329
 30
0.0
 11
-1818.374597559704
 21
-18.32755209788017
 31
0.0
  0
LINE
  5
3D3
  8
0
  6
CONTINUOUS
 62
     7
 10
-1554.120534899457
 20
408.002797038494
 30
0.0
 11
-1554.076402464808
 21
408.0219978756049
 31
0.0
  0
LINE
  5
3D4
  8
0
  6
CONTINUOUS
 62
     7
 10
-1553.910274075532
 20
408.1192800594319
 30
0.0
 11
-1553.872067690368
 21
408.1483152098058
 31
0.0
  0
LINE
  5
3D5
  8
0
  6
CONTINUOUS
 62
     7
 10
-1553.734039237517
 20
408.2824528735133
 30
0.0
 11
-1553.703680092404
 21
408.3199607696329
 31
0.0
  0
LINE
  5
3D6
  8
0
  6
CONTINUOUS
 62
     7
 10
-1553.675200234461
 20
408.3588093828994
 30
0.0
 11
-1553.648709713654
 21
408.3988743758479
 31
0.0
  0
LINE
  5
3D7
  8
0
  6
CONTINUOUS
 62
   253
 10
-1554.304909692544
 20
-16.82294692999601
 30
0.0
 11
-1554.500000014558
 21
-16.80380532819005
 31
0.0
  0
LINE
  5
3D8
  8
0
  6
CONTINUOUS
 62
     7
 10
-1554.304634794399
 20
407.9481047482537
 30
0.0
 11
-1554.257541741625
 21
407.9584580800967
 31
0.0
  0
LINE
  5
3D9
  8
0
  6
CONTINUOUS
 62
   253
 10
-1553.500000014647
 20
-17.80000002637574
 30
0.0
 11
-1553.519214734226
 21
-17.60565208193247
 31
0.0
  0
LINE
  5
3DA
  8
0
  6
CONTINUOUS
 62
     7
 10
-1553.990967850376
 20
408.0667052422133
 30
0.0
 11
-1553.949955820523
 21
408.0920497299392
 31
0.0
  0
LINE
  5
3DB
  8
0
  6
CONTINUOUS
 62
     7
 10
-1553.53226142854
 20
408.6630609257818
 30
0.0
 11
-1553.520483655527
 21
408.7097126152244
 31
0.0
  0
LINE
  5
3DC
  8
0
  6
CONTINUOUS
 62
   253
 10
-1553.944429781554
 20
-16.97169440693382
 30
0.0
 11
-1554.1173165822
 21
-16.87963613435455
 31
0.0
  0
LINE
  5
3DD
  8
0
  6
CONTINUOUS
 62
     7
 10
-1554.448066404329
 20
407.9306669226256
 30
0.0
 11
-1554.400061368623
 21
407.9341808858446
 31
0.0
  0
LINE
  5
3DE
  8
0
  6
CONTINUOUS
 62
     7
 10
-1553.766167619836
 20
408.2464100320057
 30
0.0
 11
-1553.734039237517
 21
408.2824528735133
 31
0.0
  0
LINE
  5
3DF
  8
0
  6
CONTINUOUS
 62
     7
 10
-1553.648709713654
 20
408.3988743758479
 30
0.0
 11
-1553.62416723999
 21
408.4402635686571
 31
0.0
  0
LINE
  5
3E0
  8
0
  6
CONTINUOUS
 62
     7
 10
-1554.352196084356
 20
407.9400029222784
 30
0.0
 11
-1554.304634794399
 21
407.9481047482537
 31
0.0
  0
LINE
  5
3E1
  8
0
  6
CONTINUOUS
 62
   253
 10
-1553.519214694175
 20
408.6056520290307
 30
0.0
 11
-1553.499999974559
 21
408.7999999734704
 31
0.0
  0
LINE
  5
3E2
  8
0
  6
CONTINUOUS
 62
     7
 10
-1554.033165090126
 20
408.0433276171399
 30
0.0
 11
-1553.990967850376
 21
408.0667052422133
 31
0.0
  0
LINE
  5
3E3
  8
0
  6
CONTINUOUS
 62
     7
 10
-1553.835291896227
 20
408.179216862687
 30
0.0
 11
-1553.799955189394
 21
408.2119565825752
 31
0.0
  0
LINE
  5
3E4
  8
0
  6
CONTINUOUS
 62
     7
 10
-1553.949955820523
 20
408.0920497299392
 30
0.0
 11
-1553.910274075532
 21
408.1192800594319
 31
0.0
  0
LINE
  5
3E5
  8
0
  6
CONTINUOUS
 62
     7
 10
-1553.506073696488
 20
-17.7873935477372
 30
0.0
 11
-1553.51024172602
 21
-17.7614654111462
 31
0.0
  0
LINE
  5
3E6
  8
0
  6
CONTINUOUS
 62
     7
 10
-1553.562609825801
 20
408.5713877389437
 30
0.0
 11
-1553.546324536626
 21
408.6169012974693
 31
0.0
  0
LINE
  5
3E7
  8
0
  6
CONTINUOUS
 62
   253
 10
-1553.576120442086
 20
408.4187727671078
 30
0.0
 11
-1553.519214694175
 21
408.6056520290307
 31
0.0
  0
LINE
  5
3E8
  8
0
  6
CONTINUOUS
 62
     7
 10
-1554.076402464808
 20
408.0219978756049
 30
0.0
 11
-1554.033165090126
 21
408.0433276171399
 31
0.0
  0
LINE
  5
3E9
  8
0
  6
CONTINUOUS
 62
     7
 10
-1553.872067690368
 20
408.1483152098058
 30
0.0
 11
-1553.835291896227
 21
408.179216862687
 31
0.0
  0
LINE
  5
3EA
  8
0
  6
CONTINUOUS
 62
     7
 10
-1553.601594331469
 20
408.4829148658807
 30
0.0
 11
-1553.581054142077
 21
408.5266742588618
 31
0.0
  0
LINE
  5
3EB
  8
0
  6
CONTINUOUS
 62
   253
 10
-1553.576120482101
 20
-17.41877281999896
 30
0.0
 11
-1553.668530402295
 21
-17.24654390580821
 31
0.0
  0
LINE
  5
3EC
  8
0
  6
CONTINUOUS
 62
     7
 10
-1553.546324536626
 20
408.6169012974693
 30
0.0
 11
-1553.53226142854
 21
408.6630609257818
 31
0.0
  0
LINE
  5
3ED
  8
0
  6
CONTINUOUS
 62
     7
 10
-1553.51024172602
 20
-17.7614654111462
 30
0.0
 11
-1553.520520802119
 21
-17.70989105637291
 31
0.0
  0
LINE
  5
3EE
  8
0
  6
CONTINUOUS
 62
     7
 10
-1553.549006950754
 20
-17.60875586849661
 30
0.0
 11
-1553.567119780291
 21
-17.5596131581541
 31
0.0
  0
LINE
  5
3EF
  8
0
  6
CONTINUOUS
 62
     7
 10
-1553.567119780291
 20
-17.5596131581541
 30
0.0
 11
-1553.58470113153
 21
-17.5183146533508
 31
0.0
  0
LINE
  5
3F0
  8
0
  6
CONTINUOUS
 62
     7
 10
-1553.516319300737
 20
408.7289680052394
 30
0.0
 11
-1553.497847137673
 21
408.8655822823894
 31
0.0
  0
LINE
  5
3F1
  8
0
  6
CONTINUOUS
 62
     7
 10
-1553.699651727802
 20
-17.32515308655144
 30
0.0
 11
-1553.727568868743
 21
-17.29000183057047
 31
0.0
  0
LINE
  5
3F2
  8
0
  6
CONTINUOUS
 62
     7
 10
-1553.792812838254
 20
-17.21895958236641
 30
0.0
 11
-1553.828038637973
 21
-17.18576993387974
 31
0.0
  0
LINE
  5
3F3
  8
0
  6
CONTINUOUS
 62
     7
 10
-1553.727568868743
 20
-17.29000183057047
 30
0.0
 11
-1553.759280567094
 21
-17.25374006289995
 31
0.0
  0
LINE
  5
3F4
  8
0
  6
CONTINUOUS
 62
     7
 10
-1553.648538004895
 20
-17.3992858841503
 30
0.0
 11
-1553.673285166218
 21
-17.36161990755114
 31
0.0
  0
LINE
  5
3F5
  8
0
  6
CONTINUOUS
 62
     7
 10
-1553.828038637973
 20
-17.18576993387974
 30
0.0
 11
-1553.864830922006
 21
-17.15428066234947
 31
0.0
  0
LINE
  5
3F6
  8
0
  6
CONTINUOUS
 62
     7
 10
-1554.257541741625
 20
407.9584580800967
 30
0.0
 11
-1554.211081168904
 21
407.9710346341342
 31
0.0
  0
LINE
  5
3F7
  8
0
  6
CONTINUOUS
 62
     7
 10
-1553.864830922006
 20
-17.15428066234947
 30
0.0
 11
-1553.903062646103
 21
-17.12460131268537
 31
0.0
  0
LINE
  5
3F8
  8
0
  6
CONTINUOUS
 62
     7
 10
-1553.520483655527
 20
408.7097126152244
 30
0.0
 11
-1553.516319300737
 21
408.7289680052394
 31
0.0
  0
LINE
  5
3F9
  8
0
  6
CONTINUOUS
 62
     7
 10
-1553.520520802119
 20
-17.70989105637291
 30
0.0
 11
-1553.533458250864
 21
-17.65891818836299
 31
0.0
  0
LINE
  5
3FA
  8
0
  6
CONTINUOUS
 62
     7
 10
-1553.799955189394
 20
408.2119565825752
 30
0.0
 11
-1553.766167619836
 21
408.2464100320057
 31
0.0
  0
LINE
  5
3FB
  8
0
  6
CONTINUOUS
 62
     7
 10
-1553.533458250864
 20
-17.65891818836299
 30
0.0
 11
-1553.549006950754
 21
-17.60875586849661
 31
0.0
  0
LINE
  5
3FC
  8
0
  6
CONTINUOUS
 62
     7
 10
-1553.62416723999
 20
408.4402635686571
 30
0.0
 11
-1553.601594331469
 21
408.4829148658807
 31
0.0
  0
LINE
  5
3FD
  8
0
  6
CONTINUOUS
 62
     7
 10
-1553.942606766016
 20
-17.09684142979706
 30
0.0
 11
-1553.983336237497
 21
-17.07111055859423
 31
0.0
  0
LINE
  5
3FE
  8
0
  6
CONTINUOUS
 62
     7
 10
-1553.983336237497
 20
-17.07111055859423
 30
0.0
 11
-1554.025211253169
 21
-17.04745065052543
 31
0.0
  0
LINE
  5
3FF
  8
0
  6
CONTINUOUS
 62
     7
 10
-1554.025211253169
 20
-17.04745065052543
 30
0.0
 11
-1554.068310724687
 21
-17.02578878895886
 31
0.0
  0
LINE
  5
400
  8
0
  6
CONTINUOUS
 62
     7
 10
-1554.211081168904
 20
407.9710346341342
 30
0.0
 11
-1554.165417319107
 21
407.9858061266926
 31
0.0
  0
LINE
  5
401
  8
0
  6
CONTINUOUS
 62
     7
 10
-1553.497847177773
 20
-17.8655823352952
 30
0.0
 11
-1553.506073696488
 21
-17.7873935477372
 31
0.0
  0
LINE
  5
402
  8
0
  6
CONTINUOUS
 62
     7
 10
-1553.604177166647
 20
-17.47774966646939
 30
0.0
 11
-1553.625479064737
 21
-17.43803460692947
 31
0.0
  0
LINE
  5
403
  8
0
  6
CONTINUOUS
 62
     7
 10
-1554.496046948604
 20
407.9294893162948
 30
0.0
 11
-1554.448066404329
 21
407.9306669226256
 31
0.0
  0
LINE
  5
404
  8
0
  6
CONTINUOUS
 62
     7
 10
-1553.581054142077
 20
408.5266742588618
 30
0.0
 11
-1553.562609825801
 21
408.5713877389437
 31
0.0
  0
LINE
  5
405
  8
0
  6
CONTINUOUS
 62
     7
 10
-1553.673285166218
 20
-17.36161990755114
 30
0.0
 11
-1553.699651727802
 21
-17.32515308655144
 31
0.0
  0
LINE
  5
406
  8
0
  6
CONTINUOUS
 62
     7
 10
-1553.58470113153
 20
-17.5183146533508
 30
0.0
 11
-1553.604177166647
 21
-17.47774966646939
 31
0.0
  0
LINE
  5
407
  8
0
  6
CONTINUOUS
 62
     7
 10
-1553.759280567094
 20
-17.25374006289995
 30
0.0
 11
-1553.792812838254
 21
-17.21895958236641
 31
0.0
  0
LINE
  5
408
  8
0
  6
CONTINUOUS
 62
     7
 10
-1553.903062646103
 20
-17.12460131268537
 30
0.0
 11
-1553.942606766016
 21
-17.09684142979706
 31
0.0
  0
LINE
  5
409
  8
0
  6
CONTINUOUS
 62
     7
 10
-1554.112478648456
 20
-17.00618599791098
 30
0.0
 11
-1554.157559020882
 21
-16.98870330139829
 31
0.0
  0
LINE
  5
40A
  8
0
  6
CONTINUOUS
 62
     7
 10
-1554.068310724687
 20
-17.02578878895886
 30
0.0
 11
-1554.112478648456
 21
-17.00618599791098
 31
0.0
  0
LINE
  5
40B
  8
0
  6
CONTINUOUS
 62
   253
 10
-1554.1173165822
 20
-16.87963613435455
 30
0.0
 11
-1554.304909692544
 21
-16.82294692999601
 31
0.0
  0
LINE
  5
40C
  8
0
  6
CONTINUOUS
 62
     7
 10
-1553.625479064737
 20
-17.43803460692947
 30
0.0
 11
-1553.648538004895
 21
-17.3992858841503
 31
0.0
  0
LINE
  5
40D
  8
0
  6
CONTINUOUS
 62
   253
 10
-1553.792893233398
 20
-17.0955839999455
 30
0.0
 11
-1553.944429781554
 21
-16.97169440693382
 31
0.0
  0
LINE
  5
40E
  8
0
  6
CONTINUOUS
 62
     7
 10
-1553.703680092404
 20
408.3199607696329
 30
0.0
 11
-1553.675200234461
 21
408.3588093828994
 31
0.0
  0
LINE
  5
40F
  8
0
  6
CONTINUOUS
 62
   253
 10
-1553.519214734226
 20
-17.60565208193247
 30
0.0
 11
-1553.576120482101
 21
-17.41877281999896
 31
0.0
  0
LINE
  5
410
  8
0
  6
CONTINUOUS
 62
     7
 10
-1554.400061368623
 20
407.9341808858446
 30
0.0
 11
-1554.352196084356
 21
407.9400029222784
 31
0.0
  0
LINE
  5
411
  8
0
  6
CONTINUOUS
 62
     7
 10
-1554.165417319107
 20
407.9858061266926
 30
0.0
 11
-1554.120534899457
 21
408.002797038494
 31
0.0
  0
LINE
  5
412
  8
0
  6
CONTINUOUS
 62
   253
 10
-1553.668530402295
 20
-17.24654390580821
 30
0.0
 11
-1553.792893233398
 21
-17.0955839999455
 31
0.0
  0
LINE
  5
413
  8
0
  6
CONTINUOUS
 62
   253
 10
-1851.859238099141
 20
-17.2628757234017
 30
0.0
 11
-1851.887425248609
 21
-17.45840853871184
 31
0.0
  0
LINE
  5
414
  8
0
  6
CONTINUOUS
 62
   253
 10
-1818.134793284039
 20
-16.89414074213193
 30
0.0
 11
-1818.317549574761
 21
-16.74132948518345
 31
0.0
  0
LINE
  5
415
  8
0
  6
CONTINUOUS
 62
   253
 10
-1850.326883036221
 20
-17.91843716155051
 30
0.0
 11
-1850.627427745701
 21
-17.96942459197016
 31
0.0
  0
LINE
  5
416
  8
0
  6
CONTINUOUS
 62
   253
 10
-1851.176176658046
 20
-18.18688376553159
 30
0.0
 11
-1851.401715657679
 21
-18.3443737025091
 31
0.0
  0
LINE
  5
417
  8
0
  6
CONTINUOUS
 62
     7
 10
-1818.097346683612
 20
-17.91030602314379
 30
0.0
 11
-1818.278719424385
 21
-17.73662817977511
 31
0.0
  0
LINE
  5
418
  8
0
  6
CONTINUOUS
 62
   253
 10
-1817.887425248608
 20
-17.45162063830596
 30
0.0
 11
-1817.915612398034
 21
-17.25608782300285
 31
0.0
  0
LINE
  5
419
  8
0
  6
CONTINUOUS
 62
   253
 10
-1851.640057213041
 20
-16.90092864254262
 30
0.0
 11
-1851.77573600461
 21
-17.07469159167991
 31
0.0
  0
LINE
  5
41A
  8
0
  6
CONTINUOUS
 62
   253
 10
-1817.915612398034
 20
-17.25608782300285
 30
0.0
 11
-1817.999114492519
 21
-17.06790369127971
 31
0.0
  0
LINE
  5
41B
  8
0
  6
CONTINUOUS
 62
   253
 10
-1850.41360385803
 20
-15.43194660289893
 30
0.0
 11
-1834.387425248346
 21
-15.32316245030929
 31
0.0
  0
LINE
  5
41C
  8
0
  6
CONTINUOUS
 62
   253
 10
-1829.339948743666
 20
-15.3574242342851
 30
0.0
 11
-1829.34137647556
 21
-15.63394453608406
 31
0.0
  0
LINE
  5
41D
  8
0
  6
CONTINUOUS
 62
   253
 10
-1851.708929854269
 20
-18.72461859033233
 30
0.0
 11
-1851.777916056232
 21
-18.93166812934625
 31
0.0
  0
LINE
  5
41E
  8
0
  6
CONTINUOUS
 62
   253
 10
-1850.080457191094
 20
-18.34541485906091
 30
0.0
 11
-1850.056394386871
 21
-18.36217912611171
 31
0.0
  0
LINE
  5
41F
  8
0
  6
CONTINUOUS
 62
   253
 10
-1834.387425248416
 20
-16.33639341824142
 30
0.0
 11
-1850.4136038581
 21
-16.44517757083105
 31
0.0
  0
LINE
  5
420
  8
0
  6
CONTINUOUS
 62
   253
 10
-1829.339948743736
 20
-16.37065520221723
 30
0.0
 11
-1834.387425248416
 21
-16.33639341824142
 31
0.0
  0
LINE
  5
421
  8
0
  6
CONTINUOUS
 62
     7
 10
-1817.969258591254
 20
-18.10302641395842
 30
0.0
 11
-1818.097346683612
 21
-17.91030602314379
 31
0.0
  0
LINE
  5
422
  8
0
  6
CONTINUOUS
 62
     7
 10
-1851.268964996755
 20
-17.61500313281046
 30
0.0
 11
-1851.496131072679
 21
-17.76246494091062
 31
0.0
  0
LINE
  5
423
  8
0
  6
CONTINUOUS
 62
     7
 10
-1851.805591905927
 20
-18.12886317503578
 30
0.0
 11
-1851.875104874493
 21
-18.33266610329221
 31
0.0
  0
LINE
  5
424
  8
0
  6
CONTINUOUS
 62
   253
 10
-1851.45730092227
 20
-16.74811738561407
 30
0.0
 11
-1851.640057213041
 21
-16.90092864254262
 31
0.0
  0
LINE
  5
425
  8
0
  6
CONTINUOUS
 62
   253
 10
-1851.77573600461
 20
-17.07469159167991
 30
0.0
 11
-1851.859238099141
 21
-17.2628757234017
 31
0.0
  0
LINE
  5
426
  8
0
  6
CONTINUOUS
 62
     7
 10
-1834.387425248463
 20
-17.65070147908815
 30
0.0
 11
-1834.387425248416
 21
-16.33639341824142
 31
0.0
  0
LINE
  5
427
  8
0
  6
CONTINUOUS
 62
     7
 10
-1850.71628765918
 20
-17.42175594899899
 30
0.0
 11
-1851.005388320101
 21
-17.4998480359797
 31
0.0
  0
LINE
  5
428
  8
0
  6
CONTINUOUS
 62
   253
 10
-1851.581779135176
 20
-18.52612090404837
 30
0.0
 11
-1851.708929854269
 21
-18.72461859033233
 31
0.0
  0
LINE
  5
429
  8
0
  6
CONTINUOUS
 62
   253
 10
-1850.413603858134
 20
-17.38395234162684
 30
0.0
 11
-1850.326883036221
 21
-17.9184371615505
 31
0.0
  0
LINE
  5
42A
  8
0
  6
CONTINUOUS
 62
   253
 10
-1851.234335637474
 20
-16.62200090587883
 30
0.0
 11
-1851.45730092227
 21
-16.74811738561407
 31
0.0
  0
LINE
  5
42B
  8
0
  6
CONTINUOUS
 62
   253
 10
-1818.54051485951
 20
-16.61521300541894
 30
0.0
 11
-1818.795309463879
 21
-16.52053112159076
 31
0.0
  0
LINE
  5
42C
  8
0
  6
CONTINUOUS
 62
   253
 10
-1850.41360385803
 20
-15.43194660289893
 30
0.0
 11
-1850.4136038581
 21
-16.44517757083108
 31
0.0
  0
LINE
  5
42D
  8
0
  6
CONTINUOUS
 62
   253
 10
-1850.914477666838
 20
-18.06015596510442
 30
0.0
 11
-1851.176176658046
 21
-18.18688376553159
 31
0.0
  0
LINE
  5
42E
  8
0
  6
CONTINUOUS
 62
   253
 10
-1850.4136038581
 20
-16.44517757083105
 30
0.0
 11
-1850.413603858134
 21
-17.38395234162684
 31
0.0
  0
LINE
  5
42F
  8
0
  6
CONTINUOUS
 62
   253
 10
-1834.387425248346
 20
-15.32316245030929
 30
0.0
 11
-1829.339948743666
 21
-15.3574242342851
 31
0.0
  0
LINE
  5
430
  8
0
  6
CONTINUOUS
 62
     7
 10
-1851.005388320101
 20
-17.4998480359797
 30
0.0
 11
-1851.268964996755
 21
-17.61500313281046
 31
0.0
  0
LINE
  5
431
  8
0
  6
CONTINUOUS
 62
   253
 10
-1829.34137647556
 20
-15.63394453608406
 30
0.0
 11
-1829.341857886986
 21
-15.90098597158983
 31
0.0
  0
LINE
  5
432
  8
0
  6
CONTINUOUS
 62
   253
 10
-1829.341857886986
 20
-15.90098597158983
 30
0.0
 11
-1829.341376475596
 21
-16.14939460148779
 31
0.0
  0
LINE
  5
433
  8
0
  6
CONTINUOUS
 62
   253
 10
-1834.387425248463
 20
-17.65070147908815
 30
0.0
 11
-1831.145932428517
 21
-17.70514895864583
 31
0.0
  0
LINE
  5
434
  8
0
  6
CONTINUOUS
 62
   253
 10
-1829.341376475596
 20
-16.14939460148779
 30
0.0
 11
-1829.339948743736
 21
-16.37065520221721
 31
0.0
  0
LINE
  5
435
  8
0
  6
CONTINUOUS
 62
   253
 10
-1851.401715657679
 20
-18.3443737025091
 30
0.0
 11
-1851.581779135176
 21
-18.52612090404837
 31
0.0
  0
LINE
  5
436
  8
0
  6
CONTINUOUS
 62
     7
 10
-1818.505885500264
 20
-17.58916637163226
 30
0.0
 11
-1818.769462176884
 21
-17.47401127475196
 31
0.0
  0
LINE
  5
437
  8
0
  6
CONTINUOUS
 62
   253
 10
-1850.007378405631
 20
-18.38624081659454
 30
0.0
 11
-1849.982530525093
 21
-18.393486550532
 31
0.0
  0
LINE
  5
438
  8
0
  6
CONTINUOUS
 62
   253
 10
-1850.032017336066
 20
-18.37579753034049
 30
0.0
 11
-1850.007378405631
 21
-18.38624081659454
 31
0.0
  0
LINE
  5
439
  8
0
  6
CONTINUOUS
 62
   253
 10
-1819.361246638819
 20
-17.35811558028821
 30
0.0
 11
-1819.361246638786
 21
-16.43838967023536
 31
0.0
  0
LINE
  5
43A
  8
0
  6
CONTINUOUS
 62
   253
 10
-1819.449430181048
 20
-17.90161555671957
 30
0.0
 11
-1819.361246638819
 21
-17.35811558028821
 31
0.0
  0
LINE
  5
43B
  8
0
  6
CONTINUOUS
 62
     7
 10
-1850.413603858134
 20
-17.38395234162773
 30
0.0
 11
-1850.71628765918
 21
-17.42175594899899
 31
0.0
  0
LINE
  5
43C
  8
0
  6
CONTINUOUS
 62
   253
 10
-1818.317549574761
 20
-16.74132948518345
 30
0.0
 11
-1818.54051485951
 21
-16.61521300541894
 31
0.0
  0
LINE
  5
43D
  8
0
  6
CONTINUOUS
 62
   253
 10
-1818.795309463879
 20
-16.52053112159076
 30
0.0
 11
-1819.07235747641
 21
-16.46084225024621
 31
0.0
  0
LINE
  5
43E
  8
0
  6
CONTINUOUS
 62
   253
 10
-1850.326883036221
 20
-17.9184371615505
 30
0.0
 11
-1834.387425248464
 21
-17.65070147908815
 31
0.0
  0
LINE
  5
43F
  8
0
  6
CONTINUOUS
 62
     7
 10
-1818.769462176884
 20
-17.47401127475196
 30
0.0
 11
-1819.058562837782
 21
-17.39591918771691
 31
0.0
  0
LINE
  5
440
  8
0
  6
CONTINUOUS
 62
   253
 10
-1819.361246638786
 20
-16.43838967023536
 30
0.0
 11
-1826.575177974938
 21
-16.38942219969314
 31
0.0
  0
LINE
  5
441
  8
0
  6
CONTINUOUS
 62
     7
 10
-1817.899745622753
 20
-18.30682934222792
 30
0.0
 11
-1817.969258591254
 21
-18.10302641395842
 31
0.0
  0
LINE
  5
442
  8
0
  6
CONTINUOUS
 62
     7
 10
-1819.058562837782
 20
-17.39591918771691
 30
0.0
 11
-1819.361246638819
 21
-17.35811558028877
 31
0.0
  0
LINE
  5
443
  8
0
  6
CONTINUOUS
 62
     7
 10
-1851.496131072679
 20
-17.76246494091062
 30
0.0
 11
-1851.677503813507
 21
-17.93614278424522
 31
0.0
  0
LINE
  5
444
  8
0
  6
CONTINUOUS
 62
     7
 10
-1834.387425248438
 20
-18.13153497037712
 30
0.0
 11
-1834.387425248393
 21
-17.65070147908812
 31
0.0
  0
LINE
  5
445
  8
0
  6
CONTINUOUS
 62
   253
 10
-1850.104154056846
 20
-18.32554074230577
 30
0.0
 11
-1850.080457191094
 21
-18.34541485906091
 31
0.0
  0
LINE
  5
446
  8
0
  6
CONTINUOUS
 62
   253
 10
-1824.674564269933
 20
-17.81384877848083
 30
0.0
 11
-1819.449430181048
 21
-17.90161555671957
 31
0.0
  0
LINE
  5
447
  8
0
  6
CONTINUOUS
 62
     7
 10
-1818.278719424385
 20
-17.73662817977511
 30
0.0
 11
-1818.505885500264
 21
-17.58916637163226
 31
0.0
  0
LINE
  5
448
  8
0
  6
CONTINUOUS
 62
   253
 10
-1850.056394386871
 20
-18.36217912611171
 30
0.0
 11
-1850.032017336066
 21
-18.37579753034049
 31
0.0
  0
LINE
  5
449
  8
0
  6
CONTINUOUS
 62
   253
 10
-1850.4136038581
 20
-16.44517757083105
 30
0.0
 11
-1850.7024930205
 21
-16.46763015078988
 31
0.0
  0
LINE
  5
44A
  8
0
  6
CONTINUOUS
 62
   253
 10
-1850.627427745701
 20
-17.96942459197016
 30
0.0
 11
-1850.914477666838
 21
-18.06015596510442
 31
0.0
  0
LINE
  5
44B
  8
0
  6
CONTINUOUS
 62
   253
 10
-1817.999114492519
 20
-17.06790369127971
 30
0.0
 11
-1818.134793284039
 21
-16.89414074213193
 31
0.0
  0
LINE
  5
44C
  8
0
  6
CONTINUOUS
 62
   253
 10
-1819.07235747641
 20
-16.46084225024621
 30
0.0
 11
-1819.361246638786
 21
-16.43838967023537
 31
0.0
  0
LINE
  5
44D
  8
0
  6
CONTINUOUS
 62
     7
 10
-1851.677503813507
 20
-17.93614278424522
 30
0.0
 11
-1851.805591905927
 21
-18.12886317503578
 31
0.0
  0
LINE
  5
44E
  8
0
  6
CONTINUOUS
 62
     7
 10
-1817.887425248608
 20
-17.45162063830596
 30
0.0
 11
-1817.887425248646
 21
-18.51456223173836
 31
0.0
  0
LINE
  5
44F
  8
0
  6
CONTINUOUS
 62
   253
 10
-1850.979541033063
 20
-16.52731902208868
 30
0.0
 11
-1851.234335637474
 21
-16.62200090587883
 31
0.0
  0
LINE
  5
450
  8
0
  6
CONTINUOUS
 62
   253
 10
-1850.7024930205
 20
-16.46763015078988
 30
0.0
 11
-1850.979541033063
 21
-16.52731902208868
 31
0.0
  0
LINE
  5
451
  8
0
  6
CONTINUOUS
 62
     7
 10
-1834.387425248346
 20
-16.33639341824136
 30
0.0
 11
-1834.387425248251
 21
-15.32316245030929
 31
0.0
  0
LINE
  5
452
  8
0
  6
CONTINUOUS
 62
     7
 10
-1851.887425248648
 20
-18.54039899279999
 30
0.0
 11
-1851.887425248609
 21
-17.45840853862468
 31
0.0
  0
LINE
  5
453
  8
0
  6
CONTINUOUS
 62
     7
 10
-1834.387425248316
 20
-14.99999999999116
 30
0.0
 11
-1819.361246638677
 21
-15.01145152114131
 31
0.0
  0
LINE
  5
454
  8
0
  6
CONTINUOUS
 62
   253
 10
-1850.41360385799
 20
-15.0122136228166
 30
0.0
 11
-1850.41360385803
 21
-15.43194660289893
 31
0.0
  0
LINE
  5
455
  8
0
  6
CONTINUOUS
 62
   253
 10
-1826.576605706762
 20
-15.65271153356
 30
0.0
 11
-1826.577087118188
 21
-15.91975296906577
 31
0.0
  0
LINE
  5
456
  8
0
  6
CONTINUOUS
 62
   253
 10
-1819.361246638677
 20
-15.01145152114131
 30
0.0
 11
-1819.361246637161
 21
2.13362693300073
 31
0.0
  0
LINE
  5
457
  8
0
  6
CONTINUOUS
 62
   253
 10
-1820.877407125103
 20
18.88581929750612
 30
0.0
 11
-1820.882318051922
 21
18.9711779193445
 31
0.0
  0
LINE
  5
458
  8
0
  6
CONTINUOUS
 62
   253
 10
-1820.882318051922
 20
18.9711779193445
 30
0.0
 11
-1820.887425245326
 21
18.99999999874013
 31
0.0
  0
LINE
  5
459
  8
0
  6
CONTINUOUS
 62
   253
 10
-1826.577087118188
 20
-15.91975296906577
 30
0.0
 11
-1826.576605706798
 21
-16.16816159896373
 31
0.0
  0
ARC
  5
45A
  8
0
  6
CONTINUOUS
 62
     7
 10
-1820.887425245608
 20
15.99999999874013
 30
0.0
 40
2.999999999999987
 50
359.9999999946158
 51
89.99999999461592
  0
LINE
  5
45B
  8
0
  6
CONTINUOUS
 62
     7
 10
-1819.361246637161
 20
2.133626933000732
 30
0.0
 11
-1834.387425246799
 21
2.145078454150628
 31
0.0
  0
LINE
  5
45C
  8
0
  6
CONTINUOUS
 62
     7
 10
-1851.887425248279
 20
-15.43194660276045
 30
0.0
 11
-1851.887425248469
 21
-17.45840853862465
 31
0.0
  0
LINE
  5
45D
  8
0
  6
CONTINUOUS
 62
   253
 10
-1817.887425245609
 20
15.99999999845822
 30
0.0
 11
-1819.361246635858
 21
15.99999999859672
 31
0.0
  0
LINE
  5
45E
  8
0
  6
CONTINUOUS
 62
     7
 10
-1834.387425248316
 20
-14.99999999999116
 30
0.0
 11
-1834.387425246799
 21
2.145078454150627
 31
0.0
  0
LINE
  5
45F
  8
0
  6
CONTINUOUS
 62
     7
 10
-1817.887425246919
 20
2.068145493159062
 30
0.0
 11
-1817.887425248435
 21
-15.07693296098295
 31
0.0
  0
ARC
  5
460
  8
0
  6
CONTINUOUS
 62
     7
 10
-1848.887425245609
 20
16.0000000013713
 30
0.0
 40
3.000000000001656
 50
89.99999999461592
 51
179.9999999946158
  0
LINE
  5
461
  8
0
  6
CONTINUOUS
 62
   253
 10
-1819.361246638786
 20
-16.43838967023536
 30
0.0
 11
-1819.361246638716
 21
-15.42515870230324
 31
0.0
  0
LINE
  5
462
  8
0
  6
CONTINUOUS
 62
   253
 10
-1848.913100840359
 20
17.79263548439788
 30
0.0
 11
-1848.913603855029
 21
17.50000000137373
 31
0.0
  0
LINE
  5
463
  8
0
  6
CONTINUOUS
 62
     7
 10
-1817.887425245609
 20
15.99999999845822
 30
0.0
 11
-1817.887425246919
 21
2.068145493159064
 31
0.0
  0
LINE
  5
464
  8
0
  6
CONTINUOUS
 62
     7
 10
-1851.88742524692
 20
2.067383391760769
 30
0.0
 11
-1851.887425245611
 21
16.00000000165322
 31
0.0
  0
LINE
  5
465
  8
0
  6
CONTINUOUS
 62
   253
 10
-1826.576605706798
 20
-16.16816159896373
 30
0.0
 11
-1826.575177974938
 21
-16.38942219969315
 31
0.0
  0
LINE
  5
466
  8
0
  6
CONTINUOUS
 62
     7
 10
-1817.887425248435
 20
-15.07693296098295
 30
0.0
 11
-1819.361246638677
 21
-15.01145152114133
 31
0.0
  0
LINE
  5
467
  8
0
  6
CONTINUOUS
 62
     7
 10
-1817.887425248435
 20
-15.07693296098295
 30
0.0
 11
-1817.887425248467
 21
-15.42515870244174
 31
0.0
  0
LINE
  5
468
  8
0
  6
CONTINUOUS
 62
     7
 10
-1851.887425248436
 20
-15.07769506238141
 30
0.0
 11
-1850.41360385799
 21
-15.01221362281674
 31
0.0
  0
LINE
  5
469
  8
0
  6
CONTINUOUS
 62
   253
 10
-1848.909191963732
 20
18.33335535090274
 30
0.0
 11
-1848.911611126977
 21
18.07402514992119
 31
0.0
  0
LINE
  5
46A
  8
0
  6
CONTINUOUS
 62
   253
 10
-1820.865658526888
 20
18.3333553482675
 30
0.0
 11
-1820.86891417289
 21
18.56066017051822
 31
0.0
  0
LINE
  5
46B
  8
0
  6
CONTINUOUS
 62
   253
 10
-1851.887425245611
 20
16.00000000165322
 30
0.0
 11
-1850.413603855171
 21
16.00000000151472
 31
0.0
  0
LINE
  5
46C
  8
0
  6
CONTINUOUS
 62
     7
 10
-1817.887425248467
 20
-17.45162063830591
 30
0.0
 11
-1817.887425248277
 21
-15.42515870244174
 31
0.0
  0
LINE
  5
46D
  8
0
  6
CONTINUOUS
 62
   253
 10
-1820.861246635716
 20
17.49999999873769
 30
0.0
 11
-1820.861749650334
 21
17.79263548176192
 31
0.0
  0
LINE
  5
46E
  8
0
  6
CONTINUOUS
 62
   253
 10
-1794.836543296997
 20
232.3633340390646
 30
0.0
 11
-1795.83705006006
 21
232.3633340391586
 31
0.0
  0
LINE
  5
46F
  8
0
  6
CONTINUOUS
 62
   253
 10
-1795.836529452206
 20
233.3633203314059
 30
0.0
 11
-1795.836631162667
 21
233.3432152251232
 31
0.0
  0
LINE
  5
470
  8
0
  6
CONTINUOUS
 62
   253
 10
-1795.836631162667
 20
233.3432152251232
 30
0.0
 11
-1795.83672888578
 21
233.2857036575249
 31
0.0
  0
LINE
  5
471
  8
0
  6
CONTINUOUS
 62
   253
 10
-1820.863239363674
 20
18.0740251472855
 30
0.0
 11
-1820.865658526888
 21
18.3333553482675
 31
0.0
  0
LINE
  5
472
  8
0
  6
CONTINUOUS
 62
     7
 10
-1851.88742524692
 20
2.067383391762101
 30
0.0
 11
-1850.413603856475
 21
2.132864831326769
 31
0.0
  0
LINE
  5
473
  8
0
  6
CONTINUOUS
 62
   253
 10
-1848.905936317711
 20
18.56066017315286
 30
0.0
 11
-1848.909191963732
 21
18.33335535090274
 31
0.0
  0
LINE
  5
474
  8
0
  6
CONTINUOUS
 62
     7
 10
-1834.387425248346
 20
-15.32316245030929
 30
0.0
 11
-1834.387425248316
 21
-14.99999999999116
 31
0.0
  0
LINE
  5
475
  8
0
  6
CONTINUOUS
 62
   253
 10
-1819.361246638716
 20
-15.42515870230324
 30
0.0
 11
-1819.361246638677
 21
-15.01145152114131
 31
0.0
  0
LINE
  5
476
  8
0
  6
CONTINUOUS
 62
   253
 10
-1848.892532438699
 20
18.97117792197663
 30
0.0
 11
-1848.897443365499
 21
18.88581930013918
 31
0.0
  0
ARC
  5
477
  8
0
  6
CONTINUOUS
 62
   253
 10
-1820.861246635857
 20
15.99999999873766
 30
0.0
 40
1.499999999999994
 50
359.9999999946165
 51
89.99999999461596
  0
LINE
  5
478
  8
0
  6
CONTINUOUS
 62
   253
 10
-1826.575177974868
 20
-15.37619123176104
 30
0.0
 11
-1819.361246638716
 21
-15.42515870230324
 31
0.0
  0
LINE
  5
479
  8
0
  6
CONTINUOUS
 62
     7
 10
-1851.887425248436
 20
-15.07769506238127
 30
0.0
 11
-1851.88742524692
 21
2.06738339176077
 31
0.0
  0
LINE
  5
47A
  8
0
  6
CONTINUOUS
 62
     7
 10
-1834.387425245357
 20
17.50000000000873
 30
0.0
 11
-1834.387425246799
 21
2.145078454150628
 31
0.0
  0
LINE
  5
47B
  8
0
  6
CONTINUOUS
 62
     7
 10
-1850.41360385799
 20
-15.0122136228166
 30
0.0
 11
-1834.387425248316
 21
-14.99999999999116
 31
0.0
  0
LINE
  5
47C
  8
0
  6
CONTINUOUS
 62
   253
 10
-1848.911611126977
 20
18.07402514992119
 30
0.0
 11
-1848.913100840359
 21
17.79263548439788
 31
0.0
  0
LINE
  5
47D
  8
0
  6
CONTINUOUS
 62
   253
 10
-1850.413603856475
 20
2.132864831325437
 30
0.0
 11
-1850.41360385799
 21
-15.0122136228166
 31
0.0
  0
LINE
  5
47E
  8
0
  6
CONTINUOUS
 62
   253
 10
-1834.387425245357
 20
17.50000000000873
 30
0.0
 11
-1848.913603855029
 21
17.50000000137375
 31
0.0
  0
ARC
  5
47F
  8
0
  6
CONTINUOUS
 62
   253
 10
-1848.91360385517
 20
16.00000000137375
 30
0.0
 40
1.500000000001659
 50
89.99999999461592
 51
179.9999999946153
  0
LINE
  5
480
  8
0
  6
CONTINUOUS
 62
   253
 10
-1819.361246637161
 20
2.133626933000732
 30
0.0
 11
-1819.361246635858
 21
15.99999999859672
 31
0.0
  0
LINE
  5
481
  8
0
  6
CONTINUOUS
 62
   253
 10
-1820.861246635716
 20
17.49999999873766
 30
0.0
 11
-1834.387425245357
 21
17.50000000000873
 31
0.0
  0
LINE
  5
482
  8
0
  6
CONTINUOUS
 62
     7
 10
-1834.387425245311
 20
19.0000000000087
 30
0.0
 11
-1834.387425245452
 21
17.50000000000873
 31
0.0
  0
LINE
  5
483
  8
0
  6
CONTINUOUS
 62
     7
 10
-1834.387425245311
 20
19.00000000000873
 30
0.0
 11
-1820.887425245326
 21
18.99999999874014
 31
0.0
  0
LINE
  5
484
  8
0
  6
CONTINUOUS
 62
   253
 10
-1820.861749650334
 20
17.79263548176192
 30
0.0
 11
-1820.863239363674
 21
18.0740251472855
 31
0.0
  0
ARC
  5
485
  8
0
  6
CONTINUOUS
 62
   253
 10
-1827.846772008674
 20
0.9550726289593026
 30
0.0
 40
16.38069383986162
 50
264.7699621411736
 51
274.4522133480089
  0
LINE
  5
486
  8
0
  6
CONTINUOUS
 62
     7
 10
-1848.887425245327
 20
19.00000000137128
 30
0.0
 11
-1834.387425245311
 21
19.00000000000873
 31
0.0
  0
LINE
  5
487
  8
0
  6
CONTINUOUS
 62
     7
 10
-1834.387425246799
 20
2.145078454150628
 30
0.0
 11
-1850.413603856474
 21
2.132864831325437
 31
0.0
  0
LINE
  5
488
  8
0
  6
CONTINUOUS
 62
   253
 10
-1851.887425248469
 20
-15.43194660276043
 30
0.0
 11
-1850.41360385803
 21
-15.43194660289893
 31
0.0
  0
LINE
  5
489
  8
0
  6
CONTINUOUS
 62
     7
 10
-1817.887425246919
 20
2.068145493159062
 30
0.0
 11
-1819.361246637161
 21
2.133626933000676
 31
0.0
  0
LINE
  5
48A
  8
0
  6
CONTINUOUS
 62
   253
 10
-1826.575177974868
 20
-15.37619123176103
 30
0.0
 11
-1826.576605706762
 21
-15.65271153356
 31
0.0
  0
LINE
  5
48B
  8
0
  6
CONTINUOUS
 62
   253
 10
-1850.413603855171
 20
16.00000000151472
 30
0.0
 11
-1850.413603856475
 21
2.132864831325437
 31
0.0
  0
LINE
  5
48C
  8
0
  6
CONTINUOUS
 62
   253
 10
-1819.361246638716
 20
-15.42515870230324
 30
0.0
 11
-1817.887425248467
 21
-15.42515870244171
 31
0.0
  0
LINE
  5
48D
  8
0
  6
CONTINUOUS
 62
   253
 10
-1848.887425245327
 20
19.00000000137131
 30
0.0
 11
-1848.892532438699
 21
18.97117792197663
 31
0.0
  0
LINE
  5
48E
  8
0
  6
CONTINUOUS
 62
     7
 10
-1851.887425248469
 20
-15.43194660276043
 30
0.0
 11
-1851.887425248436
 21
-15.07769506238127
 31
0.0
  0
LINE
  5
48F
  8
0
  6
CONTINUOUS
 62
   253
 10
-1848.897443365499
 20
18.88581930013918
 30
0.0
 11
-1848.901969301565
 21
18.74720441982649
 31
0.0
  0
LINE
  5
490
  8
0
  6
CONTINUOUS
 62
   253
 10
-1848.901969301565
 20
18.74720441982649
 30
0.0
 11
-1848.905936317711
 21
18.56066017315286
 31
0.0
  0
LINE
  5
491
  8
0
  6
CONTINUOUS
 62
   253
 10
-1820.86891417289
 20
18.56066017051822
 30
0.0
 11
-1820.87288118903
 21
18.74720441719259
 31
0.0
  0
LINE
  5
492
  8
0
  6
CONTINUOUS
 62
   253
 10
-1820.87288118903
 20
18.74720441719259
 30
0.0
 11
-1820.877407125103
 21
18.88581929750612
 31
0.0
  0
LINE
  5
493
  8
0
  6
CONTINUOUS
 62
     7
 10
-1794.832689921333
 20
232.5793947055282
 30
0.0
 11
-1794.889594487175
 21
232.7669858561765
 31
0.0
  0
LINE
  5
494
  8
0
  6
CONTINUOUS
 62
     7
 10
-1794.889594487175
 20
232.7669858561765
 30
0.0
 11
-1794.982002572614
 21
232.939870277235
 31
0.0
  0
LINE
  5
495
  8
0
  6
CONTINUOUS
 62
   253
 10
-1794.836543303925
 20
158.6366659534261
 30
0.0
 11
-1795.837050066988
 21
158.6366659535201
 31
0.0
  0
LINE
  5
496
  8
0
  6
CONTINUOUS
 62
   253
 10
-1795.005081938088
 20
158.0811118838713
 30
0.0
 11
-1794.912671425879
 21
158.253994098689
 31
0.0
  0
LINE
  5
497
  8
0
  6
CONTINUOUS
 62
     7
 10
-1794.982002572614
 20
232.939870277235
 30
0.0
 11
-1795.106363110308
 21
233.0914043485217
 31
0.0
  0
LINE
  5
498
  8
0
  6
CONTINUOUS
 62
     7
 10
-1795.106363110308
 20
233.0914043485217
 30
0.0
 11
-1795.257897160819
 21
233.2157649032751
 31
0.0
  0
LINE
  5
499
  8
0
  6
CONTINUOUS
 62
     7
 10
-1795.257897160819
 20
233.2157649032751
 30
0.0
 11
-1795.430781558184
 21
233.3081730014013
 31
0.0
  0
LINE
  5
49A
  8
0
  6
CONTINUOUS
 62
   253
 10
-1795.836728892881
 20
157.7142963351538
 30
0.0
 11
-1795.836631169779
 21
157.6567847675555
 31
0.0
  0
LINE
  5
49B
  8
0
  6
CONTINUOUS
 62
   253
 10
-1795.12944329522
 20
157.9295785575581
 30
0.0
 11
-1795.005081938088
 21
158.0811118838713
 31
0.0
  0
LINE
  5
49C
  8
0
  6
CONTINUOUS
 62
     7
 10
-1795.430781558184
 20
233.3081730014013
 30
0.0
 11
-1795.618372683132
 21
233.3650775750716
 31
0.0
  0
LINE
  5
49D
  8
0
  6
CONTINUOUS
 62
   253
 10
-1794.836543299991
 20
200.4999999962453
 30
0.0
 11
-1795.837050063054
 21
200.4999999963393
 31
0.0
  0
LINE
  5
49E
  8
0
  6
CONTINUOUS
 62
   253
 10
-1795.837010484278
 20
232.7448077885302
 30
0.0
 11
-1795.837040070772
 21
232.5577823969703
 31
0.0
  0
LINE
  5
49F
  8
0
  6
CONTINUOUS
 62
   253
 10
-1795.280976519261
 20
233.1947827346912
 30
0.0
 11
-1795.453858489888
 21
233.2871930390408
 31
0.0
  0
LINE
  5
4A0
  8
0
  6
CONTINUOUS
 62
   253
 10
-1794.855762912225
 20
232.5584183258834
 30
0.0
 11
-1794.912671418879
 21
232.746005893816
 31
0.0
  0
LINE
  5
4A1
  8
0
  6
CONTINUOUS
 62
   253
 10
-1795.837050066988
 20
158.6366659535202
 30
0.0
 11
-1795.837050063054
 21
200.4999999963393
 31
0.0
  0
LINE
  5
4A2
  8
0
  6
CONTINUOUS
 62
   253
 10
-1795.836529459321
 20
157.6366796612727
 30
0.0
 11
-1795.641445681136
 21
157.6558987972151
 31
0.0
  0
LINE
  5
4A3
  8
0
  6
CONTINUOUS
 62
   253
 10
-1795.83705006006
 20
232.3633340391585
 30
0.0
 11
-1834.800378766985
 21
232.3633340428199
 31
0.0
  0
LINE
  5
4A4
  8
0
  6
CONTINUOUS
 62
   253
 10
-1795.837050063054
 20
200.4999999963393
 30
0.0
 11
-1795.83705006006
 21
232.3633340391585
 31
0.0
  0
LINE
  5
4A5
  8
0
  6
CONTINUOUS
 62
     7
 10
-1834.79985815913
 20
233.3633203350673
 30
0.0
 11
-1834.799959869591
 21
233.3432152287847
 31
0.0
  0
LINE
  5
4A6
  8
0
  6
CONTINUOUS
 62
   253
 10
-1795.836897742469
 20
233.0685871980201
 30
0.0
 11
-1795.836962430028
 21
232.9172706155125
 31
0.0
  0
LINE
  5
4A7
  8
0
  6
CONTINUOUS
 62
     7
 10
-1834.799959869591
 20
233.3432152287847
 30
0.0
 11
-1834.800057592704
 21
233.2857036611864
 31
0.0
  0
LINE
  5
4A8
  8
0
  6
CONTINUOUS
 62
   253
 10
-1795.836818898099
 20
157.8070188894945
 30
0.0
 11
-1795.836728892881
 21
157.7142963351538
 31
0.0
  0
LINE
  5
4A9
  8
0
  6
CONTINUOUS
 62
   253
 10
-1794.912671425879
 20
158.253994098689
 30
0.0
 11
-1794.85576291919
 21
158.4415816666109
 31
0.0
  0
LINE
  5
4AA
  8
0
  6
CONTINUOUS
 62
   253
 10
-1795.45385849699
 20
157.7128069535659
 30
0.0
 11
-1795.280976526345
 21
157.805217257883
 31
0.0
  0
LINE
  5
4AB
  8
0
  6
CONTINUOUS
 62
     7
 10
-1834.800057592704
 20
233.2857036611864
 30
0.0
 11
-1834.80014759794
 21
233.1929811068458
 31
0.0
  0
LINE
  5
4AC
  8
0
  6
CONTINUOUS
 62
     7
 10
-1834.80014759794
 20
233.1929811068458
 30
0.0
 11
-1834.800226449394
 21
233.0685872016817
 31
0.0
  0
LINE
  5
4AD
  8
0
  6
CONTINUOUS
 62
     7
 10
-1834.800291136953
 20
232.917270619174
 30
0.0
 11
-1834.800339191202
 21
232.7448077921916
 31
0.0
  0
LINE
  5
4AE
  8
0
  6
CONTINUOUS
 62
     7
 10
-1834.800339191202
 20
232.7448077921916
 30
0.0
 11
-1834.800368777696
 21
232.5577824006318
 31
0.0
  0
LINE
  5
4AF
  8
0
  6
CONTINUOUS
 62
   253
 10
-1834.79985815913
 20
233.3633203350673
 30
0.0
 11
-1795.836529452206
 21
233.3633203314059
 31
0.0
  0
LINE
  5
4B0
  8
0
  6
CONTINUOUS
 62
   253
 10
-1795.836962430028
 20
232.9172706155125
 30
0.0
 11
-1795.837010484278
 21
232.7448077885302
 31
0.0
  0
LINE
  5
4B1
  8
0
  6
CONTINUOUS
 62
   253
 10
-1795.837040077736
 20
158.4422175957084
 30
0.0
 11
-1795.837010491277
 21
158.2551922041487
 31
0.0
  0
LINE
  5
4B2
  8
0
  6
CONTINUOUS
 62
   253
 10
-1795.836529459322
 20
157.6366796612726
 30
0.0
 11
-1834.799858166246
 21
157.6366796649341
 31
0.0
  0
LINE
  5
4B3
  8
0
  6
CONTINUOUS
 62
     7
 10
-1834.800378773913
 20
158.6366659571815
 30
0.0
 11
-1834.800368784661
 21
158.4422175993698
 31
0.0
  0
LINE
  5
4B4
  8
0
  6
CONTINUOUS
 62
     7
 10
-1834.800147605024
 20
157.8070188931559
 30
0.0
 11
-1834.800057599806
 21
157.7142963388152
 31
0.0
  0
LINE
  5
4B5
  8
0
  6
CONTINUOUS
 62
   253
 10
-1795.005081931056
 20
232.9188881086511
 30
0.0
 11
-1795.129443288159
 21
233.0704214349876
 31
0.0
  0
LINE
  5
4B6
  8
0
  6
CONTINUOUS
 62
     7
 10
-1834.800291143985
 20
158.0827293808276
 30
0.0
 11
-1834.800226456454
 21
157.9314127983201
 31
0.0
  0
LINE
  5
4B7
  8
0
  6
CONTINUOUS
 62
   253
 10
-1795.129443288159
 20
233.0704214349876
 30
0.0
 11
-1795.280976519261
 21
233.1947827346912
 31
0.0
  0
LINE
  5
4B8
  8
0
  6
CONTINUOUS
 62
   253
 10
-1794.836543296997
 20
232.3633340390646
 30
0.0
 11
-1794.836543299991
 21
200.4999999962453
 31
0.0
  0
LINE
  5
4B9
  8
0
  6
CONTINUOUS
 62
   253
 10
-1795.836818891015
 20
233.1929811031843
 30
0.0
 11
-1795.836897742469
 21
233.0685871980201
 31
0.0
  0
LINE
  5
4BA
  8
0
  6
CONTINUOUS
 62
   253
 10
-1795.83696243706
 20
158.0827293771663
 30
0.0
 11
-1795.836897749529
 21
157.9314127946587
 31
0.0
  0
LINE
  5
4BB
  8
0
  6
CONTINUOUS
 62
   253
 10
-1795.280976526345
 20
157.805217257883
 30
0.0
 11
-1795.12944329522
 21
157.9295785575581
 31
0.0
  0
LINE
  5
4BC
  8
0
  6
CONTINUOUS
 62
     7
 10
-1834.800226449394
 20
233.0685872016817
 30
0.0
 11
-1834.800291136953
 21
232.917270619174
 31
0.0
  0
LINE
  5
4BD
  8
0
  6
CONTINUOUS
 62
   253
 10
-1795.453858489888
 20
233.2871930390408
 30
0.0
 11
-1795.641445674024
 21
233.3441011954268
 31
0.0
  0
LINE
  5
4BE
  8
0
  6
CONTINUOUS
 62
     7
 10
-1834.800226456454
 20
157.9314127983201
 30
0.0
 11
-1834.800147605024
 21
157.8070188931559
 31
0.0
  0
LINE
  5
4BF
  8
0
  6
CONTINUOUS
 62
   253
 10
-1795.837040070772
 20
232.5577823969703
 30
0.0
 11
-1795.83705006006
 21
232.3633340391586
 31
0.0
  0
LINE
  5
4C0
  8
0
  6
CONTINUOUS
 62
   253
 10
-1794.912671418879
 20
232.746005893816
 30
0.0
 11
-1795.005081931056
 21
232.9188881086511
 31
0.0
  0
LINE
  5
4C1
  8
0
  6
CONTINUOUS
 62
   253
 10
-1834.800378773913
 20
158.6366659571815
 30
0.0
 11
-1795.837050066988
 21
158.6366659535201
 31
0.0
  0
LINE
  5
4C2
  8
0
  6
CONTINUOUS
 62
   253
 10
-1795.83672888578
 20
233.2857036575249
 30
0.0
 11
-1795.836818891015
 21
233.1929811031843
 31
0.0
  0
LINE
  5
4C3
  8
0
  6
CONTINUOUS
 62
     7
 10
-1834.800339198202
 20
158.2551922078101
 30
0.0
 11
-1834.800291143985
 21
158.0827293808276
 31
0.0
  0
LINE
  5
4C4
  8
0
  6
CONTINUOUS
 62
     7
 10
-1834.800057599806
 20
157.7142963388152
 30
0.0
 11
-1834.799959876703
 21
157.6567847712168
 31
0.0
  0
LINE
  5
4C5
  8
0
  6
CONTINUOUS
 62
     7
 10
-1834.800368784661
 20
158.4422175993698
 30
0.0
 11
-1834.800339198202
 21
158.2551922078101
 31
0.0
  0
LINE
  5
4C6
  8
0
  6
CONTINUOUS
 62
   253
 10
-1795.836897749529
 20
157.9314127946587
 30
0.0
 11
-1795.836818898099
 21
157.8070188894945
 31
0.0
  0
LINE
  5
4C7
  8
0
  6
CONTINUOUS
 62
   253
 10
-1795.641445674024
 20
233.3441011954268
 30
0.0
 11
-1795.836529452206
 21
233.3633203314059
 31
0.0
  0
LINE
  5
4C8
  8
0
  6
CONTINUOUS
 62
   253
 10
-1795.641445681136
 20
157.6558987972151
 30
0.0
 11
-1795.45385849699
 21
157.7128069535659
 31
0.0
  0
LINE
  5
4C9
  8
0
  6
CONTINUOUS
 62
   253
 10
-1794.85576291919
 20
158.4415816666109
 30
0.0
 11
-1794.836543303925
 21
158.6366659534261
 31
0.0
  0
LINE
  5
4CA
  8
0
  6
CONTINUOUS
 62
     7
 10
-1834.799959876703
 20
157.6567847712168
 30
0.0
 11
-1834.799858166246
 21
157.6366796649341
 31
0.0
  0
LINE
  5
4CB
  8
0
  6
CONTINUOUS
 62
   253
 10
-1794.836543299991
 20
200.4999999962453
 30
0.0
 11
-1794.836543303925
 21
158.6366659534261
 31
0.0
  0
LINE
  5
4CC
  8
0
  6
CONTINUOUS
 62
     7
 10
-1834.800378773913
 20
158.6366659571815
 30
0.0
 11
-1834.800378766985
 21
232.3633340428199
 31
0.0
  0
LINE
  5
4CD
  8
0
  6
CONTINUOUS
 62
   253
 10
-1794.836543296997
 20
232.3633340390645
 30
0.0
 11
-1794.855762912225
 21
232.5584183258834
 31
0.0
  0
LINE
  5
4CE
  8
0
  6
CONTINUOUS
 62
     7
 10
-1794.813475609553
 20
232.3843055971782
 30
0.0
 11
-1794.832689921333
 21
232.5793947055282
 31
0.0
  0
LINE
  5
4CF
  8
0
  6
CONTINUOUS
 62
   253
 10
-1795.837010491277
 20
158.2551922041487
 30
0.0
 11
-1795.83696243706
 21
158.0827293771663
 31
0.0
  0
LINE
  5
4D0
  8
0
  6
CONTINUOUS
 62
   253
 10
-1795.836631169779
 20
157.6567847675555
 30
0.0
 11
-1795.836529459321
 21
157.6366796612727
 31
0.0
  0
LINE
  5
4D1
  8
0
  6
CONTINUOUS
 62
     7
 10
-1834.800368777696
 20
232.5577824006318
 30
0.0
 11
-1834.800378766985
 21
232.36333404282
 31
0.0
  0
LINE
  5
4D2
  8
0
  6
CONTINUOUS
 62
   253
 10
-1795.837050066988
 20
158.6366659535202
 30
0.0
 11
-1795.837040077736
 21
158.4422175957084
 31
0.0
  0
LINE
  5
4D3
  8
0
  6
CONTINUOUS
 62
     7
 10
-1794.827889151507
 20
160.0999999962449
 30
0.0
 11
-1794.82788914771
 21
200.4999999962445
 31
0.0
  0
LINE
  5
4D4
  8
0
  6
CONTINUOUS
 62
     7
 10
-1811.913637653135
 20
233.4563623354963
 30
0.0
 11
-1824.899999990809
 21
233.4563623367166
 31
0.0
  0
LINE
  5
4D5
  8
0
  6
CONTINUOUS
 62
     7
 10
-1811.869999990652
 20
233.4999999978127
 30
0.0
 11
-1811.913637653135
 21
233.4563623354963
 31
0.0
  0
LINE
  5
4D6
  8
0
  6
CONTINUOUS
 62
     7
 10
-1834.879571179388
 20
152.5000000000041
 30
0.0
 11
-1834.874335143624
 21
153.5000000000033
 31
0.0
  0
LINE
  5
4D7
  8
0
  6
CONTINUOUS
 62
     7
 10
-1774.159814071087
 20
233.4701625313614
 30
0.0
 11
-1773.000304646754
 21
233.4999999941601
 31
0.0
  0
LINE
  5
4D8
  8
0
  6
CONTINUOUS
 62
     7
 10
-1834.796191990077
 20
157.6000000000008
 30
0.0
 11
-1834.796191990077
 21
157.5960028570996
 31
0.0
  0
LINE
  5
4D9
  8
0
  6
CONTINUOUS
 62
     7
 10
-1824.797763396396
 20
233.3842918922433
 30
0.0
 11
-1795.813461764762
 21
233.3842918895196
 31
0.0
  0
LINE
  5
4DA
  8
0
  6
CONTINUOUS
 62
     7
 10
-1811.869999997946
 20
157.565464801763
 30
0.0
 11
-1811.913637660266
 21
157.5654648017671
 31
0.0
  0
LINE
  5
4DB
  8
0
  6
CONTINUOUS
 62
     7
 10
-1811.869999997946
 20
157.565464801763
 30
0.0
 11
-1811.819756695162
 21
157.6157081046588
 31
0.0
  0
LINE
  5
4DC
  8
0
  6
CONTINUOUS
 62
     7
 10
-1795.813461771882
 20
157.6157081031546
 30
0.0
 11
-1795.618372690248
 21
157.634922417566
 31
0.0
  0
LINE
  5
4DD
  8
0
  6
CONTINUOUS
 62
     7
 10
-1773.000304653895
 20
157.4999999941875
 30
0.0
 11
-1774.159814078223
 21
157.5298374572041
 31
0.0
  0
LINE
  5
4DE
  8
0
  6
CONTINUOUS
 62
     7
 10
-1794.813475609553
 20
232.3843055971782
 30
0.0
 11
-1794.813475609692
 21
230.8999999962428
 31
0.0
  0
LINE
  5
4DF
  8
0
  6
CONTINUOUS
 62
     7
 10
-1795.106363117373
 20
157.9085956440196
 30
0.0
 11
-1794.98200257965
 21
158.060129715283
 31
0.0
  0
LINE
  5
4E0
  8
0
  6
CONTINUOUS
 62
     7
 10
-1794.832689928302
 20
158.4206052869617
 30
0.0
 11
-1794.813475616485
 21
158.6156943953081
 31
0.0
  0
LINE
  5
4E1
  8
0
  6
CONTINUOUS
 62
   253
 10
-1794.813475609553
 20
232.3843055971782
 30
0.0
 11
-1794.836543296997
 21
232.3633340390646
 31
0.0
  0
LINE
  5
4E2
  8
0
  6
CONTINUOUS
 62
     7
 10
-1834.79985815913
 20
233.3633203350673
 30
0.0
 11
-1834.796191982954
 21
233.3999999999999
 31
0.0
  0
LINE
  5
4E3
  8
0
  6
CONTINUOUS
 62
     7
 10
-1811.869999997794
 20
157.4999999978401
 30
0.0
 11
-1834.874335143249
 21
157.5000000000018
 31
0.0
  0
LINE
  5
4E4
  8
0
  6
CONTINUOUS
 62
     7
 10
-1824.79619335242
 20
233.3999999990602
 30
0.0
 11
-1834.796191982954
 21
233.3999999999999
 31
0.0
  0
LINE
  5
4E5
  8
0
  6
CONTINUOUS
 62
     7
 10
-1834.879571171306
 20
238.4999999999731
 30
0.0
 11
-1771.49999999026
 21
238.4999999940173
 31
0.0
  0
LINE
  5
4E6
  8
0
  6
CONTINUOUS
 62
   253
 10
-1771.49999999029
 20
237.4999999940177
 30
0.0
 11
-1834.874335135731
 21
237.4999999999729
 31
0.0
  0
LINE
  5
4E7
  8
0
  6
CONTINUOUS
 62
     7
 10
-1795.618372683132
 20
233.3650775750716
 30
0.0
 11
-1795.813461764762
 21
233.3842918895196
 31
0.0
  0
LINE
  5
4E8
  8
0
  6
CONTINUOUS
 62
     7
 10
-1834.88742522481
 20
238.4999999999739
 30
0.0
 11
-1834.879571171306
 21
238.4999999999731
 31
0.0
  0
LINE
  5
4E9
  8
0
  6
CONTINUOUS
 62
     7
 10
-1834.796191990077
 20
157.6000000000008
 30
0.0
 11
-1824.796193359542
 21
157.5999999990611
 31
0.0
  0
LINE
  5
4EA
  8
0
  6
CONTINUOUS
 62
   253
 10
-1794.836543303925
 20
158.6366659534261
 30
0.0
 11
-1794.813475616485
 21
158.6156943953081
 31
0.0
  0
LINE
  5
4EB
  8
0
  6
CONTINUOUS
 62
     7
 10
-1834.799858166246
 20
157.6366796649341
 30
0.0
 11
-1834.796191990077
 21
157.6000000000008
 31
0.0
  0
LINE
  5
4EC
  8
0
  6
CONTINUOUS
 62
   253
 10
-1834.874335143624
 20
153.5000000000033
 30
0.0
 11
-1771.499999998184
 21
153.499999994048
 31
0.0
  0
LINE
  5
4ED
  8
0
  6
CONTINUOUS
 62
   253
 10
-1771.499999998247
 20
153.499999994048
 30
0.0
 11
-1771.499999998341
 21
152.4999999940491
 31
0.0
  0
LINE
  5
4EE
  8
0
  6
CONTINUOUS
 62
     7
 10
-1771.499999998341
 20
152.4999999940483
 30
0.0
 11
-1834.879571179388
 21
152.5000000000041
 31
0.0
  0
LINE
  5
4EF
  8
0
  6
CONTINUOUS
 62
   253
 10
-1768.99999999795
 20
155.9999999938121
 30
0.0
 11
-1768.999999990526
 21
234.9999999937836
 31
0.0
  0
LINE
  5
4F0
  8
0
  6
CONTINUOUS
 62
     7
 10
-1811.869999990816
 20
233.4345351938897
 30
0.0
 11
-1811.913637653137
 21
233.4345351938939
 31
0.0
  0
LINE
  5
4F1
  8
0
  6
CONTINUOUS
 62
     7
 10
-1834.874335136107
 20
233.4999999999744
 30
0.0
 11
-1811.869999990652
 21
233.4999999978127
 31
0.0
  0
LINE
  5
4F2
  8
0
  6
CONTINUOUS
 62
   253
 10
-1824.899999990809
 20
233.4563623367166
 30
0.0
 11
-1834.887425225284
 21
233.4563623376551
 31
0.0
  0
LINE
  5
4F3
  8
0
  6
CONTINUOUS
 62
   253
 10
-1771.49999999026
 20
238.4999999940169
 30
0.0
 11
-1771.499999990354
 21
237.4999999940177
 31
0.0
  0
LINE
  5
4F4
  8
0
  6
CONTINUOUS
 62
     7
 10
-1811.869999990652
 20
233.4999999978127
 30
0.0
 11
-1773.000304646754
 21
233.4999999941601
 31
0.0
  0
LINE
  5
4F5
  8
0
  6
CONTINUOUS
 62
     7
 10
-1834.874335143249
 20
157.5000000000018
 30
0.0
 11
-1834.874335143624
 21
153.5000000000033
 31
0.0
  0
ARC
  5
4F6
  8
0
  6
CONTINUOUS
 62
   253
 10
-1771.499999997949
 20
155.9999999940471
 30
0.0
 40
2.500000000000002
 50
269.999999994616
 51
359.999999994616
  0
LINE
  5
4F7
  8
0
  6
CONTINUOUS
 62
     7
 10
-1775.056629363793
 20
233.415502192522
 30
0.0
 11
-1774.159814071086
 21
233.4701625313615
 31
0.0
  0
LINE
  5
4F8
  8
0
  6
CONTINUOUS
 62
     7
 10
-1794.82788914771
 20
200.4999999962444
 30
0.0
 11
-1794.827889144854
 21
230.8999999962441
 31
0.0
  0
LINE
  5
4F9
  8
0
  6
CONTINUOUS
 62
     7
 10
-1834.874335135731
 20
237.4999999999729
 30
0.0
 11
-1834.874335136107
 21
233.4999999999744
 31
0.0
  0
LINE
  5
4FA
  8
0
  6
CONTINUOUS
 62
   253
 10
-1795.836529452206
 20
233.3633203314059
 30
0.0
 11
-1795.813461764762
 21
233.3842918895196
 31
0.0
  0
LINE
  5
4FB
  8
0
  6
CONTINUOUS
 62
     7
 10
-1794.813475616346
 20
160.0999999962436
 30
0.0
 11
-1794.827889151506
 21
160.0999999962449
 31
0.0
  0
LINE
  5
4FC
  8
0
  6
CONTINUOUS
 62
   253
 10
-1795.813461771882
 20
157.6157081031546
 30
0.0
 11
-1795.836529459322
 21
157.6366796612726
 31
0.0
  0
LINE
  5
4FD
  8
0
  6
CONTINUOUS
 62
     7
 10
-1794.813475609692
 20
230.8999999962427
 30
0.0
 11
-1794.827889144854
 21
230.8999999962441
 31
0.0
  0
LINE
  5
4FE
  8
0
  6
CONTINUOUS
 62
     7
 10
-1795.813461771882
 20
157.6157081031546
 30
0.0
 11
-1824.797763403516
 21
157.6157081058783
 31
0.0
  0
LINE
  5
4FF
  8
0
  6
CONTINUOUS
 62
     7
 10
-1834.796191982954
 20
233.3999999999999
 30
0.0
 11
-1834.796191982953
 21
233.403997142862
 31
0.0
  0
LINE
  5
500
  8
0
  6
CONTINUOUS
 62
     7
 10
-1773.000304646754
 20
233.4999999941601
 30
0.0
 11
-1773.000304653895
 21
157.4999999941875
 31
0.0
  0
LINE
  5
501
  8
0
  6
CONTINUOUS
 62
   253
 10
-1794.836543299991
 20
200.4999999962453
 30
0.0
 11
-1794.82788914771
 21
200.4999999962445
 31
0.0
  0
LINE
  5
502
  8
0
  6
CONTINUOUS
 62
     7
 10
-1811.913637653137
 20
233.4345351938939
 30
0.0
 11
-1811.869999990652
 21
233.4999999978127
 31
0.0
  0
LINE
  5
503
  8
0
  6
CONTINUOUS
 62
     7
 10
-1794.813475616346
 20
160.0999999962436
 30
0.0
 11
-1794.813475616485
 21
158.6156943953081
 31
0.0
  0
LINE
  5
504
  8
0
  6
CONTINUOUS
 62
     7
 10
-1773.000304653895
 20
157.4999999941875
 30
0.0
 11
-1811.869999997794
 21
157.4999999978401
 31
0.0
  0
ARC
  5
505
  8
0
  6
CONTINUOUS
 62
   253
 10
-1771.499999990525
 20
234.9999999940186
 30
0.0
 40
2.500000000000002
 50
359.999999994616
 51
89.99999999461596
  0
LINE
  5
506
  8
0
  6
CONTINUOUS
 62
   253
 10
-1834.88742522481
 20
238.4999999999739
 30
0.0
 11
-1834.887425225284
 21
233.4563623376551
 31
0.0
  0
LINE
  5
507
  8
0
  6
CONTINUOUS
 62
     7
 10
-1775.056629363793
 20
233.415502192522
 30
0.0
 11
-1775.470349540332
 21
233.0017820170626
 31
0.0
  0
LINE
  5
508
  8
0
  6
CONTINUOUS
 62
   253
 10
-1795.026887064069
 20
233.0017820189003
 30
0.0
 11
-1775.470349540332
 21
233.0017820170625
 31
0.0
  0
LINE
  5
509
  8
0
  6
CONTINUOUS
 62
     7
 10
-1811.819756688082
 20
233.3842918910237
 30
0.0
 11
-1811.869999990817
 21
233.4345351938897
 31
0.0
  0
LINE
  5
50A
  8
0
  6
CONTINUOUS
 62
     7
 10
-1811.913637653135
 20
233.4563623354963
 30
0.0
 11
-1811.913637653137
 21
233.4345351938939
 31
0.0
  0
LINE
  5
50B
  8
0
  6
CONTINUOUS
 62
     7
 10
-1774.159814078222
 20
157.5298374572041
 30
0.0
 11
-1775.056629370919
 21
157.5844977962121
 31
0.0
  0
LINE
  5
50C
  8
0
  6
CONTINUOUS
 62
     7
 10
-1811.913637660267
 20
157.5654648017671
 30
0.0
 11
-1811.869999997794
 21
157.4999999978401
 31
0.0
  0
LINE
  5
50D
  8
0
  6
CONTINUOUS
 62
     7
 10
-1795.43078156529
 20
157.6918269912011
 30
0.0
 11
-1795.257897167907
 21
157.7842350892947
 31
0.0
  0
LINE
  5
50E
  8
0
  6
CONTINUOUS
 62
     7
 10
-1795.257897167907
 20
157.7842350892947
 30
0.0
 11
-1795.106363117373
 21
157.9085956440196
 31
0.0
  0
LINE
  5
50F
  8
0
  6
CONTINUOUS
 62
     7
 10
-1794.98200257965
 20
158.060129715283
 30
0.0
 11
-1794.889594494179
 21
158.2330141363241
 31
0.0
  0
LINE
  5
510
  8
0
  6
CONTINUOUS
 62
     7
 10
-1794.889594494179
 20
158.2330141363241
 30
0.0
 11
-1794.832689928302
 21
158.4206052869617
 31
0.0
  0
LINE
  5
511
  8
0
  6
CONTINUOUS
 62
     7
 10
-1834.874335135731
 20
237.4999999999729
 30
0.0
 11
-1834.879571171306
 21
238.4999999999731
 31
0.0
  0
LINE
  5
512
  8
0
  6
CONTINUOUS
 62
     7
 10
-1795.618372690248
 20
157.634922417566
 30
0.0
 11
-1795.43078156529
 21
157.6918269912011
 31
0.0
  0
LINE
  5
513
  8
0
  6
CONTINUOUS
 62
   253
 10
-1554.500000014472
 20
-16.69885728454915
 30
0.0
 11
-1817.887425248578
 21
-16.69885725979858
 31
0.0
  0
LINE
  5
514
  8
0
  6
CONTINUOUS
 62
   253
 10
-1553.792893193379
 20
407.9951026067299
 30
0.0
 11
-1553.668530362249
 21
408.1483734871928
 31
0.0
  0
LINE
  5
515
  8
0
  6
CONTINUOUS
 62
     7
 10
-1834.887425209004
 20
406.7026625600884
 30
0.0
 11
-1834.892204894001
 21
407.6988572581802
 31
0.0
  0
LINE
  5
516
  8
0
  6
CONTINUOUS
 62
   253
 10
-1553.519214694116
 20
408.5129790824707
 30
0.0
 11
-1553.499999974502
 21
408.7103022087324
 31
0.0
  0
LINE
  5
517
  8
0
  6
CONTINUOUS
 62
     7
 10
-1830.903133352389
 20
19.59686665838392
 30
0.0
 11
-1830.903133352445
 21
18.99999999968133
 31
0.0
  0
LINE
  5
518
  8
0
  6
CONTINUOUS
 62
   253
 10
-1553.668530362249
 20
408.1483734871928
 30
0.0
 11
-1553.576120442025
 21
408.3232389732948
 31
0.0
  0
LINE
  5
519
  8
0
  6
CONTINUOUS
 62
     7
 10
-1767.99999999059
 20
234.9999999936897
 30
0.0
 11
-1767.999999998014
 21
155.9999999937182
 31
0.0
  0
LINE
  5
51A
  8
0
  6
CONTINUOUS
 62
     7
 10
-1834.903133332296
 20
233.403997142872
 30
0.0
 11
-1834.887425225284
 21
233.4563623376551
 31
0.0
  0
LINE
  5
51B
  8
0
  6
CONTINUOUS
 62
     7
 10
-1834.88742522481
 20
238.4999999999739
 30
0.0
 11
-1834.887425209004
 21
406.7026625600884
 31
0.0
  0
LINE
  5
51C
  8
0
  6
CONTINUOUS
 62
   253
 10
-1552.500000014519
 20
-17.80000002646972
 30
0.0
 11
-1528.762816120736
 21
-17.80000002870033
 31
0.0
  0
LINE
  5
51D
  8
0
  6
CONTINUOUS
 62
   253
 10
-1554.11731654222
 20
407.7758488962837
 30
0.0
 11
-1553.944429741557
 21
407.8693164458871
 31
0.0
  0
LINE
  5
51E
  8
0
  6
CONTINUOUS
 62
   253
 10
-1768.99999999795
 20
155.9999999938121
 30
0.0
 11
-1767.999999998015
 21
155.9999999937181
 31
0.0
  0
LINE
  5
51F
  8
0
  6
CONTINUOUS
 62
     7
 10
-1834.903133332296
 20
233.403997142872
 30
0.0
 11
-1834.903133316183
 21
404.8700002120557
 31
0.0
  0
LINE
  5
520
  8
0
  6
CONTINUOUS
 62
     7
 10
-1834.892204894001
 20
407.6988572581802
 30
0.0
 11
-1834.999999975627
 21
409.4999999999227
 31
0.0
  0
LINE
  5
521
  8
0
  6
CONTINUOUS
 62
   253
 10
-1552.499999974431
 20
408.7999999733764
 30
0.0
 11
-1552.499999974439
 21
408.7103022086383
 31
0.0
  0
LINE
  5
522
  8
0
  6
CONTINUOUS
 62
   253
 10
-1554.304909652574
 20
407.7182918634339
 30
0.0
 11
-1554.11731654222
 21
407.7758488962837
 31
0.0
  0
LINE
  5
523
  8
0
  6
CONTINUOUS
 62
   253
 10
-1553.576120442025
 20
408.3232389732948
 30
0.0
 11
-1553.519214694116
 21
408.5129790824707
 31
0.0
  0
LINE
  5
524
  8
0
  6
CONTINUOUS
 62
   253
 10
-1553.944429741557
 20
407.8693164458871
 30
0.0
 11
-1553.792893193379
 21
407.9951026067299
 31
0.0
  0
LINE
  5
525
  8
0
  6
CONTINUOUS
 62
     7
 10
-1834.903133316183
 20
404.8700002120557
 30
0.0
 11
-1834.99999997591
 21
406.4885404872938
 31
0.0
  0
LINE
  5
526
  8
0
  6
CONTINUOUS
 62
     7
 10
-1834.887425245379
 20
19.61257476557537
 30
0.0
 11
-1830.88742524538
 21
19.61257476519948
 31
0.0
  0
LINE
  5
527
  8
0
  6
CONTINUOUS
 62
     7
 10
-1834.90313333942
 20
157.5960028571097
 30
0.0
 11
-1824.952365192913
 21
157.5960028561746
 31
0.0
  0
LINE
  5
528
  8
0
  6
CONTINUOUS
 62
   253
 10
-1774.159814071087
 20
233.4701625313614
 30
0.0
 11
-1774.159814078223
 21
157.5298374572041
 31
0.0
  0
ARC
  5
529
  8
0
  6
CONTINUOUS
 62
     7
 10
-1771.499999990589
 20
234.9999999940186
 30
0.0
 40
3.500000000000003
 50
359.999999994616
 51
89.99999999461602
  0
LINE
  5
52A
  8
0
  6
CONTINUOUS
 62
     7
 10
-1834.903133352387
 20
19.59686665875979
 30
0.0
 11
-1830.903133352389
 21
19.59686665838392
 31
0.0
  0
LINE
  5
52B
  8
0
  6
CONTINUOUS
 62
     7
 10
-1834.99999997591
 20
406.4885404872938
 30
0.0
 11
-1834.999999975627
 21
409.4999999999228
 31
0.0
  0
LINE
  5
52C
  8
0
  6
CONTINUOUS
 62
     7
 10
-1824.952365185789
 20
233.4039971419369
 30
0.0
 11
-1834.903133332296
 21
233.403997142872
 31
0.0
  0
LINE
  5
52D
  8
0
  6
CONTINUOUS
 62
     7
 10
-1830.88742524538
 20
19.61257476519948
 30
0.0
 11
-1830.903133352389
 21
19.59686665838392
 31
0.0
  0
LINE
  5
52E
  8
0
  6
CONTINUOUS
 62
   253
 10
-1552.50000001451
 20
-17.71030226173165
 30
0.0
 11
-1552.500000014519
 21
-17.80000002646972
 31
0.0
  0
LINE
  5
52F
  8
0
  6
CONTINUOUS
 62
   253
 10
-1552.538429453668
 20
-17.3186311910233
 30
0.0
 11
-1552.652240949416
 21
-16.94201181990339
 31
0.0
  0
LINE
  5
530
  8
0
  6
CONTINUOUS
 62
   253
 10
-1554.499999974627
 20
406.7026625337403
 30
0.0
 11
-1834.887425209004
 21
406.7026625600884
 31
0.0
  0
LINE
  5
531
  8
0
  6
CONTINUOUS
 62
   253
 10
-1552.652240949416
 20
-16.94201181990339
 30
0.0
 11
-1552.837060789801
 21
-16.59491741959347
 31
0.0
  0
LINE
  5
532
  8
0
  6
CONTINUOUS
 62
   253
 10
-1553.085786452004
 20
-16.29068663324468
 30
0.0
 11
-1553.388859548314
 21
-16.0410108793618
 31
0.0
  0
LINE
  5
533
  8
0
  6
CONTINUOUS
 62
     7
 10
-1834.903133352387
 20
19.59686665875979
 30
0.0
 11
-1834.90313333942
 21
157.5960028571097
 31
0.0
  0
LINE
  5
534
  8
0
  6
CONTINUOUS
 62
   253
 10
-1767.99999999059
 20
234.9999999936897
 30
0.0
 11
-1768.999999990526
 21
234.9999999937837
 31
0.0
  0
LINE
  5
535
  8
0
  6
CONTINUOUS
 62
   253
 10
-1554.109819370292
 20
-15.74123881990325
 30
0.0
 11
-1554.500000014321
 21
-15.70266258645847
 31
0.0
  0
LINE
  5
536
  8
0
  6
CONTINUOUS
 62
     7
 10
-1830.887425245438
 20
18.99999999967985
 30
0.0
 11
-1830.88742524538
 21
19.61257476519948
 31
0.0
  0
LINE
  5
537
  8
0
  6
CONTINUOUS
 62
   253
 10
-1552.65224090949
 20
407.9420117668387
 30
0.0
 11
-1552.53842941367
 21
408.3186311379372
 31
0.0
  0
LINE
  5
538
  8
0
  6
CONTINUOUS
 62
   253
 10
-1554.499999974597
 20
407.6988572318314
 30
0.0
 11
-1554.499999974691
 21
406.7026625337404
 31
0.0
  0
LINE
  5
539
  8
0
  6
CONTINUOUS
 62
   253
 10
-1775.47034954738
 20
157.9982179717493
 30
0.0
 11
-1795.026887071148
 21
157.998217973587
 31
0.0
  0
LINE
  5
53A
  8
0
  6
CONTINUOUS
 62
   253
 10
-1554.109819330592
 20
406.7412387671125
 30
0.0
 11
-1553.734633109883
 21
406.8554850042855
 31
0.0
  0
LINE
  5
53B
  8
0
  6
CONTINUOUS
 62
     7
 10
-1834.90313333942
 20
157.5960028571097
 30
0.0
 11
-1834.887425232417
 21
157.5436376623236
 31
0.0
  0
LINE
  5
53C
  8
0
  6
CONTINUOUS
 62
   253
 10
-1552.500000014511
 20
-17.71030226173165
 30
0.0
 11
-1552.538429453668
 21
-17.3186311910233
 31
0.0
  0
LINE
  5
53D
  8
0
  6
CONTINUOUS
 62
     7
 10
-1775.056629370919
 20
157.5844977962121
 30
0.0
 11
-1775.056629363793
 21
233.415502192522
 31
0.0
  0
LINE
  5
53E
  8
0
  6
CONTINUOUS
 62
     7
 10
-1834.887425245379
 20
19.61257476557537
 30
0.0
 11
-1834.903133352387
 21
19.59686665875979
 31
0.0
  0
LINE
  5
53F
  8
0
  6
CONTINUOUS
 62
   253
 10
-1554.499999974627
 20
406.7026625337411
 30
0.0
 11
-1554.109819330592
 21
406.7412387671125
 31
0.0
  0
LINE
  5
540
  8
0
  6
CONTINUOUS
 62
   253
 10
-1528.762816080648
 20
408.7999999711458
 30
0.0
 11
-1552.499999974431
 21
408.7999999733764
 31
0.0
  0
LINE
  5
541
  8
0
  6
CONTINUOUS
 62
   253
 10
-1553.388859548314
 20
-16.0410108793618
 30
0.0
 11
-1553.734633149605
 21
-15.85548505714677
 31
0.0
  0
LINE
  5
542
  8
0
  6
CONTINUOUS
 62
   253
 10
-1553.388859508557
 20
407.0410108264355
 30
0.0
 11
-1553.0857864122
 21
407.2906865802615
 31
0.0
  0
LINE
  5
543
  8
0
  6
CONTINUOUS
 62
   253
 10
-1553.0857864122
 20
407.2906865802615
 30
0.0
 11
-1552.83706074994
 21
407.5949173665635
 31
0.0
  0
LINE
  5
544
  8
0
  6
CONTINUOUS
 62
     7
 10
-1834.887425245379
 20
19.61257476557537
 30
0.0
 11
-1834.887425232891
 21
152.5000000000049
 31
0.0
  0
LINE
  5
545
  8
0
  6
CONTINUOUS
 62
   253
 10
-1552.83706074994
 20
407.5949173665635
 30
0.0
 11
-1552.65224090949
 21
407.9420117668387
 31
0.0
  0
LINE
  5
546
  8
0
  6
CONTINUOUS
 62
     7
 10
-1775.47034954738
 20
157.9982179717493
 30
0.0
 11
-1775.056629370919
 21
157.5844977962121
 31
0.0
  0
LINE
  5
547
  8
0
  6
CONTINUOUS
 62
   253
 10
-1817.887425248301
 20
-15.70266256170719
 30
0.0
 11
-1554.500000014321
 21
-15.70266258645775
 31
0.0
  0
ARC
  5
548
  8
0
  6
CONTINUOUS
 62
     7
 10
-1771.499999998013
 20
155.9999999940471
 30
0.0
 40
3.500000000000003
 50
269.999999994616
 51
359.999999994616
  0
LINE
  5
549
  8
0
  6
CONTINUOUS
 62
   253
 10
-1553.734633109883
 20
406.8554850042855
 30
0.0
 11
-1553.388859508557
 21
407.0410108264355
 31
0.0
  0
LINE
  5
54A
  8
0
  6
CONTINUOUS
 62
   253
 10
-1552.53842941367
 20
408.3186311379372
 30
0.0
 11
-1552.49999997444
 21
408.7103022086384
 31
0.0
  0
LINE
  5
54B
  8
0
  6
CONTINUOUS
 62
     7
 10
-1811.869999990816
 20
233.4345351938897
 30
0.0
 11
-1811.869999990821
 21
233.3842918910285
 31
0.0
  0
LINE
  5
54C
  8
0
  6
CONTINUOUS
 62
   253
 10
-1553.734633149605
 20
-15.85548505714677
 30
0.0
 11
-1554.109819370292
 21
-15.74123881990325
 31
0.0
  0
LINE
  5
54D
  8
0
  6
CONTINUOUS
 62
     7
 10
-1811.869999997941
 20
157.6157081046635
 30
0.0
 11
-1811.869999997946
 21
157.5654648017631
 31
0.0
  0
LINE
  5
54E
  8
0
  6
CONTINUOUS
 62
   253
 10
-1554.499999974592
 20
407.6988572318317
 30
0.0
 11
-1554.304909652574
 21
407.7182918634339
 31
0.0
  0
LINE
  5
54F
  8
0
  6
CONTINUOUS
 62
   253
 10
-1528.762816120736
 20
-17.80000002870033
 30
0.0
 11
-1528.762816080648
 21
408.7999999711458
 31
0.0
  0
LINE
  5
550
  8
0
  6
CONTINUOUS
 62
   253
 10
-1552.837060789801
 20
-16.59491741959347
 30
0.0
 11
-1553.085786452004
 21
-16.29068663324468
 31
0.0
  0
LINE
  5
551
  8
0
  6
CONTINUOUS
 62
   253
 10
-1554.500000014384
 20
-15.70266258645775
 30
0.0
 11
-1554.500000014478
 21
-16.69885728454842
 31
0.0
  0
LINE
  5
552
  8
0
  6
CONTINUOUS
 62
   253
 10
-1834.892204894001
 20
407.6988572581802
 30
0.0
 11
-1554.499999974592
 21
407.6988572318317
 31
0.0
  0
LINE
  5
553
  8
0
  6
CONTINUOUS
 62
   253
 10
-1522.263806062539
 20
408.7999999705351
 30
0.0
 11
-1522.263806102627
 21
-17.80000002931098
 31
0.0
  0
LINE
  5
554
  8
0
  6
CONTINUOUS
 62
     7
 10
-1552.4999999744
 20
409.7999999733761
 30
0.0
 11
-1528.762816080618
 21
409.7999999711454
 31
0.0
  0
LINE
  5
555
  8
0
  6
CONTINUOUS
 62
   253
 10
-1554.499999974592
 20
407.6988572318317
 30
0.0
 11
-1554.499999974658
 21
407.8038052754729
 31
0.0
  0
LINE
  5
556
  8
0
  6
CONTINUOUS
 62
     7
 10
-1556.436203657762
 20
-18.05752401183722
 30
0.0
 11
-1557.161222737444
 21
-18.06498269947046
 31
0.0
  0
LINE
  5
557
  8
0
  6
CONTINUOUS
 62
     7
 10
-1558.57774487015
 20
-18.17045675861024
 30
0.0
 11
-1558.728184614296
 21
-18.22818462445679
 31
0.0
  0
LINE
  5
558
  8
0
  6
CONTINUOUS
 62
     7
 10
-1553.500000014582
 20
-17.80000002637577
 30
0.0
 11
-1553.500000014573
 21
-17.71030226163769
 31
0.0
  0
LINE
  5
559
  8
0
  6
CONTINUOUS
 62
   253
 10
-1554.500000014558
 20
-16.8038053281904
 30
0.0
 11
-1554.500000014472
 21
-16.69885728454915
 31
0.0
  0
ARC
  5
55A
  8
0
  6
CONTINUOUS
 62
   253
 10
-1552.500000014559
 20
-16.8038053283783
 30
0.0
 40
2.000000000724008
 50
179.9999999946169
 51
183.6029566166334
  0
LINE
  5
55B
  8
0
  6
CONTINUOUS
 62
   253
 10
-1775.470349540332
 20
233.0017820170626
 30
0.0
 11
-1775.47034954738
 21
157.9982179717493
 31
0.0
  0
LINE
  5
55C
  8
0
  6
CONTINUOUS
 62
   253
 10
-1523.068593148789
 20
409.780785251014
 30
0.0
 11
-1523.263653757602
 21
409.7999999706291
 31
0.0
  0
LINE
  5
55D
  8
0
  6
CONTINUOUS
 62
   253
 10
-1522.55665467223
 20
409.5071067517492
 30
0.0
 11
-1522.708168140635
 21
409.6314695828794
 31
0.0
  0
LINE
  5
55E
  8
0
  6
CONTINUOUS
 62
   253
 10
-1553.51921473415
 20
-17.51297913537242
 30
0.0
 11
-1553.576120482023
 21
-17.32323902618582
 31
0.0
  0
LINE
  5
55F
  8
0
  6
CONTINUOUS
 62
   253
 10
-1522.263806062538
 20
408.7999999705351
 30
0.0
 11
-1522.283017855622
 21
408.995090292553
 31
0.0
  0
LINE
  5
560
  8
0
  6
CONTINUOUS
 62
   253
 10
-1523.263653797878
 20
-18.80000002921706
 30
0.0
 11
-1523.068593189061
 21
-18.78078530963861
 31
0.0
  0
LINE
  5
561
  8
0
  6
CONTINUOUS
 62
     7
 10
-1558.728184574127
 20
409.2281845725341
 30
0.0
 11
-1558.577744829992
 21
409.1704567066593
 31
0.0
  0
LINE
  5
562
  8
0
  6
CONTINUOUS
 62
     7
 10
-1558.577744829992
 20
409.1704567066593
 30
0.0
 11
-1558.255914955796
 21
409.1227105132168
 31
0.0
  0
LINE
  5
563
  8
0
  6
CONTINUOUS
 62
     7
 10
-1557.161222697307
 20
409.0649826472533
 30
0.0
 11
-1556.436203617625
 21
409.0575239594838
 31
0.0
  0
LINE
  5
564
  8
0
  6
CONTINUOUS
 62
   253
 10
-1522.708168140635
 20
409.6314695828794
 30
0.0
 11
-1522.881028609784
 21
409.7238795031044
 31
0.0
  0
LINE
  5
565
  8
0
  6
CONTINUOUS
 62
   253
 10
-1553.500000014573
 20
-17.71030226163769
 30
0.0
 11
-1553.51921473415
 21
-17.51297913537242
 31
0.0
  0
LINE
  5
566
  8
0
  6
CONTINUOUS
 62
   253
 10
-1553.499999974502
 20
408.7103022087325
 30
0.0
 11
-1552.49999997444
 21
408.7103022086384
 31
0.0
  0
LINE
  5
567
  8
0
  6
CONTINUOUS
 62
   253
 10
-1553.499999974494
 20
408.7999999734704
 30
0.0
 11
-1552.499999974431
 21
408.7999999733764
 31
0.0
  0
LINE
  5
568
  8
0
  6
CONTINUOUS
 62
     7
 10
-1558.255914955796
 20
409.1227105132168
 30
0.0
 11
-1557.776760461352
 21
409.0870327299719
 31
0.0
  0
LINE
  5
569
  8
0
  6
CONTINUOUS
 62
   253
 10
-1552.50000001451
 20
-17.71030226173165
 30
0.0
 11
-1553.500000014573
 21
-17.71030226163767
 31
0.0
  0
LINE
  5
56A
  8
0
  6
CONTINUOUS
 62
     7
 10
-1553.499999974503
 20
408.7103022087325
 30
0.0
 11
-1553.499999974494
 21
408.7999999734704
 31
0.0
  0
LINE
  5
56B
  8
0
  6
CONTINUOUS
 62
   253
 10
-1552.499999974494
 20
408.7999999733764
 30
0.0
 11
-1552.4999999744
 21
409.7999999733753
 31
0.0
  0
LINE
  5
56C
  8
0
  6
CONTINUOUS
 62
   253
 10
-1528.762816080712
 20
408.7999999711458
 30
0.0
 11
-1528.762816080618
 21
409.7999999711448
 31
0.0
  0
LINE
  5
56D
  8
0
  6
CONTINUOUS
 62
   253
 10
-1522.881028650046
 20
-18.72387956176429
 30
0.0
 11
-1522.708168180879
 21
-18.63146964157179
 31
0.0
  0
LINE
  5
56E
  8
0
  6
CONTINUOUS
 62
   253
 10
-1522.339914976635
 20
-18.18268346166894
 30
0.0
 11
-1522.283017895747
 21
-17.99509035132534
 31
0.0
  0
LINE
  5
56F
  8
0
  6
CONTINUOUS
 62
     7
 10
-1834.999999975626
 20
409.4999999999227
 30
0.0
 11
-1558.999999975726
 21
409.499999973987
 31
0.0
  0
LINE
  5
570
  8
0
  6
CONTINUOUS
 62
     7
 10
-1557.776760461352
 20
409.0870327299719
 30
0.0
 11
-1557.161222697307
 21
409.0649826472533
 31
0.0
  0
LINE
  5
571
  8
0
  6
CONTINUOUS
 62
   253
 10
-1552.500000014676
 20
-18.800000026469
 30
0.0
 11
-1552.500000014582
 21
-17.80000002646972
 31
0.0
  0
LINE
  5
572
  8
0
  6
CONTINUOUS
 62
     7
 10
-1556.436203617626
 20
409.0575239594837
 30
0.0
 11
-1553.466271880697
 21
409.0575239592047
 31
0.0
  0
LINE
  5
573
  8
0
  6
CONTINUOUS
 62
   253
 10
-1554.304909692458
 20
-16.71829191618797
 30
0.0
 11
-1554.500000014473
 21
-16.69885728454912
 31
0.0
  0
ARC
  5
574
  8
0
  6
CONTINUOUS
 62
   253
 10
-1552.499999974659
 20
407.8038052752851
 30
0.0
 40
2.000000000724018
 50
176.397043372598
 51
179.9999999946161
  0
LINE
  5
575
  8
0
  6
CONTINUOUS
 62
   253
 10
-1522.263806062541
 20
408.7999999705351
 30
0.0
 11
-1528.762816080648
 21
408.7999999711458
 31
0.0
  0
LINE
  5
576
  8
0
  6
CONTINUOUS
 62
   253
 10
-1522.432310822382
 20
-18.35557026231477
 30
0.0
 11
-1522.339914976635
 21
-18.18268346166894
 31
0.0
  0
LINE
  5
577
  8
0
  6
CONTINUOUS
 62
     7
 10
-1528.762816080618
 20
409.7999999711455
 30
0.0
 11
-1523.263653757606
 21
409.7999999706288
 31
0.0
  0
LINE
  5
578
  8
0
  6
CONTINUOUS
 62
   253
 10
-1522.432310782189
 20
409.3555702035705
 30
0.0
 11
-1522.55665467223
 21
409.5071067517492
 31
0.0
  0
LINE
  5
579
  8
0
  6
CONTINUOUS
 62
     7
 10
-1553.466271920833
 20
-18.05752401211633
 30
0.0
 11
-1556.436203657762
 21
-18.05752401183724
 31
0.0
  0
LINE
  5
57A
  8
0
  6
CONTINUOUS
 62
   253
 10
-1522.881028609784
 20
409.7238795031044
 30
0.0
 11
-1523.068593148789
 21
409.780785251014
 31
0.0
  0
LINE
  5
57B
  8
0
  6
CONTINUOUS
 62
   253
 10
-1522.283017895747
 20
-17.99509035132534
 30
0.0
 11
-1522.263806102626
 21
-17.80000002931102
 31
0.0
  0
LINE
  5
57C
  8
0
  6
CONTINUOUS
 62
   253
 10
-1553.500000014581
 20
-17.80000002637577
 30
0.0
 11
-1552.500000014518
 21
-17.80000002646972
 31
0.0
  0
LINE
  5
57D
  8
0
  6
CONTINUOUS
 62
   253
 10
-1522.283017855622
 20
408.995090292553
 30
0.0
 11
-1522.339914936475
 21
409.1826834029073
 31
0.0
  0
LINE
  5
57E
  8
0
  6
CONTINUOUS
 62
   253
 10
-1523.068593189061
 20
-18.78078530963861
 30
0.0
 11
-1522.881028650046
 21
-18.72387956176429
 31
0.0
  0
LINE
  5
57F
  8
0
  6
CONTINUOUS
 62
     7
 10
-1557.161222737444
 20
-18.06498269947046
 30
0.0
 11
-1557.776760501494
 21
-18.08703278207341
 31
0.0
  0
LINE
  5
580
  8
0
  6
CONTINUOUS
 62
   253
 10
-1528.762816120893
 20
-18.80000002869961
 30
0.0
 11
-1528.762816120799
 21
-17.80000002870033
 31
0.0
  0
LINE
  5
581
  8
0
  6
CONTINUOUS
 62
   253
 10
-1522.556654712451
 20
-18.50710681047003
 30
0.0
 11
-1522.432310822382
 21
-18.35557026231477
 31
0.0
  0
LINE
  5
582
  8
0
  6
CONTINUOUS
 62
     7
 10
-1557.776760501494
 20
-18.08703278207341
 30
0.0
 11
-1558.255914995945
 21
-18.12271056522829
 31
0.0
  0
LINE
  5
583
  8
0
  6
CONTINUOUS
 62
   253
 10
-1522.708168180879
 20
-18.63146964157179
 30
0.0
 11
-1522.556654712451
 21
-18.50710681047003
 31
0.0
  0
LINE
  5
584
  8
0
  6
CONTINUOUS
 62
     7
 10
-1558.255914995945
 20
-18.12271056522829
 30
0.0
 11
-1558.57774487015
 21
-18.17045675861024
 31
0.0
  0
LINE
  5
585
  8
0
  6
CONTINUOUS
 62
     7
 10
-1558.728184614295
 20
-18.22818462445674
 30
0.0
 11
-1559.000000015945
 21
-18.50000002585866
 31
0.0
  0
LINE
  5
586
  8
0
  6
CONTINUOUS
 62
     7
 10
-1559.000000015945
 20
-18.50000002585866
 30
0.0
 11
-1817.887425248646
 21
-18.50000000153099
 31
0.0
  0
LINE
  5
587
  8
0
  6
CONTINUOUS
 62
   253
 10
-1553.668530402215
 20
-17.14837354006647
 30
0.0
 11
-1553.792893233315
 21
-16.99510265958022
 31
0.0
  0
LINE
  5
588
  8
0
  6
CONTINUOUS
 62
   253
 10
-1553.792893233315
 20
-16.99510265958022
 30
0.0
 11
-1553.94442978147
 21
-16.86931649870888
 31
0.0
  0
LINE
  5
589
  8
0
  6
CONTINUOUS
 62
     7
 10
-1528.762816120893
 20
-18.80000002869997
 30
0.0
 11
-1552.500000014676
 21
-18.80000002646937
 31
0.0
  0
LINE
  5
58A
  8
0
  6
CONTINUOUS
 62
   253
 10
-1522.339914936475
 20
409.1826834029073
 30
0.0
 11
-1522.432310782189
 21
409.3555702035705
 31
0.0
  0
ARC
  5
58B
  8
0
  6
CONTINUOUS
 62
     7
 10
-1552.500000014582
 20
-17.80000002646972
 30
0.0
 40
1.000000000000001
 50
179.9999999946169
 51
269.9999999946152
  0
LINE
  5
58C
  8
0
  6
CONTINUOUS
 62
     7
 10
-1558.999999975726
 20
409.499999973987
 30
0.0
 11
-1558.728184574127
 21
409.228184572534
 31
0.0
  0
LINE
  5
58D
  8
0
  6
CONTINUOUS
 62
   253
 10
-1528.762816120736
 20
-17.80000002870033
 30
0.0
 11
-1522.263806102631
 21
-17.80000002931104
 31
0.0
  0
LINE
  5
58E
  8
0
  6
CONTINUOUS
 62
     7
 10
-1523.26365379788
 20
-18.80000002921669
 30
0.0
 11
-1528.762816120893
 21
-18.80000002869994
 31
0.0
  0
LINE
  5
58F
  8
0
  6
CONTINUOUS
 62
   253
 10
-1554.117316582115
 20
-16.77584894907303
 30
0.0
 11
-1554.304909692458
 21
-16.71829191618797
 31
0.0
  0
LINE
  5
590
  8
0
  6
CONTINUOUS
 62
   253
 10
-1553.576120482023
 20
-17.32323902618582
 30
0.0
 11
-1553.668530402215
 21
-17.14837354006647
 31
0.0
  0
LINE
  5
591
  8
0
  6
CONTINUOUS
 62
   253
 10
-1553.94442978147
 20
-16.86931649870888
 30
0.0
 11
-1554.117316582115
 21
-16.77584894907303
 31
0.0
  0
ARC
  5
592
  8
0
  6
CONTINUOUS
 62
     7
 10
-1552.499999974494
 20
408.7999999733764
 30
0.0
 40
1.000000000000001
 50
89.99999999461534
 51
179.9999999946169
  0
LINE
  5
593
  8
0
  6
CONTINUOUS
 62
   253
 10
-1554.30490965264
 20
407.8229468772419
 30
0.0
 11
-1554.117316542285
 21
407.8796360815651
 31
0.0
  0
LINE
  5
594
  8
0
  6
CONTINUOUS
 62
   253
 10
-1553.792893193442
 20
408.0955839470952
 30
0.0
 11
-1553.668530362311
 21
408.2465438529345
 31
0.0
  0
LINE
  5
595
  8
0
  6
CONTINUOUS
 62
   253
 10
-1554.499999974658
 20
407.8038052754726
 30
0.0
 11
-1554.30490965264
 21
407.8229468772419
 31
0.0
  0
LINE
  5
596
  8
0
  6
CONTINUOUS
 62
   253
 10
-1553.668530362311
 20
408.2465438529345
 30
0.0
 11
-1553.576120442086
 21
408.4187727671078
 31
0.0
  0
LINE
  5
597
  8
0
  6
CONTINUOUS
 62
   253
 10
-1554.117316542285
 20
407.8796360815651
 30
0.0
 11
-1553.944429741622
 21
407.9716943541119
 31
0.0
  0
LINE
  5
598
  8
0
  6
CONTINUOUS
 62
   253
 10
-1553.944429741622
 20
407.9716943541119
 30
0.0
 11
-1553.792893193442
 21
408.0955839470952
 31
0.0
  0
LINE
  5
599
  8
0
  6
CONTINUOUS
 62
     7
 10
-2147.940644165204
 20
405.9999999999999
 30
0.0
 11
-2149.056290910049
 21
405.9999999999999
 31
0.0
  0
LINE
  5
59A
  8
0
  6
CONTINUOUS
 62
     7
 10
-1522.059355810663
 20
405.9999999999999
 30
0.0
 11
-1520.943709089951
 21
405.9999999999999
 31
0.0
  0
LINE
  5
59B
  8
0
  6
CONTINUOUS
 62
   253
 10
-2149.499466851847
 20
-44.50001531760878
 30
0.0
 11
-2149.499466851847
 21
-49.49946685184631
 31
0.0
  0
ARC
  5
59C
  8
0
  6
CONTINUOUS
 62
     7
 10
-1520.500533148154
 20
435.9994668518463
 30
0.0
 40
8.500000000000007
 50
0.0
 51
90.0
  0
LINE
  5
59D
  8
0
  6
CONTINUOUS
 62
   253
 10
-2149.499466851847
 20
-49.49946685184631
 30
0.0
 11
-2149.499466851847
 21
-49.70892763098492
 31
0.0
  0
LINE
  5
59E
  8
0
  6
CONTINUOUS
 62
     7
 10
-1533.637400553647
 20
-18.80000002824189
 30
0.0
 11
-1533.619070409354
 21
-19.50000000000002
 31
0.0
  0
LINE
  5
59F
  8
0
  6
CONTINUOUS
 62
     7
 10
-1525.38092962355
 20
-19.49999999999999
 30
0.0
 11
-1525.362599479145
 21
-18.80000002901949
 31
0.0
  0
LINE
  5
5A0
  8
0
  6
CONTINUOUS
 62
     7
 10
-2144.637400537253
 20
-18.79999999999998
 30
0.0
 11
-2144.619070392154
 21
-19.49999999999999
 31
0.0
  0
LINE
  5
5A1
  8
0
  6
CONTINUOUS
 62
   253
 10
-1520.500533148154
 20
444.4994668518463
 30
0.0
 11
-1520.500533148154
 21
444.7089276309849
 31
0.0
  0
LINE
  5
5A2
  8
0
  6
CONTINUOUS
 62
     7
 10
-2152.973776821046
 20
-20.27153598353167
 30
0.0
 11
-2152.999466851846
 21
-20.46098117739964
 31
0.0
  0
LINE
  5
5A3
  8
0
  6
CONTINUOUS
 62
   253
 10
-1516.999749625636
 20
435.9994668518463
 30
0.0
 11
-1512.000533148154
 21
435.9994668518463
 31
0.0
  0
LINE
  5
5A4
  8
0
  6
CONTINUOUS
 62
     7
 10
-2152.69335603841
 20
-19.7792299872357
 30
0.0
 11
-2152.817872317352
 21
-19.92431505477092
 31
0.0
  0
ARC
  5
5A5
  8
0
  6
CONTINUOUS
 62
     7
 10
-2149.499466851847
 20
-40.9994668518463
 30
0.0
 40
8.709460779138617
 50
180.0
 51
270.0
  0
LINE
  5
5A6
  8
0
  6
CONTINUOUS
 62
   253
 10
-2149.499466851847
 20
444.7089276309849
 30
0.0
 11
-2149.499466851847
 21
444.4994668518464
 31
0.0
  0
LINE
  5
5A7
  8
0
  6
CONTINUOUS
 62
     7
 10
-2152.912498753579
 20
-20.09044097997772
 30
0.0
 11
-2152.973776821046
 21
-20.27153598353167
 31
0.0
  0
LINE
  5
5A8
  8
0
  6
CONTINUOUS
 62
   253
 10
-2149.499466851847
 20
444.4994668518463
 30
0.0
 11
-2149.499466851847
 21
439.5000153176088
 31
0.0
  0
LINE
  5
5A9
  8
0
  6
CONTINUOUS
 62
     7
 10
-2152.373783979588
 20
-19.57243059214838
 30
0.0
 11
-2152.543500894374
 21
-19.66048852895794
 31
0.0
  0
LINE
  5
5AA
  8
0
  6
CONTINUOUS
 62
     7
 10
-1511.791072369015
 20
435.9994668518463
 30
0.0
 11
-1511.791072369015
 21
-40.9994668518463
 31
0.0
  0
LINE
  5
5AB
  8
0
  6
CONTINUOUS
 62
   253
 10
-1512.000533148154
 20
-40.9994668518463
 30
0.0
 11
-1511.791072369015
 21
-40.9994668518463
 31
0.0
  0
ARC
  5
5AC
  8
0
  6
CONTINUOUS
 62
     7
 10
-1520.500533148154
 20
-40.9994668518463
 30
0.0
 40
8.709460779138588
 50
270.0
 51
0.0
  0
LINE
  5
5AD
  8
0
  6
CONTINUOUS
 62
   253
 10
-2157.999466851846
 20
435.9994668518463
 30
0.0
 11
-2158.208927630985
 21
435.9994668518463
 31
0.0
  0
ARC
  5
5AE
  8
0
  6
CONTINUOUS
 62
     7
 10
-2149.499466851847
 20
435.9994668518463
 30
0.0
 40
8.709460779138588
 50
90.0
 51
180.0
  0
LINE
  5
5AF
  8
0
  6
CONTINUOUS
 62
     7
 10
-1520.500533148154
 20
-49.70892763098492
 30
0.0
 11
-2149.499466851847
 21
-49.70892763098492
 31
0.0
  0
ARC
  5
5B0
  8
0
  6
CONTINUOUS
 62
     7
 10
-1520.500533148154
 20
435.9994668518463
 30
0.0
 40
8.709460779138617
 50
0.0
 51
90.0
  0
LINE
  5
5B1
  8
0
  6
CONTINUOUS
 62
     7
 10
-2158.208927630985
 20
-40.9994668518463
 30
0.0
 11
-2158.208927630985
 21
435.9994668518463
 31
0.0
  0
LINE
  5
5B2
  8
0
  6
CONTINUOUS
 62
     7
 10
-1525.36259943887
 20
409.7999999708229
 30
0.0
 11
-1525.380929584666
 21
410.4999999999964
 31
0.0
  0
LINE
  5
5B3
  8
0
  6
CONTINUOUS
 62
   253
 10
-2158.208927630985
 20
-40.9994668518463
 30
0.0
 11
-2157.999466851846
 21
-40.9994668518463
 31
0.0
  0
LINE
  5
5B4
  8
0
  6
CONTINUOUS
 62
   253
 10
-1520.500533148154
 20
-44.50001531760878
 30
0.0
 11
-1520.500533148154
 21
-49.49946685184631
 31
0.0
  0
LINE
  5
5B5
  8
0
  6
CONTINUOUS
 62
   253
 10
-2157.999466851846
 20
-40.9994668518463
 30
0.0
 11
-2153.000250374364
 21
-40.9994668518463
 31
0.0
  0
LINE
  5
5B6
  8
0
  6
CONTINUOUS
 62
   253
 10
-1520.500533148154
 20
444.4994668518463
 30
0.0
 11
-1520.500533148154
 21
439.5000153176088
 31
0.0
  0
LINE
  5
5B7
  8
0
  6
CONTINUOUS
 62
     7
 10
-1517.000533148153
 20
-20.46098117740106
 30
0.0
 11
-1517.000533148153
 21
415.460981177401
 31
0.0
  0
LINE
  5
5B8
  8
0
  6
CONTINUOUS
 62
     7
 10
-1520.717677445301
 20
-19.49999999999999
 30
0.0
 11
-1517.999923835978
 21
-19.49999999999999
 31
0.0
  0
LINE
  5
5B9
  8
0
  6
CONTINUOUS
 62
     7
 10
-2149.499466851847
 20
444.7089276309849
 30
0.0
 11
-1520.500533148154
 21
444.7089276309849
 31
0.0
  0
LINE
  5
5BA
  8
0
  6
CONTINUOUS
 62
     7
 10
-2152.999466851846
 20
-20.46098117739964
 30
0.0
 11
-2153.000250374364
 21
-20.49999999999999
 31
0.0
  0
LINE
  5
5BB
  8
0
  6
CONTINUOUS
 62
     7
 10
-2152.999466851846
 20
415.460981177401
 30
0.0
 11
-2152.999466851846
 21
-20.46098117739964
 31
0.0
  0
LINE
  5
5BC
  8
0
  6
CONTINUOUS
 62
   253
 10
-1511.791072369015
 20
435.9994668518463
 30
0.0
 11
-1512.000533148153
 21
435.9994668518463
 31
0.0
  0
LINE
  5
5BD
  8
0
  6
CONTINUOUS
 62
     7
 10
-1533.619070367464
 20
410.4999999999999
 30
0.0
 11
-1533.637400513372
 21
409.7999999716035
 31
0.0
  0
LINE
  5
5BE
  8
0
  6
CONTINUOUS
 62
     7
 10
-2136.362599462747
 20
409.8
 30
0.0
 11
-2136.380929607846
 21
410.4999999999999
 31
0.0
  0
LINE
  5
5BF
  8
0
  6
CONTINUOUS
 62
     7
 10
-1520.717677445301
 20
-19.49999999999999
 30
0.0
 11
-1520.867791003684
 21
-19.49999999999999
 31
0.0
  0
LINE
  5
5C0
  8
0
  6
CONTINUOUS
 62
     7
 10
-2152.543500894374
 20
-19.66048852895794
 30
0.0
 11
-2152.69335603841
 21
-19.7792299872357
 31
0.0
  0
LINE
  5
5C1
  8
0
  6
CONTINUOUS
 62
     7
 10
-2149.282322554699
 20
-19.49999999999999
 30
0.0
 11
-2149.132208996316
 21
-19.49999999999999
 31
0.0
  0
LINE
  5
5C2
  8
0
  6
CONTINUOUS
 62
   253
 10
-2157.999466851846
 20
435.9994668518463
 30
0.0
 11
-2153.000250374364
 21
435.9994668518463
 31
0.0
  0
LINE
  5
5C3
  8
0
  6
CONTINUOUS
 62
   253
 10
-1516.999749625636
 20
-40.9994668518463
 30
0.0
 11
-1512.000533148154
 21
-40.9994668518463
 31
0.0
  0
LINE
  5
5C4
  8
0
  6
CONTINUOUS
 62
   253
 10
-1520.500533148154
 20
-49.70892763098492
 30
0.0
 11
-1520.500533148154
 21
-49.49946685184631
 31
0.0
  0
LINE
  5
5C5
  8
0
  6
CONTINUOUS
 62
     7
 10
-2144.619070392154
 20
410.4999999999999
 30
0.0
 11
-2144.637400537253
 21
409.8
 31
0.0
  0
LINE
  5
5C6
  8
0
  6
CONTINUOUS
 62
     7
 10
-2152.190408321381
 20
-19.51827462907092
 30
0.0
 11
-2152.373783979588
 21
-19.57243059214838
 31
0.0
  0
LINE
  5
5C7
  8
0
  6
CONTINUOUS
 62
     7
 10
-2152.000076164022
 20
-19.49999999999999
 30
0.0
 11
-2152.190408321381
 21
-19.51827462907092
 31
0.0
  0
LINE
  5
5C8
  8
0
  6
CONTINUOUS
 62
     7
 10
-2152.817872317352
 20
-19.92431505477092
 30
0.0
 11
-2152.912498753579
 21
-20.09044097997772
 31
0.0
  0
LINE
  5
5C9
  8
0
  6
CONTINUOUS
 62
     7
 10
-2152.000076164022
 20
-19.49999999999999
 30
0.0
 11
-2149.282322554699
 21
-19.49999999999999
 31
0.0
  0
LINE
  5
5CA
  8
0
  6
CONTINUOUS
 62
     7
 10
-1901.0
 20
-228.2
 30
0.0
 11
-1898.5
 21
-228.2
 31
0.0
  0
LINE
  5
5CB
  8
0
  6
CONTINUOUS
 62
   253
 10
-1875.275245833047
 20
-226.6692244235966
 30
0.0
 11
-1875.294570846208
 21
-226.6738230516922
 31
0.0
  0
LINE
  5
5CC
  8
0
  6
CONTINUOUS
 62
   253
 10
-1874.294913521232
 20
-225.7
 30
0.0
 11
-1874.294913521232
 21
-226.6738230516922
 31
0.0
  0
ARC
  5
5CD
  8
0
  6
CONTINUOUS
 62
     7
 10
-1874.294913521232
 20
-226.7
 30
0.0
 40
1.000000000000001
 50
90.0
 51
178.5000000000005
  0
LINE
  5
5CE
  8
0
  6
CONTINUOUS
 62
   253
 10
-1874.294913521232
 20
-226.6738230516922
 30
0.0
 11
-1874.334877871101
 21
-228.2
 31
0.0
  0
LINE
  5
5CF
  8
0
  6
CONTINUOUS
 62
   253
 10
-1520.600028374837
 20
-450.2000761538717
 30
0.0
 11
-1520.499668730658
 21
-438.7
 31
0.0
  0
LINE
  5
5D0
  8
0
  6
CONTINUOUS
 62
   253
 10
-1875.125860475765
 20
-226.6637033448865
 30
0.0
 11
-1875.218279955126
 21
-226.6658074553274
 31
0.0
  0
LINE
  5
5D1
  8
0
  6
CONTINUOUS
 62
     7
 10
-1875.334535196077
 20
-228.2
 30
0.0
 11
-1875.294570846208
 21
-226.6738230516922
 31
0.0
  0
LINE
  5
5D2
  8
0
  6
CONTINUOUS
 62
     7
 10
-1511.8
 20
-438.7
 30
0.0
 11
-1511.900359644178
 21
-450.2000761538717
 31
0.0
  0
LINE
  5
5D3
  8
0
  6
CONTINUOUS
 62
     7
 10
-1513.917812715175
 20
-452.2
 30
0.0
 11
-1520.600028374837
 21
-452.2
 31
0.0
  0
LINE
  5
5D4
  8
0
  6
CONTINUOUS
 62
     7
 10
-1520.600028374837
 20
-452.2
 30
0.0
 11
-1520.600028374837
 21
-450.2000761538717
 31
0.0
  0
LINE
  5
5D5
  8
0
  6
CONTINUOUS
 62
     7
 10
-1874.294913521232
 20
-225.7
 30
0.0
 11
-1852.29225074921
 21
-225.7
 31
0.0
  0
LINE
  5
5D6
  8
0
  6
CONTINUOUS
 62
   253
 10
-1794.836543303925
 20
-226.6757877594331
 30
0.0
 11
-1794.855762919173
 21
-226.6748769816636
 31
0.0
  0
LINE
  5
5D7
  8
0
  6
CONTINUOUS
 62
   253
 10
-1795.641445681125
 20
-226.675288167215
 30
0.0
 11
-1795.836529459321
 21
-226.6763111002504
 31
0.0
  0
LINE
  5
5D8
  8
0
  6
CONTINUOUS
 62
     7
 10
-1520.600028374837
 20
-452.2
 30
0.0
 11
-2149.399971625163
 21
-452.2
 31
0.0
  0
LINE
  5
5D9
  8
0
  6
CONTINUOUS
 62
     7
 10
-1511.791072369015
 20
-438.7
 30
0.0
 11
-1520.500533148153
 21
-438.7
 31
0.0
  0
LINE
  5
5DA
  8
0
  6
CONTINUOUS
 62
     7
 10
-1817.708984626727
 20
-225.692993834905
 30
0.0
 11
-1795.837050066988
 21
-225.6815472003113
 31
0.0
  0
LINE
  5
5DB
  8
0
  6
CONTINUOUS
 62
   253
 10
-1875.218279955126
 20
-226.6658074553274
 30
0.0
 11
-1875.275245833047
 21
-226.6692244235966
 31
0.0
  0
LINE
  5
5DC
  8
0
  6
CONTINUOUS
 62
     7
 10
-2136.380929607846
 20
-19.49999999999999
 30
0.0
 11
-2136.362599462747
 21
-18.79999999999998
 31
0.0
  0
LINE
  5
5DD
  8
0
  6
CONTINUOUS
 62
     7
 10
-1512.000533148154
 20
-426.7
 30
0.0
 11
-1520.500533148154
 21
-426.7
 31
0.0
  0
LINE
  5
5DE
  8
0
  6
CONTINUOUS
 62
   253
 10
-1874.850079903122
 20
-226.6637033448865
 30
0.0
 11
-1875.00153593568
 21
-226.6629928817525
 31
0.0
  0
LINE
  5
5DF
  8
0
  6
CONTINUOUS
 62
     7
 10
-2158.099640355822
 20
-450.2000761538717
 30
0.0
 11
-2149.399971625163
 21
-450.2000761538717
 31
0.0
  0
LINE
  5
5E0
  8
0
  6
CONTINUOUS
 62
   253
 10
-2149.499466851847
 20
-426.7
 30
0.0
 11
-2149.499466851847
 21
-438.7
 31
0.0
  0
LINE
  5
5E1
  8
0
  6
CONTINUOUS
 62
   253
 10
-1794.912671425852
 20
-226.6742225224746
 30
0.0
 11
-1795.005081938055
 21
-226.6738495314908
 31
0.0
  0
LINE
  5
5E2
  8
0
  6
CONTINUOUS
 62
     7
 10
-1817.26693179882
 20
-228.2000000011251
 30
0.0
 11
-1771.499999998184
 21
-228.200000004027
 31
0.0
  0
LINE
  5
5E3
  8
0
  6
CONTINUOUS
 62
     7
 10
-1520.600028374837
 20
-450.2000761538717
 30
0.0
 11
-1511.900359644178
 21
-450.2000761538717
 31
0.0
  0
LINE
  5
5E4
  8
0
  6
CONTINUOUS
 62
   253
 10
-1520.500533148154
 20
-438.7
 30
0.0
 11
-1520.500533148154
 21
-426.7
 31
0.0
  0
LINE
  5
5E5
  8
0
  6
CONTINUOUS
 62
     7
 10
-1520.500533148154
 20
-426.7
 30
0.0
 11
-2149.499466851847
 21
-426.7
 31
0.0
  0
LINE
  5
5E6
  8
0
  6
CONTINUOUS
 62
     7
 10
-2149.399971625163
 20
-450.2000761538717
 30
0.0
 11
-1520.600028374837
 21
-450.2000761538717
 31
0.0
  0
LINE
  5
5E7
  8
0
  6
CONTINUOUS
 62
     7
 10
-2149.399971625163
 20
-452.2
 30
0.0
 11
-2156.082187284825
 21
-452.2
 31
0.0
  0
LINE
  5
5E8
  8
0
  6
CONTINUOUS
 62
     7
 10
-1512.000533148154
 20
-426.7
 30
0.0
 11
-1511.791072369015
 21
-438.7
 31
0.0
  0
LINE
  5
5E9
  8
0
  6
CONTINUOUS
 62
     7
 10
-2149.499466851847
 20
-438.7
 30
0.0
 11
-2158.208927630985
 21
-438.7
 31
0.0
  0
LINE
  5
5EA
  8
0
  6
CONTINUOUS
 62
     7
 10
-1794.836543303925
 20
-226.6757877594326
 30
0.0
 11
-1794.827764756769
 21
-228.2000000025479
 31
0.0
  0
ARC
  5
5EB
  8
0
  6
CONTINUOUS
 62
     7
 10
-1795.836526718996
 20
-226.6815470633647
 30
0.0
 40
0.9999999999999916
 50
0.3299856325084965
 51
90.02998563250908
  0
LINE
  5
5EC
  8
0
  6
CONTINUOUS
 62
     7
 10
-2158.208927630985
 20
-438.7
 30
0.0
 11
-2157.999466851846
 21
-426.7
 31
0.0
  0
LINE
  5
5ED
  8
0
  6
CONTINUOUS
 62
   253
 10
-1795.280976526316
 20
-226.6739939203891
 30
0.0
 11
-1795.453858496968
 21
-226.6745057516799
 31
0.0
  0
ARC
  5
5EE
  8
0
  6
CONTINUOUS
 62
     7
 10
-1901.0
 20
-229.2
 30
0.0
 40
0.9999999999998899
 50
90.0
 51
180.0
  0
LINE
  5
5EF
  8
0
  6
CONTINUOUS
 62
     7
 10
-2149.499466851847
 20
-426.7
 30
0.0
 11
-2157.999466851846
 21
-426.7
 31
0.0
  0
ARC
  5
5F0
  8
0
  6
CONTINUOUS
 62
     7
 10
-1827.887425248874
 20
-221.4000000004517
 30
0.0
 40
4.2500000000087
 50
89.99999999660241
 51
211.7808425185337
  0
LINE
  5
5F1
  8
0
  6
CONTINUOUS
 62
     7
 10
-2156.082187284825
 20
-452.2
 30
0.0
 11
-2158.099640355822
 21
-450.2000761538717
 31
0.0
  0
LINE
  5
5F2
  8
0
  6
CONTINUOUS
 62
     7
 10
-2153.000250379223
 20
-418.7012539143622
 30
0.0
 11
-2149.50077688367
 21
-418.7008779486974
 31
0.0
  0
LINE
  5
5F3
  8
0
  6
CONTINUOUS
 62
   253
 10
-1794.855762919173
 20
-226.6748769816636
 30
0.0
 11
-1794.912671425852
 21
-226.6742225224746
 31
0.0
  0
LINE
  5
5F4
  8
0
  6
CONTINUOUS
 62
   253
 10
-1771.499999998184
 20
-228.2000000040277
 30
0.0
 11
-1771.499999998248
 21
-229.200000004027
 31
0.0
  0
LINE
  5
5F5
  8
0
  6
CONTINUOUS
 62
   253
 10
-1852.463962027659
 20
-226.6738230516922
 30
0.0
 11
-1874.294913521232
 21
-226.6738230516922
 31
0.0
  0
LINE
  5
5F6
  8
0
  6
CONTINUOUS
 62
   253
 10
-1795.453858496968
 20
-226.6745057516799
 30
0.0
 11
-1795.641445681125
 21
-226.675288167215
 31
0.0
  0
LINE
  5
5F7
  8
0
  6
CONTINUOUS
 62
     7
 10
-1520.500533148154
 20
-438.7
 30
0.0
 11
-2149.499466851847
 21
-438.7
 31
0.0
  0
LINE
  5
5F8
  8
0
  6
CONTINUOUS
 62
   253
 10
-1795.129443295186
 20
-226.6737723420477
 30
0.0
 11
-1795.280976526316
 21
-226.6739939203891
 31
0.0
  0
ARC
  5
5F9
  8
0
  6
CONTINUOUS
 62
     7
 10
-1768.999999998013
 20
-229.2000000041855
 30
0.0
 40
1.000000000000001
 50
359.9999999963663
 51
89.99999999636701
  0
LINE
  5
5FA
  8
0
  6
CONTINUOUS
 62
   253
 10
-1795.005081938055
 20
-226.6738495314908
 30
0.0
 11
-1795.129443295186
 21
-226.6737723420477
 31
0.0
  0
LINE
  5
5FB
  8
0
  6
CONTINUOUS
 62
   253
 10
-1898.5
 20
-229.2
 30
0.0
 11
-1898.5
 21
-228.2
 31
0.0
  0
LINE
  5
5FC
  8
0
  6
CONTINUOUS
 62
     7
 10
-1898.5
 20
-228.2
 30
0.0
 11
-1852.733068200981
 21
-228.2
 31
0.0
  0
LINE
  5
5FD
  8
0
  6
CONTINUOUS
 62
     7
 10
-1771.499999998184
 20
-228.200000004027
 30
0.0
 11
-1768.999999997949
 21
-228.2000000041855
 31
0.0
  0
LINE
  5
5FE
  8
0
  6
CONTINUOUS
 62
   253
 10
-1875.00153593568
 20
-226.6629928817525
 30
0.0
 11
-1875.125860475765
 21
-226.6637033448865
 31
0.0
  0
LINE
  5
5FF
  8
0
  6
CONTINUOUS
 62
   253
 10
-2149.500331269342
 20
-438.7
 30
0.0
 11
-2149.399971625163
 21
-450.2000761538717
 31
0.0
  0
LINE
  5
600
  8
0
  6
CONTINUOUS
 62
     7
 10
-2158.099640355822
 20
-450.2000761538717
 30
0.0
 11
-2158.2
 21
-438.7
 31
0.0
  0
LINE
  5
601
  8
0
  6
CONTINUOUS
 62
     7
 10
-1511.900359644178
 20
-450.2000761538717
 30
0.0
 11
-1513.917812715175
 21
-452.2
 31
0.0
  0
LINE
  5
602
  8
0
  6
CONTINUOUS
 62
     7
 10
-2149.399971625163
 20
-452.2
 30
0.0
 11
-2149.399971625163
 21
-450.2000761538717
 31
0.0
  0
LINE
  5
603
  8
0
  6
CONTINUOUS
 62
   253
 10
-1795.836529459322
 20
-226.6763111002504
 30
0.0
 11
-1817.533597048525
 21
-226.6876662185537
 31
0.0
  0
LINE
  5
604
  8
0
  6
CONTINUOUS
 62
   253
 10
-1795.827753926295
 20
-228.2000000024845
 30
0.0
 11
-1795.836529459321
 21
-226.6763111002504
 31
0.0
  0
LINE
  5
605
  8
0
  6
CONTINUOUS
 62
   253
 10
-1874.294913521232
 20
-226.6738230516922
 30
0.0
 11
-1874.489853056241
 21
-226.6692244235966
 31
0.0
  0
ARC
  5
606
  8
0
  6
CONTINUOUS
 62
     7
 10
-1827.887425248874
 20
-221.4000000004517
 30
0.0
 40
4.2500000000087
 50
40.11460964551463
 51
89.99999999660241
  0
LINE
  5
607
  8
0
  6
CONTINUOUS
 62
   253
 10
-1874.489853056241
 20
-226.6692244235966
 30
0.0
 11
-1874.677307687829
 21
-226.6658074553275
 31
0.0
  0
LINE
  5
608
  8
0
  6
CONTINUOUS
 62
   253
 10
-1874.677307687829
 20
-226.6658074553275
 30
0.0
 11
-1874.850079903122
 21
-226.6637033448865
 31
0.0
  0
LINE
  5
609
  8
0
  6
CONTINUOUS
 62
   253
 10
-1795.836529459227
 20
-226.6763111002503
 30
0.0
 11
-1795.837050066988
 21
-225.6815472003113
 31
0.0
  0
LINE
  5
60A
  8
0
  6
CONTINUOUS
 62
   253
 10
-1848.266521226644
 20
-217.0479901989635
 30
0.0
 11
-1848.742322680393
 21
-216.9688374996897
 31
0.0
  0
LINE
  5
60B
  8
0
  6
CONTINUOUS
 62
   253
 10
-1849.994405650297
 20
-216.808288690678
 30
0.0
 11
-1850.300818348884
 21
-216.7871416865231
 31
0.0
  0
LINE
  5
60C
  8
0
  6
CONTINUOUS
 62
   253
 10
-1522.98718830273
 20
-237.0496431205129
 30
0.0
 11
-1523.669769788553
 21
-237.0603807485018
 31
0.0
  0
LINE
  5
60D
  8
0
  6
CONTINUOUS
 62
   253
 10
-2141.830915583243
 20
-232.6389165774695
 30
0.0
 11
-2141.830915583243
 21
-229.2
 31
0.0
  0
LINE
  5
60E
  8
0
  6
CONTINUOUS
 62
   253
 10
-1819.271459390826
 20
-216.8317591116653
 30
0.0
 11
-1819.325063012465
 21
-216.7991023237904
 31
0.0
  0
LINE
  5
60F
  8
0
  6
CONTINUOUS
 62
   253
 10
-1849.20018890474
 20
-216.9008817342982
 30
0.0
 11
-1849.622860734746
 21
-216.8466844801693
 31
0.0
  0
LINE
  5
610
  8
0
  6
CONTINUOUS
 62
   253
 10
-1819.699181651117
 20
-216.7871416865231
 30
0.0
 11
-1820.005594349703
 21
-216.808288690678
 31
0.0
  0
LINE
  5
611
  8
0
  6
CONTINUOUS
 62
   253
 10
-2149.239560597166
 20
-237.0367512887279
 30
0.0
 11
-2149.563010227252
 21
-237.0416644683843
 31
0.0
  0
LINE
  5
612
  8
0
  6
CONTINUOUS
 62
   253
 10
-1849.622860734746
 20
-216.8466844801693
 30
0.0
 11
-1849.994405650297
 21
-216.808288690678
 31
0.0
  0
LINE
  5
613
  8
0
  6
CONTINUOUS
 62
   253
 10
-1848.742322680393
 20
-216.9688374996897
 30
0.0
 11
-1849.20018890474
 21
-216.9008817342982
 31
0.0
  0
LINE
  5
614
  8
0
  6
CONTINUOUS
 62
   253
 10
-1820.005594349703
 20
-216.808288690678
 30
0.0
 11
-1820.377139265254
 21
-216.8466844801693
 31
0.0
  0
ARC
  5
615
  8
0
  6
CONTINUOUS
 62
     7
 10
-2141.830915583243
 20
-237.2
 30
0.0
 40
8.000000000000007
 50
90.0
 51
179.0
  0
LINE
  5
616
  8
0
  6
CONTINUOUS
 62
   253
 10
-1520.49922311633
 20
-418.7008779486974
 30
0.0
 11
-1523.669769788553
 21
-237.0603807485018
 31
0.0
  0
LINE
  5
617
  8
0
  6
CONTINUOUS
 62
     7
 10
-1852.90939518169
 20
-229.2
 30
0.0
 11
-1850.728540609175
 21
-216.8317591116653
 31
0.0
  0
LINE
  5
618
  8
0
  6
CONTINUOUS
 62
   253
 10
-1820.79981109526
 20
-216.9008817342982
 30
0.0
 11
-1821.257677319607
 21
-216.9688374996897
 31
0.0
  0
LINE
  5
619
  8
0
  6
CONTINUOUS
 62
     7
 10
-1819.271459390825
 20
-216.8317591116653
 30
0.0
 11
-1817.09060481831
 21
-229.2
 31
0.0
  0
LINE
  5
61A
  8
0
  6
CONTINUOUS
 62
   253
 10
-2148.274097602578
 20
-237.0367512887279
 30
0.0
 11
-2148.804350247261
 21
-237.0350923193016
 31
0.0
  0
ARC
  5
61B
  8
0
  6
CONTINUOUS
 62
   253
 10
-1824.195498155886
 20
-217.4821106431309
 30
0.0
 40
2.5
 50
10.00000000000031
 51
90.00000000000001
  0
LINE
  5
61C
  8
0
  6
CONTINUOUS
 62
   253
 10
-1528.169084416757
 20
-232.6389165774695
 30
0.0
 11
-1528.169084416757
 21
-229.2
 31
0.0
  0
LINE
  5
61D
  8
0
  6
CONTINUOUS
 62
   253
 10
-2146.330230211447
 20
-237.0603807485018
 30
0.0
 11
-2147.01281169727
 21
-237.0496431205129
 31
0.0
  0
LINE
  5
61E
  8
0
  6
CONTINUOUS
 62
   253
 10
-2146.330230211447
 20
-237.0603807485018
 30
0.0
 11
-2149.50077688367
 21
-418.7008779486974
 31
0.0
  0
LINE
  5
61F
  8
0
  6
CONTINUOUS
 62
   253
 10
-1520.237726045837
 20
-237.0496431205128
 30
0.0
 11
-1520.436989772748
 21
-237.0416644683843
 31
0.0
  0
LINE
  5
620
  8
0
  6
CONTINUOUS
 62
     7
 10
-2149.50077688367
 20
-418.7008779486974
 30
0.0
 11
-2149.499466851847
 21
-418.70087754522
 31
0.0
  0
LINE
  5
621
  8
0
  6
CONTINUOUS
 62
   253
 10
-1520.170302855506
 20
-237.0603807485018
 30
0.0
 11
-1520.237726045837
 21
-237.0496431205128
 31
0.0
  0
LINE
  5
622
  8
0
  6
CONTINUOUS
 62
   253
 10
-2149.762273954163
 20
-237.0496431205128
 30
0.0
 11
-2149.829697144494
 21
-237.0603807485018
 31
0.0
  0
LINE
  5
623
  8
0
  6
CONTINUOUS
 62
     7
 10
-1520.170302855506
 20
-237.0603807485018
 30
0.0
 11
-1516.999749620778
 21
-418.7012539143623
 31
0.0
  0
ARC
  5
624
  8
0
  6
CONTINUOUS
 62
     7
 10
-1528.169084416757
 20
-237.2
 30
0.0
 40
8.000000000000007
 50
1.000000000000057
 51
90.0
  0
LINE
  5
625
  8
0
  6
CONTINUOUS
 62
   253
 10
-1848.266521226644
 20
-217.0479901989635
 30
0.0
 11
-1850.409248424401
 21
-229.2
 31
0.0
  0
LINE
  5
626
  8
0
  6
CONTINUOUS
 62
     7
 10
-1516.999749625636
 20
-418.7012536360285
 30
0.0
 11
-1512.000533148154
 21
-426.7
 31
0.0
  0
LINE
  5
627
  8
0
  6
CONTINUOUS
 62
   253
 10
-1521.725902397422
 20
-237.0367512887279
 30
0.0
 11
-1522.330827901514
 21
-237.0416644683844
 31
0.0
  0
ARC
  5
628
  8
0
  6
CONTINUOUS
 62
   253
 10
-1845.804501844113
 20
-217.4821106431309
 30
0.0
 40
2.5
 50
90.0
 51
169.9999999999997
  0
LINE
  5
629
  8
0
  6
CONTINUOUS
 62
     7
 10
-2153.000250379223
 20
-418.7012539143622
 30
0.0
 11
-2149.829697144495
 21
-237.0603807485018
 31
0.0
  0
LINE
  5
62A
  8
0
  6
CONTINUOUS
 62
     7
 10
-2141.830915583243
 20
-229.2
 30
0.0
 11
-1528.169084416757
 21
-229.2
 31
0.0
  0
CIRCLE
  5
62B
  8
0
  6
CONTINUOUS
 62
     7
 10
-1828.25
 20
-220.9
 30
0.0
 40
4.249999999999999
  0
LINE
  5
62C
  8
0
  6
CONTINUOUS
 62
   253
 10
-1850.674936987535
 20
-216.7991023237903
 30
0.0
 11
-1850.728540609175
 21
-216.8317591116653
 31
0.0
  0
LINE
  5
62D
  8
0
  6
CONTINUOUS
 62
   253
 10
-1819.469451327647
 20
-216.7840405992974
 30
0.0
 11
-1819.699181651117
 21
-216.7871416865231
 31
0.0
  0
ARC
  5
62E
  8
0
  6
CONTINUOUS
 62
     7
 10
-1824.195498155886
 20
-217.7
 30
0.0
 40
5.000000000000004
 50
10.00000000000028
 51
90.0
  0
LINE
  5
62F
  8
0
  6
CONTINUOUS
 62
     7
 10
-2157.999466851846
 20
-426.7
 30
0.0
 11
-2153.000250374364
 21
-418.7012536360285
 31
0.0
  0
LINE
  5
630
  8
0
  6
CONTINUOUS
 62
   253
 10
-1522.330827901514
 20
-237.0416644683844
 30
0.0
 11
-1522.98718830273
 21
-237.0496431205129
 31
0.0
  0
ARC
  5
631
  8
0
  6
CONTINUOUS
 62
     7
 10
-1845.804501844113
 20
-217.7
 30
0.0
 40
5.000000000000004
 50
90.00000000000006
 51
170.0000000000002
  0
LINE
  5
632
  8
0
  6
CONTINUOUS
 62
   253
 10
-1845.804501844113
 20
-212.7
 30
0.0
 11
-1845.804501844113
 21
-214.9821106431309
 31
0.0
  0
LINE
  5
633
  8
0
  6
CONTINUOUS
 62
   253
 10
-1824.195498155886
 20
-214.9821106431309
 30
0.0
 11
-1824.195498155886
 21
-212.7
 31
0.0
  0
ARC
  5
634
  8
0
  6
CONTINUOUS
 62
   253
 10
-1528.169084416757
 20
-237.1389165774696
 30
0.0
 40
4.5
 50
0.9999999999999806
 51
90.00000000000001
  0
LINE
  5
635
  8
0
  6
CONTINUOUS
 62
   253
 10
-2149.563010227252
 20
-237.0416644683843
 30
0.0
 11
-2149.762273954163
 21
-237.0496431205128
 31
0.0
  0
ARC
  5
636
  8
0
  6
CONTINUOUS
 62
   253
 10
-2141.830915583243
 20
-237.1389165774696
 30
0.0
 40
4.5
 50
90.0
 51
179.0000000000001
  0
LINE
  5
637
  8
0
  6
CONTINUOUS
 62
     7
 10
-1520.49922311633
 20
-418.7008779486974
 30
0.0
 11
-1516.999749620778
 21
-418.7012539143622
 31
0.0
  0
LINE
  5
638
  8
0
  6
CONTINUOUS
 62
     7
 10
-1520.500533148154
 20
-418.70087754522
 30
0.0
 11
-1520.49922311633
 21
-418.7008779486974
 31
0.0
  0
LINE
  5
639
  8
0
  6
CONTINUOUS
 62
   253
 10
-1520.500533148154
 20
-418.70087754522
 30
0.0
 11
-1520.500533148154
 21
-426.7
 31
0.0
  0
LINE
  5
63A
  8
0
  6
CONTINUOUS
 62
   253
 10
-1824.195498155886
 20
-214.9821106431309
 30
0.0
 11
-1845.804501844113
 21
-214.9821106431309
 31
0.0
  0
LINE
  5
63B
  8
0
  6
CONTINUOUS
 62
   253
 10
-1850.300818348884
 20
-216.7871416865231
 30
0.0
 11
-1850.530548672353
 21
-216.7840405992973
 31
0.0
  0
LINE
  5
63C
  8
0
  6
CONTINUOUS
 62
   253
 10
-1520.436989772748
 20
-237.0416644683843
 30
0.0
 11
-1520.760439402834
 21
-237.0367512887279
 31
0.0
  0
LINE
  5
63D
  8
0
  6
CONTINUOUS
 62
   253
 10
-2148.804350247261
 20
-237.0350923193016
 30
0.0
 11
-2149.239560597166
 21
-237.0367512887279
 31
0.0
  0
LINE
  5
63E
  8
0
  6
CONTINUOUS
 62
   253
 10
-1528.169084416757
 20
-232.6389165774695
 30
0.0
 11
-2141.830915583243
 21
-232.6389165774695
 31
0.0
  0
LINE
  5
63F
  8
0
  6
CONTINUOUS
 62
   253
 10
-1820.377139265254
 20
-216.8466844801693
 30
0.0
 11
-1820.79981109526
 21
-216.9008817342982
 31
0.0
  0
LINE
  5
640
  8
0
  6
CONTINUOUS
 62
   253
 10
-1821.257677319607
 20
-216.9688374996897
 30
0.0
 11
-1821.733478773356
 21
-217.0479901989635
 31
0.0
  0
LINE
  5
641
  8
0
  6
CONTINUOUS
 62
   253
 10
-1521.195649752739
 20
-237.0350923193016
 30
0.0
 11
-1521.725902397422
 21
-237.0367512887279
 31
0.0
  0
LINE
  5
642
  8
0
  6
CONTINUOUS
 62
   253
 10
-2147.01281169727
 20
-237.0496431205129
 30
0.0
 11
-2147.669172098487
 21
-237.0416644683844
 31
0.0
  0
LINE
  5
643
  8
0
  6
CONTINUOUS
 62
     7
 10
-2149.499466851847
 20
-418.70087754522
 30
0.0
 11
-1520.500533148154
 21
-418.70087754522
 31
0.0
  0
LINE
  5
644
  8
0
  6
CONTINUOUS
 62
   253
 10
-1819.590751575599
 20
-229.2
 30
0.0
 11
-1821.733478773356
 21
-217.0479901989635
 31
0.0
  0
LINE
  5
645
  8
0
  6
CONTINUOUS
 62
   253
 10
-2147.669172098487
 20
-237.0416644683844
 30
0.0
 11
-2148.274097602578
 21
-237.0367512887279
 31
0.0
  0
LINE
  5
646
  8
0
  6
CONTINUOUS
 62
   253
 10
-1520.760439402834
 20
-237.0367512887279
 30
0.0
 11
-1521.195649752739
 21
-237.0350923193016
 31
0.0
  0
LINE
  5
647
  8
0
  6
CONTINUOUS
 62
   253
 10
-1850.530548672353
 20
-216.7840405992973
 30
0.0
 11
-1850.674936987535
 21
-216.7991023237903
 31
0.0
  0
LINE
  5
648
  8
0
  6
CONTINUOUS
 62
   253
 10
-1819.325063012465
 20
-216.7991023237904
 30
0.0
 11
-1819.469451327647
 21
-216.7840405992974
 31
0.0
  0
LINE
  5
649
  8
0
  6
CONTINUOUS
 62
   253
 10
-2149.499466851847
 20
-418.70087754522
 30
0.0
 11
-2149.499466851847
 21
-426.7
 31
0.0
  0
LINE
  5
64A
  8
0
  6
CONTINUOUS
 62
     7
 10
-2142.428351720219
 20
-228.0878804660833
 30
0.0
 11
-2086.907498212727
 21
-213.211112605664
 31
0.0
  0
LINE
  5
64B
  8
0
  6
CONTINUOUS
 62
   253
 10
-1586.974787463811
 20
-213.6999999999999
 30
0.0
 11
-1821.195498155887
 21
-213.6999999999999
 31
0.0
  0
LINE
  5
64C
  8
0
  6
CONTINUOUS
 62
     7
 10
-1583.092501787273
 20
-213.211112605664
 30
0.0
 11
-1527.57164827978
 21
-228.0878804660833
 31
0.0
  0
LINE
  5
64D
  8
0
  6
CONTINUOUS
 62
     7
 10
-1824.195498155886
 20
-212.7
 30
0.0
 11
-1586.974787463811
 21
-212.7
 31
0.0
  0
LINE
  5
64E
  8
0
  6
CONTINUOUS
 62
   253
 10
-1848.804501844113
 20
-213.6999999999999
 30
0.0
 11
-2083.025212536189
 21
-213.6999999999999
 31
0.0
  0
ARC
  5
64F
  8
0
  6
CONTINUOUS
 62
   253
 10
-2139.840161269194
 20
-237.747138728974
 30
0.0
 40
9.000000000000005
 50
105.0000000000001
 51
109.5326422274212
  0
ARC
  5
650
  8
0
  6
CONTINUOUS
 62
   253
 10
-1530.159838730806
 20
-237.747138728974
 30
0.0
 40
9.000000000000009
 50
70.46735787425203
 51
74.99999999999976
  0
ARC
  5
651
  8
0
  6
CONTINUOUS
 62
     7
 10
-1586.974787463811
 20
-227.7
 30
0.0
 40
14.99999999999999
 50
75.0
 51
89.99999999999999
  0
LINE
  5
652
  8
0
  6
CONTINUOUS
 62
   253
 10
-1527.830467324883
 20
-229.0538062923724
 30
0.0
 11
-1527.57164827978
 21
-228.0878804660833
 31
0.0
  0
LINE
  5
653
  8
0
  6
CONTINUOUS
 62
   253
 10
-2142.428351720219
 20
-228.0878804660833
 30
0.0
 11
-2142.169532675117
 21
-229.0538062923724
 31
0.0
  0
LINE
  5
654
  8
0
  6
CONTINUOUS
 62
   253
 10
-2086.648679167625
 20
-214.177038431953
 30
0.0
 11
-2142.169532675117
 21
-229.0538062923724
 31
0.0
  0
ARC
  5
655
  8
0
  6
CONTINUOUS
 62
   253
 10
-2083.025212536189
 20
-227.7
 30
0.0
 40
14.00000000000002
 50
89.99999999999994
 51
105.0
  0
LINE
  5
656
  8
0
  6
CONTINUOUS
 62
   253
 10
-1527.830467324883
 20
-229.0538062923724
 30
0.0
 11
-1583.351320832375
 21
-214.1770384319531
 31
0.0
  0
ARC
  5
657
  8
0
  6
CONTINUOUS
 62
     7
 10
-1530.159838730806
 20
-237.747138728974
 30
0.0
 40
10.0
 50
28.18578462712259
 51
75.0
  0
LINE
  5
658
  8
0
  6
CONTINUOUS
 62
   253
 10
-2086.648679167625
 20
-214.177038431953
 30
0.0
 11
-2086.907498212727
 21
-213.211112605664
 31
0.0
  0
LINE
  5
659
  8
0
  6
CONTINUOUS
 62
     7
 10
-1845.804501844113
 20
-212.7
 30
0.0
 11
-1824.195498155886
 21
-212.7
 31
0.0
  0
LINE
  5
65A
  8
0
  6
CONTINUOUS
 62
   253
 10
-2083.025212536189
 20
-212.7
 30
0.0
 11
-2083.025212536189
 21
-213.6999999999999
 31
0.0
  0
LINE
  5
65B
  8
0
  6
CONTINUOUS
 62
   253
 10
-1583.092501787273
 20
-213.211112605664
 30
0.0
 11
-1583.351320832375
 21
-214.1770384319531
 31
0.0
  0
LINE
  5
65C
  8
0
  6
CONTINUOUS
 62
   253
 10
-1586.974787463811
 20
-213.6999999999999
 30
0.0
 11
-1586.974787463811
 21
-212.7
 31
0.0
  0
ARC
  5
65D
  8
0
  6
CONTINUOUS
 62
     7
 10
-2083.025212536189
 20
-227.7
 30
0.0
 40
15.00000000000001
 50
90.0
 51
104.9999999999999
  0
ARC
  5
65E
  8
0
  6
CONTINUOUS
 62
     7
 10
-2139.840161269194
 20
-237.747138728974
 30
0.0
 40
10.00000000000007
 50
105.0
 51
151.8142153728775
  0
ARC
  5
65F
  8
0
  6
CONTINUOUS
 62
   253
 10
-1586.974787463811
 20
-227.7
 30
0.0
 40
13.99999999999998
 50
74.99999999999983
 51
90.0
  0
LINE
  5
660
  8
0
  6
CONTINUOUS
 62
     7
 10
-2083.025212536189
 20
-212.7
 30
0.0
 11
-1845.804501844113
 21
-212.7
 31
0.0
  0
LINE
  5
661
  8
0
  6
CONTINUOUS
 62
     7
 10
-1522.678468512093
 20
409.7238795030852
 30
0.0
 11
-1522.866116208434
 21
409.7807852509947
 31
0.0
  0
LINE
  5
662
  8
0
  6
CONTINUOUS
 62
     7
 10
-1522.079942443682
 20
408.9950902925341
 30
0.0
 11
-1522.136942604386
 21
409.1826834028884
 31
0.0
  0
LINE
  5
663
  8
0
  6
CONTINUOUS
 62
     7
 10
-1554.157559020882
 20
-16.98870330139829
 30
0.0
 11
-1554.203395838372
 21
-16.97340172343698
 31
0.0
  0
LINE
  5
664
  8
0
  6
CONTINUOUS
 62
     7
 10
-1522.136942604386
 20
409.1826834028884
 30
0.0
 11
-1522.229445623774
 21
409.3555702035515
 31
0.0
  0
LINE
  5
665
  8
0
  6
CONTINUOUS
 62
     7
 10
-1521.585409634913
 20
-17.99633877724422
 30
0.0
 11
-1521.594073435154
 21
-18.0357588313613
 31
0.0
  0
LINE
  5
666
  8
0
  6
CONTINUOUS
 62
     7
 10
-1521.604287744582
 20
-18.07473774667484
 30
0.0
 11
-1521.616019391337
 21
-18.11316872854601
 31
0.0
  0
LINE
  5
667
  8
0
  6
CONTINUOUS
 62
     7
 10
-1521.616019391337
 20
-18.11316872854601
 30
0.0
 11
-1521.628843156481
 21
-18.14991088416543
 31
0.0
  0
LINE
  5
668
  8
0
  6
CONTINUOUS
 62
     7
 10
-1521.658622153577
 20
-18.22158981636171
 30
0.0
 11
-1521.675486322078
 21
-18.25635762769712
 31
0.0
  0
LINE
  5
669
  8
0
  6
CONTINUOUS
 62
     7
 10
-1522.060635625872
 20
408.7999999705162
 30
0.0
 11
-1522.079942443682
 21
408.9950902925341
 31
0.0
  0
LINE
  5
66A
  8
0
  6
CONTINUOUS
 62
     7
 10
-1554.445930044565
 20
-16.93075504852168
 30
0.0
 11
-1554.496046988528
 21
-16.92948936901295
 31
0.0
  0
LINE
  5
66B
  8
0
  6
CONTINUOUS
 62
     7
 10
-1521.569159901898
 20
-17.87857453753933
 30
0.0
 11
-1521.5729882341
 21
-17.91770275940907
 31
0.0
  0
LINE
  5
66C
  8
0
  6
CONTINUOUS
 62
     7
 10
-1521.832700053211
 20
-18.48188694273633
 30
0.0
 11
-1521.859813872923
 21
-18.51005290071103
 31
0.0
  0
LINE
  5
66D
  8
0
  6
CONTINUOUS
 62
     7
 10
-1554.249833097333
 20
-16.96034228804344
 30
0.0
 11
-1554.29671479417
 21
-16.94958601923402
 31
0.0
  0
LINE
  5
66E
  8
0
  6
CONTINUOUS
 62
     7
 10
-1554.346075356951
 20
-16.9408226513649
 30
0.0
 11
-1554.395876637228
 21
-16.93453923521654
 31
0.0
  0
LINE
  5
66F
  8
0
  6
CONTINUOUS
 62
     7
 10
-1522.353896662688
 20
409.5071067517301
 30
0.0
 11
-1522.505513137493
 21
409.6314695828603
 31
0.0
  0
LINE
  5
670
  8
0
  6
CONTINUOUS
 62
     7
 10
-1522.866116208434
 20
409.7807852509947
 30
0.0
 11
-1523.061245030781
 21
409.7999999706098
 31
0.0
  0
LINE
  5
671
  8
0
  6
CONTINUOUS
 62
     7
 10
-1521.859813872923
 20
-18.51005290071103
 30
0.0
 11
-1521.898511084159
 21
-18.54667954173467
 31
0.0
  0
LINE
  5
672
  8
0
  6
CONTINUOUS
 62
     7
 10
-1521.981078490748
 20
-18.61316340087449
 30
0.0
 11
-1522.015079224712
 21
-18.63660629552699
 31
0.0
  0
LINE
  5
673
  8
0
  6
CONTINUOUS
 62
     7
 10
-1522.160194945552
 20
-18.71577027747176
 30
0.0
 11
-1522.198983275248
 21
-18.73192138944357
 31
0.0
  0
LINE
  5
674
  8
0
  6
CONTINUOUS
 62
     7
 10
-1521.675486322078
 20
-18.25635762769712
 30
0.0
 11
-1521.6941451134
 21
-18.29127309015161
 31
0.0
  0
LINE
  5
675
  8
0
  6
CONTINUOUS
 62
     7
 10
-1522.505513137493
 20
409.6314695828603
 30
0.0
 11
-1522.678468512093
 21
409.7238795030852
 31
0.0
  0
LINE
  5
676
  8
0
  6
CONTINUOUS
 62
     7
 10
-1523.263653757602
 20
409.7999999706287
 30
0.0
 11
-1523.061245030782
 21
409.7999999706097
 31
0.0
  0
LINE
  5
677
  8
0
  6
CONTINUOUS
 62
     7
 10
-1521.6941451134
 20
-18.29127309015161
 30
0.0
 11
-1521.714128005118
 21
-18.32535865516591
 31
0.0
  0
LINE
  5
678
  8
0
  6
CONTINUOUS
 62
     7
 10
-1522.015079224712
 20
-18.63660629552699
 30
0.0
 11
-1522.049974380562
 21
-18.65858332831058
 31
0.0
  0
LINE
  5
679
  8
0
  6
CONTINUOUS
 62
     7
 10
-1522.049974380562
 20
-18.65858332831058
 30
0.0
 11
-1522.085677489858
 21
-18.67905339508716
 31
0.0
  0
LINE
  5
67A
  8
0
  6
CONTINUOUS
 62
     7
 10
-1554.203395838372
 20
-16.97340172343698
 30
0.0
 11
-1554.249833097333
 21
-16.96034228804344
 31
0.0
  0
LINE
  5
67B
  8
0
  6
CONTINUOUS
 62
     7
 10
-1522.229445623774
 20
409.3555702035515
 30
0.0
 11
-1522.353896662688
 21
409.5071067517301
 31
0.0
  0
LINE
  5
67C
  8
0
  6
CONTINUOUS
 62
     7
 10
-1521.566855124956
 20
-17.83930514898471
 30
0.0
 11
-1521.569159901898
 21
-17.87857453753933
 31
0.0
  0
LINE
  5
67D
  8
0
  6
CONTINUOUS
 62
     7
 10
-1522.23837269706
 20
-18.74639786070459
 30
0.0
 11
-1522.278268834803
 21
-18.75916882432518
 31
0.0
  0
LINE
  5
67E
  8
0
  6
CONTINUOUS
 62
     7
 10
-1522.278268834803
 20
-18.75916882432518
 30
0.0
 11
-1522.323690796144
 21
-18.77148004082199
 31
0.0
  0
LINE
  5
67F
  8
0
  6
CONTINUOUS
 62
     7
 10
-1522.463542273569
 20
-18.79534491358017
 30
0.0
 11
-1522.511355831607
 21
-18.79883386267356
 31
0.0
  0
LINE
  5
680
  8
0
  6
CONTINUOUS
 62
     7
 10
-1522.511355831607
 20
-18.79883386267356
 30
0.0
 11
-1522.559289080852
 21
-18.80000002928289
 31
0.0
  0
LINE
  5
681
  8
0
  6
CONTINUOUS
 62
     7
 10
-1521.781639079993
 20
-18.42217037647875
 30
0.0
 11
-1521.806619402205
 21
-18.45257272275316
 31
0.0
  0
LINE
  5
682
  8
0
  6
CONTINUOUS
 62
     7
 10
-1521.578329515718
 20
-17.9565843789625
 30
0.0
 11
-1521.585409634913
 21
-17.99633877724422
 31
0.0
  0
LINE
  5
683
  8
0
  6
CONTINUOUS
 62
     7
 10
-1521.73537503646
 20
-18.35853930942907
 30
0.0
 11
-1521.757826246659
 21
-18.39074003963009
 31
0.0
  0
LINE
  5
684
  8
0
  6
CONTINUOUS
 62
     7
 10
-1522.122102084157
 20
-18.69797539171877
 30
0.0
 11
-1522.160194945552
 21
-18.71577027747176
 31
0.0
  0
LINE
  5
685
  8
0
  6
CONTINUOUS
 62
     7
 10
-1522.198983275248
 20
-18.73192138944357
 30
0.0
 11
-1522.23837269706
 21
-18.74639786070459
 31
0.0
  0
LINE
  5
686
  8
0
  6
CONTINUOUS
 62
     7
 10
-1522.4159960827
 20
-18.78954750811779
 30
0.0
 11
-1522.463542273569
 21
-18.79534491358017
 31
0.0
  0
LINE
  5
687
  8
0
  6
CONTINUOUS
 62
     7
 10
-1522.559289080852
 20
-18.80000002928289
 30
0.0
 11
-1523.263653797878
 21
-18.80000002921669
 31
0.0
  0
LINE
  5
688
  8
0
  6
CONTINUOUS
 62
     7
 10
-1522.059127272216
 20
405.4999999705171
 30
0.0
 11
-1522.060635625872
 21
408.799999970516
 31
0.0
  0
LINE
  5
689
  8
0
  6
CONTINUOUS
 62
     7
 10
-1521.714128005118
 20
-18.32535865516591
 30
0.0
 11
-1521.73537503646
 21
-18.35853930942907
 31
0.0
  0
LINE
  5
68A
  8
0
  6
CONTINUOUS
 62
     7
 10
-1522.085677489858
 20
-18.67905339508716
 30
0.0
 11
-1522.122102084157
 21
-18.69797539171877
 31
0.0
  0
LINE
  5
68B
  8
0
  6
CONTINUOUS
 62
   253
 10
-1522.263806102627
 20
-17.80000002931101
 30
0.0
 11
-1521.566084509119
 21
-17.80000002937657
 31
0.0
  0
LINE
  5
68C
  8
0
  6
CONTINUOUS
 62
     7
 10
-1521.757826246659
 20
-18.39074003963009
 30
0.0
 11
-1521.781639079993
 21
-18.42217037647875
 31
0.0
  0
LINE
  5
68D
  8
0
  6
CONTINUOUS
 62
     7
 10
-1522.369645349393
 20
-18.78161560681468
 30
0.0
 11
-1522.4159960827
 21
-18.78954750811779
 31
0.0
  0
LINE
  5
68E
  8
0
  6
CONTINUOUS
 62
     7
 10
-1521.594073435154
 20
-18.0357588313613
 30
0.0
 11
-1521.604287744582
 21
-18.07473774667484
 31
0.0
  0
LINE
  5
68F
  8
0
  6
CONTINUOUS
 62
     7
 10
-1521.643059254469
 20
-18.18607940764427
 30
0.0
 11
-1521.658622153577
 21
-18.22158981636171
 31
0.0
  0
LINE
  5
690
  8
0
  6
CONTINUOUS
 62
     7
 10
-1521.806619402205
 20
-18.45257272275316
 30
0.0
 11
-1521.832700053211
 21
-18.48188694273633
 31
0.0
  0
LINE
  5
691
  8
0
  6
CONTINUOUS
 62
     7
 10
-1521.93899194604
 20
-18.58108861294608
 30
0.0
 11
-1521.981078490748
 21
-18.61316340087449
 31
0.0
  0
LINE
  5
692
  8
0
  6
CONTINUOUS
 62
     7
 10
-1522.323690796144
 20
-18.77148004082199
 30
0.0
 11
-1522.369645349393
 21
-18.78161560681468
 31
0.0
  0
LINE
  5
693
  8
0
  6
CONTINUOUS
 62
     7
 10
-1521.566084508104
 20
-7.000000029380504
 30
0.0
 11
-1521.57235092569
 21
-7.000000029379922
 31
0.0
  0
LINE
  5
694
  8
0
  6
CONTINUOUS
 62
     7
 10
-1521.566084470046
 20
397.9999999704735
 30
0.0
 11
-1521.566084469341
 21
405.4999999704708
 31
0.0
  0
LINE
  5
695
  8
0
  6
CONTINUOUS
 62
   253
 10
-1522.060635625872
 20
408.799999970516
 30
0.0
 11
-1522.263806062539
 21
408.7999999705351
 31
0.0
  0
LINE
  5
696
  8
0
  6
CONTINUOUS
 62
     7
 10
-1521.5729882341
 20
-17.91770275940907
 30
0.0
 11
-1521.578329515718
 21
-17.9565843789625
 31
0.0
  0
LINE
  5
697
  8
0
  6
CONTINUOUS
 62
     7
 10
-1521.628843156481
 20
-18.14991088416543
 30
0.0
 11
-1521.643059254469
 21
-18.18607940764427
 31
0.0
  0
LINE
  5
698
  8
0
  6
CONTINUOUS
 62
     7
 10
-1521.898511084159
 20
-18.54667954173467
 30
0.0
 11
-1521.93899194604
 21
-18.58108861294608
 31
0.0
  0
LINE
  5
699
  8
0
  6
CONTINUOUS
 62
     7
 10
-1521.572350887632
 20
397.9999999704741
 30
0.0
 11
-1521.566084470046
 21
397.9999999704735
 31
0.0
  0
LINE
  5
69A
  8
0
  6
CONTINUOUS
 62
     7
 10
-1521.566084509119
 20
-17.80000002937657
 30
0.0
 11
-1521.566855124956
 21
-17.83930514898471
 31
0.0
  0
LINE
  5
69B
  8
0
  6
CONTINUOUS
 62
     7
 10
-1554.29671479417
 20
-16.94958601923402
 30
0.0
 11
-1554.346075356951
 21
-16.9408226513649
 31
0.0
  0
LINE
  5
69C
  8
0
  6
CONTINUOUS
 62
     7
 10
-1521.57235092569
 20
-7.000000029379922
 30
0.0
 11
-1521.572350887632
 21
397.9999999704741
 31
0.0
  0
LINE
  5
69D
  8
0
  6
CONTINUOUS
 62
     7
 10
-1521.566084509119
 20
-17.80000002937657
 30
0.0
 11
-1521.566084508104
 21
-7.000000029380504
 31
0.0
  0
LINE
  5
69E
  8
0
  6
CONTINUOUS
 62
     7
 10
-1522.059127272216
 20
405.4999999705171
 30
0.0
 11
-1521.566084469341
 21
405.4999999704708
 31
0.0
  0
LINE
  5
69F
  8
0
  6
CONTINUOUS
 62
     7
 10
-1776.470006865432
 20
232.0021246921496
 30
0.0
 11
-1775.470349540332
 21
233.001782017061
 31
0.0
  0
LINE
  5
6A0
  8
0
  6
CONTINUOUS
 62
     7
 10
-1554.395876637228
 20
-16.93453923521654
 30
0.0
 11
-1554.445930044565
 21
-16.93075504852168
 31
0.0
  0
LINE
  5
6A1
  8
0
  6
CONTINUOUS
 62
   253
 10
-1875.275245833047
 20
158.4101469437591
 30
0.0
 11
-1875.218279955126
 21
158.2226923121708
 31
0.0
  0
LINE
  5
6A2
  8
0
  6
CONTINUOUS
 62
     7
 10
-1835.056119250291
 20
400.0298375652303
 30
0.0
 11
-1835.0
 21
400.9675313808816
 31
0.0
  0
LINE
  5
6A3
  8
0
  6
CONTINUOUS
 62
   253
 10
-1875.294570846208
 20
158.6050864787676
 30
0.0
 11
-1875.275245833047
 21
158.4101469437591
 31
0.0
  0
LINE
  5
6A4
  8
0
  6
CONTINUOUS
 62
     7
 10
-1835.107795080489
 20
407.698857258267
 30
0.0
 11
-1835.0
 21
409.5
 31
0.0
  0
LINE
  5
6A5
  8
0
  6
CONTINUOUS
 62
     7
 10
-1525.47126410055
 20
-18.80000002900942
 30
0.0
 11
-1527.051174844799
 21
-18.80000002886101
 31
0.0
  0
LINE
  5
6A6
  8
0
  6
CONTINUOUS
 62
     7
 10
-1835.01832612462
 20
155.6658231168181
 30
0.0
 11
-1835.01832612462
 21
235.3341768831819
 31
0.0
  0
LINE
  5
6A7
  8
0
  6
CONTINUOUS
 62
     7
 10
-1835.068068462874
 20
20.50000000000002
 30
0.0
 11
-1835.01832612462
 21
20.33417688318195
 31
0.0
  0
LINE
  5
6A8
  8
0
  6
CONTINUOUS
 62
     7
 10
-1835.125664854537
 20
153.5
 30
0.0
 11
-1835.125664854537
 21
157.565464803923
 31
0.0
  0
LINE
  5
6A9
  8
0
  6
CONTINUOUS
 62
     7
 10
-1835.125664854537
 20
157.565464803923
 30
0.0
 11
-1835.133655971379
 21
157.605429153792
 31
0.0
  0
LINE
  5
6AA
  8
0
  6
CONTINUOUS
 62
   253
 10
-1776.470006872323
 20
158.9978752968185
 30
0.0
 11
-1776.470006865463
 21
232.0021246921813
 31
0.0
  0
LINE
  5
6AB
  8
0
  6
CONTINUOUS
 62
   253
 10
-1776.470006865463
 20
232.0021246921813
 30
0.0
 11
-1794.813475609589
 21
232.002124693905
 31
0.0
  0
LINE
  5
6AC
  8
0
  6
CONTINUOUS
 62
   253
 10
-1794.813475616449
 20
158.9978752985422
 30
0.0
 11
-1776.470006872324
 21
158.9978752968185
 31
0.0
  0
LINE
  5
6AD
  8
0
  6
CONTINUOUS
 62
   253
 10
-1874.294913521232
 20
233.394570846208
 30
0.0
 11
-1874.489853056241
 21
233.375245833047
 31
0.0
  0
LINE
  5
6AE
  8
0
  6
CONTINUOUS
 62
   253
 10
-1874.677307687829
 20
233.3182799551261
 30
0.0
 11
-1874.850079903122
 21
233.225860475765
 31
0.0
  0
LINE
  5
6AF
  8
0
  6
CONTINUOUS
 62
   253
 10
-1875.00153593568
 20
233.1015359356798
 30
0.0
 11
-1875.125860475765
 21
232.9500799031221
 31
0.0
  0
LINE
  5
6B0
  8
0
  6
CONTINUOUS
 62
   253
 10
-1874.294913521232
 20
232.3949135212324
 30
0.0
 11
-1874.294913521232
 21
233.394570846208
 31
0.0
  0
LINE
  5
6B1
  8
0
  6
CONTINUOUS
 62
     7
 10
-1835.138754943551
 20
232.3949135212324
 30
0.0
 11
-1835.138754943551
 21
158.6050864787676
 31
0.0
  0
LINE
  5
6B2
  8
0
  6
CONTINUOUS
 62
   253
 10
-1875.294570846208
 20
158.6050864787676
 30
0.0
 11
-1875.294570846208
 21
232.3949135212324
 31
0.0
  0
LINE
  5
6B3
  8
0
  6
CONTINUOUS
 62
   253
 10
-1835.112574765523
 20
233.5000000000001
 30
0.0
 11
-1835.112574765523
 21
157.5000000000001
 31
0.0
  0
LINE
  5
6B4
  8
0
  6
CONTINUOUS
 62
     7
 10
-1835.125664854537
 20
233.434535196077
 30
0.0
 11
-1835.133655971379
 21
233.3945708462079
 31
0.0
  0
LINE
  5
6B5
  8
0
  6
CONTINUOUS
 62
     7
 10
-1835.107795080489
 20
407.698857258267
 30
0.0
 11
-1835.112574765523
 21
406.7026625601753
 31
0.0
  0
LINE
  5
6B6
  8
0
  6
CONTINUOUS
 62
   253
 10
-1874.677307687829
 20
157.681720044874
 30
0.0
 11
-1874.489853056241
 21
157.6247541669531
 31
0.0
  0
LINE
  5
6B7
  8
0
  6
CONTINUOUS
 62
     7
 10
-1835.068068462874
 20
235.5
 30
0.0
 11
-1835.068068462874
 21
397.5393508200009
 31
0.0
  0
LINE
  5
6B8
  8
0
  6
CONTINUOUS
 62
   253
 10
-1874.294913521232
 20
232.3949135212324
 30
0.0
 11
-1874.294913521232
 21
158.6050864787676
 31
0.0
  0
LINE
  5
6B9
  8
0
  6
CONTINUOUS
 62
     7
 10
-1835.068068462874
 20
20.50000000000002
 30
0.0
 11
-1835.068068462874
 21
155.5
 31
0.0
  0
LINE
  5
6BA
  8
0
  6
CONTINUOUS
 62
     7
 10
-1835.01832612462
 20
19.00000000006802
 30
0.0
 11
-1835.01832612462
 21
20.33417688318195
 31
0.0
  0
LINE
  5
6BB
  8
0
  6
CONTINUOUS
 62
     7
 10
-1835.0
 20
406.488540889819
 30
0.0
 11
-1835.0
 21
402.4732611371965
 31
0.0
  0
LINE
  5
6BC
  8
0
  6
CONTINUOUS
 62
     7
 10
-1835.0
 20
402.4732611371965
 30
0.0
 11
-1835.0
 21
400.9675313808816
 31
0.0
  0
LINE
  5
6BD
  8
0
  6
CONTINUOUS
 62
     7
 10
-1835.125664854537
 20
153.5
 30
0.0
 11
-1835.120428818931
 21
152.5
 31
0.0
  0
LINE
  5
6BE
  8
0
  6
CONTINUOUS
 62
     7
 10
-1874.529937825424
 20
233.4153306022307
 30
0.0
 11
-1874.717481933476
 21
233.3584542007729
 31
0.0
  0
LINE
  5
6BF
  8
0
  6
CONTINUOUS
 62
   253
 10
-1875.218279955126
 20
158.2226923121708
 30
0.0
 11
-1875.125860475765
 21
158.0499200968779
 31
0.0
  0
LINE
  5
6C0
  8
0
  6
CONTINUOUS
 62
     7
 10
-1874.334877871101
 20
233.434535196077
 30
0.0
 11
-1874.529937825424
 21
233.4153306022307
 31
0.0
  0
LINE
  5
6C1
  8
0
  6
CONTINUOUS
 62
     7
 10
-1874.89030924684
 20
233.2660898194828
 30
0.0
 11
-1875.041783883529
 21
233.1417838835295
 31
0.0
  0
LINE
  5
6C2
  8
0
  6
CONTINUOUS
 62
   253
 10
-1874.850079903122
 20
233.225860475765
 30
0.0
 11
-1875.00153593568
 21
233.1015359356798
 31
0.0
  0
LINE
  5
6C3
  8
0
  6
CONTINUOUS
 62
   253
 10
-1874.489853056241
 20
157.6247541669531
 30
0.0
 11
-1874.294913521232
 21
157.6054291537921
 31
0.0
  0
LINE
  5
6C4
  8
0
  6
CONTINUOUS
 62
     7
 10
-1835.138754943551
 20
158.6050864787676
 30
0.0
 11
-1835.133655971379
 21
157.605429153792
 31
0.0
  0
LINE
  5
6C5
  8
0
  6
CONTINUOUS
 62
     7
 10
-1835.120428818931
 20
238.5
 30
0.0
 11
-1835.125664854537
 21
237.5
 31
0.0
  0
LINE
  5
6C6
  8
0
  6
CONTINUOUS
 62
   253
 10
-1875.218279955126
 20
232.7773076878292
 30
0.0
 11
-1875.275245833047
 21
232.5898530562409
 31
0.0
  0
LINE
  5
6C7
  8
0
  6
CONTINUOUS
 62
   253
 10
-1875.00153593568
 20
157.8984640643202
 30
0.0
 11
-1874.850079903122
 21
157.774139524235
 31
0.0
  0
LINE
  5
6C8
  8
0
  6
CONTINUOUS
 62
   253
 10
-1875.275245833047
 20
232.5898530562409
 30
0.0
 11
-1875.294570846208
 21
232.3949135212324
 31
0.0
  0
LINE
  5
6C9
  8
0
  6
CONTINUOUS
 62
     7
 10
-1835.112574765523
 20
238.5
 30
0.0
 11
-1835.120428818931
 21
238.5
 31
0.0
  0
LINE
  5
6CA
  8
0
  6
CONTINUOUS
 62
   253
 10
-1874.294913521232
 20
158.6050864787676
 30
0.0
 11
-1835.138754943551
 21
158.6050864787676
 31
0.0
  0
LINE
  5
6CB
  8
0
  6
CONTINUOUS
 62
     7
 10
-1835.112574765523
 20
152.5
 30
0.0
 11
-1835.112574765523
 21
19.00000000007685
 31
0.0
  0
LINE
  5
6CC
  8
0
  6
CONTINUOUS
 62
     7
 10
-1874.717481933476
 20
233.3584542007729
 30
0.0
 11
-1874.89030924684
 21
233.2660898194828
 31
0.0
  0
LINE
  5
6CD
  8
0
  6
CONTINUOUS
 62
   253
 10
-1874.294913521232
 20
158.6050864787676
 30
0.0
 11
-1875.294570846208
 21
158.6050864787676
 31
0.0
  0
LINE
  5
6CE
  8
0
  6
CONTINUOUS
 62
     7
 10
-1776.470006872292
 20
158.9978752968502
 30
0.0
 11
-1775.47034954738
 21
157.9982179717509
 31
0.0
  0
LINE
  5
6CF
  8
0
  6
CONTINUOUS
 62
   253
 10
-1874.294913521232
 20
158.6050864787676
 30
0.0
 11
-1874.294913521232
 21
157.6054291537921
 31
0.0
  0
LINE
  5
6D0
  8
0
  6
CONTINUOUS
 62
     7
 10
-1835.125664854537
 20
233.434535196077
 30
0.0
 11
-1835.125664854537
 21
237.5
 31
0.0
  0
LINE
  5
6D1
  8
0
  6
CONTINUOUS
 62
   253
 10
-1874.294913521232
 20
232.3949135212324
 30
0.0
 11
-1875.294570846208
 21
232.3949135212324
 31
0.0
  0
LINE
  5
6D2
  8
0
  6
CONTINUOUS
 62
   253
 10
-1835.133655971379
 20
157.605429153792
 30
0.0
 11
-1874.294913521232
 21
157.605429153792
 31
0.0
  0
LINE
  5
6D3
  8
0
  6
CONTINUOUS
 62
     7
 10
-1835.112574765523
 20
406.7026625601752
 30
0.0
 11
-1835.112574765523
 21
238.5
 31
0.0
  0
LINE
  5
6D4
  8
0
  6
CONTINUOUS
 62
   253
 10
-1874.850079903122
 20
157.774139524235
 30
0.0
 11
-1874.677307687829
 21
157.681720044874
 31
0.0
  0
LINE
  5
6D5
  8
0
  6
CONTINUOUS
 62
     7
 10
-1835.0
 20
409.5
 30
0.0
 11
-1835.0
 21
406.4885408898191
 31
0.0
  0
LINE
  5
6D6
  8
0
  6
CONTINUOUS
 62
   253
 10
-1875.125860475765
 20
232.9500799031221
 30
0.0
 11
-1875.218279955126
 21
232.7773076878292
 31
0.0
  0
LINE
  5
6D7
  8
0
  6
CONTINUOUS
 62
     7
 10
-1835.068068462874
 20
155.5
 30
0.0
 11
-1835.01832612462
 21
155.6658231168181
 31
0.0
  0
LINE
  5
6D8
  8
0
  6
CONTINUOUS
 62
     7
 10
-1835.112574765523
 20
152.5
 30
0.0
 11
-1835.120428818931
 21
152.5
 31
0.0
  0
LINE
  5
6D9
  8
0
  6
CONTINUOUS
 62
     7
 10
-1525.459669709945
 20
-18.8000000290105
 30
0.0
 11
-1525.47126410055
 21
-18.80000002900942
 31
0.0
  0
LINE
  5
6DA
  8
0
  6
CONTINUOUS
 62
     7
 10
-1835.068068462874
 20
235.5
 30
0.0
 11
-1835.01832612462
 21
235.3341768831819
 31
0.0
  0
LINE
  5
6DB
  8
0
  6
CONTINUOUS
 62
   253
 10
-1874.294913521232
 20
233.394570846208
 30
0.0
 11
-1835.133655971379
 21
233.3945708462079
 31
0.0
  0
LINE
  5
6DC
  8
0
  6
CONTINUOUS
 62
     7
 10
-1835.133655971379
 20
233.394570846208
 30
0.0
 11
-1835.138754943551
 21
232.3949135212324
 31
0.0
  0
LINE
  5
6DD
  8
0
  6
CONTINUOUS
 62
   253
 10
-1874.489853056241
 20
233.375245833047
 30
0.0
 11
-1874.677307687829
 21
233.3182799551261
 31
0.0
  0
LINE
  5
6DE
  8
0
  6
CONTINUOUS
 62
   253
 10
-1875.125860475765
 20
158.0499200968779
 30
0.0
 11
-1875.00153593568
 21
157.8984640643202
 31
0.0
  0
LINE
  5
6DF
  8
0
  6
CONTINUOUS
 62
     7
 10
-1835.068068462874
 20
397.5393508200009
 30
0.0
 11
-1835.056119250291
 21
400.0298375652304
 31
0.0
  0
LINE
  5
6E0
  8
0
  6
CONTINUOUS
 62
   253
 10
-1835.138754943551
 20
232.3949135212324
 30
0.0
 11
-1874.294913521232
 21
232.3949135212324
 31
0.0
  0
LINE
  5
6E1
  8
0
  6
CONTINUOUS
 62
     7
 10
-1896.999695343912
 20
157.5
 30
0.0
 11
-1896.999695343912
 21
233.5
 31
0.0
  0
LINE
  5
6E2
  8
0
  6
CONTINUOUS
 62
     7
 10
-1895.714201468203
 20
157.5220501336962
 30
0.0
 11
-1896.999695343912
 21
157.5
 31
0.0
  0
LINE
  5
6E3
  8
0
  6
CONTINUOUS
 62
     7
 10
-1875.041783883529
 20
157.8582161164705
 30
0.0
 11
-1874.89030924684
 21
157.7339101805172
 31
0.0
  0
ARC
  5
6E4
  8
0
  6
CONTINUOUS
 62
     7
 10
-2117.5
 20
-17.79999999999998
 30
0.0
 40
1.000000000000001
 50
270.0
 51
0.0
  0
LINE
  5
6E5
  8
0
  6
CONTINUOUS
 62
   253
 10
-2117.5
 20
-17.79999999999998
 30
0.0
 11
-2117.5
 21
-18.79999999999998
 31
0.0
  0
LINE
  5
6E6
  8
0
  6
CONTINUOUS
 62
   253
 10
-2116.5
 20
408.8
 30
0.0
 11
-2117.5
 21
408.8
 31
0.0
  0
LINE
  5
6E7
  8
0
  6
CONTINUOUS
 62
   253
 10
-2117.5
 20
409.8
 30
0.0
 11
-2117.5
 21
408.8
 31
0.0
  0
ARC
  5
6E8
  8
0
  6
CONTINUOUS
 62
     7
 10
-2117.5
 20
408.8
 30
0.0
 40
1.000000000000001
 50
0.0
 51
90.0
  0
LINE
  5
6E9
  8
0
  6
CONTINUOUS
 62
     7
 10
-1875.166089819483
 20
158.00969075316
 30
0.0
 11
-1875.041783883529
 21
157.8582161164705
 31
0.0
  0
LINE
  5
6EA
  8
0
  6
CONTINUOUS
 62
     7
 10
-1835.125664854537
 20
157.565464803923
 30
0.0
 11
-1874.334877871102
 21
157.5654648039229
 31
0.0
  0
LINE
  5
6EB
  8
0
  6
CONTINUOUS
 62
     7
 10
-1874.529937825424
 20
157.5846693977693
 30
0.0
 11
-1874.334877871101
 21
157.565464803923
 31
0.0
  0
ARC
  5
6EC
  8
0
  6
CONTINUOUS
 62
   253
 10
-1898.5
 20
156.0
 30
0.0
 40
2.500000000000002
 50
180.0
 51
270.0
  0
LINE
  5
6ED
  8
0
  6
CONTINUOUS
 62
     7
 10
-1875.386911525846
 20
233.4650868794361
 30
0.0
 11
-1875.386911525846
 21
157.5349131205638
 31
0.0
  0
LINE
  5
6EE
  8
0
  6
CONTINUOUS
 62
     7
 10
-1896.999695343912
 20
233.5
 30
0.0
 11
-1875.334535196077
 21
233.5
 31
0.0
  0
LINE
  5
6EF
  8
0
  6
CONTINUOUS
 62
   253
 10
-1874.294913521232
 20
157.605429153792
 30
0.0
 11
-1874.334877871102
 21
157.565464803923
 31
0.0
  0
LINE
  5
6F0
  8
0
  6
CONTINUOUS
 62
     7
 10
-1896.999695343912
 20
233.5
 30
0.0
 11
-1895.714201468203
 21
233.4779498663037
 31
0.0
  0
LINE
  5
6F1
  8
0
  6
CONTINUOUS
 62
     7
 10
-1875.9
 20
233.4563623376795
 30
0.0
 11
-1875.386911525846
 21
233.4650868794361
 31
0.0
  0
LINE
  5
6F2
  8
0
  6
CONTINUOUS
 62
   253
 10
-1895.714201468203
 20
157.5220501336962
 30
0.0
 11
-1895.714201468203
 21
233.4779498663038
 31
0.0
  0
LINE
  5
6F3
  8
0
  6
CONTINUOUS
 62
     7
 10
-1894.956057681592
 20
157.5436376623205
 30
0.0
 11
-1875.9
 21
157.5436376623205
 31
0.0
  0
LINE
  5
6F4
  8
0
  6
CONTINUOUS
 62
     7
 10
-1875.334535196077
 20
157.5
 30
0.0
 11
-1896.999695343912
 21
157.5
 31
0.0
  0
LINE
  5
6F5
  8
0
  6
CONTINUOUS
 62
   253
 10
-1875.334535196077
 20
158.5651221288985
 30
0.0
 11
-1875.294570846208
 21
158.6050864787676
 31
0.0
  0
LINE
  5
6F6
  8
0
  6
CONTINUOUS
 62
     7
 10
-1875.041783883529
 20
233.1417838835295
 30
0.0
 11
-1875.166089819483
 21
232.99030924684
 31
0.0
  0
LINE
  5
6F7
  8
0
  6
CONTINUOUS
 62
     7
 10
-1874.89030924684
 20
157.7339101805172
 30
0.0
 11
-1874.717481933476
 21
157.6415457992271
 31
0.0
  0
LINE
  5
6F8
  8
0
  6
CONTINUOUS
 62
     7
 10
-1875.31533060223
 20
232.6299378254246
 30
0.0
 11
-1875.334535196077
 21
232.4348778711015
 31
0.0
  0
LINE
  5
6F9
  8
0
  6
CONTINUOUS
 62
     7
 10
-1875.31533060223
 20
158.3700621745754
 30
0.0
 11
-1875.258454200773
 21
158.182518066524
 31
0.0
  0
LINE
  5
6FA
  8
0
  6
CONTINUOUS
 62
     7
 10
-1835.120428818931
 20
152.5
 30
0.0
 11
-1898.5
 21
152.5
 31
0.0
  0
LINE
  5
6FB
  8
0
  6
CONTINUOUS
 62
   253
 10
-1898.5
 20
152.5
 30
0.0
 11
-1898.5
 21
153.5
 31
0.0
  0
ARC
  5
6FC
  8
0
  6
CONTINUOUS
 62
     7
 10
-1898.5
 20
156.0
 30
0.0
 40
3.499999999999996
 50
180.0
 51
270.0
  0
LINE
  5
6FD
  8
0
  6
CONTINUOUS
 62
   253
 10
-1898.5
 20
237.5
 30
0.0
 11
-1898.5
 21
238.5
 31
0.0
  0
LINE
  5
6FE
  8
0
  6
CONTINUOUS
 62
   253
 10
-1902.0
 20
156.0
 30
0.0
 11
-1901.0
 21
156.0
 31
0.0
  0
LINE
  5
6FF
  8
0
  6
CONTINUOUS
 62
     7
 10
-1898.5
 20
238.5
 30
0.0
 11
-1835.120428818931
 21
238.5
 31
0.0
  0
LINE
  5
700
  8
0
  6
CONTINUOUS
 62
     7
 10
-1894.956057681592
 20
157.5436376623205
 30
0.0
 11
-1895.714201468203
 21
157.5220501336962
 31
0.0
  0
LINE
  5
701
  8
0
  6
CONTINUOUS
 62
     7
 10
-1875.386911525846
 20
157.5349131205638
 30
0.0
 11
-1875.9
 21
157.5436376623205
 31
0.0
  0
LINE
  5
702
  8
0
  6
CONTINUOUS
 62
     7
 10
-1894.956057681592
 20
157.5436376623205
 30
0.0
 11
-1894.956057681592
 21
233.4563623376794
 31
0.0
  0
LINE
  5
703
  8
0
  6
CONTINUOUS
 62
     7
 10
-1875.166089819483
 20
232.99030924684
 30
0.0
 11
-1875.258454200773
 21
232.817481933476
 31
0.0
  0
LINE
  5
704
  8
0
  6
CONTINUOUS
 62
   253
 10
-1898.5
 20
153.5
 30
0.0
 11
-1835.125664854537
 21
153.5
 31
0.0
  0
LINE
  5
705
  8
0
  6
CONTINUOUS
 62
   253
 10
-1875.294570846208
 20
232.3949135212324
 30
0.0
 11
-1875.334535196077
 21
232.4348778711015
 31
0.0
  0
ARC
  5
706
  8
0
  6
CONTINUOUS
 62
     7
 10
-1898.5
 20
235.0
 30
0.0
 40
3.500000000000003
 50
90.0
 51
180.0
  0
LINE
  5
707
  8
0
  6
CONTINUOUS
 62
     7
 10
-1902.0
 20
156.0
 30
0.0
 11
-1902.0
 21
235.0
 31
0.0
  0
LINE
  5
708
  8
0
  6
CONTINUOUS
 62
     7
 10
-1875.258454200773
 20
158.182518066524
 30
0.0
 11
-1875.166089819483
 21
158.00969075316
 31
0.0
  0
LINE
  5
709
  8
0
  6
CONTINUOUS
 62
     7
 10
-1874.334877871101
 20
233.434535196077
 30
0.0
 11
-1835.125664854537
 21
233.434535196077
 31
0.0
  0
LINE
  5
70A
  8
0
  6
CONTINUOUS
 62
     7
 10
-1875.386911525846
 20
233.4650868794361
 30
0.0
 11
-1875.334535196077
 21
233.5
 31
0.0
  0
ARC
  5
70B
  8
0
  6
CONTINUOUS
 62
   253
 10
-1898.5
 20
235.0
 30
0.0
 40
2.500000000000002
 50
90.0
 51
180.0
  0
LINE
  5
70C
  8
0
  6
CONTINUOUS
 62
   253
 10
-1902.0
 20
235.0
 30
0.0
 11
-1901.0
 21
235.0
 31
0.0
  0
LINE
  5
70D
  8
0
  6
CONTINUOUS
 62
   253
 10
-1901.0
 20
235.0
 30
0.0
 11
-1901.0
 21
156.0
 31
0.0
  0
LINE
  5
70E
  8
0
  6
CONTINUOUS
 62
     7
 10
-1875.9
 20
157.5436376623205
 30
0.0
 11
-1875.9
 21
233.4563623376795
 31
0.0
  0
LINE
  5
70F
  8
0
  6
CONTINUOUS
 62
     7
 10
-1875.9
 20
233.4563623376795
 30
0.0
 11
-1894.956057681592
 21
233.4563623376794
 31
0.0
  0
LINE
  5
710
  8
0
  6
CONTINUOUS
 62
   253
 10
-2147.736193912307
 20
-17.79999999999995
 30
0.0
 11
-2141.237183893791
 21
-17.79999999999998
 31
0.0
  0
LINE
  5
711
  8
0
  6
CONTINUOUS
 62
   253
 10
-2141.237183893791
 20
408.8
 30
0.0
 11
-2147.736193912307
 21
408.8
 31
0.0
  0
LINE
  5
712
  8
0
  6
CONTINUOUS
 62
   253
 10
-2116.5
 20
-17.79999999999998
 30
0.0
 11
-2117.5
 21
-17.79999999999998
 31
0.0
  0
LINE
  5
713
  8
0
  6
CONTINUOUS
 62
   253
 10
-1874.334877871101
 20
233.434535196077
 30
0.0
 11
-1874.294913521232
 21
233.394570846208
 31
0.0
  0
LINE
  5
714
  8
0
  6
CONTINUOUS
 62
     7
 10
-1875.334535196077
 20
158.5651221288985
 30
0.0
 11
-1875.31533060223
 21
158.3700621745754
 31
0.0
  0
LINE
  5
715
  8
0
  6
CONTINUOUS
 62
   253
 10
-2147.736193912307
 20
-17.79999999999995
 30
0.0
 11
-2147.736193912307
 21
408.8000000000001
 31
0.0
  0
LINE
  5
716
  8
0
  6
CONTINUOUS
 62
     7
 10
-1874.717481933476
 20
157.6415457992271
 30
0.0
 11
-1874.529937825424
 21
157.5846693977693
 31
0.0
  0
LINE
  5
717
  8
0
  6
CONTINUOUS
 62
   253
 10
-2141.237183893791
 20
408.8
 30
0.0
 11
-2141.237183893791
 21
-17.79999999999998
 31
0.0
  0
LINE
  5
718
  8
0
  6
CONTINUOUS
 62
   253
 10
-2117.5
 20
-17.79999999999998
 30
0.0
 11
-2117.5
 21
-17.7103022352619
 31
0.0
  0
LINE
  5
719
  8
0
  6
CONTINUOUS
 62
   253
 10
-2116.5
 20
-17.71030223526199
 30
0.0
 11
-2117.5
 21
-17.7103022352619
 31
0.0
  0
LINE
  5
71A
  8
0
  6
CONTINUOUS
 62
     7
 10
-2116.5
 20
-17.71030223526199
 30
0.0
 11
-2116.5
 21
-17.79999999999998
 31
0.0
  0
LINE
  5
71B
  8
0
  6
CONTINUOUS
 62
     7
 10
-1875.334535196077
 20
158.5651221288985
 30
0.0
 11
-1875.334535196077
 21
157.5
 31
0.0
  0
LINE
  5
71C
  8
0
  6
CONTINUOUS
 62
     7
 10
-1875.386911525846
 20
157.5349131205638
 30
0.0
 11
-1875.334535196077
 21
157.5
 31
0.0
  0
LINE
  5
71D
  8
0
  6
CONTINUOUS
 62
     7
 10
-1875.258454200773
 20
232.817481933476
 30
0.0
 11
-1875.31533060223
 21
232.6299378254246
 31
0.0
  0
LINE
  5
71E
  8
0
  6
CONTINUOUS
 62
   253
 10
-1835.125664854537
 20
237.5
 30
0.0
 11
-1898.5
 21
237.5
 31
0.0
  0
LINE
  5
71F
  8
0
  6
CONTINUOUS
 62
     7
 10
-1895.714201468203
 20
233.4779498663037
 30
0.0
 11
-1894.956057681592
 21
233.4563623376794
 31
0.0
  0
LINE
  5
720
  8
0
  6
CONTINUOUS
 62
     7
 10
-1875.334535196077
 20
232.4348778711015
 30
0.0
 11
-1875.334535196077
 21
233.5
 31
0.0
  0
LINE
  5
721
  8
0
  6
CONTINUOUS
 62
   253
 10
-2147.660085038335
 20
409.1826834323651
 30
0.0
 11
-2147.716982119206
 21
408.9950903220162
 31
0.0
  0
LINE
  5
722
  8
0
  6
CONTINUOUS
 62
   253
 10
-2115.5
 20
-15.70266256017522
 30
0.0
 11
-2115.890180644032
 21
-15.74123879358336
 31
0.0
  0
LINE
  5
723
  8
0
  6
CONTINUOUS
 62
   253
 10
-2115.890180644032
 20
-15.74123879358336
 30
0.0
 11
-2116.26536686473
 21
-15.8554850307917
 31
0.0
  0
LINE
  5
724
  8
0
  6
CONTINUOUS
 62
   253
 10
-2116.331469612302
 20
408.1483735137063
 30
0.0
 11
-2116.207106781187
 21
407.9951026332317
 31
0.0
  0
LINE
  5
725
  8
0
  6
CONTINUOUS
 62
   253
 10
-2116.207106781187
 20
407.9951026332317
 30
0.0
 11
-2116.05557023302
 21
407.8693164723746
 31
0.0
  0
LINE
  5
726
  8
0
  6
CONTINUOUS
 62
   253
 10
-2147.716982119206
 20
408.9950903220162
 30
0.0
 11
-2147.736193912308
 21
408.8000000000001
 31
0.0
  0
LINE
  5
727
  8
0
  6
CONTINUOUS
 62
   253
 10
-2147.44334530255
 20
409.5071067811866
 30
0.0
 11
-2147.567689192605
 21
409.3555702330196
 31
0.0
  0
LINE
  5
728
  8
0
  6
CONTINUOUS
 62
   253
 10
-2117.5
 20
408.8
 30
0.0
 11
-2141.237183893791
 21
408.8
 31
0.0
  0
LINE
  5
729
  8
0
  6
CONTINUOUS
 62
   253
 10
-2115.5
 20
-15.70266256017519
 30
0.0
 11
-1851.887425248494
 21
-15.70266256017519
 31
0.0
  0
LINE
  5
72A
  8
0
  6
CONTINUOUS
 62
   253
 10
-2116.423879532511
 20
408.323238999817
 30
0.0
 11
-2116.331469612302
 21
408.1483735137063
 31
0.0
  0
LINE
  5
72B
  8
0
  6
CONTINUOUS
 62
   253
 10
-2117.5
 20
408.7103022352619
 30
0.0
 11
-2117.5
 21
408.8
 31
0.0
  0
LINE
  5
72C
  8
0
  6
CONTINUOUS
 62
   253
 10
-2117.347759065023
 20
407.9420117934474
 30
0.0
 11
-2117.162939224605
 21
407.5949173931546
 31
0.0
  0
LINE
  5
72D
  8
0
  6
CONTINUOUS
 62
   253
 10
-2115.882683432365
 20
407.7758489227549
 30
0.0
 11
-2115.695090322016
 21
407.7182918898875
 31
0.0
  0
LINE
  5
72E
  8
0
  6
CONTINUOUS
 62
   253
 10
-2146.931406825967
 20
-18.78078528040322
 30
0.0
 11
-2146.736346217152
 21
-18.79999999999998
 31
0.0
  0
LINE
  5
72F
  8
0
  6
CONTINUOUS
 62
     7
 10
-2146.736346217152
 20
409.8
 30
0.0
 11
-2141.237183893792
 21
409.8
 31
0.0
  0
LINE
  5
730
  8
0
  6
CONTINUOUS
 62
   253
 10
-2115.5
 20
-16.69885725826694
 30
0.0
 11
-2115.695090322016
 21
-16.71829188988747
 31
0.0
  0
LINE
  5
731
  8
0
  6
CONTINUOUS
 62
   253
 10
-2117.461570560807
 20
-17.31863116455689
 30
0.0
 11
-2117.5
 21
-17.7103022352619
 31
0.0
  0
LINE
  5
732
  8
0
  6
CONTINUOUS
 62
   253
 10
-2147.291831834134
 20
-18.63146961230252
 30
0.0
 11
-2147.118971364976
 21
-18.72387953251127
 31
0.0
  0
LINE
  5
733
  8
0
  6
CONTINUOUS
 62
   253
 10
-2115.890180644032
 20
406.7412387935834
 30
0.0
 11
-2115.5
 21
406.7026625601752
 31
0.0
  0
LINE
  5
734
  8
0
  6
CONTINUOUS
 62
   253
 10
-2116.914213562373
 20
-16.29068660682895
 30
0.0
 11
-2117.162939224605
 21
-16.5949173931546
 31
0.0
  0
LINE
  5
735
  8
0
  6
CONTINUOUS
 62
   253
 10
-2115.5
 20
-16.69885725826695
 30
0.0
 11
-2115.5
 21
-15.70266256017519
 31
0.0
  0
LINE
  5
736
  8
0
  6
CONTINUOUS
 62
   253
 10
-2115.695090322016
 20
-16.71829188988747
 30
0.0
 11
-2115.882683432365
 21
-16.77584892275492
 31
0.0
  0
LINE
  5
737
  8
0
  6
CONTINUOUS
 62
   253
 10
-2116.207106781187
 20
-16.99510263323172
 30
0.0
 11
-2116.331469612302
 21
-17.14837351370635
 31
0.0
  0
LINE
  5
738
  8
0
  6
CONTINUOUS
 62
   253
 10
-2115.882683432365
 20
-16.77584892275492
 30
0.0
 11
-2116.05557023302
 21
-16.86931647237456
 31
0.0
  0
LINE
  5
739
  8
0
  6
CONTINUOUS
 62
   253
 10
-2116.05557023302
 20
-16.86931647237456
 30
0.0
 11
-2116.207106781187
 21
-16.99510263323172
 31
0.0
  0
LINE
  5
73A
  8
0
  6
CONTINUOUS
 62
   253
 10
-2116.26536686473
 20
-15.8554850307917
 30
0.0
 11
-2116.611140466039
 21
-16.04101085297437
 31
0.0
  0
LINE
  5
73B
  8
0
  6
CONTINUOUS
 62
   253
 10
-2115.5
 20
406.7026625601752
 30
0.0
 11
-2115.5
 21
407.698857258267
 31
0.0
  0
LINE
  5
73C
  8
0
  6
CONTINUOUS
 62
   253
 10
-2116.5
 20
408.7103022352619
 30
0.0
 11
-2116.480785280403
 21
408.5129791089984
 31
0.0
  0
LINE
  5
73D
  8
0
  6
CONTINUOUS
 62
   253
 10
-1835.112574765523
 20
406.7026625601752
 30
0.0
 11
-2115.5
 21
406.7026625601752
 31
0.0
  0
LINE
  5
73E
  8
0
  6
CONTINUOUS
 62
     7
 10
-2116.5
 20
408.8
 30
0.0
 11
-2116.5
 21
408.7103022352619
 31
0.0
  0
LINE
  5
73F
  8
0
  6
CONTINUOUS
 62
   253
 10
-2116.423879532511
 20
-17.3232389998171
 30
0.0
 11
-2116.480785280403
 21
-17.51297910899843
 31
0.0
  0
LINE
  5
740
  8
0
  6
CONTINUOUS
 62
   253
 10
-2116.611140466039
 20
-16.04101085297437
 30
0.0
 11
-2116.914213562373
 21
-16.29068660682895
 31
0.0
  0
LINE
  5
741
  8
0
  6
CONTINUOUS
 62
   253
 10
-2116.05557023302
 20
407.8693164723746
 30
0.0
 11
-2115.882683432365
 21
407.7758489227549
 31
0.0
  0
LINE
  5
742
  8
0
  6
CONTINUOUS
 62
   253
 10
-2115.695090322016
 20
407.7182918898875
 30
0.0
 11
-2115.5
 21
407.698857258267
 31
0.0
  0
LINE
  5
743
  8
0
  6
CONTINUOUS
 62
     7
 10
-2117.5
 20
-18.79999999999998
 30
0.0
 11
-2141.237183893791
 21
-18.79999999999998
 31
0.0
  0
LINE
  5
744
  8
0
  6
CONTINUOUS
 62
   253
 10
-2141.237183893791
 20
-17.79999999999998
 30
0.0
 11
-2141.237183893791
 21
-18.79999999999998
 31
0.0
  0
LINE
  5
745
  8
0
  6
CONTINUOUS
 62
   253
 10
-2147.736193912308
 20
-17.79999999999995
 30
0.0
 11
-2147.716982119206
 21
-17.99509032201609
 31
0.0
  0
LINE
  5
746
  8
0
  6
CONTINUOUS
 62
   253
 10
-2117.162939224605
 20
-16.5949173931546
 30
0.0
 11
-2117.347759065023
 21
-16.9420117934474
 31
0.0
  0
LINE
  5
747
  8
0
  6
CONTINUOUS
 62
   253
 10
-2117.5
 20
408.7103022352619
 30
0.0
 11
-2117.461570560807
 21
408.3186311645569
 31
0.0
  0
LINE
  5
748
  8
0
  6
CONTINUOUS
 62
   253
 10
-2116.26536686473
 20
406.8554850307917
 30
0.0
 11
-2115.890180644032
 21
406.7412387935834
 31
0.0
  0
LINE
  5
749
  8
0
  6
CONTINUOUS
 62
   253
 10
-2117.5
 20
408.7103022352619
 30
0.0
 11
-2116.5
 21
408.7103022352619
 31
0.0
  0
LINE
  5
74A
  8
0
  6
CONTINUOUS
 62
     7
 10
-2141.237183893791
 20
-18.79999999999998
 30
0.0
 11
-2146.736346217151
 21
-18.79999999999998
 31
0.0
  0
LINE
  5
74B
  8
0
  6
CONTINUOUS
 62
   253
 10
-2117.162939224605
 20
407.5949173931546
 30
0.0
 11
-2116.914213562373
 21
407.290686606829
 31
0.0
  0
LINE
  5
74C
  8
0
  6
CONTINUOUS
 62
   253
 10
-2147.716982119206
 20
-17.99509032201609
 30
0.0
 11
-2147.660085038335
 21
-18.18268343236505
 31
0.0
  0
LINE
  5
74D
  8
0
  6
CONTINUOUS
 62
   253
 10
-2116.914213562373
 20
407.290686606829
 30
0.0
 11
-2116.611140466039
 21
407.0410108529744
 31
0.0
  0
LINE
  5
74E
  8
0
  6
CONTINUOUS
 62
   253
 10
-2116.611140466039
 20
407.0410108529744
 30
0.0
 11
-2116.26536686473
 21
406.8554850307917
 31
0.0
  0
LINE
  5
74F
  8
0
  6
CONTINUOUS
 62
   253
 10
-2147.660085038335
 20
-18.18268343236505
 30
0.0
 11
-2147.567689192605
 21
-18.35557023301957
 31
0.0
  0
LINE
  5
750
  8
0
  6
CONTINUOUS
 62
   253
 10
-2147.567689192605
 20
-18.35557023301957
 30
0.0
 11
-2147.44334530255
 21
-18.50710678118652
 31
0.0
  0
LINE
  5
751
  8
0
  6
CONTINUOUS
 62
   253
 10
-2115.5
 20
407.698857258267
 30
0.0
 11
-1835.107795080489
 21
407.698857258267
 31
0.0
  0
LINE
  5
752
  8
0
  6
CONTINUOUS
 62
   253
 10
-2141.237183893791
 20
409.8
 30
0.0
 11
-2141.237183893791
 21
408.8
 31
0.0
  0
LINE
  5
753
  8
0
  6
CONTINUOUS
 62
   253
 10
-2116.331469612302
 20
-17.14837351370635
 30
0.0
 11
-2116.423879532511
 21
-17.3232389998171
 31
0.0
  0
LINE
  5
754
  8
0
  6
CONTINUOUS
 62
   253
 10
-2141.237183893791
 20
-17.79999999999998
 30
0.0
 11
-2117.5
 21
-17.79999999999998
 31
0.0
  0
LINE
  5
755
  8
0
  6
CONTINUOUS
 62
   253
 10
-2117.461570560807
 20
408.3186311645569
 30
0.0
 11
-2117.347759065023
 21
407.9420117934474
 31
0.0
  0
LINE
  5
756
  8
0
  6
CONTINUOUS
 62
   253
 10
-1851.88742524857
 20
-16.69885725826695
 30
0.0
 11
-2115.5
 21
-16.69885725826695
 31
0.0
  0
LINE
  5
757
  8
0
  6
CONTINUOUS
 62
   253
 10
-2116.480785280403
 20
408.5129791089984
 30
0.0
 11
-2116.423879532511
 21
408.323238999817
 31
0.0
  0
LINE
  5
758
  8
0
  6
CONTINUOUS
 62
   253
 10
-2116.480785280403
 20
-17.51297910899843
 30
0.0
 11
-2116.5
 21
-17.71030223526198
 31
0.0
  0
LINE
  5
759
  8
0
  6
CONTINUOUS
 62
   253
 10
-2147.118971364976
 20
-18.72387953251127
 30
0.0
 11
-2146.931406825967
 21
-18.78078528040322
 31
0.0
  0
LINE
  5
75A
  8
0
  6
CONTINUOUS
 62
   253
 10
-2146.736346217152
 20
409.8
 30
0.0
 11
-2146.931406825967
 21
409.7807852804032
 31
0.0
  0
LINE
  5
75B
  8
0
  6
CONTINUOUS
 62
   253
 10
-2147.118971364976
 20
409.7238795325113
 30
0.0
 11
-2147.291831834134
 21
409.6314696123026
 31
0.0
  0
LINE
  5
75C
  8
0
  6
CONTINUOUS
 62
   253
 10
-2117.347759065023
 20
-16.9420117934474
 30
0.0
 11
-2117.461570560807
 21
-17.31863116455689
 31
0.0
  0
LINE
  5
75D
  8
0
  6
CONTINUOUS
 62
   253
 10
-2147.44334530255
 20
-18.50710678118652
 30
0.0
 11
-2147.291831834134
 21
-18.63146961230252
 31
0.0
  0
LINE
  5
75E
  8
0
  6
CONTINUOUS
 62
   253
 10
-2147.291831834134
 20
409.6314696123026
 30
0.0
 11
-2147.44334530255
 21
409.5071067811866
 31
0.0
  0
LINE
  5
75F
  8
0
  6
CONTINUOUS
 62
   253
 10
-2147.567689192605
 20
409.3555702330196
 30
0.0
 11
-2147.660085038335
 21
409.1826834323651
 31
0.0
  0
LINE
  5
760
  8
0
  6
CONTINUOUS
 62
   253
 10
-2146.931406825967
 20
409.7807852804032
 30
0.0
 11
-2147.118971364976
 21
409.7238795325113
 31
0.0
  0
LINE
  5
761
  8
0
  6
CONTINUOUS
 62
     7
 10
-2116.127932284348
 20
-17.14831523630023
 30
0.0
 11
-2116.164708078487
 21
-17.1792168891848
 31
0.0
  0
LINE
  5
762
  8
0
  6
CONTINUOUS
 62
     7
 10
-2112.838777278146
 20
-18.06498267343887
 30
0.0
 11
-2113.563796357822
 21
-18.0575239857375
 31
0.0
  0
LINE
  5
763
  8
0
  6
CONTINUOUS
 62
     7
 10
-2116.089725899188
 20
-17.1192800859227
 30
0.0
 11
-2116.127932284348
 21
-17.14831523630023
 31
0.0
  0
LINE
  5
764
  8
0
  6
CONTINUOUS
 62
     7
 10
-2115.788918805829
 20
-16.97103466059666
 30
0.0
 11
-2115.834582655625
 21
-16.98580615315937
 31
0.0
  0
LINE
  5
765
  8
0
  6
CONTINUOUS
 62
     7
 10
-2116.233832354872
 20
-17.24641005851008
 30
0.0
 11
-2116.265960737187
 21
-17.28245290002064
 31
0.0
  0
LINE
  5
766
  8
0
  6
CONTINUOUS
 62
     7
 10
-2116.265960737187
 20
-17.28245290002064
 30
0.0
 11
-2116.296319882296
 21
-17.31996079614312
 31
0.0
  0
LINE
  5
767
  8
0
  6
CONTINUOUS
 62
     7
 10
-2113.563796357822
 20
-18.05752398573751
 30
0.0
 11
-2116.53372809377
 21
-18.05752398573751
 31
0.0
  0
LINE
  5
768
  8
0
  6
CONTINUOUS
 62
     7
 10
-2116.296319882296
 20
-17.31996079614312
 30
0.0
 11
-2116.324799740235
 21
-17.35880940941237
 31
0.0
  0
LINE
  5
769
  8
0
  6
CONTINUOUS
 62
     7
 10
-2116.324799740235
 20
-17.35880940941237
 30
0.0
 11
-2116.351290261038
 21
-17.3988744023634
 31
0.0
  0
LINE
  5
76A
  8
0
  6
CONTINUOUS
 62
     7
 10
-2116.351290261038
 20
-17.3988744023634
 30
0.0
 11
-2116.375832734699
 21
-17.44026359517489
 31
0.0
  0
LINE
  5
76B
  8
0
  6
CONTINUOUS
 62
     7
 10
-2116.375832734699
 20
-17.44026359517489
 30
0.0
 11
-2116.398405643215
 21
-17.48291489240056
 31
0.0
  0
LINE
  5
76C
  8
0
  6
CONTINUOUS
 62
   253
 10
-2115.5
 20
-16.69885725826695
 30
0.0
 11
-2115.5
 21
-16.80380530190823
 31
0.0
  0
LINE
  5
76D
  8
0
  6
CONTINUOUS
 62
     7
 10
-2112.223239514114
 20
409.0870327560997
 30
0.0
 11
-2111.744085019693
 21
409.1227105392995
 31
0.0
  0
LINE
  5
76E
  8
0
  6
CONTINUOUS
 62
   253
 10
-2115.882683432365
 20
-16.87963610803676
 30
0.0
 11
-2116.05557023302
 21
-16.97169438059979
 31
0.0
  0
LINE
  5
76F
  8
0
  6
CONTINUOUS
 62
     7
 10
-2111.271815401427
 20
409.2281845985725
 30
0.0
 11
-2111.0
 21
409.4999999999999
 31
0.0
  0
LINE
  5
770
  8
0
  6
CONTINUOUS
 62
     7
 10
-2115.503953026133
 20
-16.9294893427305
 30
0.0
 11
-2115.551933570408
 21
-16.93066694906584
 31
0.0
  0
LINE
  5
771
  8
0
  6
CONTINUOUS
 62
     7
 10
-2115.742458233109
 20
-16.95845810655483
 30
0.0
 11
-2115.788918805829
 21
-16.97103466059666
 31
0.0
  0
LINE
  5
772
  8
0
  6
CONTINUOUS
 62
     7
 10
-2115.92359750992
 20
-17.02199790208006
 30
0.0
 11
-2115.9668348846
 21
-17.04332764361913
 31
0.0
  0
LINE
  5
773
  8
0
  6
CONTINUOUS
 62
     7
 10
-2116.398405643215
 20
-17.48291489240056
 30
0.0
 11
-2116.418945832603
 21
-17.52667428538365
 31
0.0
  0
LINE
  5
774
  8
0
  6
CONTINUOUS
 62
   253
 10
-2115.882683432365
 20
407.8796361080368
 30
0.0
 11
-2115.695090322016
 21
407.8229469036959
 31
0.0
  0
LINE
  5
775
  8
0
  6
CONTINUOUS
 62
     7
 10
-2112.223239514114
 20
-18.08703275609966
 30
0.0
 11
-2112.838777278146
 21
-18.06498267343887
 31
0.0
  0
LINE
  5
776
  8
0
  6
CONTINUOUS
 62
   253
 10
-2116.207106781187
 20
-17.09558397359723
 30
0.0
 11
-2116.331469612302
 21
-17.24654387944826
 31
0.0
  0
ARC
  5
777
  8
0
  6
CONTINUOUS
 62
   253
 10
-2117.5
 20
-16.80380530190823
 30
0.0
 40
2.0
 50
356.3970433778203
 51
0.0
  0
LINE
  5
778
  8
0
  6
CONTINUOUS
 62
   253
 10
-2116.5
 20
408.8
 30
0.0
 11
-2116.480785280403
 21
408.6056520555586
 31
0.0
  0
LINE
  5
779
  8
0
  6
CONTINUOUS
 62
   253
 10
-2116.423879532511
 20
-17.41877279363033
 30
0.0
 11
-2116.480785280403
 21
-17.6056520555585
 31
0.0
  0
LINE
  5
77A
  8
0
  6
CONTINUOUS
 62
     7
 10
-2111.422255145526
 20
409.1704567327117
 30
0.0
 11
-2111.271815401428
 21
409.2281845985724
 31
0.0
  0
ARC
  5
77B
  8
0
  6
CONTINUOUS
 62
   253
 10
-2117.5
 20
407.8038053019083
 30
0.0
 40
2.0
 50
0.0000000000008527
 51
3.602956622179704
  0
LINE
  5
77C
  8
0
  6
CONTINUOUS
 62
     7
 10
-2115.879465075273
 20
-17.00279706496494
 30
0.0
 11
-2115.92359750992
 21
-17.02199790208006
 31
0.0
  0
LINE
  5
77D
  8
0
  6
CONTINUOUS
 62
     7
 10
-2116.164708078487
 20
-17.1792168891848
 30
0.0
 11
-2116.200044785316
 21
-17.21195660907643
 31
0.0
  0
LINE
  5
77E
  8
0
  6
CONTINUOUS
 62
   253
 10
-2115.695090322016
 20
407.8229469036959
 30
0.0
 11
-2115.5
 21
407.8038053019083
 31
0.0
  0
LINE
  5
77F
  8
0
  6
CONTINUOUS
 62
     7
 10
-2116.53372809377
 20
409.0575239857375
 30
0.0
 11
-2113.563796357822
 21
409.0575239857375
 31
0.0
  0
LINE
  5
780
  8
0
  6
CONTINUOUS
 62
     7
 10
-2116.418945832603
 20
-17.52667428538365
 30
0.0
 11
-2116.437390148875
 21
-17.57138776546729
 31
0.0
  0
LINE
  5
781
  8
0
  6
CONTINUOUS
 62
     7
 10
-2116.453675438046
 20
-17.61690132399446
 30
0.0
 11
-2116.467738546127
 21
-17.6630609523083
 31
0.0
  0
LINE
  5
782
  8
0
  6
CONTINUOUS
 62
     7
 10
-2141.237183893791
 20
409.8
 30
0.0
 11
-2117.5
 21
409.8
 31
0.0
  0
LINE
  5
783
  8
0
  6
CONTINUOUS
 62
     7
 10
-1851.887425248647
 20
-18.49999999999999
 30
0.0
 11
-2111.0
 21
-18.49999999999999
 31
0.0
  0
LINE
  5
784
  8
0
  6
CONTINUOUS
 62
     7
 10
-2116.200044785316
 20
-17.21195660907643
 30
0.0
 11
-2116.233832354872
 21
-17.24641005851008
 31
0.0
  0
LINE
  5
785
  8
0
  6
CONTINUOUS
 62
     7
 10
-2115.599938606114
 20
-16.93418091228932
 30
0.0
 11
-2115.64780389038
 21
-16.94000294872763
 31
0.0
  0
LINE
  5
786
  8
0
  6
CONTINUOUS
 62
     7
 10
-2115.64780389038
 20
-16.94000294872763
 30
0.0
 11
-2115.695365180336
 21
-16.94810477470735
 31
0.0
  0
LINE
  5
787
  8
0
  6
CONTINUOUS
 62
   253
 10
-2116.05557023302
 20
407.9716943805998
 30
0.0
 11
-2115.882683432365
 21
407.8796361080368
 31
0.0
  0
LINE
  5
788
  8
0
  6
CONTINUOUS
 62
     7
 10
-2116.009032124348
 20
-17.06670526869644
 30
0.0
 11
-2116.050044154199
 21
-17.0920497564262
 31
0.0
  0
LINE
  5
789
  8
0
  6
CONTINUOUS
 62
     7
 10
-2116.050044154199
 20
-17.0920497564262
 30
0.0
 11
-2116.089725899188
 21
-17.1192800859227
 31
0.0
  0
LINE
  5
78A
  8
0
  6
CONTINUOUS
 62
     7
 10
-2116.437390148875
 20
-17.57138776546729
 30
0.0
 11
-2116.453675438046
 21
-17.61690132399446
 31
0.0
  0
LINE
  5
78B
  8
0
  6
CONTINUOUS
 62
   253
 10
-2115.5
 20
-16.80380530190824
 30
0.0
 11
-2115.695090322016
 21
-16.82294690369586
 31
0.0
  0
LINE
  5
78C
  8
0
  6
CONTINUOUS
 62
   253
 10
-2115.5
 20
407.8038053019083
 30
0.0
 11
-2115.5
 21
407.6988572582669
 31
0.0
  0
LINE
  5
78D
  8
0
  6
CONTINUOUS
 62
   253
 10
-2116.331469612302
 20
408.2465438794483
 30
0.0
 11
-2116.207106781187
 21
408.0955839735973
 31
0.0
  0
LINE
  5
78E
  8
0
  6
CONTINUOUS
 62
     7
 10
-2113.563796357822
 20
409.0575239857375
 30
0.0
 11
-2112.838777278146
 21
409.0649826734389
 31
0.0
  0
LINE
  5
78F
  8
0
  6
CONTINUOUS
 62
     7
 10
-2112.838777278146
 20
409.0649826734389
 30
0.0
 11
-2112.223239514114
 21
409.0870327560997
 31
0.0
  0
LINE
  5
790
  8
0
  6
CONTINUOUS
 62
   253
 10
-2116.207106781187
 20
408.0955839735973
 30
0.0
 11
-2116.05557023302
 21
407.9716943805998
 31
0.0
  0
LINE
  5
791
  8
0
  6
CONTINUOUS
 62
   253
 10
-2116.331469612302
 20
-17.24654387944826
 30
0.0
 11
-2116.423879532511
 21
-17.41877279363033
 31
0.0
  0
LINE
  5
792
  8
0
  6
CONTINUOUS
 62
   253
 10
-2116.480785280403
 20
-17.6056520555585
 30
0.0
 11
-2116.5
 21
-17.79999999999998
 31
0.0
  0
LINE
  5
793
  8
0
  6
CONTINUOUS
 62
     7
 10
-2111.271815401428
 20
-18.22818459857244
 30
0.0
 11
-2111.422255145526
 21
-18.17045673271175
 31
0.0
  0
LINE
  5
794
  8
0
  6
CONTINUOUS
 62
   253
 10
-2116.05557023302
 20
-16.97169438059979
 30
0.0
 11
-2116.207106781187
 21
-17.09558397359723
 31
0.0
  0
LINE
  5
795
  8
0
  6
CONTINUOUS
 62
     7
 10
-2111.0
 20
-18.49999999999999
 30
0.0
 11
-2111.271815401427
 21
-18.22818459857245
 31
0.0
  0
LINE
  5
796
  8
0
  6
CONTINUOUS
 62
   253
 10
-2116.480785280403
 20
408.6056520555586
 30
0.0
 11
-2116.423879532511
 21
408.4187727936304
 31
0.0
  0
LINE
  5
797
  8
0
  6
CONTINUOUS
 62
   253
 10
-2116.423879532511
 20
408.4187727936304
 30
0.0
 11
-2116.331469612302
 21
408.2465438794483
 31
0.0
  0
LINE
  5
798
  8
0
  6
CONTINUOUS
 62
     7
 10
-2115.551933570408
 20
-16.93066694906584
 30
0.0
 11
-2115.599938606114
 21
-16.93418091228932
 31
0.0
  0
LINE
  5
799
  8
0
  6
CONTINUOUS
 62
     7
 10
-2115.695365180336
 20
-16.94810477470735
 30
0.0
 11
-2115.742458233109
 21
-16.95845810655483
 31
0.0
  0
LINE
  5
79A
  8
0
  6
CONTINUOUS
 62
     7
 10
-2115.834582655625
 20
-16.98580615315937
 30
0.0
 11
-2115.879465075273
 21
-17.00279706496494
 31
0.0
  0
LINE
  5
79B
  8
0
  6
CONTINUOUS
 62
   253
 10
-2115.695090322016
 20
-16.82294690369586
 30
0.0
 11
-2115.882683432365
 21
-16.87963610803676
 31
0.0
  0
LINE
  5
79C
  8
0
  6
CONTINUOUS
 62
     7
 10
-2115.9668348846
 20
-17.04332764361913
 30
0.0
 11
-2116.009032124348
 21
-17.06670526869644
 31
0.0
  0
LINE
  5
79D
  8
0
  6
CONTINUOUS
 62
     7
 10
-2111.744085019693
 20
-18.12271053929956
 30
0.0
 11
-2112.223239514114
 21
-18.08703275609966
 31
0.0
  0
LINE
  5
79E
  8
0
  6
CONTINUOUS
 62
     7
 10
-2111.744085019693
 20
409.1227105392995
 30
0.0
 11
-2111.422255145526
 21
409.1704567327117
 31
0.0
  0
LINE
  5
79F
  8
0
  6
CONTINUOUS
 62
     7
 10
-2111.0
 20
409.5
 30
0.0
 11
-1835.0
 21
409.5
 31
0.0
  0
LINE
  5
7A0
  8
0
  6
CONTINUOUS
 62
     7
 10
-2111.422255145526
 20
-18.17045673271175
 30
0.0
 11
-2111.744085019693
 21
-18.12271053929956
 31
0.0
  0
LINE
  5
7A1
  8
0
  6
CONTINUOUS
 62
     7
 10
-2116.395822848065
 20
408.4777496401034
 30
0.0
 11
-2116.374520949972
 21
408.4380345805654
 31
0.0
  0
LINE
  5
7A2
  8
0
  6
CONTINUOUS
 62
     7
 10
-2115.931689289983
 20
408.0257887626362
 30
0.0
 11
-2115.887521366212
 21
408.0061859715925
 31
0.0
  0
LINE
  5
7A3
  8
0
  6
CONTINUOUS
 62
     7
 10
-2116.502152836986
 20
408.8655823090857
 30
0.0
 11
-2116.493926318279
 21
408.7873935215414
 31
0.0
  0
LINE
  5
7A4
  8
0
  6
CONTINUOUS
 62
     7
 10
-2116.272431145952
 20
408.290001804216
 30
0.0
 11
-2116.240719447597
 21
408.2537400365484
 31
0.0
  0
LINE
  5
7A5
  8
0
  6
CONTINUOUS
 62
     7
 10
-2116.479479212614
 20
408.709891029999
 30
0.0
 11
-2116.466541763865
 21
408.6589181619904
 31
0.0
  0
LINE
  5
7A6
  8
0
  6
CONTINUOUS
 62
     7
 10
-2115.796604176292
 20
407.973401697127
 30
0.0
 11
-2115.750166917331
 21
407.9603422617379
 31
0.0
  0
LINE
  5
7A7
  8
0
  6
CONTINUOUS
 62
     7
 10
-2115.750166917331
 20
407.9603422617379
 30
0.0
 11
-2115.703285220492
 21
407.9495859929328
 31
0.0
  0
LINE
  5
7A8
  8
0
  6
CONTINUOUS
 62
     7
 10
-2116.466541763865
 20
408.6589181619904
 30
0.0
 11
-2116.45099306397
 21
408.6087558421254
 31
0.0
  0
LINE
  5
7A9
  8
0
  6
CONTINUOUS
 62
     7
 10
-2115.653924657711
 20
407.9408226250683
 30
0.0
 11
-2115.604123377434
 21
407.9345392089247
 31
0.0
  0
LINE
  5
7AA
  8
0
  6
CONTINUOUS
 62
     7
 10
-2116.35146200981
 20
408.3992858577884
 30
0.0
 11
-2116.326714848483
 21
408.3616198811915
 31
0.0
  0
LINE
  5
7AB
  8
0
  6
CONTINUOUS
 62
     7
 10
-2115.604123377434
 20
407.9345392089247
 30
0.0
 11
-2115.554069970096
 21
407.9307550222345
 31
0.0
  0
LINE
  5
7AC
  8
0
  6
CONTINUOUS
 62
     7
 10
-2147.484348419148
 20
-18.79903209728714
 30
0.0
 11
-2147.527910678109
 21
-18.79613643893421
 31
0.0
  0
LINE
  5
7AD
  8
0
  6
CONTINUOUS
 62
     7
 10
-2147.527910678109
 20
-18.79613643893421
 30
0.0
 11
-2147.571286592734
 21
-18.79132509961948
 31
0.0
  0
LINE
  5
7AE
  8
0
  6
CONTINUOUS
 62
     7
 10
-2147.571286592734
 20
-18.79132509961948
 30
0.0
 11
-2147.614365042139
 21
-18.78461015402122
 31
0.0
  0
LINE
  5
7AF
  8
0
  6
CONTINUOUS
 62
     7
 10
-2147.440710936737
 20
-18.79999999999998
 30
0.0
 11
-2147.484348419148
 21
-18.79903209728714
 31
0.0
  0
LINE
  5
7B0
  8
0
  6
CONTINUOUS
 62
     7
 10
-2147.658335369837
 20
-18.77571628354458
 30
0.0
 11
-2147.701913439127
 21
-18.76482035272995
 31
0.0
  0
LINE
  5
7B1
  8
0
  6
CONTINUOUS
 62
     7
 10
-2147.907163430052
 20
-18.68292342202352
 30
0.0
 11
-2147.945461217639
 21
-18.66131625408779
 31
0.0
  0
LINE
  5
7B2
  8
0
  6
CONTINUOUS
 62
     7
 10
-2116.493926318279
 20
408.7873935215414
 30
0.0
 11
-2116.489758288717
 21
408.7614653847714
 31
0.0
  0
LINE
  5
7B3
  8
0
  6
CONTINUOUS
 62
     7
 10
-2115.554069970096
 20
407.9307550222345
 30
0.0
 11
-2115.503953026133
 21
407.9294893427305
 31
0.0
  0
LINE
  5
7B4
  8
0
  6
CONTINUOUS
 62
     7
 10
-2147.867986723795
 20
-18.70279021424745
 30
0.0
 11
-2147.907163430052
 21
-18.68292342202352
 31
0.0
  0
LINE
  5
7B5
  8
0
  6
CONTINUOUS
 62
     7
 10
-2115.974788761503
 20
408.0474506241987
 30
0.0
 11
-2115.931689289983
 21
408.0257887626362
 31
0.0
  0
LINE
  5
7B6
  8
0
  6
CONTINUOUS
 62
     7
 10
-2148.021438861484
 20
-18.61133402723614
 30
0.0
 11
-2148.057791277162
 21
-18.58366632736486
 31
0.0
  0
LINE
  5
7B7
  8
0
  6
CONTINUOUS
 62
     7
 10
-2147.945461217639
 20
-18.66131625408779
 30
0.0
 11
-2147.983957135703
 21
-18.63723901877534
 31
0.0
  0
LINE
  5
7B8
  8
0
  6
CONTINUOUS
 62
     7
 10
-2148.057791277162
 20
-18.58366632736486
 30
0.0
 11
-2148.092899264923
 21
-18.55430096705615
 31
0.0
  0
LINE
  5
7B9
  8
0
  6
CONTINUOUS
 62
     7
 10
-2116.415298883186
 20
408.5183146269829
 30
0.0
 11
-2116.395822848065
 21
408.4777496401034
 31
0.0
  0
LINE
  5
7BA
  8
0
  6
CONTINUOUS
 62
     7
 10
-2148.092899264923
 20
-18.55430096705615
 30
0.0
 11
-2148.12499879423
 21
-18.5248948862454
 31
0.0
  0
LINE
  5
7BB
  8
0
  6
CONTINUOUS
 62
     7
 10
-2116.207187176435
 20
408.218959556018
 30
0.0
 11
-2116.171961376711
 21
408.1857699075346
 31
0.0
  0
LINE
  5
7BC
  8
0
  6
CONTINUOUS
 62
     7
 10
-2148.12499879423
 20
-18.5248948862454
 30
0.0
 11
-2148.155902507493
 21
-18.49398925633189
 31
0.0
  0
LINE
  5
7BD
  8
0
  6
CONTINUOUS
 62
     7
 10
-2148.155902507493
 20
-18.49398925633189
 30
0.0
 11
-2148.185514846791
 21
-18.46166065971869
 31
0.0
  0
LINE
  5
7BE
  8
0
  6
CONTINUOUS
 62
     7
 10
-2148.185514846791
 20
-18.46166065971869
 30
0.0
 11
-2148.213740254198
 21
-18.42798567880882
 31
0.0
  0
LINE
  5
7BF
  8
0
  6
CONTINUOUS
 62
     7
 10
-2148.213740254198
 20
-18.42798567880882
 30
0.0
 11
-2148.241398099406
 21
-18.39179679725411
 31
0.0
  0
LINE
  5
7C0
  8
0
  6
CONTINUOUS
 62
     7
 10
-2148.241398099406
 20
-18.39179679725411
 30
0.0
 11
-2148.267491670304
 21
-18.35421588830333
 31
0.0
  0
LINE
  5
7C1
  8
0
  6
CONTINUOUS
 62
     7
 10
-2148.267491670304
 20
-18.35421588830333
 30
0.0
 11
-2148.291923890356
 21
-18.31535555791059
 31
0.0
  0
LINE
  5
7C2
  8
0
  6
CONTINUOUS
 62
     7
 10
-2116.171961376711
 20
408.1857699075346
 30
0.0
 11
-2116.135169092676
 21
408.1542806360079
 31
0.0
  0
LINE
  5
7C3
  8
0
  6
CONTINUOUS
 62
     7
 10
-2148.291923890356
 20
-18.31535555791059
 30
0.0
 11
-2148.314597683024
 21
-18.27532841202997
 31
0.0
  0
LINE
  5
7C4
  8
0
  6
CONTINUOUS
 62
     7
 10
-2148.314597683024
 20
-18.27532841202997
 30
0.0
 11
-2148.333560662561
 21
-18.23812561629315
 31
0.0
  0
LINE
  5
7C5
  8
0
  6
CONTINUOUS
 62
     7
 10
-2116.483680673963
 20
-17.72896803195492
 30
0.0
 11
-2116.502152836986
 21
-17.86558230908566
 31
0.0
  0
LINE
  5
7C6
  8
0
  6
CONTINUOUS
 62
     7
 10
-2116.479516319135
 20
-17.70971264175197
 30
0.0
 11
-2116.483680673963
 21
-17.72896803195492
 31
0.0
  0
LINE
  5
7C7
  8
0
  6
CONTINUOUS
 62
     7
 10
-2116.326714848483
 20
408.3616198811915
 30
0.0
 11
-2116.300348286896
 21
408.3251530601943
 31
0.0
  0
LINE
  5
7C8
  8
0
  6
CONTINUOUS
 62
     7
 10
-2116.300348286896
 20
408.3251530601943
 30
0.0
 11
-2116.272431145952
 21
408.290001804216
 31
0.0
  0
LINE
  5
7C9
  8
0
  6
CONTINUOUS
 62
   253
 10
-2148.433915508351
 20
-17.79999999999998
 30
0.0
 11
-2147.736193912308
 21
-17.79999999999995
 31
0.0
  0
LINE
  5
7CA
  8
0
  6
CONTINUOUS
 62
     7
 10
-2147.614365042139
 20
-18.78461015402122
 30
0.0
 11
-2147.658335369837
 21
-18.77571628354458
 31
0.0
  0
LINE
  5
7CB
  8
0
  6
CONTINUOUS
 62
     7
 10
-2147.701913439127
 20
-18.76482035272995
 30
0.0
 11
-2147.744981576585
 21
-18.75195105527
 31
0.0
  0
LINE
  5
7CC
  8
0
  6
CONTINUOUS
 62
     7
 10
-2116.45099306397
 20
408.6087558421254
 30
0.0
 11
-2116.432880234429
 21
408.5596131317846
 31
0.0
  0
LINE
  5
7CD
  8
0
  6
CONTINUOUS
 62
     7
 10
-2147.744981576585
 20
-18.75195105527
 30
0.0
 11
-2147.787422108785
 21
-18.73713708485719
 31
0.0
  0
LINE
  5
7CE
  8
0
  6
CONTINUOUS
 62
     7
 10
-2116.096937368577
 20
408.1246012863472
 30
0.0
 11
-2116.057393248661
 21
408.0968414034626
 31
0.0
  0
LINE
  5
7CF
  8
0
  6
CONTINUOUS
 62
     7
 10
-2147.787422108785
 20
-18.73713708485719
 30
0.0
 11
-2147.828037487246
 21
-18.72087523408392
 31
0.0
  0
LINE
  5
7D0
  8
0
  6
CONTINUOUS
 62
     7
 10
-2147.828037487246
 20
-18.72087523408392
 30
0.0
 11
-2147.867986723795
 21
-18.70279021424745
 31
0.0
  0
LINE
  5
7D1
  8
0
  6
CONTINUOUS
 62
     7
 10
-2148.333560662561
 20
-18.23812561629315
 30
0.0
 11
-2148.351021547813
 21
-18.20002267541171
 31
0.0
  0
LINE
  5
7D2
  8
0
  6
CONTINUOUS
 62
     7
 10
-2148.351021547813
 20
-18.20002267541171
 30
0.0
 11
-2148.366921189398
 21
-18.16112480515145
 31
0.0
  0
LINE
  5
7D3
  8
0
  6
CONTINUOUS
 62
     7
 10
-2148.366921189398
 20
-18.16112480515145
 30
0.0
 11
-2148.381200437933
 21
-18.12153722127832
 31
0.0
  0
LINE
  5
7D4
  8
0
  6
CONTINUOUS
 62
     7
 10
-2148.381200437933
 20
-18.12153722127832
 30
0.0
 11
-2148.394222391485
 21
-18.07993172926123
 31
0.0
  0
LINE
  5
7D5
  8
0
  6
CONTINUOUS
 62
     7
 10
-2116.135169092676
 20
408.1542806360079
 30
0.0
 11
-2116.096937368577
 21
408.1246012863472
 31
0.0
  0
LINE
  5
7D6
  8
0
  6
CONTINUOUS
 62
     7
 10
-2116.467738546127
 20
-17.6630609523083
 30
0.0
 11
-2116.479516319135
 21
-17.70971264175197
 31
0.0
  0
LINE
  5
7D7
  8
0
  6
CONTINUOUS
 62
     7
 10
-2115.887521366212
 20
408.0061859715925
 30
0.0
 11
-2115.842440993784
 21
407.988703275084
 31
0.0
  0
LINE
  5
7D8
  8
0
  6
CONTINUOUS
 62
     7
 10
-2116.240719447597
 20
408.2537400365484
 30
0.0
 11
-2116.207187176435
 21
408.218959556018
 31
0.0
  0
LINE
  5
7D9
  8
0
  6
CONTINUOUS
 62
     7
 10
-2115.842440993784
 20
407.988703275084
 30
0.0
 11
-2115.796604176292
 21
407.973401697127
 31
0.0
  0
LINE
  5
7DA
  8
0
  6
CONTINUOUS
 62
     7
 10
-2115.703285220492
 20
407.9495859929328
 30
0.0
 11
-2115.653924657711
 21
407.9408226250683
 31
0.0
  0
LINE
  5
7DB
  8
0
  6
CONTINUOUS
 62
     7
 10
-2116.374520949972
 20
408.4380345805654
 30
0.0
 11
-2116.35146200981
 21
408.3992858577884
 31
0.0
  0
LINE
  5
7DC
  8
0
  6
CONTINUOUS
 62
     7
 10
-2147.983957135703
 20
-18.63723901877534
 30
0.0
 11
-2148.021438861484
 21
-18.61133402723614
 31
0.0
  0
LINE
  5
7DD
  8
0
  6
CONTINUOUS
 62
     7
 10
-2116.432880234429
 20
408.5596131317846
 30
0.0
 11
-2116.415298883186
 21
408.5183146269829
 31
0.0
  0
LINE
  5
7DE
  8
0
  6
CONTINUOUS
 62
     7
 10
-2116.057393248661
 20
408.0968414034626
 30
0.0
 11
-2116.016663777177
 21
408.0711105322637
 31
0.0
  0
LINE
  5
7DF
  8
0
  6
CONTINUOUS
 62
     7
 10
-2116.016663777177
 20
408.0711105322637
 30
0.0
 11
-2115.974788761503
 21
408.0474506241987
 31
0.0
  0
LINE
  5
7E0
  8
0
  6
CONTINUOUS
 62
     7
 10
-2116.489758288717
 20
408.7614653847714
 30
0.0
 11
-2116.479479212614
 21
408.709891029999
 31
0.0
  0
LINE
  5
7E1
  8
0
  6
CONTINUOUS
 62
   253
 10
-1820.616163909588
 20
-26.97517420867389
 30
0.0
 11
-1821.378897865568
 21
-26.94717740847574
 31
0.0
  0
LINE
  5
7E2
  8
0
  6
CONTINUOUS
 62
   253
 10
-1821.378897865568
 20
-26.94717740847574
 30
0.0
 11
-1822.253324174513
 21
-26.92634691815256
 31
0.0
  0
LINE
  5
7E3
  8
0
  6
CONTINUOUS
 62
     7
 10
-2148.394222391485
 20
-18.07993172926123
 30
0.0
 11
-2148.405462521608
 21
-18.03766655735398
 31
0.0
  0
LINE
  5
7E4
  8
0
  6
CONTINUOUS
 62
     7
 10
-2147.863057371161
 20
409.1826834323651
 30
0.0
 11
-2147.920057531884
 21
408.9950903220162
 31
0.0
  0
LINE
  5
7E5
  8
0
  6
CONTINUOUS
 62
   253
 10
-1847.746675825487
 20
-26.92634691815256
 30
0.0
 11
-1848.621102134432
 21
-26.94717740847574
 31
0.0
  0
LINE
  5
7E6
  8
0
  6
CONTINUOUS
 62
   253
 10
-1823.204767439889
 20
-26.91350877130438
 30
0.0
 11
-1824.195498155886
 21
-26.90917206495644
 31
0.0
  0
LINE
  5
7E7
  8
0
  6
CONTINUOUS
 62
   253
 10
-1821.733478773356
 20
-29.58039985153114
 30
0.0
 11
-1821.257677319607
 21
-29.52617643227727
 31
0.0
  0
ARC
  5
7E8
  8
0
  6
CONTINUOUS
 62
   253
 10
-1823.876003524806
 20
-41.90651055139715
 30
0.0
 40
12.51093191156959
 50
80.13936677493439
 51
91.46333497211094
  0
LINE
  5
7E9
  8
0
  6
CONTINUOUS
 62
     7
 10
-2148.427649090741
 20
-7.000000000000006
 30
0.0
 11
-2148.43391550835
 21
-7.000000000000006
 31
0.0
  0
LINE
  5
7EA
  8
0
  6
CONTINUOUS
 62
   253
 10
-1821.257677319607
 20
-29.52617643227727
 30
0.0
 11
-1820.79981109526
 21
-29.38011861174325
 31
0.0
  0
LINE
  5
7EB
  8
0
  6
CONTINUOUS
 62
   253
 10
-1822.253324174513
 20
-26.92634691815256
 30
0.0
 11
-1823.204767439889
 21
-26.91350877130438
 31
0.0
  0
LINE
  5
7EC
  8
0
  6
CONTINUOUS
 62
     7
 10
-1835.01832612462
 20
155.6658231168181
 30
0.0
 11
-1834.903133339601
 21
155.6658231168181
 31
0.0
  0
LINE
  5
7ED
  8
0
  6
CONTINUOUS
 62
     7
 10
-2148.427649090741
 20
398.0000000000001
 30
0.0
 11
-2148.427649090741
 21
-6.99999999999995
 31
0.0
  0
LINE
  5
7EE
  8
0
  6
CONTINUOUS
 62
     7
 10
-2147.770554351757
 20
409.3555702330196
 30
0.0
 11
-2147.863057371161
 21
409.1826834323651
 31
0.0
  0
LINE
  5
7EF
  8
0
  6
CONTINUOUS
 62
   253
 10
-1850.458870587335
 20
-27.04798572888873
 30
0.0
 11
-1850.728540609175
 21
-27.08991310630177
 31
0.0
  0
LINE
  5
7F0
  8
0
  6
CONTINUOUS
 62
     7
 10
-2148.431016814685
 20
-17.87636551884286
 30
0.0
 11
-2148.43319003923
 21
-17.83821535556348
 31
0.0
  0
LINE
  5
7F1
  8
0
  6
CONTINUOUS
 62
   253
 10
-1850.674936987535
 20
-27.5712160652994
 30
0.0
 11
-1850.530548672353
 21
-28.03437641688566
 31
0.0
  0
LINE
  5
7F2
  8
0
  6
CONTINUOUS
 62
   253
 10
-1820.79981109526
 20
-29.38011861174325
 30
0.0
 11
-1820.377139265254
 21
-29.14773200681293
 31
0.0
  0
LINE
  5
7F3
  8
0
  6
CONTINUOUS
 62
     7
 10
-2148.427428943049
 20
-17.91412961632305
 30
0.0
 11
-2148.431016814685
 21
-17.87636551884286
 31
0.0
  0
LINE
  5
7F4
  8
0
  6
CONTINUOUS
 62
     7
 10
-2148.43319003923
 20
-17.83821535556348
 30
0.0
 11
-2148.433915508351
 21
-17.79999999999998
 31
0.0
  0
LINE
  5
7F5
  8
0
  6
CONTINUOUS
 62
   253
 10
-1835.056119250291
 20
400.0298375652303
 30
0.0
 11
-1834.903133316638
 21
400.0298375652304
 31
0.0
  0
LINE
  5
7F6
  8
0
  6
CONTINUOUS
 62
     7
 10
-2148.433915508351
 20
398.0000000000001
 30
0.0
 11
-2148.427649090741
 21
398.0000000000001
 31
0.0
  0
LINE
  5
7F7
  8
0
  6
CONTINUOUS
 62
     7
 10
-1835.0
 20
400.9675313808816
 30
0.0
 11
-1834.90313331655
 21
400.9675313808816
 31
0.0
  0
LINE
  5
7F8
  8
0
  6
CONTINUOUS
 62
     7
 10
-2146.736346217152
 20
-18.79999999999998
 30
0.0
 11
-2147.440710936737
 21
-18.79999999999998
 31
0.0
  0
LINE
  5
7F9
  8
0
  6
CONTINUOUS
 62
   253
 10
-2147.736193912307
 20
408.8
 30
0.0
 11
-2147.939364349712
 21
408.8
 31
0.0
  0
LINE
  5
7FA
  8
0
  6
CONTINUOUS
 62
     7
 10
-2146.938754944707
 20
409.8
 30
0.0
 11
-2147.133883767056
 21
409.7807852804033
 31
0.0
  0
LINE
  5
7FB
  8
0
  6
CONTINUOUS
 62
     7
 10
-2148.414878135021
 20
-17.99487803093747
 30
0.0
 11
-2148.422426538444
 21
-17.95170247539243
 31
0.0
  0
LINE
  5
7FC
  8
0
  6
CONTINUOUS
 62
   253
 10
-1834.903133316872
 20
397.5393508200009
 30
0.0
 11
-1835.068068462874
 21
397.5393508200009
 31
0.0
  0
LINE
  5
7FD
  8
0
  6
CONTINUOUS
 62
     7
 10
-1835.0
 20
402.6995821884503
 30
0.0
 11
-1834.903133316387
 21
402.6995821884503
 31
0.0
  0
LINE
  5
7FE
  8
0
  6
CONTINUOUS
 62
   253
 10
-1846.79523256011
 20
-26.91350877130438
 30
0.0
 11
-1847.746675825487
 21
-26.92634691815256
 31
0.0
  0
LINE
  5
7FF
  8
0
  6
CONTINUOUS
 62
     7
 10
-2146.938754944707
 20
409.8
 30
0.0
 11
-2146.736346217152
 21
409.8
 31
0.0
  0
LINE
  5
800
  8
0
  6
CONTINUOUS
 62
   253
 10
-1850.728540609175
 20
-27.08991310630177
 30
0.0
 11
-1850.674936987535
 21
-27.5712160652994
 31
0.0
  0
LINE
  5
801
  8
0
  6
CONTINUOUS
 62
   253
 10
-1850.300818348884
 20
-28.46193543517851
 30
0.0
 11
-1849.994405650297
 21
-28.83777637859333
 31
0.0
  0
LINE
  5
802
  8
0
  6
CONTINUOUS
 62
     7
 10
-2148.422426538444
 20
-17.95170247539243
 30
0.0
 11
-2148.427428943049
 21
-17.91412961632305
 31
0.0
  0
LINE
  5
803
  8
0
  6
CONTINUOUS
 62
   253
 10
-1845.804501844113
 20
-26.90917206495644
 30
0.0
 11
-1846.79523256011
 21
-26.91350877130438
 31
0.0
  0
LINE
  5
804
  8
0
  6
CONTINUOUS
 62
     7
 10
-2147.494486838011
 20
409.6314696123026
 30
0.0
 11
-2147.646103312829
 21
409.5071067811866
 31
0.0
  0
LINE
  5
805
  8
0
  6
CONTINUOUS
 62
     7
 10
-2148.433915508351
 20
405.5000000000001
 30
0.0
 11
-2148.433915508351
 21
398.0
 31
0.0
  0
LINE
  5
806
  8
0
  6
CONTINUOUS
 62
     7
 10
-1835.068068462874
 20
235.5
 30
0.0
 11
-1834.903133332099
 21
235.5
 31
0.0
  0
LINE
  5
807
  8
0
  6
CONTINUOUS
 62
   253
 10
-1849.383836090412
 20
-26.97517420867389
 30
0.0
 11
-1850.004631459867
 21
-27.00922710495475
 31
0.0
  0
LINE
  5
808
  8
0
  6
CONTINUOUS
 62
     7
 10
-2148.433915508351
 20
-7.000000000000006
 30
0.0
 11
-2148.433915508351
 21
-17.79999999999998
 31
0.0
  0
LINE
  5
809
  8
0
  6
CONTINUOUS
 62
     7
 10
-1834.903133339616
 20
155.5
 30
0.0
 11
-1835.068068462874
 21
155.5
 31
0.0
  0
LINE
  5
80A
  8
0
  6
CONTINUOUS
 62
     7
 10
-2147.940872703684
 20
405.5000000000001
 30
0.0
 11
-2148.433915508351
 21
405.5000000000001
 31
0.0
  0
LINE
  5
80B
  8
0
  6
CONTINUOUS
 62
     7
 10
-1835.01832612462
 20
20.33417688318195
 30
0.0
 11
-1834.903133352318
 21
20.33417688318195
 31
0.0
  0
LINE
  5
80C
  8
0
  6
CONTINUOUS
 62
   253
 10
-1850.004631459867
 20
-27.00922710495475
 30
0.0
 11
-1850.458870587335
 21
-27.04798572888873
 31
0.0
  0
LINE
  5
80D
  8
0
  6
CONTINUOUS
 62
     7
 10
-2147.646103312829
 20
409.5071067811866
 30
0.0
 11
-2147.770554351757
 21
409.3555702330196
 31
0.0
  0
LINE
  5
80E
  8
0
  6
CONTINUOUS
 62
     7
 10
-1835.068068462874
 20
20.50000000000002
 30
0.0
 11
-1834.903133352302
 21
20.50000000000002
 31
0.0
  0
LINE
  5
80F
  8
0
  6
CONTINUOUS
 62
     7
 10
-2147.321531463403
 20
409.7238795325113
 30
0.0
 11
-2147.494486838011
 21
409.6314696123026
 31
0.0
  0
LINE
  5
810
  8
0
  6
CONTINUOUS
 62
     7
 10
-1834.903133332115
 20
235.3341768831819
 30
0.0
 11
-1835.01832612462
 21
235.3341768831819
 31
0.0
  0
LINE
  5
811
  8
0
  6
CONTINUOUS
 62
     7
 10
-2147.133883767056
 20
409.7807852804033
 30
0.0
 11
-2147.321531463403
 21
409.7238795325113
 31
0.0
  0
LINE
  5
812
  8
0
  6
CONTINUOUS
 62
   253
 10
-1848.621102134432
 20
-26.94717740847574
 30
0.0
 11
-1849.383836090412
 21
-26.97517420867389
 31
0.0
  0
LINE
  5
813
  8
0
  6
CONTINUOUS
 62
   253
 10
-1845.804501844113
 20
-26.90917206495644
 30
0.0
 11
-1845.804501844113
 21
-29.3996588101858
 31
0.0
  0
LINE
  5
814
  8
0
  6
CONTINUOUS
 62
     7
 10
-2147.940872703684
 20
405.5000000000001
 30
0.0
 11
-2147.939364349713
 21
408.8000000000001
 31
0.0
  0
ARC
  5
815
  8
0
  6
CONTINUOUS
 62
   253
 10
-1846.123996475193
 20
-41.90651055139749
 30
0.0
 40
12.51093191156992
 50
88.5366650278891
 51
99.86063322506547
  0
LINE
  5
816
  8
0
  6
CONTINUOUS
 62
   253
 10
-1850.530548672353
 20
-28.03437641688566
 30
0.0
 11
-1850.300818348884
 21
-28.46193543517851
 31
0.0
  0
LINE
  5
817
  8
0
  6
CONTINUOUS
 62
   253
 10
-1849.994405650297
 20
-28.83777637859333
 30
0.0
 11
-1849.622860734746
 21
-29.14773200681293
 31
0.0
  0
LINE
  5
818
  8
0
  6
CONTINUOUS
 62
     7
 10
-2148.405462521608
 20
-18.03766655735398
 30
0.0
 11
-2148.414878135021
 21
-17.99487803093747
 31
0.0
  0
LINE
  5
819
  8
0
  6
CONTINUOUS
 62
   253
 10
-1849.622860734746
 20
-29.14773200681293
 30
0.0
 11
-1849.20018890474
 21
-29.38011861174325
 31
0.0
  0
LINE
  5
81A
  8
0
  6
CONTINUOUS
 62
   253
 10
-1849.20018890474
 20
-29.38011861174325
 30
0.0
 11
-1848.742322680393
 21
-29.52617643227727
 31
0.0
  0
LINE
  5
81B
  8
0
  6
CONTINUOUS
 62
   253
 10
-1848.742322680393
 20
-29.52617643227727
 30
0.0
 11
-1848.266521226644
 21
-29.58039985153114
 31
0.0
  0
LINE
  5
81C
  8
0
  6
CONTINUOUS
 62
   253
 10
-1824.195498155886
 20
-29.3996588101858
 30
0.0
 11
-1824.195498155886
 21
-26.90917206495644
 31
0.0
  0
LINE
  5
81D
  8
0
  6
CONTINUOUS
 62
   253
 10
-1819.271459390825
 20
-27.08991310630177
 30
0.0
 11
-1819.541129412665
 21
-27.04798572888873
 31
0.0
  0
LINE
  5
81E
  8
0
  6
CONTINUOUS
 62
   253
 10
-1819.541129412665
 20
-27.04798572888873
 30
0.0
 11
-1819.995368540132
 21
-27.00922710495475
 31
0.0
  0
LINE
  5
81F
  8
0
  6
CONTINUOUS
 62
   253
 10
-1819.995368540132
 20
-27.00922710495475
 30
0.0
 11
-1820.616163909588
 21
-26.97517420867389
 31
0.0
  0
LINE
  5
820
  8
0
  6
CONTINUOUS
 62
     7
 10
-2147.920057531884
 20
408.9950903220162
 30
0.0
 11
-2147.939364349712
 21
408.8
 31
0.0
  0
LINE
  5
821
  8
0
  6
CONTINUOUS
 62
   253
 10
-1819.325063012465
 20
-27.57121606529941
 30
0.0
 11
-1819.271459390825
 21
-27.08991310630177
 31
0.0
  0
LINE
  5
822
  8
0
  6
CONTINUOUS
 62
   253
 10
-1820.377139265254
 20
-29.14773200681293
 30
0.0
 11
-1820.005594349703
 21
-28.83777637859334
 31
0.0
  0
LINE
  5
823
  8
0
  6
CONTINUOUS
 62
   253
 10
-1820.005594349703
 20
-28.83777637859334
 30
0.0
 11
-1819.699181651116
 21
-28.46193543517851
 31
0.0
  0
LINE
  5
824
  8
0
  6
CONTINUOUS
 62
   253
 10
-1819.469451327647
 20
-28.03437641688566
 30
0.0
 11
-1819.325063012465
 21
-27.57121606529941
 31
0.0
  0
LINE
  5
825
  8
0
  6
CONTINUOUS
 62
     7
 10
-1850.728540609175
 20
-24.01960350131385
 30
0.0
 11
-1850.458870587335
 21
-24.06145095349243
 31
0.0
  0
LINE
  5
826
  8
0
  6
CONTINUOUS
 62
   253
 10
-1819.699181651116
 20
-28.46193543517851
 30
0.0
 11
-1819.469451327647
 21
-28.03437641688566
 31
0.0
  0
TEXT
  5
827
  8
0
  6
CONTINUOUS
 62
     7
 10
-1491.223321245467
 20
-351.3739402275854
 30
0.0
 40
20.00000000000001
  1
%%UＷＢＡ－１７Ａ
  0
LINE
  5
828
  8
0
  6
CONTINUOUS
 62
   253
 10
-1341.064128130508
 20
18.99999999874011
 30
0.0
 11
-1341.037945532925
 21
15.99999999845822
 31
0.0
  0
LINE
  5
829
  8
0
  6
CONTINUOUS
 62
   253
 10
-1341.037945532925
 20
15.99999999859919
 30
0.0
 11
-1342.537717075753
 21
15.99999999859919
 31
0.0
  0
LINE
  5
82A
  8
0
  6
CONTINUOUS
 62
   253
 10
-1342.537717075753
 20
15.99999999859672
 30
0.0
 11
-1342.56389967324
 21
17.49999999873766
 31
0.0
  0
LINE
  5
82B
  8
0
  6
CONTINUOUS
 62
   253
 10
-1341.064128130508
 20
18.99999999874013
 30
0.0
 11
-1341.35671904373
 21
18.9711779193445
 31
0.0
  0
LINE
  5
82C
  8
0
  6
CONTINUOUS
 62
   253
 10
-1341.35671904373
 20
18.9711779193445
 30
0.0
 11
-1341.638065852244
 21
18.88581929750612
 31
0.0
  0
LINE
  5
82D
  8
0
  6
CONTINUOUS
 62
     7
 10
-1339.299999999738
 20
-19.00000000032007
 30
0.0
 11
-1339.299999999738
 21
-17.80000002870022
 31
0.0
  0
LINE
  5
82E
  8
0
  6
CONTINUOUS
 62
     7
 10
-1342.537945532919
 20
-15.07693296084642
 30
0.0
 11
-1344.037717075753
 21
-15.01145152113895
 31
0.0
  0
LINE
  5
82F
  8
0
  6
CONTINUOUS
 62
   253
 10
-1344.037717075753
 20
-15.42515870230324
 30
0.0
 11
-1344.037717075753
 21
-15.01145152114131
 31
0.0
  0
LINE
  5
830
  8
0
  6
CONTINUOUS
 62
   253
 10
-1345.335498334302
 20
-18.50929929945334
 30
0.0
 11
-1345.142200523792
 21
-18.70779698576116
 31
0.0
  0
LINE
  5
831
  8
0
  6
CONTINUOUS
 62
     7
 10
-1339.474550648387
 20
18.99999999874011
 30
0.0
 11
-1339.526915842981
 21
15.99999999845822
 31
0.0
  0
LINE
  5
832
  8
0
  6
CONTINUOUS
 62
   253
 10
-1342.449736362282
 20
18.07402514728548
 30
0.0
 11
-1342.535081983588
 21
17.79263548176189
 31
0.0
  0
LINE
  5
833
  8
0
  6
CONTINUOUS
 62
     7
 10
-1339.526915842981
 20
-19.00000000154167
 30
0.0
 11
-1339.526915842981
 21
15.99999999845822
 31
0.0
  0
LINE
  5
834
  8
0
  6
CONTINUOUS
 62
     7
 10
-1339.526915842981
 20
-19.00000000154167
 30
0.0
 11
-1339.799999998914
 21
-19.00000000154167
 31
0.0
  0
LINE
  5
835
  8
0
  6
CONTINUOUS
 62
   253
 10
-1342.537717075753
 20
2.133626933000732
 30
0.0
 11
-1342.537717075753
 21
15.99999999859672
 31
0.0
  0
LINE
  5
836
  8
0
  6
CONTINUOUS
 62
   253
 10
-1344.369872312735
 20
-18.30682934222741
 30
0.0
 11
-1344.929352989852
 21
-18.91484652478803
 31
0.0
  0
LINE
  5
837
  8
0
  6
CONTINUOUS
 62
   253
 10
-1344.037717075753
 20
-15.42515870230077
 30
0.0
 11
-1342.537945532925
 21
-15.42515870230077
 31
0.0
  0
LINE
  5
838
  8
0
  6
CONTINUOUS
 62
   253
 10
-1345.501262561987
 20
-18.32755209788027
 30
0.0
 11
-1345.335498334302
 21
-18.50929929945334
 31
0.0
  0
LINE
  5
839
  8
0
  6
CONTINUOUS
 62
   253
 10
-1345.142200523792
 20
-18.70779698576116
 30
0.0
 11
-1344.929352989852
 21
-18.91484652478799
 31
0.0
  0
ARC
  5
83A
  8
0
  6
CONTINUOUS
 62
     7
 10
-1343.799999998914
 20
-20.29552800082363
 30
0.0
 40
3.000000000000075
 50
316.2500000000001
 51
0.0
  0
LINE
  5
83B
  8
0
  6
CONTINUOUS
 62
   253
 10
-1339.526915842981
 20
15.99999999845822
 30
0.0
 11
-1341.037945532925
 21
15.99999999845822
 31
0.0
  0
LINE
  5
83C
  8
0
  6
CONTINUOUS
 62
   253
 10
-1346.218321777001
 20
-18.23089746470574
 30
0.0
 11
-1345.980997203248
 21
-18.08692650066261
 31
0.0
  0
LINE
  5
83D
  8
0
  6
CONTINUOUS
 62
   253
 10
-1346.799106056745
 20
-18.41344095127026
 30
0.0
 11
-1346.839160507149
 21
-18.50394555225838
 31
0.0
  0
LINE
  5
83E
  8
0
  6
CONTINUOUS
 62
   253
 10
-1341.037945532925
 20
15.99999999845822
 30
0.0
 11
-1341.037945532925
 21
2.068145493159064
 31
0.0
  0
LINE
  5
83F
  8
0
  6
CONTINUOUS
 62
   253
 10
-1346.839160507149
 20
-18.50394555225838
 30
0.0
 11
-1346.871201150444
 21
-18.64484194518871
 31
0.0
  0
LINE
  5
840
  8
0
  6
CONTINUOUS
 62
     7
 10
-1344.299999998914
 20
-18.51456223173836
 30
0.0
 11
-1344.299999998914
 21
-23.63240774214195
 31
0.0
  0
LINE
  5
841
  8
0
  6
CONTINUOUS
 62
   253
 10
-1344.037717075753
 20
-15.01145152114131
 30
0.0
 11
-1342.537717075753
 21
2.133626933000734
 31
0.0
  0
LINE
  5
842
  8
0
  6
CONTINUOUS
 62
   253
 10
-1346.882273125671
 20
-19.87072940499375
 30
0.0
 11
-1346.335000474988
 21
-19.77291716244665
 31
0.0
  0
LINE
  5
843
  8
0
  6
CONTINUOUS
 62
     7
 10
-1341.064128130508
 20
18.99999999874014
 30
0.0
 11
-1339.474550648387
 21
18.99999999874014
 31
0.0
  0
LINE
  5
844
  8
0
  6
CONTINUOUS
 62
   253
 10
-1343.325993480692
 20
-17.45162063830596
 30
0.0
 11
-1344.299999998914
 21
-18.51456223173836
 31
0.0
  0
LINE
  5
845
  8
0
  6
CONTINUOUS
 62
   253
 10
-1342.589372011174
 20
-15.97821868865227
 30
0.0
 11
-1342.537945532925
 21
-15.42515870244174
 31
0.0
  0
LINE
  5
846
  8
0
  6
CONTINUOUS
 62
   253
 10
-1345.815477328684
 20
-19.57597070229091
 30
0.0
 11
-1345.341512471171
 21
-19.28664117137039
 31
0.0
  0
LINE
  5
847
  8
0
  6
CONTINUOUS
 62
   253
 10
-1344.431741049637
 20
-16.43838967023535
 30
0.0
 11
-1344.263852961492
 21
-16.21714845211855
 31
0.0
  0
LINE
  5
848
  8
0
  6
CONTINUOUS
 62
   253
 10
-1344.063405393725
 20
-15.70169838671482
 30
0.0
 11
-1344.037717075753
 21
-15.42515870230324
 31
0.0
  0
LINE
  5
849
  8
0
  6
CONTINUOUS
 62
     7
 10
-1345.27451457257
 20
-17.35811558028877
 30
0.0
 11
-1344.369872312735
 21
-18.30682934222794
 31
0.0
  0
LINE
  5
84A
  8
0
  6
CONTINUOUS
 62
   253
 10
-1346.478466741429
 20
-18.32859325418367
 30
0.0
 11
-1346.218321777001
 21
-18.23089746470574
 31
0.0
  0
LINE
  5
84B
  8
0
  6
CONTINUOUS
 62
   253
 10
-1346.752514562021
 20
-18.37666494563636
 30
0.0
 11
-1346.799106056745
 21
-18.41344095127026
 31
0.0
  0
LINE
  5
84C
  8
0
  6
CONTINUOUS
 62
   253
 10
-1346.882273125671
 20
-19.87072940499376
 30
0.0
 11
-1352.668240887343
 21
-20.35905992253143
 31
0.0
  0
LINE
  5
84D
  8
0
  6
CONTINUOUS
 62
   253
 10
-1346.335000474988
 20
-19.77291716244665
 30
0.0
 11
-1345.815477328684
 21
-19.57597070229091
 31
0.0
  0
LINE
  5
84E
  8
0
  6
CONTINUOUS
 62
   253
 10
-1342.311142593686
 20
18.33335534826748
 30
0.0
 11
-1342.449736362282
 21
18.07402514728548
 31
0.0
  0
LINE
  5
84F
  8
0
  6
CONTINUOUS
 62
   253
 10
-1344.139655281407
 20
-15.96874635776902
 30
0.0
 11
-1344.063405393725
 21
-15.70169838671482
 31
0.0
  0
LINE
  5
850
  8
0
  6
CONTINUOUS
 62
   253
 10
-1344.431741049636
 20
-16.43838967023487
 30
0.0
 11
-1343.325993480666
 21
-17.45162063827671
 31
0.0
  0
LINE
  5
851
  8
0
  6
CONTINUOUS
 62
   253
 10
-1342.990267146709
 20
-17.00911881945971
 30
0.0
 11
-1342.741888592674
 21
-16.51230809521224
 31
0.0
  0
LINE
  5
852
  8
0
  6
CONTINUOUS
 62
   253
 10
-1341.037945532925
 20
2.068145493159062
 30
0.0
 11
-1342.537945532925
 21
-15.07693296098295
 31
0.0
  0
LINE
  5
853
  8
0
  6
CONTINUOUS
 62
   253
 10
-1345.341512471171
 20
-19.28664117137039
 30
0.0
 11
-1344.929352989852
 21
-18.91484652478801
 31
0.0
  0
LINE
  5
854
  8
0
  6
CONTINUOUS
 62
   253
 10
-1342.537945532925
 20
-15.07693296098295
 30
0.0
 11
-1342.537945532925
 21
-15.42515870244174
 31
0.0
  0
ARC
  5
855
  8
0
  6
CONTINUOUS
 62
     7
 10
-1339.799999998914
 20
-20.00000000154167
 30
0.0
 40
0.9999999999998899
 50
90.0
 51
180.0
  0
LINE
  5
856
  8
0
  6
CONTINUOUS
 62
   253
 10
-1345.27451457257
 20
-17.35811558028821
 30
0.0
 11
-1344.431741049637
 21
-16.43838967023536
 31
0.0
  0
LINE
  5
857
  8
0
  6
CONTINUOUS
 62
   253
 10
-1345.772211701557
 20
-17.95260298719577
 30
0.0
 11
-1345.724223775206
 21
-18.04333436038402
 31
0.0
  0
LINE
  5
858
  8
0
  6
CONTINUOUS
 62
   253
 10
-1345.724223775206
 20
-18.04333436038402
 30
0.0
 11
-1345.632646578407
 21
-18.17006216086039
 31
0.0
  0
LINE
  5
859
  8
0
  6
CONTINUOUS
 62
   253
 10
-1345.980997203248
 20
-18.08692650066261
 30
0.0
 11
-1345.774628292294
 21
-17.90161555671956
 31
0.0
  0
LINE
  5
85A
  8
0
  6
CONTINUOUS
 62
   253
 10
-1345.774628292295
 20
-17.90161555671959
 30
0.0
 11
-1345.772211701557
 21
-17.95260298719577
 31
0.0
  0
LINE
  5
85B
  8
0
  6
CONTINUOUS
 62
     7
 10
-1339.474550648387
 20
18.99999999874014
 30
0.0
 11
-1339.299999999738
 21
18.99999999967983
 31
0.0
  0
LINE
  5
85C
  8
0
  6
CONTINUOUS
 62
   253
 10
-1341.89735655598
 20
18.74720441719258
 30
0.0
 11
-1342.124626758605
 21
18.5606601705182
 31
0.0
  0
LINE
  5
85D
  8
0
  6
CONTINUOUS
 62
   253
 10
-1345.632646578407
 20
-18.17006216086039
 30
0.0
 11
-1345.501262561987
 21
-18.32755209788027
 31
0.0
  0
LINE
  5
85E
  8
0
  6
CONTINUOUS
 62
   253
 10
-1342.535081983588
 20
17.79263548176189
 30
0.0
 11
-1342.563899673241
 21
17.49999999873765
 31
0.0
  0
LINE
  5
85F
  8
0
  6
CONTINUOUS
 62
   253
 10
-1343.325993480692
 20
-17.45162063830593
 30
0.0
 11
-1342.990267146709
 21
-17.00911881945971
 31
0.0
  0
LINE
  5
860
  8
0
  6
CONTINUOUS
 62
   253
 10
-1341.638065852244
 20
18.88581929750612
 30
0.0
 11
-1341.89735655598
 21
18.74720441719258
 31
0.0
  0
LINE
  5
861
  8
0
  6
CONTINUOUS
 62
   253
 10
-1342.741888592674
 20
-16.51230809521224
 30
0.0
 11
-1342.589372011174
 21
-15.97821868865227
 31
0.0
  0
LINE
  5
862
  8
0
  6
CONTINUOUS
 62
     7
 10
-1341.037945532919
 20
2.068145493295592
 30
0.0
 11
-1342.537717075753
 21
2.133626933003063
 31
0.0
  0
LINE
  5
863
  8
0
  6
CONTINUOUS
 62
     7
 10
-1339.526915842981
 20
-19.00000000154167
 30
0.0
 11
-1339.299999999739
 21
-19.00000000032007
 31
0.0
  0
LINE
  5
864
  8
0
  6
CONTINUOUS
 62
   253
 10
-1352.668240887343
 20
-20.35905992253143
 30
0.0
 11
-1352.668240887343
 21
-23.99777302981629
 31
0.0
  0
LINE
  5
865
  8
0
  6
CONTINUOUS
 62
     7
 10
-1344.299999998914
 20
-18.51456223173837
 30
0.0
 11
-1344.369872312735
 21
-18.3068293422274
 31
0.0
  0
LINE
  5
866
  8
0
  6
CONTINUOUS
 62
   253
 10
-1342.124626758605
 20
18.5606601705182
 30
0.0
 11
-1342.311142593686
 21
18.33335534826748
 31
0.0
  0
LINE
  5
867
  8
0
  6
CONTINUOUS
 62
     7
 10
-1340.799999998914
 20
-20.29552800082363
 30
0.0
 11
-1340.799999998914
 21
-20.00000000154167
 31
0.0
  0
LINE
  5
868
  8
0
  6
CONTINUOUS
 62
   253
 10
-1344.263852961492
 20
-16.21714845211855
 30
0.0
 11
-1344.139655281407
 21
-15.96874635776902
 31
0.0
  0
LINE
  5
869
  8
0
  6
CONTINUOUS
 62
   253
 10
-1346.752514562021
 20
-18.37666494563634
 30
0.0
 11
-1346.478466741429
 21
-18.32859325418367
 31
0.0
  0
ARC
  5
86A
  8
0
  6
CONTINUOUS
 62
     7
 10
-1344.132280214437
 20
-20.6426324422968
 30
0.0
 40
3.000000000000005
 50
279.1832964085052
 51
316.2500000000005
  0
LINE
  5
86B
  8
0
  6
CONTINUOUS
 62
   253
 10
-1345.774628292295
 20
-17.90161555671957
 30
0.0
 11
-1345.27451457257
 21
-17.35811558028821
 31
0.0
  0
LINE
  5
86C
  8
0
  6
CONTINUOUS
 62
     7
 10
-1341.965188328257
 20
-22.71717160964359
 30
0.0
 11
-1341.632908112735
 21
-22.37006716817042
 31
0.0
  0
LINE
  5
86D
  8
0
  6
CONTINUOUS
 62
   253
 10
-1356.200096866137
 20
-19.35195977904257
 30
0.0
 11
-1356.405909252861
 21
-19.5384658157448
 31
0.0
  0
LINE
  5
86E
  8
0
  6
CONTINUOUS
 62
   253
 10
-1346.906854818397
 20
-19.05536497069077
 30
0.0
 11
-1346.909153332195
 21
-19.3098560784688
 31
0.0
  0
LINE
  5
86F
  8
0
  6
CONTINUOUS
 62
   253
 10
-1352.538482323693
 20
-18.86499546317399
 30
0.0
 11
-1346.752514562021
 21
-18.37666494563634
 31
0.0
  0
LINE
  5
870
  8
0
  6
CONTINUOUS
 62
   253
 10
-1344.29999999996
 20
-15.32316245030929
 30
0.0
 11
-1344.211895969527
 21
-15.3574242342851
 31
0.0
  0
LINE
  5
871
  8
0
  6
CONTINUOUS
 62
   253
 10
-1344.557660689954
 20
-16.38942219969316
 30
0.0
 11
-1344.389822444115
 21
-16.16816159896374
 31
0.0
  0
LINE
  5
872
  8
0
  6
CONTINUOUS
 62
   253
 10
-1356.7008624385
 20
-20.55778310926224
 30
0.0
 11
-1356.407381058549
 21
-20.55147936312207
 31
0.0
  0
LINE
  5
873
  8
0
  6
CONTINUOUS
 62
     7
 10
-1344.29999999996
 20
-15.32316245030929
 30
0.0
 11
-1344.29999999996
 21
-14.99999999999116
 31
0.0
  0
LINE
  5
874
  8
0
  6
CONTINUOUS
 62
   253
 10
-1346.871201150444
 20
-18.64484194518871
 30
0.0
 11
-1346.894046683949
 21
-18.83093543764193
 31
0.0
  0
LINE
  5
875
  8
0
  6
CONTINUOUS
 62
   253
 10
-1352.538482323693
 20
-18.86499546317398
 30
0.0
 11
-1352.585073818417
 21
-18.90177146880788
 31
0.0
  0
LINE
  5
876
  8
0
  6
CONTINUOUS
 62
   253
 10
-1352.695121093866
 20
-19.79818659600635
 30
0.0
 11
-1352.686825243381
 21
-20.07335647600976
 31
0.0
  0
LINE
  5
877
  8
0
  6
CONTINUOUS
 62
   253
 10
-1344.265641570165
 20
-15.91975296906578
 30
0.0
 11
-1344.189374876348
 21
-15.65271153356002
 31
0.0
  0
LINE
  5
878
  8
0
  6
CONTINUOUS
 62
   253
 10
-1346.90085748171
 20
-19.58502595847223
 30
0.0
 11
-1346.882273125671
 21
-19.87072940499383
 31
0.0
  0
LINE
  5
879
  8
0
  6
CONTINUOUS
 62
   253
 10
-1346.894046683949
 20
-18.83093543764193
 30
0.0
 11
-1346.906854818397
 21
-19.05536497069077
 31
0.0
  0
LINE
  5
87A
  8
0
  6
CONTINUOUS
 62
   253
 10
-1344.431741049637
 20
-16.43838967023536
 30
0.0
 11
-1344.557660689955
 21
-16.38942219969314
 31
0.0
  0
LINE
  5
87B
  8
0
  6
CONTINUOUS
 62
     7
 10
-1344.29999999996
 20
-14.99999999999116
 30
0.0
 11
-1342.79999999996
 21
2.145078454150627
 31
0.0
  0
LINE
  5
87C
  8
0
  6
CONTINUOUS
 62
   253
 10
-1356.79999999932
 20
-20.55170296953973
 30
0.0
 11
-1356.7008624385
 21
-20.55778310926224
 31
0.0
  0
LINE
  5
87D
  8
0
  6
CONTINUOUS
 62
   253
 10
-1346.909153332195
 20
-19.3098560784688
 30
0.0
 11
-1346.90085748171
 21
-19.58502595847223
 31
0.0
  0
LINE
  5
87E
  8
0
  6
CONTINUOUS
 62
     7
 10
-1344.29999999996
 20
-14.99999999999116
 30
0.0
 11
-1344.037717075753
 21
-15.01145152114131
 31
0.0
  0
LINE
  5
87F
  8
0
  6
CONTINUOUS
 62
   253
 10
-1344.163636716071
 20
-15.37619123176104
 30
0.0
 11
-1344.037717075753
 21
-15.42515870230324
 31
0.0
  0
LINE
  5
880
  8
0
  6
CONTINUOUS
 62
   253
 10
-1344.189374876348
 20
-15.65271153356002
 30
0.0
 11
-1344.163636716071
 21
-15.37619123176106
 31
0.0
  0
LINE
  5
881
  8
0
  6
CONTINUOUS
 62
   253
 10
-1355.155880443538
 20
-19.05741490384869
 30
0.0
 11
-1354.822549412058
 21
-19.03897724702757
 31
0.0
  0
LINE
  5
882
  8
0
  6
CONTINUOUS
 62
   253
 10
-1354.37454256522
 20
-19.00913682528165
 30
0.0
 11
-1353.829625625421
 21
-18.96907696126048
 31
0.0
  0
LINE
  5
883
  8
0
  6
CONTINUOUS
 62
   253
 10
-1356.407381058549
 20
-20.55147936312207
 30
0.0
 11
-1355.931193870721
 21
-20.5330417063256
 31
0.0
  0
LINE
  5
884
  8
0
  6
CONTINUOUS
 62
   253
 10
-1355.931193870721
 20
-20.5330417063256
 30
0.0
 11
-1355.291184089523
 21
-20.50320128460119
 31
0.0
  0
LINE
  5
885
  8
0
  6
CONTINUOUS
 62
   253
 10
-1352.657168912115
 20
-19.13317246272631
 30
0.0
 11
-1352.680014445621
 21
-19.31926595517951
 31
0.0
  0
LINE
  5
886
  8
0
  6
CONTINUOUS
 62
   253
 10
-1352.692822580068
 20
-19.54369548822834
 30
0.0
 11
-1352.695121093866
 21
-19.79818659600635
 31
0.0
  0
LINE
  5
887
  8
0
  6
CONTINUOUS
 62
   253
 10
-1355.291184089523
 20
-20.50320128460119
 30
0.0
 11
-1354.512731318383
 21
-20.46314142059752
 31
0.0
  0
LINE
  5
888
  8
0
  6
CONTINUOUS
 62
   253
 10
-1354.512731318383
 20
-20.46314142059752
 30
0.0
 11
-1353.626705120857
 21
-20.41445068919523
 31
0.0
  0
LINE
  5
889
  8
0
  6
CONTINUOUS
 62
   253
 10
-1353.626705120857
 20
-20.41445068919523
 30
0.0
 11
-1352.668240887342
 21
-20.35905992253141
 31
0.0
  0
LINE
  5
88A
  8
0
  6
CONTINUOUS
 62
   253
 10
-1354.822549412058
 20
-19.03897724702757
 30
0.0
 11
-1354.37454256522
 21
-19.00913682528165
 31
0.0
  0
LINE
  5
88B
  8
0
  6
CONTINUOUS
 62
   253
 10
-1355.703993237541
 20
-19.10735225313936
 30
0.0
 11
-1355.963419589992
 21
-19.20659369324359
 31
0.0
  0
LINE
  5
88C
  8
0
  6
CONTINUOUS
 62
   253
 10
-1355.963419589992
 20
-19.20659369324359
 30
0.0
 11
-1356.200096866137
 21
-19.35195977904257
 31
0.0
  0
LINE
  5
88D
  8
0
  6
CONTINUOUS
 62
   253
 10
-1356.405909252861
 20
-19.5384658157448
 30
0.0
 11
-1356.573799313578
 21
-19.75971639368774
 31
0.0
  0
LINE
  5
88E
  8
0
  6
CONTINUOUS
 62
   253
 10
-1356.573799313578
 20
-19.75971639368774
 30
0.0
 11
-1356.698009992187
 21
-20.00812469096984
 31
0.0
  0
LINE
  5
88F
  8
0
  6
CONTINUOUS
 62
   253
 10
-1356.774282026155
 20
-20.27517263036001
 30
0.0
 11
-1356.79999999932
 21
-20.55170296953974
 31
0.0
  0
LINE
  5
890
  8
0
  6
CONTINUOUS
 62
     7
 10
-1356.79999999932
 20
-24.17816952851601
 30
0.0
 11
-1356.79999999932
 21
-20.55170296953973
 31
0.0
  0
ARC
  5
891
  8
0
  6
CONTINUOUS
 62
     7
 10
-1346.932556735841
 20
-16.81683133759968
 30
0.0
 40
1.495486860551414
 50
275.557991984852
 51
318.188338342847
  0
LINE
  5
892
  8
0
  6
CONTINUOUS
 62
   253
 10
-1346.752514562021
 20
-18.37666494563634
 30
0.0
 11
-1346.787714055934
 21
-18.30528743307563
 31
0.0
  0
LINE
  5
893
  8
0
  6
CONTINUOUS
 62
   253
 10
-1355.361317409503
 20
-19.06371865001568
 30
0.0
 11
-1355.155880443538
 21
-19.05741490384869
 31
0.0
  0
LINE
  5
894
  8
0
  6
CONTINUOUS
 62
     7
 10
-1347.653915460461
 20
-18.24111373877266
 30
0.0
 11
-1348.493706795195
 21
-18.31274071850108
 31
0.0
  0
LINE
  5
895
  8
0
  6
CONTINUOUS
 62
   253
 10
-1355.430713702077
 20
-19.05763851032105
 30
0.0
 11
-1355.703993237541
 21
-19.10735225313936
 31
0.0
  0
LINE
  5
896
  8
0
  6
CONTINUOUS
 62
     7
 10
-1348.493706795195
 20
-18.31274071850108
 30
0.0
 11
-1349.337713608133
 21
-18.38768888069875
 31
0.0
  0
LINE
  5
897
  8
0
  6
CONTINUOUS
 62
     7
 10
-1349.337713608133
 20
-18.38768888069875
 30
0.0
 11
-1350.152463464738
 21
-18.46298585901209
 31
0.0
  0
LINE
  5
898
  8
0
  6
CONTINUOUS
 62
   253
 10
-1352.585073818417
 20
-18.90177146880788
 30
0.0
 11
-1352.62512826882
 21
-18.99227606979599
 31
0.0
  0
LINE
  5
899
  8
0
  6
CONTINUOUS
 62
     7
 10
-1345.81791007763
 20
-17.8138487784808
 30
0.0
 11
-1344.557660689955
 21
-16.38942219969314
 31
0.0
  0
LINE
  5
89A
  8
0
  6
CONTINUOUS
 62
     7
 10
-1346.851644856979
 20
-18.17564859321609
 30
0.0
 11
-1347.653915460461
 21
-18.24111373877266
 31
0.0
  0
LINE
  5
89B
  8
0
  6
CONTINUOUS
 62
     7
 10
-1350.152463464738
 20
-18.46298585901209
 30
0.0
 11
-1350.905644231003
 21
-18.53564545340226
 31
0.0
  0
LINE
  5
89C
  8
0
  6
CONTINUOUS
 62
   253
 10
-1355.430713702077
 20
-19.0576385103211
 30
0.0
 11
-1355.361317409503
 21
-19.06371865001568
 31
0.0
  0
LINE
  5
89D
  8
0
  6
CONTINUOUS
 62
   253
 10
-1344.389822444115
 20
-16.16816159896374
 30
0.0
 11
-1344.265641570165
 21
-15.91975296906578
 31
0.0
  0
LINE
  5
89E
  8
0
  6
CONTINUOUS
 62
     7
 10
-1350.905644231003
 20
-18.53564545340226
 30
0.0
 11
-1351.567385539169
 21
-18.60278605974053
 31
0.0
  0
LINE
  5
89F
  8
0
  6
CONTINUOUS
 62
     7
 10
-1351.567385539169
 20
-18.60278605974053
 30
0.0
 11
-1352.111443415514
 21
-18.6617449512383
 31
0.0
  0
LINE
  5
8A0
  8
0
  6
CONTINUOUS
 62
     7
 10
-1352.111443415514
 20
-18.6617449512383
 30
0.0
 11
-1352.516241089126
 21
-18.71018387942898
 31
0.0
  0
LINE
  5
8A1
  8
0
  6
CONTINUOUS
 62
     7
 10
-1342.79999999996
 20
17.50000000000873
 30
0.0
 11
-1342.79999999996
 21
2.145078454150628
 31
0.0
  0
LINE
  5
8A2
  8
0
  6
CONTINUOUS
 62
   253
 10
-1342.56389967324
 20
17.49999999873766
 30
0.0
 11
-1342.79999999996
 21
17.50000000000873
 31
0.0
  0
LINE
  5
8A3
  8
0
  6
CONTINUOUS
 62
   253
 10
-1345.81791007763
 20
-17.81384877848083
 30
0.0
 11
-1345.774628292295
 21
-17.90161555671957
 31
0.0
  0
LINE
  5
8A4
  8
0
  6
CONTINUOUS
 62
   253
 10
-1344.211895969527
 20
-15.3574242342851
 30
0.0
 11
-1344.184809431004
 21
-15.44320028037602
 31
0.0
  0
LINE
  5
8A5
  8
0
  6
CONTINUOUS
 62
   253
 10
-1352.686825243381
 20
-20.07335647600976
 30
0.0
 11
-1352.668240887343
 21
-20.35905992253135
 31
0.0
  0
LINE
  5
8A6
  8
0
  6
CONTINUOUS
 62
   253
 10
-1356.698009992187
 20
-20.00812469096984
 30
0.0
 11
-1356.774282026155
 21
-20.27517263036001
 31
0.0
  0
LINE
  5
8A7
  8
0
  6
CONTINUOUS
 62
   253
 10
-1353.209407287153
 20
-18.92038622984539
 30
0.0
 11
-1352.538482323693
 21
-18.86499546317397
 31
0.0
  0
LINE
  5
8A8
  8
0
  6
CONTINUOUS
 62
   253
 10
-1346.851644856979
 20
-18.17564859321607
 30
0.0
 11
-1346.873399288353
 21
-18.13153497037712
 31
0.0
  0
LINE
  5
8A9
  8
0
  6
CONTINUOUS
 62
   253
 10
-1352.62512826882
 20
-18.99227606979599
 30
0.0
 11
-1352.657168912115
 21
-19.13317246272631
 31
0.0
  0
LINE
  5
8AA
  8
0
  6
CONTINUOUS
 62
     7
 10
-1342.537717075753
 20
2.133626933000732
 30
0.0
 11
-1342.79999999996
 21
2.145078454150628
 31
0.0
  0
LINE
  5
8AB
  8
0
  6
CONTINUOUS
 62
   253
 10
-1353.829625625421
 20
-18.96907696126048
 30
0.0
 11
-1353.209407287153
 21
-18.92038622984539
 31
0.0
  0
LINE
  5
8AC
  8
0
  6
CONTINUOUS
 62
   253
 10
-1352.680014445621
 20
-19.31926595517951
 30
0.0
 11
-1352.692822580068
 21
-19.54369548822834
 31
0.0
  0
LINE
  5
8AD
  8
0
  6
CONTINUOUS
 62
     7
 10
-1344.325713239085
 20
-15.59969244341454
 30
0.0
 11
-1344.29999999996
 21
-15.32316245030927
 31
0.0
  0
LINE
  5
8AE
  8
0
  6
CONTINUOUS
 62
     7
 10
-1345.89836542226
 20
-17.65070147908815
 30
0.0
 11
-1344.694023973844
 21
-16.33639341824142
 31
0.0
  0
LINE
  5
8AF
  8
0
  6
CONTINUOUS
 62
     7
 10
-1356.405909253502
 20
-19.36117789674422
 30
0.0
 11
-1356.573799314219
 21
-19.58249640113455
 31
0.0
  0
LINE
  5
8B0
  8
0
  6
CONTINUOUS
 62
     7
 10
-1346.340780462222
 20
-17.98257581655787
 30
0.0
 11
-1346.104144166176
 21
-17.83720916339458
 31
0.0
  0
LINE
  5
8B1
  8
0
  6
CONTINUOUS
 62
     7
 10
-1346.104144166176
 20
-17.83720916339458
 30
0.0
 11
-1345.89836542226
 21
-17.65070147908813
 31
0.0
  0
LINE
  5
8B2
  8
0
  6
CONTINUOUS
 62
   253
 10
-1343.32368889975
 20
233.3633203314059
 30
0.0
 11
-1343.324711832785
 21
233.3441011954252
 31
0.0
  0
LINE
  5
8B3
  8
0
  6
CONTINUOUS
 62
     7
 10
-1346.873399288352
 20
-18.13153497037709
 30
0.0
 11
-1346.600162631812
 21
-18.08181840094978
 31
0.0
  0
LINE
  5
8B4
  8
0
  6
CONTINUOUS
 62
   253
 10
-1344.313900823621
 20
-15.90098597158984
 30
0.0
 11
-1344.237634129804
 21
-15.63394453608407
 31
0.0
  0
LINE
  5
8B5
  8
0
  6
CONTINUOUS
 62
   253
 10
-1341.799999995814
 20
232.3713148916105
 30
0.0
 11
-1343.324212240567
 21
232.3633340390646
 31
0.0
  0
ARC
  5
8B6
  8
0
  6
CONTINUOUS
 62
     7
 10
-1332.799999999739
 20
-17.00000000032006
 30
0.0
 40
2.000000000000002
 50
270.0
 51
295.8419308638946
  0
LINE
  5
8B7
  8
0
  6
CONTINUOUS
 62
   253
 10
-1344.237634129804
 20
-15.63394453608407
 30
0.0
 11
-1344.211895969527
 21
-15.35742423428509
 31
0.0
  0
LINE
  5
8B8
  8
0
  6
CONTINUOUS
 62
     7
 10
-1349.289128248165
 20
-18.5302571134266
 30
0.0
 11
-1348.43740968305
 21
-18.45667234652969
 31
0.0
  0
LINE
  5
8B9
  8
0
  6
CONTINUOUS
 62
     7
 10
-1355.430713702719
 20
-18.88020297186119
 30
0.0
 11
-1346.873399288353
 21
-18.13153497037712
 31
0.0
  0
LINE
  5
8BA
  8
0
  6
CONTINUOUS
 62
     7
 10
-1351.5471588988
 20
-18.7079814401784
 30
0.0
 11
-1350.875992611536
 21
-18.65849685793146
 31
0.0
  0
LINE
  5
8BB
  8
0
  6
CONTINUOUS
 62
     7
 10
-1346.117722760795
 20
-17.91662371459912
 30
0.0
 11
-1346.261998032387
 21
-18.00394310348488
 31
0.0
  0
LINE
  5
8BC
  8
0
  6
CONTINUOUS
 62
     7
 10
-1342.685801905805
 20
18.07402514855638
 30
0.0
 11
-1342.771173530155
 21
17.79263548303293
 31
0.0
  0
LINE
  5
8BD
  8
0
  6
CONTINUOUS
 62
     7
 10
-1350.875992611536
 20
-18.65849685793146
 30
0.0
 11
-1350.113062404371
 21
-18.59844840048966
 31
0.0
  0
LINE
  5
8BE
  8
0
  6
CONTINUOUS
 62
   253
 10
-1344.605919943411
 20
-16.37065520221723
 30
0.0
 11
-1344.438081697572
 21
-16.14939460148781
 31
0.0
  0
LINE
  5
8BF
  8
0
  6
CONTINUOUS
 62
     7
 10
-1356.200096866779
 20
-19.17461460056448
 30
0.0
 11
-1356.405909253502
 21
-19.36117789674422
 31
0.0
  0
LINE
  5
8C0
  8
0
  6
CONTINUOUS
 62
     7
 10
-1342.771173530155
 20
17.79263548303293
 30
0.0
 11
-1342.799999999961
 21
17.50000000000873
 31
0.0
  0
LINE
  5
8C1
  8
0
  6
CONTINUOUS
 62
   253
 10
-1345.89836542226
 20
-17.65070147908815
 30
0.0
 11
-1345.871514896702
 21
-17.70514895864583
 31
0.0
  0
LINE
  5
8C2
  8
0
  6
CONTINUOUS
 62
     7
 10
-1344.526160806852
 20
-16.11514250881827
 30
0.0
 11
-1344.401971529835
 21
-15.86673714669453
 31
0.0
  0
LINE
  5
8C3
  8
0
  6
CONTINUOUS
 62
     7
 10
-1332.799999999739
 20
-19.00000000032007
 30
0.0
 11
-1339.299999999738
 21
-19.00000000032007
 31
0.0
  0
LINE
  5
8C4
  8
0
  6
CONTINUOUS
 62
     7
 10
-1344.349999999548
 20
-16.12889609925611
 30
0.0
 11
-1344.605919943411
 21
-16.37065520221723
 31
0.0
  0
LINE
  5
8C5
  8
0
  6
CONTINUOUS
 62
     7
 10
-1347.592246466445
 20
-18.38066090497213
 30
0.0
 11
-1346.787714055934
 21
-18.30528743307563
 31
0.0
  0
LINE
  5
8C6
  8
0
  6
CONTINUOUS
 62
     7
 10
-1346.600162631812
 20
-18.08181840094978
 30
0.0
 11
-1346.340780462222
 21
-17.98257581655787
 31
0.0
  0
LINE
  5
8C7
  8
0
  6
CONTINUOUS
 62
   253
 10
-1343.324711832785
 20
233.3441011954252
 30
0.0
 11
-1343.32549424832
 21
233.287193039038
 31
0.0
  0
LINE
  5
8C8
  8
0
  6
CONTINUOUS
 62
   253
 10
-1343.32549424832
 20
233.287193039038
 30
0.0
 11
-1343.326006079611
 21
233.1947827346878
 31
0.0
  0
LINE
  5
8C9
  8
0
  6
CONTINUOUS
 62
     7
 10
-1344.605919943411
 20
-16.37065520221723
 30
0.0
 11
-1345.871514896702
 21
-17.70514895864583
 31
0.0
  0
LINE
  5
8CA
  8
0
  6
CONTINUOUS
 62
   253
 10
-1343.326006079611
 20
233.1947827346878
 30
0.0
 11
-1343.326227657952
 21
233.0704214349843
 31
0.0
  0
LINE
  5
8CB
  8
0
  6
CONTINUOUS
 62
     7
 10
-1356.698009992828
 20
-19.83098096259319
 30
0.0
 11
-1356.774282026796
 21
-20.09811088874232
 31
0.0
  0
LINE
  5
8CC
  8
0
  6
CONTINUOUS
 62
   253
 10
-1343.326227657952
 20
233.0704214349843
 30
0.0
 11
-1343.326150468509
 21
232.9188881086482
 31
0.0
  0
LINE
  5
8CD
  8
0
  6
CONTINUOUS
 62
     7
 10
-1342.360593247964
 20
18.56066017178859
 30
0.0
 11
-1342.547165910558
 21
18.33335534953816
 31
0.0
  0
LINE
  5
8CE
  8
0
  6
CONTINUOUS
 62
     7
 10
-1345.9891291277
 20
-17.81786368218802
 30
0.0
 11
-1346.117722760795
 21
-17.91662371459912
 31
0.0
  0
LINE
  5
8CF
  8
0
  6
CONTINUOUS
 62
     7
 10
-1352.765724704249
 20
-18.74618180667622
 30
0.0
 11
-1352.849999999548
 21
-18.76831109253346
 31
0.0
  0
LINE
  5
8D0
  8
0
  6
CONTINUOUS
 62
     7
 10
-1342.547165910558
 20
18.33335534953816
 30
0.0
 11
-1342.685801905805
 21
18.07402514855638
 31
0.0
  0
LINE
  5
8D1
  8
0
  6
CONTINUOUS
 62
   253
 10
-1355.430713702719
 20
-18.88020297186119
 30
0.0
 11
-1355.430713702077
 21
-19.05763851032113
 31
0.0
  0
LINE
  5
8D2
  8
0
  6
CONTINUOUS
 62
     7
 10
-1341.59245156751
 20
18.97117792061363
 30
0.0
 11
-1341.87388409657
 21
18.88581929877571
 31
0.0
  0
LINE
  5
8D3
  8
0
  6
CONTINUOUS
 62
     7
 10
-1352.764323829617
 20
-18.77569245082287
 30
0.0
 11
-1352.510749628572
 21
-18.76778481884363
 31
0.0
  0
LINE
  5
8D4
  8
0
  6
CONTINUOUS
 62
     7
 10
-1344.557660689955
 20
-16.38942219969314
 30
0.0
 11
-1344.488261784946
 21
-16.30756269670441
 31
0.0
  0
LINE
  5
8D5
  8
0
  6
CONTINUOUS
 62
     7
 10
-1355.703993238183
 20
-18.9299319773648
 30
0.0
 11
-1355.963419590634
 21
-19.0292038857215
 31
0.0
  0
LINE
  5
8D6
  8
0
  6
CONTINUOUS
 62
     7
 10
-1344.357471926488
 20
-16.14355865705536
 30
0.0
 11
-1344.349999999548
 21
-16.12889609925611
 31
0.0
  0
LINE
  5
8D7
  8
0
  6
CONTINUOUS
 62
     7
 10
-1341.299771507895
 20
19.00000000000873
 30
0.0
 11
-1341.064128130508
 21
18.99999999874014
 31
0.0
  0
LINE
  5
8D8
  8
0
  6
CONTINUOUS
 62
   253
 10
-1344.605919943411
 20
-16.37065520221723
 30
0.0
 11
-1344.694023973844
 21
-16.33639341824142
 31
0.0
  0
LINE
  5
8D9
  8
0
  6
CONTINUOUS
 62
     7
 10
-1342.133253800814
 20
18.74720441846259
 30
0.0
 11
-1342.360593247964
 21
18.56066017178859
 31
0.0
  0
LINE
  5
8DA
  8
0
  6
CONTINUOUS
 62
     7
 10
-1352.516241089126
 20
-18.71018387942898
 30
0.0
 11
-1352.765724704249
 21
-18.74618180667622
 31
0.0
  0
LINE
  5
8DB
  8
0
  6
CONTINUOUS
 62
     7
 10
-1341.87388409657
 20
18.88581929877571
 30
0.0
 11
-1342.133253800814
 21
18.74720441846259
 31
0.0
  0
LINE
  5
8DC
  8
0
  6
CONTINUOUS
 62
     7
 10
-1350.113062404371
 20
-18.59844840048966
 30
0.0
 11
-1349.289128248165
 21
-18.5302571134266
 31
0.0
  0
LINE
  5
8DD
  8
0
  6
CONTINUOUS
 62
     7
 10
-1356.79999999932
 20
-20.55170296953973
 30
0.0
 11
-1356.79999999996
 21
-20.37472612588575
 31
0.0
  0
LINE
  5
8DE
  8
0
  6
CONTINUOUS
 62
     7
 10
-1355.430713702719
 20
-18.88020297186121
 30
0.0
 11
-1355.703993238183
 21
-18.9299319773648
 31
0.0
  0
LINE
  5
8DF
  8
0
  6
CONTINUOUS
 62
     7
 10
-1352.849999999548
 20
-18.76831109253346
 30
0.0
 11
-1352.764323829617
 21
-18.77569245082287
 31
0.0
  0
LINE
  5
8E0
  8
0
  6
CONTINUOUS
 62
     7
 10
-1352.510749628572
 20
-18.76778481884363
 30
0.0
 11
-1352.099501051163
 21
-18.74490701806453
 31
0.0
  0
LINE
  5
8E1
  8
0
  6
CONTINUOUS
 62
     7
 10
-1341.299771507895
 20
19.00000000000878
 30
0.0
 11
-1341.59245156751
 21
18.97117792061363
 31
0.0
  0
ARC
  5
8E2
  8
0
  6
CONTINUOUS
 62
     7
 10
-1346.97121608168
 20
-16.66674011370009
 30
0.0
 40
1.513638687841855
 50
274.5308514033859
 51
297.9403282045555
  0
LINE
  5
8E3
  8
0
  6
CONTINUOUS
 62
     7
 10
-1355.963419590634
 20
-19.0292038857215
 30
0.0
 11
-1356.200096866779
 21
-19.17461460056448
 31
0.0
  0
LINE
  5
8E4
  8
0
  6
CONTINUOUS
 62
     7
 10
-1345.871514896702
 20
-17.70514895864583
 30
0.0
 11
-1345.9891291277
 21
-17.81786368218802
 31
0.0
  0
LINE
  5
8E5
  8
0
  6
CONTINUOUS
 62
   253
 10
-1344.438081697572
 20
-16.14939460148781
 30
0.0
 11
-1344.313900823621
 21
-15.90098597158984
 31
0.0
  0
LINE
  5
8E6
  8
0
  6
CONTINUOUS
 62
     7
 10
-1344.694023973844
 20
-16.33639341824138
 30
0.0
 11
-1344.526160806852
 21
-16.11514250881827
 31
0.0
  0
LINE
  5
8E7
  8
0
  6
CONTINUOUS
 62
     7
 10
-1344.401971529835
 20
-15.86673714669453
 30
0.0
 11
-1344.325713239085
 21
-15.59969244341454
 31
0.0
  0
LINE
  5
8E8
  8
0
  6
CONTINUOUS
 62
     7
 10
-1344.488261784946
 20
-16.30756269670441
 30
0.0
 11
-1344.357471926488
 21
-16.14355865705536
 31
0.0
  0
LINE
  5
8E9
  8
0
  6
CONTINUOUS
 62
     7
 10
-1352.099501051163
 20
-18.74490701806453
 30
0.0
 11
-1351.5471588988
 21
-18.7079814401784
 31
0.0
  0
LINE
  5
8EA
  8
0
  6
CONTINUOUS
 62
     7
 10
-1348.43740968305
 20
-18.45667234652969
 30
0.0
 11
-1347.592246466445
 21
-18.38066090497213
 31
0.0
  0
LINE
  5
8EB
  8
0
  6
CONTINUOUS
 62
     7
 10
-1356.774282026796
 20
-20.09811088874232
 30
0.0
 11
-1356.79999999996
 21
-20.37472612588575
 31
0.0
  0
LINE
  5
8EC
  8
0
  6
CONTINUOUS
 62
     7
 10
-1356.573799314219
 20
-19.58249640113455
 30
0.0
 11
-1356.698009992828
 21
-19.83098096259319
 31
0.0
  0
LINE
  5
8ED
  8
0
  6
CONTINUOUS
 62
   253
 10
-1343.326006079611
 20
157.8052172578856
 30
0.0
 11
-1343.32549424832
 21
157.712806953568
 31
0.0
  0
LINE
  5
8EE
  8
0
  6
CONTINUOUS
 62
     7
 10
-1344.299365558945
 20
158.4422175957084
 30
0.0
 11
-1344.242832482333
 21
158.2551922041486
 31
0.0
  0
LINE
  5
8EF
  8
0
  6
CONTINUOUS
 62
     7
 10
-1344.318452799689
 20
158.6366659535202
 30
0.0
 11
-1344.299365558945
 21
158.4422175957084
 31
0.0
  0
LINE
  5
8F0
  8
0
  6
CONTINUOUS
 62
     7
 10
-1343.876741091431
 20
157.8070188894943
 30
0.0
 11
-1343.704761422486
 21
157.7142963351537
 31
0.0
  0
LINE
  5
8F1
  8
0
  6
CONTINUOUS
 62
     7
 10
-1344.027408396627
 20
233.0685871980201
 30
0.0
 11
-1344.151011691035
 21
232.9172706155125
 31
0.0
  0
LINE
  5
8F2
  8
0
  6
CONTINUOUS
 62
   253
 10
-1332.902666962414
 20
-18.72387956173733
 30
0.0
 11
-1332.899393011219
 21
-18.78078530962257
 31
0.0
  0
LINE
  5
8F3
  8
0
  6
CONTINUOUS
 62
     7
 10
-1343.876741091431
 20
233.1929811031843
 30
0.0
 11
-1344.027408396627
 21
233.0685871980201
 31
0.0
  0
LINE
  5
8F4
  8
0
  6
CONTINUOUS
 62
   253
 10
-1332.913440622012
 20
-17.80000002931101
 30
0.0
 11
-1292.940997155725
 21
-17.80000002937657
 31
0.0
  0
ARC
  5
8F5
  8
0
  6
CONTINUOUS
 62
     7
 10
-1291.086047568201
 20
-17.83289263703988
 30
0.0
 40
1.855241196150579
 50
178.9841178883397
 51
204.0595349158556
  0
LINE
  5
8F6
  8
0
  6
CONTINUOUS
 62
   253
 10
-1341.821598582007
 20
160.0999999962449
 30
0.0
 11
-1341.821598582007
 21
200.4999999962445
 31
0.0
  0
LINE
  5
8F7
  8
0
  6
CONTINUOUS
 62
     7
 10
-1292.780109736604
 20
-18.58924788788394
 30
0.0
 11
-1292.725127180313
 21
-18.67898534855203
 31
0.0
  0
LINE
  5
8F8
  8
0
  6
CONTINUOUS
 62
   253
 10
-1343.324711832785
 20
157.6558987972164
 30
0.0
 11
-1343.32368889975
 21
157.6366796612726
 31
0.0
  0
LINE
  5
8F9
  8
0
  6
CONTINUOUS
 62
   253
 10
-1343.325123018337
 20
158.4415816666118
 30
0.0
 11
-1343.325777477526
 21
158.2539940986907
 31
0.0
  0
LINE
  5
8FA
  8
0
  6
CONTINUOUS
 62
     7
 10
-1292.725127180313
 20
-18.67898534855203
 30
0.0
 11
-1292.649353912977
 21
-18.75916882432518
 31
0.0
  0
LINE
  5
8FB
  8
0
  6
CONTINUOUS
 62
   253
 10
-1343.324212240567
 20
158.6366659534261
 30
0.0
 11
-1341.799999995814
 21
158.6286851008785
 31
0.0
  0
LINE
  5
8FC
  8
0
  6
CONTINUOUS
 62
     7
 10
-1292.649353912977
 20
-18.75916882432518
 30
0.0
 11
-1292.55633948538
 21
-18.79934160399205
 31
0.0
  0
LINE
  5
8FD
  8
0
  6
CONTINUOUS
 62
     7
 10
-1292.55633948538
 20
-18.79934160399205
 30
0.0
 11
-1292.542960456514
 21
-18.80000002928289
 31
0.0
  0
LINE
  5
8FE
  8
0
  6
CONTINUOUS
 62
     7
 10
-1343.704761422486
 20
233.2857036575249
 30
0.0
 11
-1343.876741091431
 21
233.1929811031843
 31
0.0
  0
LINE
  5
8FF
  8
0
  6
CONTINUOUS
 62
   253
 10
-1343.324212240567
 20
158.6366659535201
 30
0.0
 11
-1344.318452936635
 21
158.6366659535201
 31
0.0
  0
LINE
  5
900
  8
0
  6
CONTINUOUS
 62
   253
 10
-1332.908328930534
 20
-18.50710681043682
 30
0.0
 11
-1332.905684253115
 21
-18.63146964153917
 31
0.0
  0
LINE
  5
901
  8
0
  6
CONTINUOUS
 62
   253
 10
-1332.899393011219
 20
-18.78078530962257
 30
0.0
 11
-1332.89598821564
 21
-18.80000002921706
 31
0.0
  0
LINE
  5
902
  8
0
  6
CONTINUOUS
 62
   253
 10
-1341.821598582007
 20
200.4999999962444
 30
0.0
 11
-1341.821598582007
 21
230.8999999962441
 31
0.0
  0
LINE
  5
903
  8
0
  6
CONTINUOUS
 62
     7
 10
-1344.027408396627
 20
157.9314127946585
 30
0.0
 11
-1343.876741091431
 21
157.8070188894943
 31
0.0
  0
LINE
  5
904
  8
0
  6
CONTINUOUS
 62
   253
 10
-1343.326150468509
 20
158.0811118838735
 30
0.0
 11
-1343.326227657953
 21
157.9295785575607
 31
0.0
  0
LINE
  5
905
  8
0
  6
CONTINUOUS
 62
     7
 10
-1344.242832482334
 20
232.74480778853
 30
0.0
 11
-1344.299365558945
 21
232.5577823969702
 31
0.0
  0
LINE
  5
906
  8
0
  6
CONTINUOUS
 62
   253
 10
-1332.913105278917
 20
-17.99509035131383
 30
0.0
 11
-1332.91211213668
 21
-18.18268346164726
 31
0.0
  0
LINE
  5
907
  8
0
  6
CONTINUOUS
 62
     7
 10
-1291.922557746723
 20
-11.95169246300234
 30
0.0
 11
-1291.299999980643
 21
-11.96255924923084
 31
0.0
  0
LINE
  5
908
  8
0
  6
CONTINUOUS
 62
     7
 10
-1291.776809510537
 20
-14.5000000286323
 30
0.0
 11
-1291.299999980644
 21
-14.5000000286323
 31
0.0
  0
LINE
  5
909
  8
0
  6
CONTINUOUS
 62
   253
 10
-1343.325123018337
 20
232.5584183258823
 30
0.0
 11
-1343.324212240567
 21
232.3633340390646
 31
0.0
  0
LINE
  5
90A
  8
0
  6
CONTINUOUS
 62
     7
 10
-1343.518034625381
 20
157.6567847675554
 30
0.0
 11
-1343.32368889975
 21
157.6366796612727
 31
0.0
  0
LINE
  5
90B
  8
0
  6
CONTINUOUS
 62
   253
 10
-1343.326150468509
 20
232.9188881086482
 30
0.0
 11
-1343.325777477526
 21
232.7460058938138
 31
0.0
  0
LINE
  5
90C
  8
0
  6
CONTINUOUS
 62
     7
 10
-1344.242832482333
 20
158.2551922041486
 30
0.0
 11
-1344.151011691035
 21
158.0827293771661
 31
0.0
  0
LINE
  5
90D
  8
0
  6
CONTINUOUS
 62
     7
 10
-1341.799999995814
 20
230.8999999962441
 30
0.0
 11
-1341.821598582007
 21
230.8999999962441
 31
0.0
  0
LINE
  5
90E
  8
0
  6
CONTINUOUS
 62
     7
 10
-1291.80209093391
 20
-18.80000002894063
 30
0.0
 11
-1291.776809510522
 21
-14.50000002893448
 31
0.0
  0
LINE
  5
90F
  8
0
  6
CONTINUOUS
 62
     7
 10
-1344.318452799689
 20
200.4999999963393
 30
0.0
 11
-1344.318452799689
 21
232.3633340391585
 31
0.0
  0
LINE
  5
910
  8
0
  6
CONTINUOUS
 62
   253
 10
-1332.905684253115
 20
-18.63146964153917
 30
0.0
 11
-1332.902666962414
 21
-18.72387956173733
 31
0.0
  0
LINE
  5
911
  8
0
  6
CONTINUOUS
 62
     7
 10
-1343.518034625381
 20
233.3432152251232
 30
0.0
 11
-1343.704761422486
 21
233.2857036575249
 31
0.0
  0
LINE
  5
912
  8
0
  6
CONTINUOUS
 62
     7
 10
-1343.32368889975
 20
233.3633203314059
 30
0.0
 11
-1341.799999995814
 21
233.3712984437129
 31
0.0
  0
LINE
  5
913
  8
0
  6
CONTINUOUS
 62
   253
 10
-1343.324212240567
 20
200.4999999962453
 30
0.0
 11
-1343.324212240567
 21
158.6366659534261
 31
0.0
  0
LINE
  5
914
  8
0
  6
CONTINUOUS
 62
   253
 10
-1343.32549424832
 20
157.712806953568
 30
0.0
 11
-1343.324711832785
 21
157.6558987972164
 31
0.0
  0
LINE
  5
915
  8
0
  6
CONTINUOUS
 62
   253
 10
-1343.325777477526
 20
158.2539940986907
 30
0.0
 11
-1343.326150468509
 21
158.0811118838735
 31
0.0
  0
LINE
  5
916
  8
0
  6
CONTINUOUS
 62
   253
 10
-1341.799999995814
 20
200.4999999962914
 30
0.0
 11
-1341.821598582007
 21
200.4999999962914
 31
0.0
  0
LINE
  5
917
  8
0
  6
CONTINUOUS
 62
   253
 10
-1343.324212240567
 20
232.3633340391585
 30
0.0
 11
-1344.318452936635
 21
232.3633340391585
 31
0.0
  0
LINE
  5
918
  8
0
  6
CONTINUOUS
 62
     7
 10
-1343.32368889975
 20
233.363320331406
 30
0.0
 11
-1343.518034625381
 21
233.3432152251232
 31
0.0
  0
LINE
  5
919
  8
0
  6
CONTINUOUS
 62
     7
 10
-1344.151011691035
 20
232.9172706155125
 30
0.0
 11
-1344.242832482334
 21
232.74480778853
 31
0.0
  0
LINE
  5
91A
  8
0
  6
CONTINUOUS
 62
   253
 10
-1343.324212240567
 20
200.4999999962453
 30
0.0
 11
-1341.821598582007
 21
200.4999999962444
 31
0.0
  0
LINE
  5
91B
  8
0
  6
CONTINUOUS
 62
   253
 10
-1343.326227657953
 20
157.9295785575607
 30
0.0
 11
-1343.326006079611
 21
157.8052172578856
 31
0.0
  0
LINE
  5
91C
  8
0
  6
CONTINUOUS
 62
     7
 10
-1344.299365558945
 20
232.5577823969702
 30
0.0
 11
-1344.318452799689
 21
232.3633340391584
 31
0.0
  0
LINE
  5
91D
  8
0
  6
CONTINUOUS
 62
   253
 10
-1343.324212240567
 20
232.3633340390646
 30
0.0
 11
-1343.324212240567
 21
200.4999999962453
 31
0.0
  0
LINE
  5
91E
  8
0
  6
CONTINUOUS
 62
   253
 10
-1343.324212240567
 20
200.4999999963392
 30
0.0
 11
-1344.318452936635
 21
200.4999999963392
 31
0.0
  0
LINE
  5
91F
  8
0
  6
CONTINUOUS
 62
     7
 10
-1344.318452799689
 20
158.6366659535202
 30
0.0
 11
-1344.318452799689
 21
200.4999999963393
 31
0.0
  0
LINE
  5
920
  8
0
  6
CONTINUOUS
 62
     7
 10
-1343.704761422486
 20
157.7142963351537
 30
0.0
 11
-1343.518034625381
 21
157.6567847675554
 31
0.0
  0
LINE
  5
921
  8
0
  6
CONTINUOUS
 62
   253
 10
-1343.325777477526
 20
232.7460058938138
 30
0.0
 11
-1343.325123018337
 21
232.5584183258823
 31
0.0
  0
LINE
  5
922
  8
0
  6
CONTINUOUS
 62
     7
 10
-1292.542960456514
 20
-18.80000002928289
 30
0.0
 11
-1332.895988215638
 21
-18.80000002921669
 31
0.0
  0
LINE
  5
923
  8
0
  6
CONTINUOUS
 62
   253
 10
-1332.91211213668
 20
-18.18268346164726
 30
0.0
 11
-1332.9104993612
 21
-18.35557026228549
 31
0.0
  0
LINE
  5
924
  8
0
  6
CONTINUOUS
 62
     7
 10
-1341.799999995814
 20
157.6287015489641
 30
0.0
 11
-1343.32368889975
 21
157.6366796612726
 31
0.0
  0
LINE
  5
925
  8
0
  6
CONTINUOUS
 62
   253
 10
-1343.324212240568
 20
158.6366659534261
 30
0.0
 11
-1343.325123018337
 21
158.4415816666118
 31
0.0
  0
LINE
  5
926
  8
0
  6
CONTINUOUS
 62
     7
 10
-1344.151011691035
 20
158.0827293771661
 30
0.0
 11
-1344.027408396627
 21
157.9314127946585
 31
0.0
  0
LINE
  5
927
  8
0
  6
CONTINUOUS
 62
   253
 10
-1332.913440622012
 20
-17.80000002931103
 30
0.0
 11
-1332.913105278917
 21
-17.99509035131383
 31
0.0
  0
LINE
  5
928
  8
0
  6
CONTINUOUS
 62
   253
 10
-1332.9104993612
 20
-18.35557026228549
 30
0.0
 11
-1332.908328930534
 21
-18.50710681043682
 31
0.0
  0
LINE
  5
929
  8
0
  6
CONTINUOUS
 62
     7
 10
-1341.799999995814
 20
160.0999999962449
 30
0.0
 11
-1341.821598582007
 21
160.0999999962449
 31
0.0
  0
ENDSEC
  0
EOF
