  0
SECTION
  2
HEADER
  9
$ACADVER
  1
AC1006
  9
$DWGCODEPAGE
  3
ansi_932
  9
$INSBASE
 10
0.0
 20
0.0
 30
0.0
  9
$EXTMIN
 10
-427.3003123869
 20
216.7860624472
  9
$EXTMAX
 10
33.2139375528
 20
742.2155141094
  9
$LIMMIN
 10
0.0
 20
0.0
  9
$LIMMAX
 10
12.0
 20
9.0
  9
$ORTHOMODE
 70
     0
  9
$REGENMODE
 70
     1
  9
$FILLMODE
 70
     1
  9
$QTEXTMODE
 70
     0
  9
$MIRRTEXT
 70
     1
  9
$DRAGMODE
 70
     2
  9
$LTSCALE
 40
1.0
  9
$OSMODE
 70
    37
  9
$ATTMODE
 70
     1
  9
$TEXTSIZE
 40
0.2
  9
$TRACEWID
 40
0.05
  9
$TEXTSTYLE
  7
STANDARD
  9
$CLAYER
  8
0
  9
$CELTYPE
  6
BYLAYER
  9
$CECOLOR
 62
   256
  9
$DIMSCALE
 40
1.0
  9
$DIMASZ
 40
3.0
  9
$DIMEXO
 40
0.0625
  9
$DIMDLI
 40
0.38
  9
$DIMRND
 40
0.0
  9
$DIMDLE
 40
0.0
  9
$DIMEXE
 40
1.5
  9
$DIMTP
 40
0.0
  9
$DIMTM
 40
0.0
  9
$DIMTXT
 40
3.0
  9
$DIMCEN
 40
0.09
  9
$DIMTSZ
 40
0.0
  9
$DIMTOL
 70
     0
  9
$DIMLIM
 70
     0
  9
$DIMTIH
 70
     1
  9
$DIMTOH
 70
     1
  9
$DIMSE1
 70
     0
  9
$DIMSE2
 70
     0
  9
$DIMTAD
 70
     1
  9
$DIMZIN
 70
     0
  9
$DIMBLK
  1

  9
$DIMASO
 70
     1
  9
$DIMSHO
 70
     1
  9
$DIMPOST
  1

  9
$DIMAPOST
  1

  9
$DIMALT
 70
     0
  9
$DIMALTD
 70
     2
  9
$DIMALTF
 40
25.4
  9
$DIMLFAC
 40
1.0
  9
$DIMTOFL
 70
     0
  9
$DIMTVP
 40
0.0
  9
$DIMTIX
 70
     0
  9
$DIMSOXD
 70
     0
  9
$DIMSAH
 70
     0
  9
$DIMBLK1
  1

  9
$DIMBLK2
  1

  9
$LUNITS
 70
     2
  9
$LUPREC
 70
     4
  9
$SKETCHINC
 40
0.1
  9
$FILLETRAD
 40
0.5
  9
$AUNITS
 70
     0
  9
$AUPREC
 70
     0
  9
$MENU
  1
.
  9
$ELEVATION
 40
0.0
  9
$THICKNESS
 40
0.0
  9
$LIMCHECK
 70
     0
  9
$CHAMFERA
 40
0.0
  9
$CHAMFERB
 40
0.0
  9
$SKPOLY
 70
     0
  9
$TDCREATE
 40
2460200.491686956
  9
$TDUPDATE
 40
2460200.49168765
  9
$TDINDWG
 40
0.0000000116
  9
$TDUSRTIMER
 40
0.0000000116
  9
$USRTIMER
 70
     1
  9
$ANGBASE
 50
0.0
  9
$ANGDIR
 70
     0
  9
$PDMODE
 70
     0
  9
$PDSIZE
 40
0.0
  9
$PLINEWID
 40
0.0
  9
$COORDS
 70
     1
  9
$SPLFRAME
 70
     0
  9
$SPLINETYPE
 70
     6
  9
$SPLINESEGS
 70
     8
  9
$ATTDIA
 70
     0
  9
$ATTREQ
 70
     1
  9
$HANDLING
 70
     1
  9
$HANDSEED
  5
2A5
  9
$SURFTAB1
 70
     6
  9
$SURFTAB2
 70
     6
  9
$SURFTYPE
 70
     6
  9
$SURFU
 70
     6
  9
$SURFV
 70
     6
  9
$UCSNAME
  2

  9
$UCSORG
 10
0.0
 20
0.0
 30
0.0
  9
$UCSXDIR
 10
1.0
 20
0.0
 30
0.0
  9
$UCSYDIR
 10
0.0
 20
1.0
 30
0.0
  9
$USERI1
 70
     0
  9
$USERI2
 70
     0
  9
$USERI3
 70
     0
  9
$USERI4
 70
     0
  9
$USERI5
 70
     0
  9
$USERR1
 40
0.0
  9
$USERR2
 40
0.0
  9
$USERR3
 40
0.0
  9
$USERR4
 40
0.0
  9
$USERR5
 40
0.0
  9
$WORLDVIEW
 70
     1
  0
ENDSEC
  0
SECTION
  2
TABLES
  0
TABLE
  2
VPORT
 70
     1
  0
VPORT
  2
*ACTIVE
 70
     0
 10
0.0
 20
0.0
 11
1.0
 21
1.0
 12
-197.04318741705
 22
479.5007882783
 13
0.0
 23
0.0
 14
0.5
 24
0.5
 15
0.5
 25
0.5
 16
0.0
 26
0.0
 36
1.0
 17
0.0
 27
0.0
 37
0.0
 40
525.4294516622
 41
1.6
 42
50.0
 43
0.0
 44
0.0
 50
0.0
 51
0.0
 71
     0
 72
   100
 73
     1
 74
     3
 75
     0
 76
     0
 77
     0
 78
     0
  0
ENDTAB
  0
TABLE
  2
LTYPE
 70
     1
  0
LTYPE
  2
CONTINUOUS
 70
     0
  3
Solid line
 72
    65
 73
     0
 40
0.0
  0
ENDTAB
  0
TABLE
  2
LAYER
 70
     2
  0
LAYER
  2
0
 70
     0
 62
     7
  6
CONTINUOUS
  0
LAYER
  2
1
 70
     0
 62
     7
  6
CONTINUOUS
  0
ENDTAB
  0
TABLE
  2
STYLE
 70
     2
  0
STYLE
  2
STANDARD
 70
     0
 40
0.0
 41
1.0
 50
0.0
 71
     0
 42
0.2
  3
txt
  4

  0
STYLE
  2
ＭＳ_ゴシック
 70
     0
 40
0.0
 41
1.0
 50
0.0
 71
     0
 42
0.2
  3
ＭＳ ゴシック.shx
  4

  0
ENDTAB
  0
TABLE
  2
VIEW
 70
     0
  0
ENDTAB
  0
TABLE
  2
UCS
 70
     0
  0
ENDTAB
  0
ENDSEC
  0
SECTION
  2
BLOCKS
  0
ENDSEC
  0
SECTION
  2
ENTITIES
  0
ARC
  5
70
  8
1
  6
CONTINUOUS
 62
     7
 10
-404.6870979569
 20
294.6779643273
 30
0.0
 40
2.0052953694
 50
108.0552797297
 51
130.4951507116
  0
ARC
  5
71
  8
1
  6
CONTINUOUS
 62
     7
 10
-362.7261108424
 20
283.1683891537
 30
0.0
 40
1.4156059018
 50
147.2410690577
 51
173.5926880681
  0
ARC
  5
72
  8
1
  6
CONTINUOUS
 62
     7
 10
-311.6345610276
 20
286.6665412854
 30
0.0
 40
52.91202785
 50
178.0611691881
 51
180.1008083734
  0
ARC
  5
73
  8
1
  6
CONTINUOUS
 62
     7
 10
-270.4966457466
 20
284.2037418425
 30
0.0
 40
1.9965470713
 50
206.9653681944
 51
229.5048492921999
  0
LINE
  5
74
  8
1
  6
CONTINUOUS
 62
     7
 10
-354.0463723372
 20
287.3254603215
 30
0.0
 11
-352.0463723372
 21
287.3254603215
 31
0.0
  0
ARC
  5
75
  8
1
  6
CONTINUOUS
 62
     7
 10
-370.9359280515
 20
291.8755772199
 30
0.0
 40
6.8087830022
 50
348.1600801709999
 51
353.5926880646
  0
ARC
  5
76
  8
1
  6
CONTINUOUS
 62
     7
 10
-270.4925955242
 20
284.2058024512
 30
0.0
 40
2.0010913435
 50
190.0030416553
 51
206.9653681954
  0
LINE
  5
77
  8
1
  6
CONTINUOUS
 62
     7
 10
-408.6293256234
 20
283.8581852098
 30
0.0
 11
-406.6595522635
 21
295.0301736983
 31
0.0
  0
LINE
  5
78
  8
1
  6
CONTINUOUS
 62
     7
 10
-420.8688768624
 20
282.2051697901
 30
0.0
 11
-410.6012824064
 21
282.2051697901
 31
0.0
  0
LINE
  5
79
  8
1
  6
CONTINUOUS
 62
     7
 10
-351.9087422642
 20
354.1611435903
 30
0.0
 11
-351.9225429798
 21
331.5094189202
 31
0.0
  0
ARC
  5
7A
  8
1
  6
CONTINUOUS
 62
     7
 10
-352.7230575677
 20
288.057465096
 30
0.0
 40
11.7999953416
 50
168.1600801745
 51
178.0611691831
  0
LINE
  5
7B
  8
1
  6
CONTINUOUS
 62
     7
 10
-352.022285852
 20
292.1622704448
 30
0.0
 11
-352.0463723372
 21
287.3254603215
 31
0.0
  0
LINE
  5
7C
  8
1
  6
CONTINUOUS
 62
     7
 10
-274.4331924109
 20
295.0301736983
 30
0.0
 11
-272.463419051
 21
283.8581852103
 31
0.0
  0
LINE
  5
7D
  8
1
  6
CONTINUOUS
 62
     7
 10
-351.9271678674
 20
331.0806107053
 30
0.0
 11
-351.9225429798
 21
331.5094189202
 31
0.0
  0
ARC
  5
7E
  8
1
  6
CONTINUOUS
 62
     7
 10
-420.8692576123
 20
278.2026168535
 30
0.0
 40
4.0025529547
 50
89.994549639
 51
135.4456795266
  0
LINE
  5
7F
  8
1
  6
CONTINUOUS
 62
     7
 10
-354.0463723372
 20
356.0761564374
 30
0.0
 11
-354.1687184727
 21
355.714550558
 31
0.0
  0
ARC
  5
80
  8
1
  6
CONTINUOUS
 62
     7
 10
-410.6001491499
 20
284.2058024503
 30
0.0
 40
2.001091343
 50
333.0346318107
 51
349.9969583508999
  0
ARC
  5
81
  8
1
  6
CONTINUOUS
 62
     7
 10
-370.8991276294
 20
284.0861960279
 30
0.0
 40
6.8087830031
 50
348.1600801812
 51
353.5926880746999
  0
ARC
  5
82
  8
1
  6
CONTINUOUS
 62
     7
 10
-270.4909647443
 20
284.2103945816
 30
0.0
 40
2.0052953696
 50
229.504849292
 51
251.9447202738
  0
ARC
  5
83
  8
1
  6
CONTINUOUS
 62
     7
 10
-276.4040159374
 20
294.6825564575
 30
0.0
 40
2.0010913431
 50
10.0030416583
 51
26.9653681985
  0
ARC
  5
84
  8
1
  6
CONTINUOUS
 62
     7
 10
-370.4966457466
 20
284.2037418421
 30
0.0
 40
1.9965470713
 50
206.9653681944
 51
229.5048492921999
  0
LINE
  5
85
  8
1
  6
CONTINUOUS
 62
     7
 10
-364.3082224997
 20
282.2051697903
 30
0.0
 11
-364.5215946847
 21
281.3288566295
 31
0.0
  0
ARC
  5
86
  8
1
  6
CONTINUOUS
 62
     7
 10
-363.8627592889
 20
284.7813800748
 30
0.0
 40
0.7086100434
 50
197.9511250206
 51
270.7955749421001
  0
ARC
  5
87
  8
1
  6
CONTINUOUS
 62
     7
 10
-260.2233580686
 20
278.2029249193
 30
0.0
 40
4.0022449039
 50
44.5524733942
 51
90.0072974407
  0
ARC
  5
88
  8
1
  6
CONTINUOUS
 62
     7
 10
-336.1887287371
 20
294.6825564575
 30
0.0
 40
2.0010913431
 50
153.0346318015
 51
169.9969583417
  0
ARC
  5
89
  8
1
  6
CONTINUOUS
 62
     7
 10
-342.110114914
 20
284.1538056813
 30
0.0
 40
2.0020315857
 50
279.4607410223
 51
349.9697465618
  0
LINE
  5
8A
  8
1
  6
CONTINUOUS
 62
     7
 10
-340.138682528
 20
283.8051155364
 30
0.0
 11
-338.1595522636
 21
295.0301736983
 31
0.0
  0
ARC
  5
8B
  8
1
  6
CONTINUOUS
 62
     7
 10
-376.4056467176
 20
294.6779643273
 30
0.0
 40
2.0052953694
 50
49.50484928840002
 51
71.9447202703
  0
ARC
  5
8C
  8
1
  6
CONTINUOUS
 62
     7
 10
-276.3999657153
 20
294.6846170661
 30
0.0
 40
1.9965470713
 50
26.9653681944
 51
49.5048492921
  0
ARC
  5
8D
  8
1
  6
CONTINUOUS
 62
     7
 10
-276.4056467176
 20
294.677964328
 30
0.0
 40
2.0052953688
 50
71.94472026339999
 51
89.9857841323
  0
LINE
  5
8E
  8
1
  6
CONTINUOUS
 62
     7
 10
-374.433192411
 20
295.0301736983
 30
0.0
 11
-372.463419051
 21
283.8581852099
 31
0.0
  0
LINE
  5
8F
  8
1
  6
CONTINUOUS
 62
     7
 10
-404.6875954806
 20
296.683189118
 30
0.0
 11
-376.4051491939
 21
296.683189118
 31
0.0
  0
ARC
  5
90
  8
1
  6
CONTINUOUS
 62
     7
 10
-276.4056467176
 20
294.677964327
 30
0.0
 40
2.0052953696
 50
49.50484929200001
 51
71.9447202739
  0
ARC
  5
91
  8
1
  6
CONTINUOUS
 62
     7
 10
-410.6017799301
 20
284.2103945801
 30
0.0
 40
2.0052953688
 50
270.0142158676
 51
288.0552797366
  0
LINE
  5
92
  8
1
  6
CONTINUOUS
 62
     7
 10
-364.5209991043
 20
281.2028072668
 30
0.0
 11
-364.5215946847
 21
281.3288566295
 31
0.0
  0
ARC
  5
93
  8
1
  6
CONTINUOUS
 62
     7
 10
-370.4925955242
 20
284.2058024508
 30
0.0
 40
2.0010913435
 50
190.0030416553
 51
206.9653681954
  0
LINE
  5
94
  8
1
  6
CONTINUOUS
 62
     7
 10
-342.5208310821
 20
292.1622704449
 30
0.0
 11
-352.022285852
 21
292.1622704448
 31
0.0
  0
LINE
  5
95
  8
1
  6
CONTINUOUS
 62
     7
 10
-354.0704588224
 20
292.1622704448
 30
0.0
 11
-363.5719135924
 21
292.1622704448
 31
0.0
  0
LINE
  5
96
  8
1
  6
CONTINUOUS
 62
     7
 10
-351.9240262017
 20
355.714550558
 30
0.0
 11
-352.0463723372
 21
356.0761564374
 31
0.0
  0
LINE
  5
97
  8
1
  6
CONTINUOUS
 62
     7
 10
-270.491462268
 20
282.2051697907
 30
0.0
 11
-260.223867812
 21
282.2051697907
 31
0.0
  0
ARC
  5
98
  8
1
  6
CONTINUOUS
 62
     7
 10
-365.1498211918
 20
292.4936084441
 30
0.0
 40
1.4227277051
 50
327.2410690478
 51
339.3266463443
  0
ARC
  5
99
  8
1
  6
CONTINUOUS
 62
     7
 10
-376.3999657154
 20
294.6846170661
 30
0.0
 40
1.9965470713
 50
26.9653681944
 51
49.5048492922
  0
LINE
  5
9A
  8
1
  6
CONTINUOUS
 62
     7
 10
-257.2282183108
 20
278.2807753181
 30
0.0
 11
-257.3123897759
 21
278.8454575112
 31
0.0
  0
LINE
  5
9B
  8
1
  6
CONTINUOUS
 62
     7
 10
-370.491462268
 20
282.2051697903
 30
0.0
 11
-364.3082224997
 21
282.2051697903
 31
0.0
  0
ARC
  5
9C
  8
1
  6
CONTINUOUS
 62
     7
 10
-376.4040159375
 20
294.6825564575
 30
0.0
 40
2.0010913431
 50
10.0030416583
 51
26.9653681985
  0
LINE
  5
9D
  8
1
  6
CONTINUOUS
 62
     7
 10
-354.0463723372
 20
287.3254603215
 30
0.0
 11
-354.0704588224
 21
292.1622704448
 31
0.0
  0
ARC
  5
9E
  8
1
  6
CONTINUOUS
 62
     7
 10
-404.6870979569
 20
294.677964328
 30
0.0
 40
2.0052953688
 50
90.0142158677
 51
108.0552797366
  0
ARC
  5
9F
  8
1
  6
CONTINUOUS
 62
     7
 10
-362.7629112653
 20
290.9577703446
 30
0.0
 40
1.415605902
 50
147.2410690607
 51
173.5926880711
  0
ARC
  5
A0
  8
1
  6
CONTINUOUS
 62
     7
 10
-336.1927789592
 20
294.6846170661
 30
0.0
 40
1.9965470713
 50
130.4951507078
 51
153.0346318056
  0
ARC
  5
A1
  8
1
  6
CONTINUOUS
 62
     7
 10
-410.6017799301
 20
284.2103945808
 30
0.0
 40
2.0052953694
 50
288.0552797297
 51
310.4951507116
  0
ARC
  5
A2
  8
1
  6
CONTINUOUS
 62
     7
 10
-270.4909647446
 20
284.2103945807
 30
0.0
 40
2.0052953687
 50
251.9447202724
 51
269.9857841414
  0
ARC
  5
A3
  8
1
  6
CONTINUOUS
 62
     7
 10
-410.5960989279
 20
284.2037418423
 30
0.0
 40
1.9965470715
 50
310.4951507020999
 51
333.0346317998
  0
ARC
  5
A4
  8
1
  6
CONTINUOUS
 62
     7
 10
-363.571495139
 20
291.8980474143
 30
0.0
 40
0.2642240041
 50
90.2666165532
 51
159.3266463394
  0
ARC
  5
A5
  8
1
  6
CONTINUOUS
 62
     7
 10
-336.1870979569
 20
294.677964328
 30
0.0
 40
2.0052953688
 50
90.0142158677
 51
108.0552797366
  0
ARC
  5
A6
  8
1
  6
CONTINUOUS
 62
     7
 10
-365.1130207686
 20
284.7042272534
 30
0.0
 40
1.4227277052
 50
327.2410690372001
 51
333.3862751931
  0
ARC
  5
A7
  8
1
  6
CONTINUOUS
 62
     7
 10
-352.6862571808
 20
280.2680839124
 30
0.0
 40
11.7999953045
 50
168.1600801733
 51
170.5372381347
  0
ARC
  5
A8
  8
1
  6
CONTINUOUS
 62
     7
 10
-336.1870979569
 20
294.677964327
 30
0.0
 40
2.0052953696
 50
108.0552797261
 51
130.495150708
  0
ARC
  5
A9
  8
1
  6
CONTINUOUS
 62
     7
 10
-370.4909647446
 20
284.2103945803
 30
0.0
 40
2.0052953687
 50
251.9447202724
 51
269.9857841413
  0
ARC
  5
AA
  8
1
  6
CONTINUOUS
 62
     7
 10
-404.688728737
 20
294.6825564575
 30
0.0
 40
2.0010913431
 50
153.0346318015
 51
169.9969583417
  0
ARC
  5
AB
  8
1
  6
CONTINUOUS
 62
     7
 10
-404.6927789591
 20
294.6846170661
 30
0.0
 40
1.9965470713
 50
130.4951507079
 51
153.0346318056
  0
ARC
  5
AC
  8
1
  6
CONTINUOUS
 62
     7
 10
-270.5968346827
 20
284.0127407378
 30
0.0
 40
1.0088189389
 50
267.5543990791
 51
270.0553723017
  0
LINE
  5
AD
  8
1
  6
CONTINUOUS
 62
     7
 10
-336.1875954806
 20
296.683189118
 30
0.0
 11
-276.4051491939
 21
296.683189118
 31
0.0
  0
ARC
  5
AE
  8
1
  6
CONTINUOUS
 62
     7
 10
-370.4909647443
 20
284.2103945812
 30
0.0
 40
2.0052953696
 50
229.504849292
 51
251.9447202739
  0
ARC
  5
AF
  8
1
  6
CONTINUOUS
 62
     7
 10
-376.4056467176
 20
294.677964328
 30
0.0
 40
2.0052953688
 50
71.94472026339999
 51
89.9857841323
  0
ARC
  5
B0
  8
1
  6
CONTINUOUS
 62
     7
 10
-410.5593586778
 20
284.078275975
 30
0.0
 40
2.994820607
 50
310.4951507078999
 51
333.0346318055
  0
LINE
  5
B1
  8
1
  6
CONTINUOUS
 62
     7
 10
-271.5753666302
 20
283.8282257696
 30
0.0
 11
-271.5547233812
 21
283.8533520684
 31
0.0
  0
ARC
  5
B2
  8
1
  6
CONTINUOUS
 62
     7
 10
-410.5678801813
 20
284.0882550833
 30
0.0
 40
3.0079430543
 50
288.0552797307001
 51
310.4951507125
  0
LINE
  5
B3
  8
1
  6
CONTINUOUS
 62
     7
 10
-410.5671338956
 20
281.0804178972
 30
0.0
 11
-410.6012824064
 21
281.1190208798
 31
0.0
  0
LINE
  5
B4
  8
1
  6
CONTINUOUS
 62
     7
 10
-420.8710064273
 20
281.0804178971
 30
0.0
 11
-410.5671338956
 21
281.0804178972
 31
0.0
  0
LINE
  5
B5
  8
1
  6
CONTINUOUS
 62
     7
 10
-273.4835459533
 20
283.5599410272
 30
0.0
 11
-275.4533193132
 21
294.7319295152
 31
0.0
  0
LINE
  5
B6
  8
1
  6
CONTINUOUS
 62
     7
 10
-373.4932440736
 20
283.6149459787
 30
0.0
 11
-375.4533193132
 21
294.7319295152
 31
0.0
  0
ARC
  5
B7
  8
1
  6
CONTINUOUS
 62
     7
 10
-420.8707453644
 20
278.0835335404
 30
0.0
 40
2.9992340495
 50
143.5477480471
 51
166.1507039268
  0
LINE
  5
B8
  8
1
  6
CONTINUOUS
 62
     7
 10
-364.5463723372
 20
284.5823976326
 30
0.0
 11
-364.5368740329
 21
284.5629824891
 31
0.0
  0
LINE
  5
B9
  8
1
  6
CONTINUOUS
 62
     7
 10
-351.9483742216
 20
330.4124762555
 30
0.0
 11
-351.9271678674
 21
331.0806107053
 31
0.0
  0
LINE
  5
BA
  8
1
  6
CONTINUOUS
 62
     7
 10
-351.9078843612
 20
354.629589366
 30
0.0
 11
-351.9087422642
 21
354.1611435903
 31
0.0
  0
ARC
  5
BB
  8
1
  6
CONTINUOUS
 62
     7
 10
-370.4967719135
 20
284.1175927163
 30
0.0
 40
2.9963099477
 50
205.5498284594
 51
228.0774551212
  0
LINE
  5
BC
  8
1
  6
CONTINUOUS
 62
     7
 10
-354.0704588224
 20
292.1622704448
 30
0.0
 11
-354.139788059
 21
330.0185212791
 31
0.0
  0
LINE
  5
BD
  8
1
  6
CONTINUOUS
 62
     7
 10
-364.5463723372
 20
284.5823976326
 30
0.0
 11
-364.5463723372
 21
286.5734461363
 31
0.0
  0
LINE
  5
BE
  8
1
  6
CONTINUOUS
 62
     7
 10
-364.5376915504
 20
281.11902088
 30
0.0
 11
-370.491462268
 21
281.11902088
 31
0.0
  0
ARC
  5
BF
  8
1
  6
CONTINUOUS
 62
     7
 10
-370.490639223
 20
284.1244223036
 30
0.0
 40
3.0054888993
 50
250.5353849648
 51
269.9843092503999
  0
ARC
  5
C0
  8
1
  6
CONTINUOUS
 62
     7
 10
-410.5654340112
 20
284.0813668879
 30
0.0
 40
3.001637015
 50
333.0346318036001
 51
349.9969583437
  0
LINE
  5
C1
  8
1
  6
CONTINUOUS
 62
     7
 10
-351.9529566154
 20
330.0185212894
 30
0.0
 11
-352.022285852
 21
292.1622704448
 31
0.0
  0
ARC
  5
C2
  8
1
  6
CONTINUOUS
 62
     7
 10
-356.5463727181
 20
275.5573412335
 30
0.0
 40
4.0000001575
 50
225.0000099704
 51
270.0000054554
  0
ARC
  5
C3
  8
1
  6
CONTINUOUS
 62
     7
 10
-276.4390255059
 20
294.5573990017
 30
0.0
 40
1.0010382603
 50
10.0408048711
 51
90.0155796618
  0
LINE
  5
C4
  8
1
  6
CONTINUOUS
 62
     7
 10
-354.165576807
 20
331.0806106951
 30
0.0
 11
-354.1443704528
 21
330.4124762452
 31
0.0
  0
ARC
  5
C5
  8
1
  6
CONTINUOUS
 62
     7
 10
-370.4924693619
 20
284.119649523
 30
0.0
 40
3.0010788473
 50
189.9756972895
 51
205.5498284566001
  0
ARC
  5
C6
  8
1
  6
CONTINUOUS
 62
     7
 10
-349.5463719563
 20
275.5573378724
 30
0.0
 40
4.0000001574
 50
45.0000099714
 51
90.00000545639999
  0
ARC
  5
C7
  8
1
  6
CONTINUOUS
 62
     7
 10
-336.153796514
 20
294.5574912706
 30
0.0
 40
1.0009460155
 50
89.97999152300001
 51
169.9636239445
  0
ARC
  5
C8
  8
1
  6
CONTINUOUS
 62
     7
 10
-376.439025506
 20
294.5573990017
 30
0.0
 40
1.0010382603
 50
10.0408048711
 51
90.0155796618
  0
LINE
  5
C9
  8
1
  6
CONTINUOUS
 62
     7
 10
-276.4392977047
 20
295.558437225
 30
0.0
 11
-336.1534469698
 21
295.558437225
 31
0.0
  0
LINE
  5
CA
  8
1
  6
CONTINUOUS
 62
     7
 10
-341.5463723372
 20
283.2542516863
 30
0.0
 11
-341.5463723372
 21
286.5734461364
 31
0.0
  0
ARC
  5
CB
  8
1
  6
CONTINUOUS
 62
     7
 10
-410.5678801808
 20
284.0882550823
 30
0.0
 40
3.0079430532
 50
270.0142158582
 51
288.0552797271
  0
ARC
  5
CC
  8
1
  6
CONTINUOUS
 62
     7
 10
-349.546370872
 20
275.5573396106
 30
0.0
 40
3.999998243099999
 50
269.9999999981
 51
314.9999954832
  0
LINE
  5
CD
  8
1
  6
CONTINUOUS
 62
     7
 10
-270.5256107788
 20
281.0804178977
 30
0.0
 11
-260.2217382472
 21
281.0804178978
 31
0.0
  0
LINE
  5
CE
  8
1
  6
CONTINUOUS
 62
     7
 10
-337.1394253613
 20
294.7319295152
 30
0.0
 11
-339.1173741716
 21
283.5135722211
 31
0.0
  0
LINE
  5
CF
  8
1
  6
CONTINUOUS
 62
     7
 10
-354.1702016946
 20
331.50941891
 30
0.0
 11
-354.165576807
 21
331.0806106951
 31
0.0
  0
ARC
  5
D0
  8
1
  6
CONTINUOUS
 62
     7
 10
-270.5273106632
 20
284.0813668884
 30
0.0
 40
3.001637015
 50
190.0030416563
 51
206.9653681964
  0
ARC
  5
D1
  8
1
  6
CONTINUOUS
 62
     7
 10
-356.5463723956
 20
275.5573410178
 30
0.0
 40
4.000000233
 50
179.9999999956
 51
225.0000045195
  0
LINE
  5
D2
  8
1
  6
CONTINUOUS
 62
     7
 10
-405.6394253613
 20
294.7319295152
 30
0.0
 11
-407.6091987212
 21
283.5599410267
 31
0.0
  0
ARC
  5
D3
  8
1
  6
CONTINUOUS
 62
     7
 10
-349.5463706559
 20
275.5573399336
 30
0.0
 40
3.9999983187
 50
314.9999900234999
 51
0.0
  0
LINE
  5
D4
  8
1
  6
CONTINUOUS
 62
     7
 10
-349.5463723372
 20
271.557341076
 30
0.0
 11
-356.5463723372
 21
271.557341076
 31
0.0
  0
LINE
  5
D5
  8
1
  6
CONTINUOUS
 62
     7
 10
-351.9483742216
 20
330.4124762555
 30
0.0
 11
-351.9529566154
 21
330.0185212894
 31
0.0
  0
ARC
  5
D6
  8
1
  6
CONTINUOUS
 62
     7
 10
-270.5333859966
 20
284.0782759755
 30
0.0
 40
2.994820607
 50
206.9653681945
 51
229.5048492920999
  0
ARC
  5
D7
  8
1
  6
CONTINUOUS
 62
     7
 10
-404.6537965139
 20
294.5574912706
 30
0.0
 40
1.0009460155
 50
89.97999152300001
 51
169.9636239445
  0
ARC
  5
D8
  8
1
  6
CONTINUOUS
 62
     7
 10
-260.2219990627
 20
278.0835336869
 30
0.0
 40
2.999233764
 50
13.8496149034
 51
36.45225251800001
  0
ARC
  5
D9
  8
1
  6
CONTINUOUS
 62
     7
 10
-349.5463722788
 20
275.557338088
 30
0.0
 40
4.000000233
 50
0.0
 51
45.00000452129999
  0
LINE
  5
DA
  8
1
  6
CONTINUOUS
 62
     7
 10
-354.1687184727
 20
355.714550558
 30
0.0
 11
-354.1848603132
 21
354.629589366
 31
0.0
  0
ARC
  5
DB
  8
1
  6
CONTINUOUS
 62
     7
 10
-356.5463738025
 20
275.5573394952
 30
0.0
 40
3.9999982432
 50
89.9999999974
 51
134.9999954824
  0
ARC
  5
DC
  8
1
  6
CONTINUOUS
 62
     7
 10
-260.2212339416
 20
278.0792547055
 30
0.0
 40
3.0011632346
 50
36.52663959139999
 51
90.00962779540001
  0
LINE
  5
DD
  8
1
  6
CONTINUOUS
 62
     7
 10
-354.139788059
 20
330.0185212791
 30
0.0
 11
-354.1443704528
 21
330.4124762452
 31
0.0
  0
ARC
  5
DE
  8
1
  6
CONTINUOUS
 62
     7
 10
-270.5248644934
 20
284.0882550826
 30
0.0
 40
3.007943053
 50
251.944720266
 51
269.9857841349
  0
ARC
  5
DF
  8
1
  6
CONTINUOUS
 62
     7
 10
-356.5463740185
 20
275.5573391724
 30
0.0
 40
3.9999983187
 50
134.9999900259
 51
179.9999945498
  0
ARC
  5
E0
  8
1
  6
CONTINUOUS
 62
     7
 10
-370.4906392231
 20
284.1244223043
 30
0.0
 40
3.0054888999
 50
228.0774551331
 51
250.5353849697999
  0
LINE
  5
E1
  8
1
  6
CONTINUOUS
 62
     7
 10
-423.7803550644
 20
278.8454568434
 30
0.0
 11
-423.8645263636
 21
278.2807753174
 31
0.0
  0
LINE
  5
E2
  8
1
  6
CONTINUOUS
 62
     7
 10
-364.5215946847
 20
281.3288566295
 30
0.0
 11
-364.5376915504
 21
281.11902088
 31
0.0
  0
LINE
  5
E3
  8
1
  6
CONTINUOUS
 62
     7
 10
-341.5550836458
 20
281.1173872759
 30
0.0
 11
-341.5711577694
 21
281.3272080369
 31
0.0
  0
LINE
  5
E4
  8
1
  6
CONTINUOUS
 62
     7
 10
-351.9078843612
 20
354.629589366
 30
0.0
 11
-351.9240262017
 21
355.714550558
 31
0.0
  0
LINE
  5
E5
  8
1
  6
CONTINUOUS
 62
     7
 10
-354.1702016946
 20
331.50941891
 30
0.0
 11
-354.1840024103
 21
354.1611435903
 31
0.0
  0
LINE
  5
E6
  8
1
  6
CONTINUOUS
 62
     7
 10
-354.1840024103
 20
354.1611435903
 30
0.0
 11
-354.1848603132
 21
354.629589366
 31
0.0
  0
LINE
  5
E7
  8
1
  6
CONTINUOUS
 62
     7
 10
-341.5550836458
 20
281.1173872759
 30
0.0
 11
-341.4940003566
 21
281.0902674485
 31
0.0
  0
ARC
  5
E8
  8
1
  6
CONTINUOUS
 62
     7
 10
-420.8715087366
 20
278.0792507413
 30
0.0
 40
3.0011671979
 50
89.9904103283
 51
143.4733222851
  0
LINE
  5
E9
  8
1
  6
CONTINUOUS
 62
     7
 10
-341.562096998
 20
283.2450774277
 30
0.0
 11
-341.5463723372
 21
283.2542516863
 31
0.0
  0
ARC
  5
EA
  8
1
  6
CONTINUOUS
 62
     7
 10
-342.0743416846
 20
284.0365057834
 30
0.0
 40
3.0028513755
 50
281.1432952732
 51
349.9710548215
  0
LINE
  5
EB
  8
1
  6
CONTINUOUS
 62
     7
 10
-364.5987443178
 20
281.0804178974
 30
0.0
 11
-364.5376915504
 21
281.11902088
 31
0.0
  0
LINE
  5
EC
  8
1
  6
CONTINUOUS
 62
     7
 10
-356.5463723372
 20
279.5573380298
 30
0.0
 11
-349.5463723372
 21
279.5573380298
 31
0.0
  0
ARC
  5
ED
  8
1
  6
CONTINUOUS
 62
     7
 10
-270.5248644934
 20
284.0882550839
 30
0.0
 40
3.0079430542
 50
229.5048492917
 51
251.9447202736
  0
ARC
  5
EE
  8
1
  6
CONTINUOUS
 62
     7
 10
-265.5396679914
 20
331.9052731485
 30
0.0
 40
1.6225490222
 50
352.2305597033
 51
20.70159945659998
  0
LINE
  5
EF
  8
1
  6
CONTINUOUS
 62
     7
 10
-415.9203770573
 20
330.4124759539
 30
0.0
 11
-354.1443704528
 21
330.4124762452
 31
0.0
  0
LINE
  5
F0
  8
1
  6
CONTINUOUS
 62
     7
 10
-268.6733197735
 20
340.227942536
 30
0.0
 11
-264.5506419653
 21
333.4232387691
 31
0.0
  0
LINE
  5
F1
  8
1
  6
CONTINUOUS
 62
     7
 10
-412.4194249012
 20
340.2279425355
 30
0.0
 11
-409.9845971665
 21
344.1943185848
 31
0.0
  0
LINE
  5
F2
  8
1
  6
CONTINUOUS
 62
     7
 10
-271.1081475056
 20
344.1943185812
 30
0.0
 11
-268.6733197735
 21
340.227942536
 31
0.0
  0
ARC
  5
F3
  8
1
  6
CONTINUOUS
 62
     7
 10
-269.9978989429
 20
358.2125755974
 30
0.0
 40
8.5485289014
 50
213.0642968465
 51
216.2715579542
  0
ARC
  5
F4
  8
1
  6
CONTINUOUS
 62
     7
 10
-434.6501428099
 20
244.7378880169
 30
0.0
 40
191.4156811466
 50
31.6418829259
 51
33.4118346642
  0
ARC
  5
F5
  8
1
  6
CONTINUOUS
 62
     7
 10
-1083.7449990981
 20
-155.2422926223
 30
0.0
 40
953.8514340884
 50
31.5743722276
 51
31.6418829259
  0
ARC
  5
F6
  8
1
  6
CONTINUOUS
 62
     7
 10
-403.4378731472
 20
354.0459242037
 30
0.0
 40
0.1442209427
 50
53.4615290844
 51
104.5927907429
  0
ARC
  5
F7
  8
1
  6
CONTINUOUS
 62
     7
 10
-277.6548715275
 20
354.0459242043
 30
0.0
 40
0.1442209427
 50
75.4072085774
 51
121.3640881569
  0
LINE
  5
F8
  8
1
  6
CONTINUOUS
 62
     7
 10
-264.5506419653
 20
333.4232387691
 30
0.0
 11
-264.3516960969
 21
333.1446677657
 31
0.0
  0
LINE
  5
F9
  8
1
  6
CONTINUOUS
 62
     7
 10
-403.3524955034
 20
354.1611435903
 30
0.0
 11
-403.3996315079
 21
354.1436856056
 31
0.0
  0
ARC
  5
FA
  8
1
  6
CONTINUOUS
 62
     7
 10
-279.0522618889
 20
352.3181471892
 30
0.0
 40
2.2554414159
 50
33.0642968537
 51
45.24171341220001
  0
ARC
  5
FB
  8
1
  6
CONTINUOUS
 62
     7
 10
-265.0303656258
 20
331.4339799374
 30
0.0
 40
1.00875614
 50
302.8388791606
 51
339.2039794815
  0
ARC
  5
FC
  8
1
  6
CONTINUOUS
 62
     7
 10
-403.4353454492
 20
354.0500342342
 30
0.0
 40
0.1095797516
 50
69.1256548162
 51
166.9478693554
  0
ARC
  5
FD
  8
1
  6
CONTINUOUS
 62
     7
 10
-403.8540758166
 20
354.1471071301
 30
0.0
 40
0.3202554119
 50
314.7582865825
 51
346.9478693293
  0
LINE
  5
FE
  8
1
  6
CONTINUOUS
 62
     7
 10
-277.6931131669
 20
354.1436856062
 30
0.0
 11
-277.7402491715
 21
354.1611435908
 31
0.0
  0
ARC
  5
FF
  8
1
  6
CONTINUOUS
 62
     7
 10
-402.0404827854
 20
352.3181471885
 30
0.0
 40
2.2554414163
 50
134.7582865954
 51
146.9357031538
  0
ARC
  5
100
  8
1
  6
CONTINUOUS
 62
     7
 10
-379.6961919004
 20
335.1719595996
 30
0.0
 40
30.3968873624
 50
143.7284420502
 51
147.1489623015
  0
LINE
  5
101
  8
1
  6
CONTINUOUS
 62
     7
 10
-403.3524955034
 20
354.1611435903
 30
0.0
 11
-354.1840024103
 21
354.1611435903
 31
0.0
  0
ARC
  5
102
  8
1
  6
CONTINUOUS
 62
     7
 10
402.6522361772
 20
-155.2422814058
 30
0.0
 40
953.8514126701
 50
148.3581170727
 51
148.4256277711
  0
LINE
  5
103
  8
1
  6
CONTINUOUS
 62
     7
 10
-416.7410490085
 20
333.1446670592
 30
0.0
 11
-416.9992151541
 21
332.6196312791
 31
0.0
  0
LINE
  5
104
  8
1
  6
CONTINUOUS
 62
     7
 10
-376.4392977047
 20
295.558437225
 30
0.0
 11
-404.6534469698
 21
295.558437225
 31
0.0
  0
ARC
  5
105
  8
1
  6
CONTINUOUS
 62
     7
 10
-301.3965527727
 20
335.1719596002
 30
0.0
 40
30.396887361
 50
32.8510377003
 51
36.2715579515
  0
ARC
  5
106
  8
1
  6
CONTINUOUS
 62
     7
 10
-267.5523126385
 20
331.1446939031
 30
0.0
 40
3.7741110743
 50
20.7015994611
 51
23.0948619799
  0
LINE
  5
107
  8
1
  6
CONTINUOUS
 62
     7
 10
-351.9483742216
 20
330.4124762555
 30
0.0
 11
-265.172368039
 21
330.4124766647
 31
0.0
  0
ARC
  5
108
  8
1
  6
CONTINUOUS
 62
     7
 10
-277.6573992255
 20
354.0500342349
 30
0.0
 40
0.1095797515
 50
13.0521306589
 51
110.8743451981
  0
LINE
  5
109
  8
1
  6
CONTINUOUS
 62
     7
 10
-366.0463723372
 20
358.0668076516
 30
0.0
 11
-366.0463723372
 21
358.0806763513
 31
0.0
  0
LINE
  5
10A
  8
1
  6
CONTINUOUS
 62
     7
 10
-264.0935271103
 20
332.619624369
 30
0.0
 11
-264.3516960969
 21
333.1446677657
 31
0.0
  0
ARC
  5
10B
  8
1
  6
CONTINUOUS
 62
     7
 10
-413.5404324612
 20
331.1446931863
 30
0.0
 40
3.774111084
 50
156.9050141702
 51
159.2984004573
  0
ARC
  5
10C
  8
1
  6
CONTINUOUS
 62
     7
 10
-265.0303656256
 20
331.4339799373
 30
0.0
 40
1.0087561398
 50
266.473778837
 51
302.8388791579
  0
ARC
  5
10D
  8
1
  6
CONTINUOUS
 62
     7
 10
-120.1294942586
 20
452.2192684377
 30
0.0
 40
185.3757221344
 50
212.8510376908
 51
213.4118346667
  0
LINE
  5
10E
  8
1
  6
CONTINUOUS
 62
     7
 10
-315.0463723372
 20
358.0806763513
 30
0.0
 11
-315.0463723372
 21
358.0668076516
 31
0.0
  0
ARC
  5
10F
  8
1
  6
CONTINUOUS
 62
     7
 10
-264.9217325249
 20
333.1968749977
 30
0.0
 40
2.7749951226
 50
264.8564258150001
 51
266.473778882
  0
ARC
  5
110
  8
1
  6
CONTINUOUS
 62
     7
 10
-277.238668858
 20
354.1471071308
 30
0.0
 40
0.3202554121
 50
193.052130655
 51
225.2417134018
  0
ARC
  5
111
  8
1
  6
CONTINUOUS
 62
     7
 10
-246.4426018683
 20
244.7378880163
 30
0.0
 40
191.4156811437
 50
146.5881653353
 51
148.3581170736
  0
LINE
  5
112
  8
1
  6
CONTINUOUS
 62
     7
 10
-267.8442405615
 20
355.5776606318
 30
0.0
 11
-267.8807643221
 21
355.6734750326
 31
0.0
  0
LINE
  5
113
  8
1
  6
CONTINUOUS
 62
     7
 10
-255.2360908403
 20
286.2673483495
 30
0.0
 11
-255.2350278014
 21
286.2723196846
 31
0.0
  0
ARC
  5
114
  8
1
  6
CONTINUOUS
 62
     7
 10
-560.9632504189
 20
452.2192684388
 30
0.0
 40
185.3757221377
 50
326.5881653333
 51
327.1489623092
  0
LINE
  5
115
  8
1
  6
CONTINUOUS
 62
     7
 10
-255.2350278014
 20
286.2723196846
 30
0.0
 11
-255.2470007105
 21
286.2815437001
 31
0.0
  0
LINE
  5
116
  8
1
  6
CONTINUOUS
 62
     7
 10
-351.9087422642
 20
354.1611435903
 30
0.0
 11
-277.740249172
 21
354.1611435903
 31
0.0
  0
ARC
  5
117
  8
1
  6
CONTINUOUS
 62
     7
 10
-411.0948457302
 20
358.2125755968
 30
0.0
 40
8.5485289
 50
323.728442039
 51
326.9357031467
  0
ARC
  5
118
  8
1
  6
CONTINUOUS
 62
     7
 10
-277.6548715277
 20
354.0459242038
 30
0.0
 40
0.144220943
 50
121.3640879843
 51
126.5384711319
  0
LINE
  5
119
  8
1
  6
CONTINUOUS
 62
     7
 10
-412.4194249012
 20
340.2279425355
 30
0.0
 11
-416.7410490085
 21
333.1446670592
 31
0.0
  0
ARC
  5
11A
  8
1
  6
CONTINUOUS
 62
     7
 10
-414.4112103414
 20
332.0610683105
 30
0.0
 40
2.7749951535
 50
187.7694402673
 51
200.7960203852
  0
ARC
  5
11B
  8
1
  6
CONTINUOUS
 62
     7
 10
-415.5530771129
 20
331.9052724376
 30
0.0
 40
1.6225490255
 50
159.2984004929
 51
187.7694402687
  0
ARC
  5
11C
  8
1
  6
CONTINUOUS
 62
     7
 10
-416.0623794846
 20
331.4339792231
 30
0.0
 40
1.0087561371
 50
200.7960203972
 51
273.5262213043001
  0
ARC
  5
11D
  8
1
  6
CONTINUOUS
 62
     7
 10
-416.1710125901
 20
333.1968742987
 30
0.0
 40
2.7749951355
 50
273.5262212484
 51
275.1435745445
  0
ARC
  5
11E
  8
1
  6
CONTINUOUS
 62
     7
 10
-266.6815347447
 20
332.0610690197
 30
0.0
 40
2.7749951319
 50
339.2039794916
 51
352.2305597009
  0
ARC
  5
11F
  8
1
  6
CONTINUOUS
 62
     7
 10
-338.437700028
 20
280.8690140197
 30
0.0
 40
1.4850970749
 50
119.7512770857
 51
142.4487421899
  0
LINE
  5
120
  8
1
  6
CONTINUOUS
 62
     7
 10
-410.5972362905
 20
358.196101204
 30
0.0
 11
-410.5955653834
 21
358.1960617972
 31
0.0
  0
LINE
  5
121
  8
1
  6
CONTINUOUS
 62
     7
 10
-339.8720979853
 20
274.1709447622
 30
0.0
 11
-339.8720979853
 21
277.4011801323
 31
0.0
  0
LINE
  5
122
  8
1
  6
CONTINUOUS
 62
     7
 10
-339.9252165115
 20
270.7008877474
 30
0.0
 11
-339.8720979853
 21
274.1709447622
 31
0.0
  0
LINE
  5
123
  8
1
  6
CONTINUOUS
 62
     7
 10
-320.8812805421
 20
293.7976584536
 30
0.0
 11
-323.8770772515
 21
293.8476729562
 31
0.0
  0
LINE
  5
124
  8
1
  6
CONTINUOUS
 62
     7
 10
-417.0463723372
 20
281.0804178972
 30
0.0
 11
-417.0463723372
 21
269.2003700973
 31
0.0
  0
ARC
  5
125
  8
1
  6
CONTINUOUS
 62
     7
 10
-261.6344248008
 20
267.7906503916
 30
0.0
 40
1.0008922845
 50
225.2340500982
 51
270.1297180917001
  0
LINE
  5
126
  8
1
  6
CONTINUOUS
 62
     7
 10
-333.8463723372
 20
266.7008670214
 30
0.0
 11
-333.8463723372
 21
284.876555178
 31
0.0
  0
LINE
  5
127
  8
1
  6
CONTINUOUS
 62
     7
 10
-264.0463723372
 20
269.1362074984
 30
0.0
 11
-264.0463723372
 21
266.7860624093
 31
0.0
  0
LINE
  5
128
  8
1
  6
CONTINUOUS
 62
     7
 10
-417.0463723372
 20
269.1362074984
 30
0.0
 11
-417.0463723372
 21
266.7860624093
 31
0.0
  0
LINE
  5
129
  8
1
  6
CONTINUOUS
 62
     7
 10
-419.4605858996
 20
266.7897606723
 30
0.0
 11
-419.4605858996
 21
272.0112650856
 31
0.0
  0
ARC
  5
12A
  8
1
  6
CONTINUOUS
 62
     7
 10
-338.4241740686
 20
280.8586159474
 30
0.0
 40
1.5021578922
 50
142.4487421853
 51
164.7490879365
  0
LINE
  5
12B
  8
1
  6
CONTINUOUS
 62
     7
 10
-320.8463723372
 20
293.7860624472
 30
0.0
 11
-320.8812805421
 21
293.7976584536
 31
0.0
  0
LINE
  5
12C
  8
1
  6
CONTINUOUS
 62
     7
 10
-320.8463723372
 20
293.7860624472
 30
0.0
 11
-318.3590421234
 21
293.7860624472
 31
0.0
  0
LINE
  5
12D
  8
1
  6
CONTINUOUS
 62
     7
 10
-264.0463723372
 20
266.7873959782
 30
0.0
 11
-261.6321587748
 21
266.7897606723
 31
0.0
  0
LINE
  5
12E
  8
1
  6
CONTINUOUS
 62
     7
 10
-337.3061945765
 20
293.7860624472
 30
0.0
 11
-335.8463723372
 21
293.7860624472
 31
0.0
  0
LINE
  5
12F
  8
1
  6
CONTINUOUS
 62
     7
 10
-417.0463723372
 20
272.1127682271
 30
0.0
 11
-419.4605858996
 21
272.0112650856
 31
0.0
  0
LINE
  5
130
  8
1
  6
CONTINUOUS
 62
     7
 10
-264.046271357
 20
269.1860650535
 30
0.0
 11
-264.046271357
 21
272.1114704474
 31
0.0
  0
LINE
  5
131
  8
1
  6
CONTINUOUS
 62
     7
 10
-261.6321587748
 20
272.0112650856
 30
0.0
 11
-261.6321587748
 21
266.7897606723
 31
0.0
  0
LINE
  5
132
  8
1
  6
CONTINUOUS
 62
     7
 10
-270.497179291
 20
358.1960617972
 30
0.0
 11
-270.4955083839
 21
358.196101204
 31
0.0
  0
LINE
  5
133
  8
1
  6
CONTINUOUS
 62
     7
 10
-417.0464733174
 20
272.1096912097
 30
0.0
 11
-417.0464733174
 21
269.1860650535
 31
0.0
  0
LINE
  5
134
  8
1
  6
CONTINUOUS
 62
     7
 10
-418.3634573425
 20
267.4689774052
 30
0.0
 11
-418.7534791184
 21
267.0800275134
 31
0.0
  0
ARC
  5
135
  8
1
  6
CONTINUOUS
 62
     7
 10
-419.4581211683
 20
267.7901663341
 30
0.0
 40
1.000408698
 50
269.8588388495
 51
314.7773929607
  0
LINE
  5
136
  8
1
  6
CONTINUOUS
 62
     7
 10
-264.0463723372
 20
281.0804178977
 30
0.0
 11
-264.0463723372
 21
269.2003700973
 31
0.0
  0
LINE
  5
137
  8
1
  6
CONTINUOUS
 62
     7
 10
-264.0463723372
 20
272.1127682271
 30
0.0
 11
-261.6321587748
 21
272.0112650856
 31
0.0
  0
LINE
  5
138
  8
1
  6
CONTINUOUS
 62
     7
 10
-262.339265556
 20
267.0800275134
 30
0.0
 11
-262.7295026065
 21
267.4691926788
 31
0.0
  0
LINE
  5
139
  8
1
  6
CONTINUOUS
 62
     7
 10
-339.8720979853
 20
277.4011801323
 30
0.0
 11
-339.9252165115
 21
280.8712371471
 31
0.0
  0
ARC
  5
13A
  8
1
  6
CONTINUOUS
 62
     7
 10
-338.4557354386
 20
280.8672211038
 30
0.0
 40
1.4694444577
 50
164.7490879204
 51
179.8434129142
  0
LINE
  5
13B
  8
1
  6
CONTINUOUS
 62
     7
 10
-417.0463723372
 20
266.7860683493
 30
0.0
 11
-424.4669967224
 21
266.7860683493
 31
0.0
  0
LINE
  5
13C
  8
1
  6
CONTINUOUS
 62
     7
 10
-256.6257479739
 20
266.7860683493
 30
0.0
 11
-264.0463723372
 21
266.7860683493
 31
0.0
  0
ARC
  5
13D
  8
1
  6
CONTINUOUS
 62
     7
 10
-338.4213599246
 20
280.8404262471
 30
0.0
 40
1.5180251741
 50
97.5524769929
 51
119.7512770794
  0
ARC
  5
13E
  8
1
  6
CONTINUOUS
 62
     7
 10
-338.4213599248
 20
280.8404262479
 30
0.0
 40
1.5180251733
 50
90.1541887832
 51
97.55247698930003
  0
LINE
  5
13F
  8
1
  6
CONTINUOUS
 62
     7
 10
-338.4254449687
 20
282.3584044391
 30
0.0
 11
-333.8463723372
 21
282.3584044391
 31
0.0
  0
LINE
  5
140
  8
1
  6
CONTINUOUS
 62
     7
 10
-417.0463723372
 20
266.7873959782
 30
0.0
 11
-419.4605858996
 21
266.7897606723
 31
0.0
  0
CIRCLE
  5
141
  8
1
  6
CONTINUOUS
 62
     7
 10
-295.5476735724
 20
254.2901713866
 30
0.0
 40
13.8285751897
  0
ARC
  5
142
  8
1
  6
CONTINUOUS
 62
     7
 10
-263.0463723372
 20
269.2002759717
 30
0.0
 40
1.0
 50
180.8142530389
 51
225.0
  0
ARC
  5
143
  8
1
  6
CONTINUOUS
 62
     7
 10
-418.0463723372
 20
269.2002759717
 30
0.0
 40
1.0
 50
315.0
 51
359.185746961
  0
TEXT
  5
144
  8
1
  6
CONTINUOUS
 62
     7
 10
-175.2733983006127
 20
299.6447459090909
 30
0.0
 40
20.0
  1
ＷＢＥＶ－２ＨＳ
 41
0.877153
  0
LINE
  5
145
  8
1
  6
CONTINUOUS
 62
     7
 10
-422.1272833154
 20
740.7979930261
 30
0.0
 11
-422.1478762667
 21
740.7855077596
 31
0.0
  0
LINE
  5
146
  8
1
  6
CONTINUOUS
 62
     7
 10
-255.5599663327
 20
710.8413505971
 30
0.0
 11
-255.484108803
 21
710.9892172452
 31
0.0
  0
ARC
  5
147
  8
1
  6
CONTINUOUS
 62
     7
 10
-6304.0553401706
 20
627.5493510167
 30
0.0
 40
6048.8207299872
 50
359.9599106049
 51
0.7416398428999856
  0
ARC
  5
148
  8
1
  6
CONTINUOUS
 62
     7
 10
-465.7433475622
 20
707.1337551361
 30
0.0
 40
40.412545798
 50
358.1703243174
 51
5.105938401000003
  0
ARC
  5
149
  8
1
  6
CONTINUOUS
 62
     7
 10
97.1087281544
 20
464.7593465218
 30
0.0
 40
463.8997251039
 50
176.7532236395
 51
178.717702456
  0
ARC
  5
14A
  8
1
  6
CONTINUOUS
 62
     7
 10
-422.0722456588
 20
739.2608922747
 30
0.0
 40
1.5264902115
 50
92.839906493
 51
173.8017236261
  0
ARC
  5
14B
  8
1
  6
CONTINUOUS
 62
     7
 10
-327.3138742953
 20
721.6840352184
 30
0.0
 40
98.870090245
 50
177.2458362018
 51
186.2218347083
  0
ARC
  5
14C
  8
1
  6
CONTINUOUS
 62
     7
 10
-266.2492708702
 20
730.8064221514
 30
0.0
 40
1.299612516
 50
21.7141907816
 51
47.2058016475
  0
LINE
  5
14D
  8
1
  6
CONTINUOUS
 62
     7
 10
-425.601593466
 20
710.96867217
 30
0.0
 11
-425.5327783417
 21
710.8413505971
 31
0.0
  0
ARC
  5
14E
  8
1
  6
CONTINUOUS
 62
     7
 10
-247.3052199735
 20
724.0920362697
 30
0.0
 40
18.9373162874
 50
145.2072209429
 51
158.6722138354
  0
ARC
  5
14F
  8
1
  6
CONTINUOUS
 62
     7
 10
-414.4644939835
 20
730.3970780374
 30
0.0
 40
1.8574550638
 50
97.37506302590002
 51
115.0341143379
  0
ARC
  5
150
  8
1
  6
CONTINUOUS
 62
     7
 10
-218.8141951153
 20
707.1375769019
 30
0.0
 40
36.9498135568
 50
174.3105816682
 51
182.0071393421
  0
ARC
  5
151
  8
1
  6
CONTINUOUS
 62
     7
 10
-259.0204990156
 20
739.2608922747
 30
0.0
 40
1.5264902115
 50
6.1982763739
 51
87.16009350720002
  0
LINE
  5
152
  8
1
  6
CONTINUOUS
 62
     7
 10
-255.0258818173
 20
726.606789321
 30
0.0
 11
-255.0229852541
 21
726.4348139142
 31
0.0
  0
LINE
  5
153
  8
1
  6
CONTINUOUS
 62
     7
 10
-269.1132795596
 20
623.2085566313
 30
0.0
 11
-274.8067359609
 21
460.2556889282
 31
0.0
  0
ARC
  5
154
  8
1
  6
CONTINUOUS
 62
     7
 10
-253.8072742709
 20
729.626343007
 30
0.0
 40
10.4730804941
 50
110.6630874968
 51
149.778803172
  0
LINE
  5
155
  8
1
  6
CONTINUOUS
 62
     7
 10
-257.4963728059
 20
739.2993426377
 30
0.0
 11
-257.5029323416
 21
739.4257065812
 31
0.0
  0
LINE
  5
156
  8
1
  6
CONTINUOUS
 62
     7
 10
-421.1742773418
 20
738.2180470332
 30
0.0
 11
-421.9375740654
 21
738.7447917372
 31
0.0
  0
LINE
  5
157
  8
1
  6
CONTINUOUS
 62
     7
 10
-315.0463723372
 20
491.0330565772
 30
0.0
 11
-315.0463723372
 21
475.7552350653
 31
0.0
  0
ARC
  5
158
  8
1
  6
CONTINUOUS
 62
     7
 10
-414.8434738042
 20
730.8064221514
 30
0.0
 40
1.299612516
 50
132.7941983525
 51
158.2858092184
  0
ARC
  5
159
  8
1
  6
CONTINUOUS
 62
     7
 10
-414.4644939839
 20
730.3970780377
 30
0.0
 40
1.8574550634
 50
115.03411433
 51
132.7941983408
  0
ARC
  5
15A
  8
1
  6
CONTINUOUS
 62
     7
 10
-266.5101291255
 20
730.7025391962
 30
0.0
 40
1.580394812
 50
10.0422557859
 51
21.7141907908
  0
LINE
  5
15B
  8
1
  6
CONTINUOUS
 62
     7
 10
-414.7020277931
 20
732.2322402639
 30
0.0
 11
-266.3907168813
 21
732.2322402639
 31
0.0
  0
LINE
  5
15C
  8
1
  6
CONTINUOUS
 62
     7
 10
-411.9811256952
 20
623.255810194
 30
0.0
 11
-415.9910796809
 21
730.1098388929
 31
0.0
  0
LINE
  5
15D
  8
1
  6
CONTINUOUS
 62
     7
 10
-422.1272833154
 20
740.797993026
 30
0.0
 11
-258.965461359
 21
740.797993026
 31
0.0
  0
LINE
  5
15E
  8
1
  6
CONTINUOUS
 62
     7
 10
-258.9448684077
 20
740.7855077596
 30
0.0
 11
-258.965461359
 21
740.797993026
 31
0.0
  0
LINE
  5
15F
  8
1
  6
CONTINUOUS
 62
     7
 10
-421.9375740654
 20
738.7447917372
 30
0.0
 11
-422.7563269227
 21
739.1585873951
 31
0.0
  0
LINE
  5
160
  8
1
  6
CONTINUOUS
 62
     7
 10
-264.9456133159
 20
730.9795954087
 30
0.0
 11
-265.1016649935
 21
730.1098388929
 31
0.0
  0
ARC
  5
161
  8
1
  6
CONTINUOUS
 62
     7
 10
-778.2014728288
 20
464.7593465218
 30
0.0
 40
463.8997251039
 50
1.282297544
 51
3.2467763605
  0
ARC
  5
162
  8
1
  6
CONTINUOUS
 62
     7
 10
-353.441224057
 20
721.6433785474
 30
0.0
 40
98.5348039119
 50
353.7927086231
 51
2.787211413299985
  0
ARC
  5
163
  8
1
  6
CONTINUOUS
 62
     7
 10
5600.1656656737
 20
627.6889197273
 30
0.0
 40
6026.023905407
 50
179.2568814687
 51
180.0415680834
  0
LINE
  5
164
  8
1
  6
CONTINUOUS
 62
     7
 10
-425.5327783417
 20
710.8413505971
 30
0.0
 11
-425.4911649435
 21
710.7303719221
 31
0.0
  0
ARC
  5
165
  8
1
  6
CONTINUOUS
 62
     7
 10
-414.5826155489
 20
730.7025391962
 30
0.0
 40
1.580394812
 50
158.2858092092
 51
169.9577442141
  0
LINE
  5
166
  8
1
  6
CONTINUOUS
 62
     7
 10
-406.2860087135
 20
460.2556889282
 30
0.0
 11
-411.9794651148
 21
623.2085566313
 31
0.0
  0
LINE
  5
167
  8
1
  6
CONTINUOUS
 62
     7
 10
-410.5955653834
 20
623.2550043686
 30
0.0
 11
-270.497179291
 21
623.2550043686
 31
0.0
  0
LINE
  5
168
  8
1
  6
CONTINUOUS
 62
     7
 10
-315.0463723372
 20
475.7552350653
 30
0.0
 11
-366.0463723372
 21
475.7552350653
 31
0.0
  0
LINE
  5
169
  8
1
  6
CONTINUOUS
 62
     7
 10
-366.0463723372
 20
475.7552350653
 30
0.0
 11
-366.0463723372
 21
491.0330565772
 31
0.0
  0
ARC
  5
16A
  8
1
  6
CONTINUOUS
 62
     7
 10
-266.6282506909
 20
730.3970780374
 30
0.0
 40
1.8574550638
 50
64.9658856621
 51
82.6249369741
  0
LINE
  5
16B
  8
1
  6
CONTINUOUS
 62
     7
 10
-315.0463723372
 20
491.0330565772
 30
0.0
 11
-366.0463723372
 21
491.0330565772
 31
0.0
  0
ARC
  5
16C
  8
1
  6
CONTINUOUS
 62
     7
 10
-266.6282506905
 20
730.3970780377
 30
0.0
 40
1.8574550634
 50
47.2058016592
 51
64.96588567
  0
LINE
  5
16D
  8
1
  6
CONTINUOUS
 62
     7
 10
-265.1016649935
 20
730.1098388929
 30
0.0
 11
-269.1116189792
 21
623.255810194
 31
0.0
  0
LINE
  5
16E
  8
1
  6
CONTINUOUS
 62
     7
 10
-426.4163860438
 20
460.2550664344
 30
0.0
 11
-254.5905733968
 21
460.2550664344
 31
0.0
  0
LINE
  5
16F
  8
1
  6
CONTINUOUS
 62
     7
 10
-422.7563269227
 20
739.1585873951
 30
0.0
 11
-423.5898123329
 21
739.4257065812
 31
0.0
  0
LINE
  5
170
  8
1
  6
CONTINUOUS
 62
     7
 10
-415.9910796809
 20
730.1098388929
 30
0.0
 11
-416.1471313585
 21
730.9795954087
 31
0.0
  0
LINE
  5
171
  8
1
  6
CONTINUOUS
 62
     7
 10
-314.4179215658
 20
475.1407014124
 30
0.0
 11
-366.6748231086
 21
475.1407014124
 31
0.0
  0
LINE
  5
172
  8
1
  6
CONTINUOUS
 62
     7
 10
-255.5819900423
 20
710.8006327416
 30
0.0
 11
-255.5599663327
 21
710.8413505971
 31
0.0
  0
ARC
  5
173
  8
1
  6
CONTINUOUS
 62
     7
 10
-400.4781261253
 20
726.057862096
 30
0.0
 40
145.453280112
 50
0.2162294854
 51
5.9192289155
  0
ARC
  5
174
  8
1
  6
CONTINUOUS
 62
     7
 10
-435.1265407549
 20
723.1632038213
 30
0.0
 40
20.525933803
 50
22.3835954716
 51
47.1768034905
  0
LINE
  5
175
  8
1
  6
CONTINUOUS
 62
     7
 10
-423.5898123329
 20
739.4257065812
 30
0.0
 11
-423.5963718685
 21
739.2993426377
 31
0.0
  0
LINE
  5
176
  8
1
  6
CONTINUOUS
 62
     7
 10
-425.8566538341
 20
623.3170402563
 30
0.0
 11
-427.2002310695
 21
477.9449245387
 31
0.0
  0
ARC
  5
177
  8
1
  6
CONTINUOUS
 62
     7
 10
-25.2734561087
 20
475.3274138797
 30
0.0
 40
15.0001022227
 50
270.0504653292
 51
10.04953467079997
  0
LINE
  5
178
  8
1
  6
CONTINUOUS
 62
     7
 10
-16.7862184262
 20
726.606789321
 30
0.0
 11
-16.7860683493
 21
726.4348139142
 31
0.0
  0
ARC
  5
179
  8
1
  6
CONTINUOUS
 62
     7
 10
-414.8452998434
 20
756.555754881
 30
0.0
 40
15.0740825251
 50
261.9472979879
 51
271.136281907
  0
LINE
  5
17A
  8
1
  6
CONTINUOUS
 62
     7
 10
-59.2137695279
 20
740.7855077596
 30
0.0
 11
-58.9859705503
 21
740.797993026
 31
0.0
  0
LINE
  5
17B
  8
1
  6
CONTINUOUS
 62
     7
 10
-426.0697594203
 20
726.4348139142
 30
0.0
 11
-426.0668628571
 21
726.606789321
 31
0.0
  0
ARC
  5
17C
  8
1
  6
CONTINUOUS
 62
     7
 10
-414.1147505282
 20
768.5827748945
 30
0.0
 40
27.0891485507
 50
264.7113825997001
 51
270.8038456577
  0
LINE
  5
17D
  8
1
  6
CONTINUOUS
 62
     7
 10
-58.9859705503
 20
740.797993026
 30
0.0
 11
-33.2162480022
 21
742.1710780858
 31
0.0
  0
LINE
  5
17E
  8
1
  6
CONTINUOUS
 62
     7
 10
-422.5639458816
 20
742.1710825347
 30
0.0
 11
-422.6056827139
 21
742.1931692173
 31
0.0
  0
LINE
  5
17F
  8
1
  6
CONTINUOUS
 62
     7
 10
-422.6470533568
 20
742.1733205232
 30
0.0
 11
-423.4719864766
 21
742.1733205232
 31
0.0
  0
LINE
  5
180
  8
1
  6
CONTINUOUS
 62
     7
 10
-424.0063169483
 20
742.1733205232
 30
0.0
 11
-424.0288543805
 21
742.1733205232
 31
0.0
  0
LINE
  5
181
  8
1
  6
CONTINUOUS
 62
     7
 10
-258.4866888053
 20
742.1931760044
 30
0.0
 11
-258.5287987928
 21
742.1710825347
 31
0.0
  0
LINE
  5
182
  8
1
  6
CONTINUOUS
 62
     7
 10
-422.6165444375
 20
742.1919838211
 30
0.0
 11
-422.6473717467
 21
742.1730160357
 31
0.0
  0
LINE
  5
183
  8
1
  6
CONTINUOUS
 62
     7
 10
-417.0463723372
 20
742.1931797932
 30
0.0
 11
-422.6066167175
 21
742.1931797932
 31
0.0
  0
ARC
  5
184
  8
1
  6
CONTINUOUS
 62
     7
 10
244.6377829914
 20
627.533674541
 30
0.0
 40
324.0617722843
 50
159.8249183543
 51
180.752068779
  0
ARC
  5
185
  8
1
  6
CONTINUOUS
 62
     7
 10
-32.3862007516
 20
726.4213317158
 30
0.0
 40
15.6001382282
 50
272.9129585736
 51
0.0495170715000199
  0
ARC
  5
186
  8
1
  6
CONTINUOUS
 62
     7
 10
-257.2760876813
 20
740.6960741142
 30
0.0
 40
1.5194399952
 50
13.7774099849
 51
103.8908103058
  0
LINE
  5
187
  8
1
  6
CONTINUOUS
 62
     7
 10
-416.7345946911
 20
741.6548876855
 30
0.0
 11
-416.6116324177
 21
741.6089440574
 31
0.0
  0
LINE
  5
188
  8
1
  6
CONTINUOUS
 62
     7
 10
-417.0463723372
 20
742.1710780858
 30
0.0
 11
-423.4518814692
 21
742.1710780858
 31
0.0
  0
LINE
  5
189
  8
1
  6
CONTINUOUS
 62
     7
 10
-264.4490267407
 20
742.2006332106
 30
0.0
 11
-416.6437179337
 21
742.2006332106
 31
0.0
  0
ARC
  5
18A
  8
1
  6
CONTINUOUS
 62
     7
 10
-266.2696905309
 20
756.8537402238
 30
0.0
 40
15.3715939025
 50
268.9686459325001
 51
277.9864680619
  0
LINE
  5
18B
  8
1
  6
CONTINUOUS
 62
     7
 10
-254.6666874153
 20
460.3273174753
 30
0.0
 11
-254.5687974845
 21
460.4457480161
 31
0.0
  0
LINE
  5
18C
  8
1
  6
CONTINUOUS
 62
     7
 10
-264.3581499833
 20
741.6548876855
 30
0.0
 11
-264.3581499833
 21
741.5873035801
 31
0.0
  0
LINE
  5
18D
  8
1
  6
CONTINUOUS
 62
     7
 10
-424.0296230687
 20
742.1733339386
 30
0.0
 11
-423.4518814692
 21
742.1710780858
 31
0.0
  0
LINE
  5
18E
  8
1
  6
CONTINUOUS
 62
     7
 10
-422.6056827139
 20
742.1931692173
 30
0.0
 11
-422.6165444375
 21
742.1919838211
 31
0.0
  0
LINE
  5
18F
  8
1
  6
CONTINUOUS
 62
     7
 10
-264.4490267407
 20
742.2006332106
 30
0.0
 11
-264.3581499833
 21
741.6548876855
 31
0.0
  0
LINE
  5
190
  8
1
  6
CONTINUOUS
 62
     7
 10
-414.5463723372
 20
741.4846365973
 30
0.0
 11
-266.5463723372
 21
741.4846365973
 31
0.0
  0
LINE
  5
191
  8
1
  6
CONTINUOUS
 62
     7
 10
-264.1339732845
 20
741.6312367849
 30
0.0
 11
-264.0463723372
 21
741.6834296444
 31
0.0
  0
LINE
  5
192
  8
1
  6
CONTINUOUS
 62
     7
 10
-417.0463723372
 20
742.1931797932
 30
0.0
 11
-417.0463723372
 21
741.6834296444
 31
0.0
  0
LINE
  5
193
  8
1
  6
CONTINUOUS
 62
     7
 10
-258.4861296987
 20
742.1931797932
 30
0.0
 11
-264.0463723372
 21
742.1931797932
 31
0.0
  0
ARC
  5
194
  8
1
  6
CONTINUOUS
 62
     7
 10
-31.33928986
 20
705.8477346706
 30
0.0
 40
5.0000782221
 50
92.9133282857
 51
180.0491473594
  0
ARC
  5
195
  8
1
  6
CONTINUOUS
 62
     7
 10
-327.8570864956
 20
473.4845656026
 30
0.0
 40
99.4432258913
 50
177.429231528
 51
187.6030493837
  0
LINE
  5
196
  8
1
  6
CONTINUOUS
 62
     7
 10
-264.0463723372
 20
742.1931797932
 30
0.0
 11
-264.0463723372
 21
741.6834296444
 31
0.0
  0
LINE
  5
197
  8
1
  6
CONTINUOUS
 62
     7
 10
-253.8925136049
 20
477.9449245387
 30
0.0
 11
-255.2360908403
 21
623.3170402563
 31
0.0
  0
ARC
  5
198
  8
1
  6
CONTINUOUS
 62
     7
 10
-282.8626545737
 20
726.1783415347
 30
0.0
 40
143.2048492111
 50
174.035962376
 51
179.828579223
  0
LINE
  5
199
  8
1
  6
CONTINUOUS
 62
     7
 10
-417.0463723372
 20
741.6834296444
 30
0.0
 11
-416.9569363224
 21
741.6303083096
 31
0.0
  0
LINE
  5
19A
  8
1
  6
CONTINUOUS
 62
     7
 10
-267.3580357525
 20
741.4962923326
 30
0.0
 11
-413.7347089219
 21
741.4962923326
 31
0.0
  0
LINE
  5
19B
  8
1
  6
CONTINUOUS
 62
     7
 10
-36.2673483495
 20
623.3170402563
 30
0.0
 11
-36.3393662425
 21
705.8434456878
 31
0.0
  0
ARC
  5
19C
  8
1
  6
CONTINUOUS
 62
     7
 10
-423.9296902465
 20
740.7877091774
 30
0.0
 40
1.3892237212
 50
94.1250940313
 51
168.7837942591
  0
LINE
  5
19D
  8
1
  6
CONTINUOUS
 62
     7
 10
-416.7345946911
 20
741.6548876855
 30
0.0
 11
-416.6437179337
 21
742.2006332106
 31
0.0
  0
LINE
  5
19E
  8
1
  6
CONTINUOUS
 62
     7
 10
-257.6408632052
 20
742.1710780858
 30
0.0
 11
-264.0463723372
 21
742.1710780858
 31
0.0
  0
ARC
  5
19F
  8
1
  6
CONTINUOUS
 62
     7
 10
-371.8261985871
 20
473.7400055634
 30
0.0
 40
118.0086242487
 50
353.5316145227
 51
2.042012803299997
  0
ARC
  5
1A0
  8
1
  6
CONTINUOUS
 62
     7
 10
-266.9384324576
 20
765.8708128684
 30
0.0
 40
24.3781319686
 50
269.0137601537
 51
275.950201884
  0
LINE
  5
1A1
  8
1
  6
CONTINUOUS
 62
     7
 10
-264.4112967112
 20
741.6240212622
 30
0.0
 11
-264.3581499833
 21
741.6548876855
 31
0.0
  0
ARC
  5
1A2
  8
1
  6
CONTINUOUS
 62
     7
 10
-32.3867154327
 20
726.5928361505
 30
0.0
 40
15.6005032463
 50
0.0512456472
 51
68.005478218
  0
LINE
  5
1A3
  8
1
  6
CONTINUOUS
 62
     7
 10
-79.2538284474
 20
460.2801991724
 30
0.0
 11
-79.3960727634
 21
623.2801371066
 31
0.0
  0
LINE
  5
1A4
  8
1
  6
CONTINUOUS
 62
     7
 10
-10.5034965745
 20
477.9449245387
 30
0.0
 11
-36.2673483495
 21
623.3170402563
 31
0.0
  0
LINE
  5
1A5
  8
1
  6
CONTINUOUS
 62
     7
 10
-108.0538174812
 20
460.2550664344
 30
0.0
 11
-25.2602442281
 21
460.3273174753
 31
0.0
  0
ARC
  5
1A6
  8
1
  6
CONTINUOUS
 62
     7
 10
-342.2235572229
 20
280.5638607293
 30
0.0
 40
0.8917032844
 50
66.1806882983
 51
89.3051099048
  0
LINE
  5
1A7
  8
1
  6
CONTINUOUS
 62
     7
 10
-16.3295091271
 20
463.2873020108
 30
0.0
 11
-16.3278055204
 21
461.3351128814
 31
0.0
  0
LINE
  5
1A8
  8
1
  6
CONTINUOUS
 62
     7
 10
-406.2860087135
 20
357.3404922522
 30
0.0
 11
-423.5963723372
 21
329.2538284474
 31
0.0
  0
ARC
  5
1A9
  8
1
  6
CONTINUOUS
 62
     7
 10
-342.7982750549
 20
233.1789692859
 30
0.0
 40
48.2800798939
 50
89.30510990640002
 51
89.72931183480001
  0
LINE
  5
1AA
  8
1
  6
CONTINUOUS
 62
     7
 10
-364.5204004695
 20
280.6851099031
 30
0.0
 11
-364.5209991043
 21
281.2028072668
 31
0.0
  0
ARC
  5
1AB
  8
1
  6
CONTINUOUS
 62
     7
 10
-363.2944696195
 20
233.1789692858
 30
0.0
 40
48.2800798939
 50
90.2706881652
 51
90.6948900936
  0
ARC
  5
1AC
  8
1
  6
CONTINUOUS
 62
     7
 10
-363.8691874517
 20
280.5638607293
 30
0.0
 40
0.8917032843
 50
90.6948900795
 51
113.8193116861
  0
LINE
  5
1AD
  8
1
  6
CONTINUOUS
 62
     7
 10
-342.0247705759
 20
283.4842018701
 30
0.0
 11
-341.562096998
 21
283.2450774277
 31
0.0
  0
ARC
  5
1AE
  8
1
  6
CONTINUOUS
 62
     7
 10
-32.3861444051
 20
726.593469427
 30
0.0
 40
15.5997103662
 50
67.3382006752
 51
69.7264540859
  0
LINE
  5
1AF
  8
1
  6
CONTINUOUS
 62
     7
 10
-341.5723442049
 20
280.6851099032
 30
0.0
 11
-341.5543773381
 21
272.8426664064
 31
0.0
  0
LINE
  5
1B0
  8
1
  6
CONTINUOUS
 62
     7
 10
-17.326932475
 20
460.3342405976
 30
0.0
 11
-22.8395264002
 21
460.3294299507
 31
0.0
  0
ARC
  5
1B1
  8
1
  6
CONTINUOUS
 62
     7
 10
-88.6035679269
 20
729.5791112718
 30
0.0
 40
3.000012471
 50
117.8255814634
 51
162.2098893982
  0
LINE
  5
1B2
  8
1
  6
CONTINUOUS
 62
     7
 10
-46.0860624472
 20
741.4853372943
 30
0.0
 11
-46.0860624472
 21
741.4962923326
 31
0.0
  0
LINE
  5
1B3
  8
1
  6
CONTINUOUS
 62
     7
 10
-405.0080909819
 20
358.0538174812
 30
0.0
 11
-276.0846536925
 21
358.0538174812
 31
0.0
  0
LINE
  5
1B4
  8
1
  6
CONTINUOUS
 62
     7
 10
-423.5963723372
 20
329.2538284474
 30
0.0
 11
-423.5963723372
 21
329.3960727634
 31
0.0
  0
LINE
  5
1B5
  8
1
  6
CONTINUOUS
 62
     7
 10
-253.8738017853
 20
260.2733341958
 30
0.0
 11
-257.4963723372
 21
329.3960727634
 31
0.0
  0
ARC
  5
1B6
  8
1
  6
CONTINUOUS
 62
     7
 10
-364.482765323
 20
281.9537590223
 30
0.0
 40
0.6276041464
 50
277.3259010366
 51
293.8193117216
  0
ARC
  5
1B7
  8
1
  6
CONTINUOUS
 62
     7
 10
-364.3854048074
 20
281.1964577282
 30
0.0
 40
0.1359299524
 50
97.32590099769997
 51
177.3189417989
  0
LINE
  5
1B8
  8
1
  6
CONTINUOUS
 62
     7
 10
-364.5383673363
 20
272.8426664063
 30
0.0
 11
-364.5204004695
 21
280.6851099031
 31
0.0
  0
LINE
  5
1B9
  8
1
  6
CONTINUOUS
 62
     7
 10
-253.8809641752
 20
260.2812614579
 30
0.0
 11
-253.8925136049
 21
260.5034965745
 31
0.0
  0
LINE
  5
1BA
  8
1
  6
CONTINUOUS
 62
     7
 10
-315.0463723372
 20
358.0806763513
 30
0.0
 11
-366.0463723372
 21
358.0806763513
 31
0.0
  0
LINE
  5
1BB
  8
1
  6
CONTINUOUS
 62
     7
 10
-18.1160899355
 20
732.8918287852
 30
0.0
 11
33.2139375528
 21
732.4438784216
 31
0.0
  0
ARC
  5
1BC
  8
1
  6
CONTINUOUS
 62
     7
 10
-54.9954151848
 20
665.9042318181
 30
0.0
 40
75.0
 50
93.2242868528
 51
117.8254843027
  0
LINE
  5
1BD
  8
1
  6
CONTINUOUS
 62
     7
 10
-108.0538174812
 20
460.2550664344
 30
0.0
 11
-108.1960617972
 21
623.2550043686
 31
0.0
  0
LINE
  5
1BE
  8
1
  6
CONTINUOUS
 62
     7
 10
-46.0860624472
 20
741.4962923326
 30
0.0
 11
-46.0976340541
 21
741.4847207258
 31
0.0
  0
LINE
  5
1BF
  8
1
  6
CONTINUOUS
 62
     7
 10
-276.6260398673
 20
356.0761564374
 30
0.0
 11
-404.4667048071
 21
356.0761564374
 31
0.0
  0
LINE
  5
1C0
  8
1
  6
CONTINUOUS
 62
     7
 10
-405.3379727066
 20
355.6142962156
 30
0.0
 11
-421.0649667437
 21
329.4231188903
 31
0.0
  0
ARC
  5
1C1
  8
1
  6
CONTINUOUS
 62
     7
 10
241.8047132327
 20
623.5602951348
 30
0.0
 40
350.0009081959
 50
162.2100098829
 51
180.0419382316
  0
LINE
  5
1C2
  8
1
  6
CONTINUOUS
 62
     7
 10
-421.2088012546
 20
328.9538244782
 30
0.0
 11
-421.0649667437
 21
329.4231188903
 31
0.0
  0
ARC
  5
1C3
  8
1
  6
CONTINUOUS
 62
     7
 10
-22.8396013717
 20
460.4153409343
 30
0.0
 40
0.0859110163
 50
135.5637863913
 51
270.0499999809001
  0
LINE
  5
1C4
  8
1
  6
CONTINUOUS
 62
     7
 10
-421.2088012546
 20
328.9538244782
 30
0.0
 11
-424.0227636287
 21
275.2602442281
 31
0.0
  0
ARC
  5
1C5
  8
1
  6
CONTINUOUS
 62
     7
 10
-405.0082037607
 20
356.5526660571
 30
0.0
 40
1.5011514284
 50
89.9956954715
 51
148.344236555
  0
ARC
  5
1C6
  8
1
  6
CONTINUOUS
 62
     7
 10
-276.0845009118
 20
356.5527377202
 30
0.0
 40
1.5010797688
 50
31.65423637909999
 51
90.0058315944
  0
ARC
  5
1C7
  8
1
  6
CONTINUOUS
 62
     7
 10
-32.3861444051
 20
726.593469427
 30
0.0
 40
15.5997103662
 50
60.84546929290001
 51
61.50346180089999
  0
LINE
  5
1C8
  8
1
  6
CONTINUOUS
 62
     7
 10
33.2139375528
 20
732.4438784216
 30
0.0
 11
33.2139375528
 21
474.3986968067
 31
0.0
  0
LINE
  5
1C9
  8
1
  6
CONTINUOUS
 62
     7
 10
-274.8067359609
 20
357.3404922522
 30
0.0
 11
-257.4963723372
 21
329.2538284474
 31
0.0
  0
LINE
  5
1CA
  8
1
  6
CONTINUOUS
 62
     7
 10
-257.0699810457
 20
275.2602442281
 30
0.0
 11
-254.6666874153
 21
275.2602442281
 31
0.0
  0
LINE
  5
1CB
  8
1
  6
CONTINUOUS
 62
     7
 10
-260.0277779308
 20
329.4231188902
 30
0.0
 11
-259.8839434198
 21
328.9538244781
 31
0.0
  0
LINE
  5
1CC
  8
1
  6
CONTINUOUS
 62
     7
 10
-426.4260572591
 20
275.2602442281
 30
0.0
 11
-424.0227636287
 21
275.2602442281
 31
0.0
  0
LINE
  5
1CD
  8
1
  6
CONTINUOUS
 62
     7
 10
-32.6464378793
 20
742.2006332106
 30
0.0
 11
-46.0860624473
 21
741.4962923337
 31
0.0
  0
ARC
  5
1CE
  8
1
  6
CONTINUOUS
 62
     7
 10
-32.3862124862
 20
726.5931757545
 30
0.0
 40
15.6
 50
68.0067238652
 51
93.05
  0
LINE
  5
1CF
  8
1
  6
CONTINUOUS
 62
     7
 10
-410.5955653834
 20
358.1960617972
 30
0.0
 11
-270.497179291
 21
358.1960617972
 31
0.0
  0
LINE
  5
1D0
  8
1
  6
CONTINUOUS
 62
     7
 10
-314.4179215658
 20
358.0668076516
 30
0.0
 11
-366.6748231086
 21
358.0668076516
 31
0.0
  0
LINE
  5
1D1
  8
1
  6
CONTINUOUS
 62
     7
 10
-315.0463723372
 20
358.0806763513
 30
0.0
 11
-314.4179215658
 21
358.0668076516
 31
0.0
  0
ARC
  5
1D2
  8
1
  6
CONTINUOUS
 62
     7
 10
-276.619558114
 20
355.0356598925
 30
0.0
 40
1.0405167337
 50
33.7868426291
 51
90.3569183444
  0
LINE
  5
1D3
  8
1
  6
CONTINUOUS
 62
     7
 10
-257.4963723372
 20
329.2538284474
 30
0.0
 11
-257.4963723372
 21
329.3960727634
 31
0.0
  0
LINE
  5
1D4
  8
1
  6
CONTINUOUS
 62
     7
 10
-269.1116363054
 20
357.2726956725
 30
0.0
 11
-269.1132795596
 21
357.2727258992
 31
0.0
  0
LINE
  5
1D5
  8
1
  6
CONTINUOUS
 62
     7
 10
-425.8566538341
 20
286.2673483495
 30
0.0
 11
-423.5963723372
 21
329.3960727634
 31
0.0
  0
LINE
  5
1D6
  8
1
  6
CONTINUOUS
 62
     7
 10
-259.8839434198
 20
328.9538244781
 30
0.0
 11
-257.0699810457
 21
275.2602442281
 31
0.0
  0
LINE
  5
1D7
  8
1
  6
CONTINUOUS
 62
     7
 10
-275.7547719678
 20
355.6142962156
 30
0.0
 11
-260.0277779308
 21
329.4231188902
 31
0.0
  0
LINE
  5
1D8
  8
1
  6
CONTINUOUS
 62
     7
 10
-366.6748231086
 20
358.0668076516
 30
0.0
 11
-366.0463723372
 21
358.0806763513
 31
0.0
  0
ARC
  5
1D9
  8
1
  6
CONTINUOUS
 62
     7
 10
-32.7860624472
 20
726.2012424416
 30
0.0
 40
16.0
 50
88.4742354213
 51
89.5
  0
ARC
  5
1DA
  8
1
  6
CONTINUOUS
 62
     7
 10
-23.0496211913
 20
460.6212677364
 30
0.0
 40
0.2082218999
 50
315.5637864636
 51
335.642925471
  0
ARC
  5
1DB
  8
1
  6
CONTINUOUS
 62
     7
 10
-17.3278051395
 20
461.3342402169
 30
0.0
 40
1.0
 50
270.0500000000001
 51
0.0500000000000114
  0
LINE
  5
1DC
  8
1
  6
CONTINUOUS
 62
     7
 10
33.2139375528
 20
474.3986968067
 30
0.0
 11
-10.3324157275
 21
474.0186735389
 31
0.0
  0
LINE
  5
1DD
  8
1
  6
CONTINUOUS
 62
     7
 10
-425.8566538341
 20
286.2673483495
 30
0.0
 11
-427.2002310695
 21
260.5034965745
 31
0.0
  0
LINE
  5
1DE
  8
1
  6
CONTINUOUS
 62
     7
 10
-341.5717455701
 20
281.2028072669
 30
0.0
 11
-341.5723442049
 21
280.6851099032
 31
0.0
  0
LINE
  5
1DF
  8
1
  6
CONTINUOUS
 62
     7
 10
-43.0598828407
 20
741.6548876855
 30
0.0
 11
-43.0598828407
 21
741.6465808622
 31
0.0
  0
ARC
  5
1E0
  8
1
  6
CONTINUOUS
 62
     7
 10
-341.707339867
 20
281.1964577283
 30
0.0
 40
0.1359299524
 50
2.681058201
 51
82.6740990025
  0
ARC
  5
1E1
  8
1
  6
CONTINUOUS
 62
     7
 10
-404.4702499324
 20
355.0301201435
 30
0.0
 40
1.0460423013
 50
89.8058194146
 51
146.0504196105
  0
LINE
  5
1E2
  8
1
  6
CONTINUOUS
 62
     7
 10
-363.5213444027
 20
281.4585159425
 30
0.0
 11
-342.5714002717
 21
281.4585159426
 31
0.0
  0
ARC
  5
1E3
  8
1
  6
CONTINUOUS
 62
     7
 10
-341.6099793517
 20
281.9537590223
 30
0.0
 40
0.6276041463
 50
246.180688309
 51
262.6740989941
  0
LINE
  5
1E4
  8
1
  6
CONTINUOUS
 62
     7
 10
-427.2002310695
 20
260.5034965745
 30
0.0
 11
-427.2121457118
 21
260.2739896404
 31
0.0
  0
ARC
  5
1E5
  8
1
  6
CONTINUOUS
 62
     7
 10
-358.0368686645
 20
272.8314513849
 30
0.0
 40
6.50364588
 50
247.931769692
 51
268.091445741
  0
LINE
  5
1E6
  8
1
  6
CONTINUOUS
 62
     7
 10
-348.0559029797
 20
266.3278055203
 30
0.0
 11
-358.0368416946
 21
266.3278055202
 31
0.0
  0
ARC
  5
1E7
  8
1
  6
CONTINUOUS
 62
     7
 10
-335.1568166231
 20
291.87557722
 30
0.0
 40
6.8087830022
 50
186.4073119354
 51
191.839919829
  0
ARC
  5
1E8
  8
1
  6
CONTINUOUS
 62
     7
 10
-353.3696871068
 20
288.0574650961
 30
0.0
 40
11.7999953416
 50
1.9388308169
 51
11.8399198255
  0
ARC
  5
1E9
  8
1
  6
CONTINUOUS
 62
     7
 10
-394.4581836465
 20
286.6665412827
 30
0.0
 40
52.9120278497
 50
359.8991916296001
 51
1.938830815000017
  0
ARC
  5
1EA
  8
1
  6
CONTINUOUS
 62
     7
 10
-343.3666338301
 20
283.1683891544
 30
0.0
 40
1.4156058997
 50
6.407311914099999
 51
13.2459648982
  0
ARC
  5
1EB
  8
1
  6
CONTINUOUS
 62
     7
 10
-335.1936170451
 20
284.086196029
 30
0.0
 40
6.8087830032
 50
186.407311934
 51
191.8399198276
  0
ARC
  5
1EC
  8
1
  6
CONTINUOUS
 62
     7
 10
-353.4064875645
 20
280.2680838978
 30
0.0
 40
11.7999953769
 50
9.3344610621
 51
11.8399198258
  0
ARC
  5
1ED
  8
1
  6
CONTINUOUS
 62
     7
 10
-348.0558334861
 20
272.8292894745
 30
0.0
 40
6.5017801467
 50
314.5736291500999
 51
337.0682286952999
  0
ARC
  5
1EE
  8
1
  6
CONTINUOUS
 62
     7
 10
-348.0522563341
 20
272.827776088
 30
0.0
 40
6.497896031
 50
337.0682286973
 51
359.5764499624
  0
ARC
  5
1EF
  8
1
  6
CONTINUOUS
 62
     7
 10
-343.3298334092
 20
290.9577703447
 30
0.0
 40
1.415605902
 50
6.4073119289
 51
32.7589309393
  0
LINE
  5
1F0
  8
1
  6
CONTINUOUS
 62
     7
 10
-424.0227636287
 20
275.2602442281
 30
0.0
 11
-424.8088800173
 21
260.2733341959
 31
0.0
  0
ARC
  5
1F1
  8
1
  6
CONTINUOUS
 62
     7
 10
-358.04048834
 20
272.827776088
 30
0.0
 40
6.4978960313
 50
180.4235500372
 51
202.9317713023
  0
LINE
  5
1F2
  8
1
  6
CONTINUOUS
 62
     7
 10
-341.5717455701
 20
281.2028072669
 30
0.0
 11
-341.5711577694
 21
281.3272080369
 31
0.0
  0
ARC
  5
1F3
  8
1
  6
CONTINUOUS
 62
     7
 10
-348.0558760097
 20
272.8314513832
 30
0.0
 40
6.5036458783
 50
271.9085414836999
 51
292.0682303133
  0
ARC
  5
1F4
  8
1
  6
CONTINUOUS
 62
     7
 10
-358.0383282284
 20
272.8278511858
 30
0.0
 40
6.4997610684
 50
225.4263708506
 51
247.9317696882
  0
ARC
  5
1F5
  8
1
  6
CONTINUOUS
 62
     7
 10
-348.0544164459
 20
272.8278511859
 30
0.0
 40
6.4997610684
 50
292.0682303118001
 51
314.5736291494
  0
LINE
  5
1F6
  8
1
  6
CONTINUOUS
 62
     7
 10
-256.2838646545
 20
260.2733341959
 30
0.0
 11
-257.0699810457
 21
275.2602442281
 31
0.0
  0
ARC
  5
1F7
  8
1
  6
CONTINUOUS
 62
     7
 10
-358.0369111883
 20
272.8292894746
 30
0.0
 40
6.5017801468
 50
202.9317713066
 51
225.4263708518
  0
ARC
  5
1F8
  8
1
  6
CONTINUOUS
 62
     7
 10
-358.0368686649
 20
272.8314513827
 30
0.0
 40
6.5036458777
 50
268.0914457443
 51
270.0002376026
  0
LINE
  5
1F9
  8
1
  6
CONTINUOUS
 62
     7
 10
-341.5711577694
 20
281.3272080369
 30
0.0
 11
-341.781037447
 21
282.1790048076
 31
0.0
  0
ARC
  5
1FA
  8
1
  6
CONTINUOUS
 62
     7
 10
-348.0558760094
 20
272.8314513827
 30
0.0
 40
6.5036458777
 50
269.9997623979
 51
271.9085414811
  0
ARC
  5
1FB
  8
1
  6
CONTINUOUS
 62
     7
 10
-342.5212495355
 20
291.8980474144
 30
0.0
 40
0.2642240041
 50
20.6733536606
 51
89.7333834468
  0
ARC
  5
1FC
  8
1
  6
CONTINUOUS
 62
     7
 10
-340.9429234827
 20
292.4936084442
 30
0.0
 40
1.4227277051
 50
200.6733536557
 51
212.7589309522
  0
LINE
  5
1FD
  8
1
  6
CONTINUOUS
 62
     7
 10
-376.6790652809
 20
285.2860624472
 30
0.0
 11
-376.9672915481
 21
286.2860624472
 31
0.0
  0
LINE
  5
1FE
  8
1
  6
CONTINUOUS
 62
     7
 10
-400.0828338868
 20
295.558437225
 30
0.0
 11
-399.334887377
 21
289.8772194471
 31
0.0
  0
LINE
  5
1FF
  8
1
  6
CONTINUOUS
 62
     7
 10
-284.7505745364
 20
287.2526486161
 30
0.0
 11
-311.342170138
 21
287.2526486161
 31
0.0
  0
ARC
  5
200
  8
1
  6
CONTINUOUS
 62
     7
 10
-311.342170138
 20
290.2860624472
 30
0.0
 40
4.0
 50
187.5
 51
270.0
  0
LINE
  5
201
  8
1
  6
CONTINUOUS
 62
     7
 10
-374.1254531263
 20
286.2860624472
 30
0.0
 11
-373.9641981984
 21
286.2860624472
 31
0.0
  0
ARC
  5
202
  8
1
  6
CONTINUOUS
 62
     7
 10
-385.5463727225
 20
254.2772905975
 30
0.0
 40
0.5000259015
 50
67.5013167592
 51
112.4986832408
  0
LINE
  5
203
  8
1
  6
CONTINUOUS
 62
     7
 10
-374.412397741
 20
286.8919439219
 30
0.0
 11
-374.1254531263
 21
286.2860624472
 31
0.0
  0
LINE
  5
204
  8
1
  6
CONTINUOUS
 62
     7
 10
-291.9672915481
 20
286.2860624472
 30
0.0
 11
-291.6803469334
 21
286.8919439219
 31
0.0
  0
LINE
  5
205
  8
1
  6
CONTINUOUS
 62
     7
 10
-416.0689631446
 20
216.7860624472
 30
0.0
 11
-416.6300514843
 21
281.0804178972
 31
0.0
  0
LINE
  5
206
  8
1
  6
CONTINUOUS
 62
     7
 10
-306.9672915481
 20
286.2860624472
 30
0.0
 11
-311.342170138
 21
286.2860624472
 31
0.0
  0
ARC
  5
207
  8
1
  6
CONTINUOUS
 62
     7
 10
-284.7505745364
 20
290.2860624472
 30
0.0
 40
4.0
 50
270.0
 51
352.5
  0
ARC
  5
208
  8
1
  6
CONTINUOUS
 62
     7
 10
-284.7506582874
 20
290.2714030425
 30
0.0
 40
3.0187544275
 50
270.0015895899999
 51
350.3293763311
  0
ARC
  5
209
  8
1
  6
CONTINUOUS
 62
     7
 10
-385.546327786
 20
254.2773355374
 30
0.0
 40
0.4999550635
 50
337.4986832292
 51
22.50131680250001
  0
ARC
  5
20A
  8
1
  6
CONTINUOUS
 62
     7
 10
-295.546371228
 20
254.2773538521
 30
0.0
 40
0.5000029192
 50
314.99954817
 51
337.4986832219
  0
LINE
  5
20B
  8
1
  6
CONTINUOUS
 62
     7
 10
-353.0463723372
 20
216.7860624472
 30
0.0
 11
-416.0689631446
 21
216.7860624472
 31
0.0
  0
ARC
  5
20C
  8
1
  6
CONTINUOUS
 62
     7
 10
-311.3422334443
 20
290.271113467
 30
0.0
 40
3.0184648515
 50
187.498186852
 51
270.0012016643
  0
ARC
  5
20D
  8
1
  6
CONTINUOUS
 62
     7
 10
-396.342170138
 20
290.2860624472
 30
0.0
 40
4.0
 50
187.5
 51
270.0
  0
LINE
  5
20E
  8
1
  6
CONTINUOUS
 62
     7
 10
-391.6803469334
 20
286.8919439219
 30
0.0
 11
-391.9672915481
 21
286.2860624472
 31
0.0
  0
LINE
  5
20F
  8
1
  6
CONTINUOUS
 62
     7
 10
-376.6803469334
 20
286.8919439219
 30
0.0
 11
-374.412397741
 21
286.8919439219
 31
0.0
  0
LINE
  5
210
  8
1
  6
CONTINUOUS
 62
     7
 10
-291.6803469334
 20
286.8919439219
 30
0.0
 11
-289.412397741
 21
286.8919439219
 31
0.0
  0
LINE
  5
211
  8
1
  6
CONTINUOUS
 62
     7
 10
-401.0708072881
 20
295.558437225
 30
0.0
 11
-400.3079495835
 21
289.7639576784
 31
0.0
  0
LINE
  5
212
  8
1
  6
CONTINUOUS
 62
     7
 10
-280.0219373863
 20
295.558437225
 30
0.0
 11
-280.7847950909
 21
289.7639576784
 31
0.0
  0
LINE
  5
213
  8
1
  6
CONTINUOUS
 62
     7
 10
-291.9672915481
 20
286.2860624472
 30
0.0
 11
-304.1254531263
 21
286.2860624472
 31
0.0
  0
LINE
  5
214
  8
1
  6
CONTINUOUS
 62
     7
 10
-304.1254531263
 20
286.2860624472
 30
0.0
 11
-304.412397741
 21
286.8919439219
 31
0.0
  0
CIRCLE
  5
215
  8
1
  6
CONTINUOUS
 62
     7
 10
-385.5469651654
 20
254.2696638774
 30
0.0
 40
12.6732421694
  0
ARC
  5
216
  8
1
  6
CONTINUOUS
 62
     7
 10
-385.5463544094
 20
254.2773348122
 30
0.0
 40
0.4999780444
 50
45.0004518572
 51
67.501316756
  0
CIRCLE
  5
217
  8
1
  6
CONTINUOUS
 62
     7
 10
-295.5462342854
 20
254.2695208232
 30
0.0
 40
12.6727874298
  0
ARC
  5
218
  8
1
  6
CONTINUOUS
 62
     7
 10
-295.5463719519
 20
254.2773804775
 30
0.0
 40
0.5000259015
 50
247.5013167592
 51
292.4986832408001
  0
CIRCLE
  5
219
  8
1
  6
CONTINUOUS
 62
     7
 10
-330.545910347
 20
250.2715470971
 30
0.0
 40
9.4231114528
  0
LINE
  5
21A
  8
1
  6
CONTINUOUS
 62
     7
 10
-304.412397741
 20
286.8919439219
 30
0.0
 11
-306.6803469334
 21
286.8919439219
 31
0.0
  0
ARC
  5
21B
  8
1
  6
CONTINUOUS
 62
     7
 10
-330.5463712279
 20
250.27750616
 30
0.0
 40
0.5000029193
 50
314.9995481456
 51
337.4986831973999
  0
ARC
  5
21C
  8
1
  6
CONTINUOUS
 62
     7
 10
-330.5463270153
 20
250.2774878451
 30
0.0
 40
0.4999550634
 50
337.4986832263
 51
0.0000000218000196
  0
LINE
  5
21D
  8
1
  6
CONTINUOUS
 62
     7
 10
-376.9672915481
 20
286.2860624472
 30
0.0
 11
-376.6803469334
 21
286.8919439219
 31
0.0
  0
LINE
  5
21E
  8
1
  6
CONTINUOUS
 62
     7
 10
-389.1254531263
 20
286.2860624472
 30
0.0
 11
-389.412397741
 21
286.8919439219
 31
0.0
  0
LINE
  5
21F
  8
1
  6
CONTINUOUS
 62
     7
 10
-389.1254531263
 20
286.2860624472
 30
0.0
 11
-376.9672915481
 21
286.2860624472
 31
0.0
  0
LINE
  5
220
  8
1
  6
CONTINUOUS
 62
     7
 10
-289.6949396198
 20
285.2860624472
 30
0.0
 11
-289.412397741
 21
286.8919439219
 31
0.0
  0
LINE
  5
221
  8
1
  6
CONTINUOUS
 62
     7
 10
-289.4136793936
 20
285.2860624472
 30
0.0
 11
-289.1254531263
 21
286.2860624472
 31
0.0
  0
LINE
  5
222
  8
1
  6
CONTINUOUS
 62
     7
 10
-291.9672915481
 20
286.2860624472
 30
0.0
 11
-291.6790652809
 21
285.2860624472
 31
0.0
  0
LINE
  5
223
  8
1
  6
CONTINUOUS
 62
     7
 10
-291.6803469334
 20
286.8919439219
 30
0.0
 11
-291.3978050546
 21
285.2860624472
 31
0.0
  0
LINE
  5
224
  8
1
  6
CONTINUOUS
 62
     7
 10
-374.1254531263
 20
286.2860624472
 30
0.0
 11
-374.4136793936
 21
285.2860624472
 31
0.0
  0
CIRCLE
  5
225
  8
1
  6
CONTINUOUS
 62
     7
 10
-330.5464571657
 20
250.2721049434
 30
0.0
 40
10.5785250635
  0
LINE
  5
226
  8
1
  6
CONTINUOUS
 62
     7
 10
-264.4626931901
 20
281.0804178977
 30
0.0
 11
-265.0237815298
 21
216.7860624472
 31
0.0
  0
LINE
  5
227
  8
1
  6
CONTINUOUS
 62
     7
 10
-284.7505745364
 20
286.2860624472
 30
0.0
 11
-289.1254531263
 21
286.2860624472
 31
0.0
  0
ARC
  5
228
  8
1
  6
CONTINUOUS
 62
     7
 10
-330.5463536388
 20
250.2774885706
 30
0.0
 40
0.4999780444
 50
292.4986832440001
 51
314.9995481428
  0
LINE
  5
229
  8
1
  6
CONTINUOUS
 62
     7
 10
-281.0099107876
 20
295.558437225
 30
0.0
 11
-281.7727684921
 21
289.7639576784
 31
0.0
  0
LINE
  5
22A
  8
1
  6
CONTINUOUS
 62
     7
 10
-374.6949396198
 20
285.2860624472
 30
0.0
 11
-374.412397741
 21
286.8919439219
 31
0.0
  0
CIRCLE
  5
22B
  8
1
  6
CONTINUOUS
 62
     7
 10
-385.5463371766
 20
254.2718249147
 30
0.0
 40
13.8285751897
  0
ARC
  5
22C
  8
1
  6
CONTINUOUS
 62
     7
 10
-385.5463719986
 20
254.277317223
 30
0.0
 40
0.5000029192
 50
22.5013167781
 51
45.00045183
  0
ARC
  5
22D
  8
1
  6
CONTINUOUS
 62
     7
 10
-295.546353639
 20
254.2773362629
 30
0.0
 40
0.4999780445
 50
292.4986832684
 51
314.9995481672
  0
ARC
  5
22E
  8
1
  6
CONTINUOUS
 62
     7
 10
-330.5463719521
 20
250.2775327853
 30
0.0
 40
0.5000259016
 50
247.5013167727
 51
292.4986832696001
  0
LINE
  5
22F
  8
1
  6
CONTINUOUS
 62
     7
 10
-315.3079530322
 20
289.7639838733
 30
0.0
 11
-316.0708072881
 21
295.558437225
 31
0.0
  0
LINE
  5
230
  8
1
  6
CONTINUOUS
 62
     7
 10
-396.342170138
 20
287.2526486161
 30
0.0
 11
-374.1346204726
 21
287.2526486161
 31
0.0
  0
LINE
  5
231
  8
1
  6
CONTINUOUS
 62
     7
 10
-314.334887377
 20
289.8772194471
 30
0.0
 11
-315.0828338868
 21
295.558437225
 31
0.0
  0
LINE
  5
232
  8
1
  6
CONTINUOUS
 62
     7
 10
-396.342170138
 20
286.2860624472
 30
0.0
 11
-391.9672915481
 21
286.2860624472
 31
0.0
  0
LINE
  5
233
  8
1
  6
CONTINUOUS
 62
     7
 10
-289.412397741
 20
286.8919439219
 30
0.0
 11
-289.1254531263
 21
286.2860624472
 31
0.0
  0
LINE
  5
234
  8
1
  6
CONTINUOUS
 62
     7
 10
-389.412397741
 20
286.8919439219
 30
0.0
 11
-391.6803469334
 21
286.8919439219
 31
0.0
  0
ARC
  5
235
  8
1
  6
CONTINUOUS
 62
     7
 10
-295.5463270151
 20
254.2773355376
 30
0.0
 40
0.4999550632
 50
337.4986831918
 51
0.0
  0
ARC
  5
236
  8
1
  6
CONTINUOUS
 62
     7
 10
-396.3422330387
 20
290.2711139295
 30
0.0
 40
3.018465314
 50
187.4981945514
 51
270.0011939649
  0
LINE
  5
237
  8
1
  6
CONTINUOUS
 62
     7
 10
-306.6803469334
 20
286.8919439219
 30
0.0
 11
-306.9672915481
 21
286.2860624472
 31
0.0
  0
LINE
  5
238
  8
1
  6
CONTINUOUS
 62
     7
 10
-376.6803469334
 20
286.8919439219
 30
0.0
 11
-376.3978050546
 21
285.2860624472
 31
0.0
  0
LINE
  5
239
  8
1
  6
CONTINUOUS
 62
     7
 10
-284.7505745364
 20
283.7860624472
 30
0.0
 11
-311.342170138
 21
283.7860624472
 31
0.0
  0
LINE
  5
23A
  8
1
  6
CONTINUOUS
 62
     7
 10
-341.5563319829
 20
269.7233334984
 30
0.0
 11
-341.5560143866
 21
271.8082826315
 31
0.0
  0
ARC
  5
23B
  8
1
  6
CONTINUOUS
 62
     7
 10
-396.3422105605
 20
290.2860163542
 30
0.0
 40
6.4999539071
 50
187.4996436839
 51
270.0003563161
  0
ARC
  5
23C
  8
1
  6
CONTINUOUS
 62
     7
 10
-338.5683075516
 20
269.6194235915
 30
0.0
 40
1.4443687361
 50
262.7488900959
 51
270.2037647261
  0
ARC
  5
23D
  8
1
  6
CONTINUOUS
 62
     7
 10
-338.4526346642
 20
269.7040088545
 30
0.0
 40
1.6040703922
 50
179.7772788101
 51
194.285656819
  0
ARC
  5
23E
  8
1
  6
CONTINUOUS
 62
     7
 10
-396.342178187
 20
290.2860532691
 30
0.0
 40
4.9999908219
 50
187.4999077651
 51
270.0000922349
  0
ARC
  5
23F
  8
1
  6
CONTINUOUS
 62
     7
 10
-338.5583159061
 20
269.6770992168
 30
0.0
 40
1.4950169489
 50
194.2856568259
 51
217.4143314181
  0
LINE
  5
240
  8
1
  6
CONTINUOUS
 62
     7
 10
-340.5463723372
 20
218.7860624472
 30
0.0
 11
-353.0463723372
 21
216.7860624472
 31
0.0
  0
LINE
  5
241
  8
1
  6
CONTINUOUS
 62
     7
 10
-403.3590421234
 20
293.7860624472
 30
0.0
 11
-402.786561737
 21
289.4376421978
 31
0.0
  0
LINE
  5
242
  8
1
  6
CONTINUOUS
 62
     7
 10
-340.0565604401
 20
269.7102436951
 30
0.0
 11
-339.9252165115
 21
270.7008877474
 31
0.0
  0
LINE
  5
243
  8
1
  6
CONTINUOUS
 62
     7
 10
-317.786561737
 20
289.4376421978
 30
0.0
 11
-318.3590421234
 21
293.7860624472
 31
0.0
  0
LINE
  5
244
  8
1
  6
CONTINUOUS
 62
     7
 10
-340.012195454
 20
272.0360624472
 30
0.0
 11
-339.9772853242
 21
272.0360624472
 31
0.0
  0
LINE
  5
245
  8
1
  6
CONTINUOUS
 62
     7
 10
-277.733702551
 20
293.7860624472
 30
0.0
 11
-275.286550098
 21
293.7860624472
 31
0.0
  0
LINE
  5
246
  8
1
  6
CONTINUOUS
 62
     7
 10
-279.7933502295
 20
289.6334314861
 30
0.0
 11
-279.0133084258
 21
295.558437225
 31
0.0
  0
ARC
  5
247
  8
1
  6
CONTINUOUS
 62
     7
 10
-332.3082192803
 20
276.2319534053
 30
0.0
 40
8.3939101805
 50
178.4034957467
 51
202.6266991674
  0
ARC
  5
248
  8
1
  6
CONTINUOUS
 62
     7
 10
-354.0287426744
 20
281.6318699333
 30
0.0
 40
14.2959301463
 50
338.815916859
 51
347.8088982705
  0
LINE
  5
249
  8
1
  6
CONTINUOUS
 62
     7
 10
-403.3590421234
 20
293.7860624472
 30
0.0
 11
-405.8061945765
 21
293.7860624472
 31
0.0
  0
ARC
  5
24A
  8
1
  6
CONTINUOUS
 62
     7
 10
-311.3421741171
 20
290.28605791
 30
0.0
 40
4.9999954628
 50
187.4999544034
 51
270.0000455966
  0
ARC
  5
24B
  8
1
  6
CONTINUOUS
 62
     7
 10
-338.5683075512
 20
269.6194235928
 30
0.0
 40
1.4443687374
 50
239.262902273
 51
262.7488900851
  0
ARC
  5
24C
  8
1
  6
CONTINUOUS
 62
     7
 10
-311.3420414418
 20
290.2862091972
 30
0.0
 40
6.5001467512
 50
187.5011343976
 51
269.9988656024
  0
LINE
  5
24D
  8
1
  6
CONTINUOUS
 62
     7
 10
-317.0794362487
 20
295.558437225
 30
0.0
 11
-316.2993944449
 21
289.6334314861
 31
0.0
  0
ARC
  5
24E
  8
1
  6
CONTINUOUS
 62
     7
 10
-338.5580170228
 20
269.7018956191
 30
0.0
 40
2.9958231991
 50
195.0441417223
 51
217.7674362343
  0
LINE
  5
24F
  8
1
  6
CONTINUOUS
 62
     7
 10
-332.815667423
 20
293.8476729562
 30
0.0
 11
-323.8770772515
 21
293.8476729562
 31
0.0
  0
LINE
  5
250
  8
1
  6
CONTINUOUS
 62
     7
 10
-340.0560589216
 20
273.0026022304
 30
0.0
 11
-340.012195454
 21
272.0360624472
 31
0.0
  0
LINE
  5
251
  8
1
  6
CONTINUOUS
 62
     7
 10
-320.8463723372
 20
293.7860624472
 30
0.0
 11
-320.8463723372
 21
295.558437225
 31
0.0
  0
LINE
  5
252
  8
1
  6
CONTINUOUS
 62
     7
 10
-402.0794362487
 20
295.558437225
 30
0.0
 11
-401.2993944449
 21
289.6334314861
 31
0.0
  0
LINE
  5
253
  8
1
  6
CONTINUOUS
 62
     7
 10
-332.815667423
 20
293.8476729562
 30
0.0
 11
-335.8114641323
 21
293.7976584537
 31
0.0
  0
LINE
  5
254
  8
1
  6
CONTINUOUS
 62
     7
 10
-338.5631704346
 20
268.1749445102
 30
0.0
 11
-333.8463723372
 21
268.1749445102
 31
0.0
  0
ARC
  5
255
  8
1
  6
CONTINUOUS
 62
     7
 10
-284.7504967708
 20
290.2859737726
 30
0.0
 40
4.9999113259
 50
269.999108856
 51
352.500891144
  0
ARC
  5
256
  8
1
  6
CONTINUOUS
 62
     7
 10
-338.5615983683
 20
281.9071924273
 30
0.0
 40
2.9692800537
 50
89.9769108157
 51
96.1576253822
  0
LINE
  5
257
  8
1
  6
CONTINUOUS
 62
     7
 10
-277.733702551
 20
293.7860624472
 30
0.0
 11
-278.3061829374
 21
289.4376421978
 31
0.0
  0
ARC
  5
258
  8
1
  6
CONTINUOUS
 62
     7
 10
-338.5137320166
 20
269.7112038478
 30
0.0
 40
1.5511493733
 50
217.4143314102
 51
239.2629022692
  0
LINE
  5
259
  8
1
  6
CONTINUOUS
 62
     7
 10
-335.8463723372
 20
293.7860624472
 30
0.0
 11
-335.8114641323
 21
293.7976584537
 31
0.0
  0
ARC
  5
25A
  8
1
  6
CONTINUOUS
 62
     7
 10
-447.3632351351
 20
275.7860624472
 30
0.0
 40
107.4514063044
 50
358.0
 51
2.0
  0
LINE
  5
25B
  8
1
  6
CONTINUOUS
 62
     7
 10
-335.8463723372
 20
295.558437225
 30
0.0
 11
-335.8463723372
 21
293.7860624472
 31
0.0
  0
ARC
  5
25C
  8
1
  6
CONTINUOUS
 62
     7
 10
-338.5645104505
 20
269.6610457807
 30
0.0
 40
2.9600971744
 50
240.0413382973
 51
262.8848275358
  0
ARC
  5
25D
  8
1
  6
CONTINUOUS
 62
     7
 10
-338.5645104504
 20
269.6610457769
 30
0.0
 40
2.9600971707
 50
262.8848275256
 51
270.0259366915
  0
LINE
  5
25E
  8
1
  6
CONTINUOUS
 62
     7
 10
-339.9772853242
 20
279.5360624472
 30
0.0
 11
-340.012195454
 21
279.5360624472
 31
0.0
  0
LINE
  5
25F
  8
1
  6
CONTINUOUS
 62
     7
 10
-333.8463723372
 20
266.7008670214
 30
0.0
 11
-338.5631704346
 21
266.7008670214
 31
0.0
  0
LINE
  5
260
  8
1
  6
CONTINUOUS
 62
     7
 10
-338.5604017676
 20
284.876555178
 30
0.0
 11
-333.8463723372
 21
284.876555178
 31
0.0
  0
LINE
  5
261
  8
1
  6
CONTINUOUS
 62
     7
 10
-340.012195454
 20
279.5360624472
 30
0.0
 11
-340.0552043075
 21
278.6129555166
 31
0.0
  0
LINE
  5
262
  8
1
  6
CONTINUOUS
 62
     7
 10
-265.0237815298
 20
216.7860624472
 30
0.0
 11
-328.0463723372
 21
216.7860624472
 31
0.0
  0
LINE
  5
263
  8
1
  6
CONTINUOUS
 62
     7
 10
-328.0463723372
 20
216.7860624472
 30
0.0
 11
-340.5463723372
 21
218.7860624472
 31
0.0
  0
LINE
  5
264
  8
1
  6
CONTINUOUS
 62
     7
 10
-396.342170138
 20
283.7860624472
 30
0.0
 11
-373.5234142319
 21
283.7860624472
 31
0.0
  0
ARC
  5
265
  8
1
  6
CONTINUOUS
 62
     7
 10
-338.4853385856
 20
269.7214297728
 30
0.0
 40
3.071081012
 50
179.9644820388
 51
195.0441417199
  0
LINE
  5
266
  8
1
  6
CONTINUOUS
 62
     7
 10
-311.342170138
 20
285.2860624472
 30
0.0
 11
-284.7505745364
 21
285.2860624472
 31
0.0
  0
ARC
  5
267
  8
1
  6
CONTINUOUS
 62
     7
 10
-284.7506496573
 20
290.2861481062
 30
0.0
 40
6.5000856594
 50
270.0006621625
 51
352.4993378375
  0
LINE
  5
268
  8
1
  6
CONTINUOUS
 62
     7
 10
-396.342170138
 20
285.2860624472
 30
0.0
 11
-373.7878846118
 21
285.2860624472
 31
0.0
  0
ARC
  5
269
  8
1
  6
CONTINUOUS
 62
     7
 10
-338.5272057014
 20
269.7257672951
 30
0.0
 40
3.034800044
 50
217.7674362441
 51
240.0413382883
  0
ARC
  5
26A
  8
1
  6
CONTINUOUS
 62
     7
 10
-330.5464168887
 20
250.2774878453
 30
0.0
 40
0.4999550632
 50
180.0000000127
 51
202.5013168083
  0
LINE
  5
26B
  8
1
  6
CONTINUOUS
 62
     7
 10
-389.412397741
 20
286.8919439219
 30
0.0
 11
-389.6949396198
 21
285.2860624472
 31
0.0
  0
ARC
  5
26C
  8
1
  6
CONTINUOUS
 62
     7
 10
-330.5463270154
 20
250.2774878451
 30
0.0
 40
0.4999550635
 50
0.0000000527
 51
22.5013168027
  0
ARC
  5
26D
  8
1
  6
CONTINUOUS
 62
     7
 10
-417.5675240491
 20
273.9806997885
 30
0.0
 40
1.0132664889
 50
9.992232727399998
 51
60.7801578699
  0
LINE
  5
26E
  8
1
  6
CONTINUOUS
 62
     7
 10
-257.7579617221
 20
329.6782662737
 30
0.0
 11
-268.0763007141
 21
356.1724952387
 31
0.0
  0
ARC
  5
26F
  8
1
  6
CONTINUOUS
 62
     7
 10
-410.2868902866
 20
355.3649412569
 30
0.0
 40
2.8527621136
 50
97.70678994559998
 51
166.2672564953
  0
ARC
  5
270
  8
1
  6
CONTINUOUS
 62
     7
 10
-270.9663721076
 20
355.1872134441
 30
0.0
 40
3.0534067653
 50
16.31870481329999
 51
79.75477807359998
  0
ARC
  5
271
  8
1
  6
CONTINUOUS
 62
     7
 10
-295.5463270154
 20
254.2773355374
 30
0.0
 40
0.4999550635
 50
0.000000007
 51
22.5013168025
  0
ARC
  5
272
  8
1
  6
CONTINUOUS
 62
     7
 10
-385.5463719986
 20
254.2773538521
 30
0.0
 40
0.5000029192
 50
314.99954817
 51
337.4986832219
  0
ARC
  5
273
  8
1
  6
CONTINUOUS
 62
     7
 10
-295.5463719519
 20
254.2772905975
 30
0.0
 40
0.5000259015
 50
67.5013167592
 51
112.4986832408
  0
LINE
  5
274
  8
1
  6
CONTINUOUS
 62
     7
 10
-270.4861760772
 20
358.1961950673
 30
0.0
 11
-410.6065685958
 21
358.1961950673
 31
0.0
  0
LINE
  5
275
  8
1
  6
CONTINUOUS
 62
     7
 10
-304.1254531263
 20
286.2860624472
 30
0.0
 11
-304.4136793936
 21
285.2860624472
 31
0.0
  0
LINE
  5
276
  8
1
  6
CONTINUOUS
 62
     7
 10
-306.6790652809
 20
285.2860624472
 30
0.0
 11
-306.9672915481
 21
286.2860624472
 31
0.0
  0
LINE
  5
277
  8
1
  6
CONTINUOUS
 62
     7
 10
-263.7534791184
 20
268.4931691905
 30
0.0
 11
-262.7294818464
 21
267.4691719185
 31
0.0
  0
LINE
  5
278
  8
1
  6
CONTINUOUS
 62
     7
 10
-418.3635016092
 20
267.4689331373
 30
0.0
 11
-417.339265556
 21
268.4931691905
 31
0.0
  0
ARC
  5
279
  8
1
  6
CONTINUOUS
 62
     7
 10
-385.5463734465
 20
254.2773172228
 30
0.0
 40
0.5000029193
 50
134.9995481456
 51
157.4986831974
  0
ARC
  5
27A
  8
1
  6
CONTINUOUS
 62
     7
 10
-1473.785107627
 20
757.4272157659
 30
0.0
 40
1134.1168994647
 50
337.8177154900999
 51
339.3011419839
  0
ARC
  5
27B
  8
1
  6
CONTINUOUS
 62
     7
 10
-330.546371228
 20
250.2774695307
 30
0.0
 40
0.5000029192
 50
22.5013167781
 51
45.00045183
  0
ARC
  5
27C
  8
1
  6
CONTINUOUS
 62
     7
 10
-385.5464176593
 20
254.2773355374
 30
0.0
 40
0.4999550632
 50
180.0000000067
 51
202.5013167796
  0
LINE
  5
27D
  8
1
  6
CONTINUOUS
 62
     7
 10
-389.4136793936
 20
285.2860624472
 30
0.0
 11
-389.1254531263
 21
286.2860624472
 31
0.0
  0
ARC
  5
27E
  8
1
  6
CONTINUOUS
 62
     7
 10
-295.5463726759
 20
254.2773172228
 30
0.0
 40
0.5000029193
 50
134.9995481456
 51
157.4986831975
  0
ARC
  5
27F
  8
1
  6
CONTINUOUS
 62
     7
 10
-263.5308142282
 20
273.9846729272
 30
0.0
 40
1.0070726341
 50
119.0524445132
 51
170.1751648895
  0
ARC
  5
280
  8
1
  6
CONTINUOUS
 62
     7
 10
-295.546390265
 20
254.2773348122
 30
0.0
 40
0.4999780444
 50
112.498683244
 51
134.9995481428
  0
ARC
  5
281
  8
1
  6
CONTINUOUS
 62
     7
 10
-295.5464168885
 20
254.2773355377
 30
0.0
 40
0.4999550634
 50
157.4986832263
 51
180.0000000217
  0
ARC
  5
282
  8
1
  6
CONTINUOUS
 62
     7
 10
-385.5463910356
 20
254.2773362628
 30
0.0
 40
0.4999780444
 50
225.0004518572
 51
247.501316756
  0
LINE
  5
283
  8
1
  6
CONTINUOUS
 62
     7
 10
-391.9672915481
 20
286.2860624472
 30
0.0
 11
-391.6790652809
 21
285.2860624472
 31
0.0
  0
ARC
  5
284
  8
1
  6
CONTINUOUS
 62
     7
 10
-385.5463544096
 20
254.2773362629
 30
0.0
 40
0.4999780445
 50
292.4986832684
 51
314.9995481672
  0
ARC
  5
285
  8
1
  6
CONTINUOUS
 62
     7
 10
-385.5463734462
 20
254.2773538523
 30
0.0
 40
0.5000029195
 50
202.5013167862
 51
225.0004518380999
  0
ARC
  5
286
  8
1
  6
CONTINUOUS
 62
     7
 10
-295.546371228
 20
254.277317223
 30
0.0
 40
0.5000029192
 50
22.5013167781
 51
45.00045183
  0
ARC
  5
287
  8
1
  6
CONTINUOUS
 62
     7
 10
-330.546390265
 20
250.2774885706
 30
0.0
 40
0.4999780444
 50
225.0004518572
 51
247.5013167561001
  0
ARC
  5
288
  8
1
  6
CONTINUOUS
 62
     7
 10
-417.0208749289
 20
279.8883174555
 30
0.0
 40
0.4475242154
 50
26.7965081402
 51
99.43924670039998
  0
LINE
  5
289
  8
1
  6
CONTINUOUS
 62
     7
 10
-306.3978050546
 20
285.2860624472
 30
0.0
 11
-306.6803469334
 21
286.8919439219
 31
0.0
  0
ARC
  5
28A
  8
1
  6
CONTINUOUS
 62
     7
 10
-295.5463726756
 20
254.2773538523
 30
0.0
 40
0.5000029195
 50
202.5013167862
 51
225.0004518382
  0
ARC
  5
28B
  8
1
  6
CONTINUOUS
 62
     7
 10
-385.5464176591
 20
254.2773355377
 30
0.0
 40
0.4999550634
 50
157.4986832263
 51
180.0000000218
  0
ARC
  5
28C
  8
1
  6
CONTINUOUS
 62
     7
 10
-264.0462202227
 20
279.8377203624
 30
0.0
 40
0.4943728093
 50
84.457887424
 51
149.3063577355
  0
ARC
  5
28D
  8
1
  6
CONTINUOUS
 62
     7
 10
-330.546353639
 20
250.2774871199
 30
0.0
 40
0.4999780445
 50
45.0004518328
 51
67.5013167316
  0
LINE
  5
28E
  8
1
  6
CONTINUOUS
 62
     7
 10
-256.2839878445
 20
260.2733341958
 30
0.0
 11
-253.8807055436
 21
260.2733341958
 31
0.0
  0
ARC
  5
28F
  8
1
  6
CONTINUOUS
 62
     7
 10
-330.5463726759
 20
250.2774695305
 30
0.0
 40
0.5000029193
 50
134.9995481455
 51
157.4986831975
  0
LINE
  5
290
  8
1
  6
CONTINUOUS
 62
     7
 10
-427.2120504603
 20
260.2733341958
 30
0.0
 11
-424.8087455004
 21
260.2733341958
 31
0.0
  0
ARC
  5
291
  8
1
  6
CONTINUOUS
 62
     7
 10
-295.5463536388
 20
254.2773348122
 30
0.0
 40
0.4999780444
 50
45.0004518572
 51
67.501316756
  0
LINE
  5
292
  8
1
  6
CONTINUOUS
 62
     7
 10
-358.3320444997
 20
266.3340324239
 30
0.0
 11
-358.2534636899
 21
266.331413669
 31
0.0
  0
LINE
  5
293
  8
1
  6
CONTINUOUS
 62
     7
 10
-391.3978050546
 20
285.2860624472
 30
0.0
 11
-391.6803469334
 21
286.8919439219
 31
0.0
  0
ARC
  5
294
  8
1
  6
CONTINUOUS
 62
     7
 10
-385.5463727225
 20
254.2773804775
 30
0.0
 40
0.5000259015
 50
247.5013167592
 51
292.4986832408001
  0
ARC
  5
295
  8
1
  6
CONTINUOUS
 62
     7
 10
-385.5463910356
 20
254.2773348122
 30
0.0
 40
0.4999780444
 50
112.498683244
 51
134.9995481428
  0
ARC
  5
296
  8
1
  6
CONTINUOUS
 62
     7
 10
-295.5464168887
 20
254.2773355374
 30
0.0
 40
0.4999550632
 50
179.999999984
 51
202.5013167794
  0
ARC
  5
297
  8
1
  6
CONTINUOUS
 62
     7
 10
-330.5463726758
 20
250.2775061598
 30
0.0
 40
0.5000029192
 50
202.5013167781
 51
225.00045183
  0
LINE
  5
298
  8
1
  6
CONTINUOUS
 62
     7
 10
-304.412397741
 20
286.8919439219
 30
0.0
 11
-304.6949396198
 21
285.2860624472
 31
0.0
  0
ARC
  5
299
  8
1
  6
CONTINUOUS
 62
     7
 10
-330.5463719519
 20
250.2774429053
 30
0.0
 40
0.5000259015
 50
67.5013167591
 51
90.00000000439998
  0
ARC
  5
29A
  8
1
  6
CONTINUOUS
 62
     7
 10
-330.5464168885
 20
250.2774878454
 30
0.0
 40
0.4999550634
 50
157.498683226
 51
179.9999999762
  0
ARC
  5
29B
  8
1
  6
CONTINUOUS
 62
     7
 10
-330.546390265
 20
250.2774871199
 30
0.0
 40
0.4999780444
 50
112.498683244
 51
134.9995481428
  0
ARC
  5
29C
  8
1
  6
CONTINUOUS
 62
     7
 10
-330.5463719517
 20
250.2774429052
 30
0.0
 40
0.5000259016
 50
90.00000002449998
 51
112.4986832696
  0
ARC
  5
29D
  8
1
  6
CONTINUOUS
 62
     7
 10
-295.546390265
 20
254.2773362628
 30
0.0
 40
0.4999780444
 50
225.0004518572
 51
247.501316756
  0
ENDSEC
  0
EOF
