  0
SECTION
  2
HEADER
  9
$ACADVER
  1
AC1006
  9
$DWGCODEPAGE
  3
ansi_932
  9
$INSBASE
 10
0.0
 20
0.0
 30
0.0
  9
$EXTMIN
 10
-99.0444940212
 20
55.9649973322
  9
$EXTMAX
 10
430.824724414
 20
661.5608368647
  9
$LIMMIN
 10
0.0
 20
0.0
  9
$LIMMAX
 10
12.0
 20
9.0
  9
$ORTHOMODE
 70
     0
  9
$REGENMODE
 70
     1
  9
$FILLMODE
 70
     1
  9
$QTEXTMODE
 70
     0
  9
$MIRRTEXT
 70
     1
  9
$DRAGMODE
 70
     2
  9
$LTSCALE
 40
1.0
  9
$OSMODE
 70
    37
  9
$ATTMODE
 70
     1
  9
$TEXTSIZE
 40
0.2
  9
$TRACEWID
 40
0.05
  9
$TEXTSTYLE
  7
STANDARD
  9
$CLAYER
  8
0
  9
$CELTYPE
  6
BYLAYER
  9
$CECOLOR
 62
   256
  9
$DIMSCALE
 40
1.0
  9
$DIMASZ
 40
3.0
  9
$DIMEXO
 40
0.0625
  9
$DIMDLI
 40
0.38
  9
$DIMRND
 40
0.0
  9
$DIMDLE
 40
0.0
  9
$DIMEXE
 40
1.5
  9
$DIMTP
 40
0.0
  9
$DIMTM
 40
0.0
  9
$DIMTXT
 40
3.0
  9
$DIMCEN
 40
0.09
  9
$DIMTSZ
 40
0.0
  9
$DIMTOL
 70
     0
  9
$DIMLIM
 70
     0
  9
$DIMTIH
 70
     1
  9
$DIMTOH
 70
     1
  9
$DIMSE1
 70
     0
  9
$DIMSE2
 70
     0
  9
$DIMTAD
 70
     1
  9
$DIMZIN
 70
     0
  9
$DIMBLK
  1

  9
$DIMASO
 70
     1
  9
$DIMSHO
 70
     1
  9
$DIMPOST
  1

  9
$DIMAPOST
  1

  9
$DIMALT
 70
     0
  9
$DIMALTD
 70
     2
  9
$DIMALTF
 40
25.4
  9
$DIMLFAC
 40
1.0
  9
$DIMTOFL
 70
     0
  9
$DIMTVP
 40
0.0
  9
$DIMTIX
 70
     0
  9
$DIMSOXD
 70
     0
  9
$DIMSAH
 70
     0
  9
$DIMBLK1
  1

  9
$DIMBLK2
  1

  9
$LUNITS
 70
     2
  9
$LUPREC
 70
     4
  9
$SKETCHINC
 40
0.1
  9
$FILLETRAD
 40
0.5
  9
$AUNITS
 70
     0
  9
$AUPREC
 70
     0
  9
$MENU
  1
.
  9
$ELEVATION
 40
0.0
  9
$THICKNESS
 40
0.0
  9
$LIMCHECK
 70
     0
  9
$CHAMFERA
 40
0.0
  9
$CHAMFERB
 40
0.0
  9
$SKPOLY
 70
     0
  9
$TDCREATE
 40
2460200.490515173
  9
$TDUPDATE
 40
2460200.490515799
  9
$TDINDWG
 40
0.0000000116
  9
$TDUSRTIMER
 40
0.0000000116
  9
$USRTIMER
 70
     1
  9
$ANGBASE
 50
0.0
  9
$ANGDIR
 70
     0
  9
$PDMODE
 70
     0
  9
$PDSIZE
 40
0.0
  9
$PLINEWID
 40
0.0
  9
$COORDS
 70
     1
  9
$SPLFRAME
 70
     0
  9
$SPLINETYPE
 70
     6
  9
$SPLINESEGS
 70
     8
  9
$ATTDIA
 70
     0
  9
$ATTREQ
 70
     1
  9
$HANDLING
 70
     1
  9
$HANDSEED
  5
19A
  9
$SURFTAB1
 70
     6
  9
$SURFTAB2
 70
     6
  9
$SURFTYPE
 70
     6
  9
$SURFU
 70
     6
  9
$SURFV
 70
     6
  9
$UCSNAME
  2

  9
$UCSORG
 10
0.0
 20
0.0
 30
0.0
  9
$UCSXDIR
 10
1.0
 20
0.0
 30
0.0
  9
$UCSYDIR
 10
0.0
 20
1.0
 30
0.0
  9
$USERI1
 70
     0
  9
$USERI2
 70
     0
  9
$USERI3
 70
     0
  9
$USERI4
 70
     0
  9
$USERI5
 70
     0
  9
$USERR1
 40
0.0
  9
$USERR2
 40
0.0
  9
$USERR3
 40
0.0
  9
$USERR4
 40
0.0
  9
$USERR5
 40
0.0
  9
$WORLDVIEW
 70
     1
  0
ENDSEC
  0
SECTION
  2
TABLES
  0
TABLE
  2
VPORT
 70
     1
  0
VPORT
  2
*ACTIVE
 70
     0
 10
0.0
 20
0.0
 11
1.0
 21
1.0
 12
165.8901151964
 22
358.76291709845
 13
0.0
 23
0.0
 14
0.5
 24
0.5
 15
0.5
 25
0.5
 16
0.0
 26
0.0
 36
1.0
 17
0.0
 27
0.0
 37
0.0
 40
605.5958395325
 41
1.6
 42
50.0
 43
0.0
 44
0.0
 50
0.0
 51
0.0
 71
     0
 72
   100
 73
     1
 74
     3
 75
     0
 76
     0
 77
     0
 78
     0
  0
ENDTAB
  0
TABLE
  2
LTYPE
 70
     1
  0
LTYPE
  2
CONTINUOUS
 70
     0
  3
Solid line
 72
    65
 73
     0
 40
0.0
  0
ENDTAB
  0
TABLE
  2
LAYER
 70
     2
  0
LAYER
  2
0
 70
     0
 62
     7
  6
CONTINUOUS
  0
LAYER
  2
1
 70
     0
 62
     7
  6
CONTINUOUS
  0
ENDTAB
  0
TABLE
  2
STYLE
 70
     2
  0
STYLE
  2
STANDARD
 70
     0
 40
0.0
 41
1.0
 50
0.0
 71
     0
 42
0.2
  3
txt
  4

  0
STYLE
  2
ＭＳ_ゴシック
 70
     0
 40
0.0
 41
1.0
 50
0.0
 71
     0
 42
0.2
  3
ＭＳ ゴシック.shx
  4

  0
ENDTAB
  0
TABLE
  2
VIEW
 70
     0
  0
ENDTAB
  0
TABLE
  2
UCS
 70
     0
  0
ENDTAB
  0
ENDSEC
  0
SECTION
  2
BLOCKS
  0
ENDSEC
  0
SECTION
  2
ENTITIES
  0
LINE
  5
70
  8
1
  6
CONTINUOUS
 62
     7
 10
-83.8999227775
 20
221.4533363862
 30
0.0
 11
-84.7808146225
 21
220.0775319232
 31
0.0
  0
LINE
  5
71
  8
1
  6
CONTINUOUS
 62
     7
 10
-1.343327784
 20
155.4090875257
 30
0.0
 11
-10.358544114
 21
155.4090875257
 31
0.0
  0
ARC
  5
72
  8
1
  6
CONTINUOUS
 62
     7
 10
118.6260982747
 20
147.78079089
 30
0.0
 40
1.0002132157
 50
317.9836817655
 51
340.4524181804
  0
LINE
  5
73
  8
1
  6
CONTINUOUS
 62
     7
 10
17.7356072495
 20
159.6650240102
 30
0.0
 11
16.7507994965
 21
158.8386721877
 31
0.0
  0
LINE
  5
74
  8
1
  6
CONTINUOUS
 62
     7
 10
-73.621340176
 20
220.5417869907
 30
0.0
 11
-73.3453304785
 21
220.5897562787
 31
0.0
  0
LINE
  5
75
  8
1
  6
CONTINUOUS
 62
     7
 10
91.132965091
 20
158.8386721877
 30
0.0
 11
90.148157338
 21
159.6650240102
 31
0.0
  0
LINE
  5
76
  8
1
  6
CONTINUOUS
 62
     7
 10
-65.7643927505
 20
159.6650240102
 30
0.0
 11
-66.7492005035
 21
158.8386721877
 31
0.0
  0
LINE
  5
77
  8
1
  6
CONTINUOUS
 62
     7
 10
108.307161623
 20
221.2006405407
 30
0.0
 11
108.126635652
 21
221.2416159512
 31
0.0
  0
ARC
  5
78
  8
1
  6
CONTINUOUS
 62
     7
 10
-4.9512724233
 20
134.0849252706
 30
0.0
 40
6.5103044341
 50
202.5474525895
 51
225.0162739205
  0
LINE
  5
79
  8
1
  6
CONTINUOUS
 62
     7
 10
-74.0256284005
 20
220.2005600672
 30
0.0
 11
-73.621340176
 21
220.5417869907
 31
0.0
  0
ARC
  5
7A
  8
1
  6
CONTINUOUS
 62
     7
 10
-94.2423336872
 20
147.78079089
 30
0.0
 40
1.0002132157
 50
199.5475818196
 51
222.0163182345
  0
LINE
  5
7B
  8
1
  6
CONTINUOUS
 62
     7
 10
-82.404431401
 20
222.1626204817
 30
0.0
 11
-83.8999227775
 21
221.4533363862
 31
0.0
  0
LINE
  5
7C
  8
1
  6
CONTINUOUS
 62
     7
 10
117.083453015
 20
193.3549987527
 30
0.0
 11
117.2666989
 21
192.8260301477
 31
0.0
  0
LINE
  5
7D
  8
1
  6
CONTINUOUS
 62
     7
 10
-72.2019815385
 20
146.7808366257
 30
0.0
 11
-94.2423523495
 21
146.7808366257
 31
0.0
  0
LINE
  5
7E
  8
1
  6
CONTINUOUS
 62
     7
 10
-11.2223662355
 20
146.7808366257
 30
0.0
 11
-11.4142538735
 21
146.7808366257
 31
0.0
  0
ARC
  5
7F
  8
1
  6
CONTINUOUS
 62
     7
 10
-11.4124833413
 20
147.7781084896
 30
0.0
 40
0.9973279617000002
 50
252.5490015185
 51
269.8982785655
  0
ARC
  5
80
  8
1
  6
CONTINUOUS
 62
     7
 10
-4.9509433295
 20
134.0974154441
 30
0.0
 40
6.5210838659
 50
247.5473986892
 51
270.000000004
  0
ARC
  5
81
  8
1
  6
CONTINUOUS
 62
     7
 10
-11.415905161
 20
147.780966598
 30
0.0
 40
0.9973279614999999
 50
190.360437432
 51
207.709714479
  0
ARC
  5
82
  8
1
  6
CONTINUOUS
 62
     7
 10
-94.2455872659
 20
147.7796356943
 30
0.0
 40
0.996760644
 50
176.9999999444
 51
199.5475817457
  0
ARC
  5
83
  8
1
  6
CONTINUOUS
 62
     7
 10
96.5875166587
 20
147.7781084896
 30
0.0
 40
0.9973279617000002
 50
252.5490015185
 51
269.8982785655
  0
LINE
  5
84
  8
1
  6
CONTINUOUS
 62
     7
 10
109.313352414
 20
219.7266041932
 30
0.0
 11
108.307161623
 21
221.2006405407
 31
0.0
  0
ARC
  5
85
  8
1
  6
CONTINUOUS
 62
     7
 10
-3.308117706
 20
136.6650240102
 30
0.0
 40
4.0
 50
90.0
 51
270.0
  0
ARC
  5
86
  8
1
  6
CONTINUOUS
 62
     7
 10
3.691882294
 20
136.6650240102
 30
0.0
 40
4.0
 50
270.0
 51
90.0
  0
LINE
  5
87
  8
1
  6
CONTINUOUS
 62
     7
 10
-16.867034909
 20
158.8386721877
 30
0.0
 11
-17.851842662
 21
159.6650240102
 31
0.0
  0
LINE
  5
88
  8
1
  6
CONTINUOUS
 62
     7
 10
109.378856969
 20
219.5572885242
 30
0.0
 11
109.313352414
 21
219.7266041932
 31
0.0
  0
LINE
  5
89
  8
1
  6
CONTINUOUS
 62
     7
 10
120.52441919
 20
130.6650240102
 30
0.0
 11
114.541882294
 21
130.6650240102
 31
0.0
  0
LINE
  5
8A
  8
1
  6
CONTINUOUS
 62
     7
 10
97.729095066
 20
220.5897562787
 30
0.0
 11
98.55997903
 21
219.6895354727
 31
0.0
  0
LINE
  5
8B
  8
1
  6
CONTINUOUS
 62
     7
 10
-73.3453304785
 20
220.5897562787
 30
0.0
 11
97.729095066
 21
220.5897562787
 31
0.0
  0
LINE
  5
8C
  8
1
  6
CONTINUOUS
 62
     7
 10
-74.176214442
 20
219.6895354727
 30
0.0
 11
-74.0256284005
 21
220.2005600672
 31
0.0
  0
ARC
  5
8D
  8
1
  6
CONTINUOUS
 62
     7
 10
-4.9595115318
 20
134.0766814796
 30
0.0
 40
6.4986492637
 50
225.0162739149001
 51
247.5473987011
  0
ARC
  5
8E
  8
1
  6
CONTINUOUS
 62
     7
 10
118.6259469469
 20
147.7827097584
 30
0.0
 40
1.0018738279
 50
273.0000000151001
 51
295.4524723766
  0
LINE
  5
8F
  8
1
  6
CONTINUOUS
 62
     7
 10
118.626116937
 20
146.7808366257
 30
0.0
 11
96.5857461265
 21
146.7808366257
 31
0.0
  0
ARC
  5
90
  8
1
  6
CONTINUOUS
 62
     7
 10
96.5892695233
 20
147.783684486
 30
0.0
 40
1.0031729826
 50
230.1293579236
 51
252.5490014532
  0
ARC
  5
91
  8
1
  6
CONTINUOUS
 62
     7
 10
96.5892695225
 20
147.7836844855
 30
0.0
 40
1.0031729817
 50
207.7097144119
 51
230.1293579413
  0
ARC
  5
92
  8
1
  6
CONTINUOUS
 62
     7
 10
-72.2003302513
 20
147.7809665964
 30
0.0
 40
0.997327961
 50
332.290285611
 51
349.6395626579999
  0
ARC
  5
93
  8
1
  6
CONTINUOUS
 62
     7
 10
-72.2055049347
 20
147.7836844868
 30
0.0
 40
1.0031729825
 50
309.8706420014
 51
332.2902855311
  0
LINE
  5
94
  8
1
  6
CONTINUOUS
 62
     7
 10
109.362196841
 20
219.6015750197
 30
0.0
 11
109.3054951485
 21
219.7523608172
 31
0.0
  0
ARC
  5
95
  8
1
  6
CONTINUOUS
 62
     7
 10
-11.4107304775
 20
147.7836844855
 30
0.0
 40
1.0031729817
 50
207.7097144118
 51
230.1293579414
  0
ARC
  5
96
  8
1
  6
CONTINUOUS
 62
     7
 10
96.584094839
 20
147.780966598
 30
0.0
 40
0.9973279614999999
 50
190.3604374319
 51
207.7097144791
  0
LINE
  5
97
  8
1
  6
CONTINUOUS
 62
     7
 10
-11.4129343665
 20
144.3263315782
 30
0.0
 11
-11.459795534
 21
134.1060937972
 31
0.0
  0
LINE
  5
98
  8
1
  6
CONTINUOUS
 62
     7
 10
120.8992584665
 20
123.5096463527
 30
0.0
 11
123.4028007865
 21
123.5096463527
 31
0.0
  0
ARC
  5
99
  8
1
  6
CONTINUOUS
 62
     7
 10
-4.9719709277
 20
134.0763315771
 30
0.0
 40
6.4878928378
 50
179.9999999905
 51
202.5474525766
  0
LINE
  5
9A
  8
1
  6
CONTINUOUS
 62
     7
 10
-11.2785807045
 20
146.8459574682
 30
0.0
 11
-11.2223662355
 21
146.7808366257
 31
0.0
  0
ARC
  5
9B
  8
1
  6
CONTINUOUS
 62
     7
 10
-94.2421823594
 20
147.7827097584
 30
0.0
 40
1.0018738279
 50
244.5475276233999
 51
266.999999985
  0
LINE
  5
9C
  8
1
  6
CONTINUOUS
 62
     7
 10
3.691882294
 20
132.6650240102
 30
0.0
 11
-3.308117706
 21
132.6650240102
 31
0.0
  0
LINE
  5
9D
  8
1
  6
CONTINUOUS
 62
     7
 10
90.148157338
 20
159.6650240102
 30
0.0
 11
34.8213123465
 21
159.6650240102
 31
0.0
  0
LINE
  5
9E
  8
1
  6
CONTINUOUS
 62
     7
 10
-99.0189247435
 20
123.5096463527
 30
0.0
 11
-96.5156053335
 21
123.5096463527
 31
0.0
  0
LINE
  5
9F
  8
1
  6
CONTINUOUS
 62
     7
 10
-66.7492005035
 20
158.8386721877
 30
0.0
 11
-68.8709933405
 21
146.8053870452
 31
0.0
  0
LINE
  5
A0
  8
1
  6
CONTINUOUS
 62
     7
 10
-90.158117706
 20
130.6650240102
 30
0.0
 11
-96.140654602
 21
130.6650240102
 31
0.0
  0
ARC
  5
A1
  8
1
  6
CONTINUOUS
 62
     7
 10
118.6293518537
 20
147.7796356955
 30
0.0
 40
0.9967606441999999
 50
340.4524181816
 51
2.999999982799977
  0
ARC
  5
A2
  8
1
  6
CONTINUOUS
 62
     7
 10
118.6274322601
 20
147.7795890751
 30
0.0
 40
0.9984177001
 50
295.4524723793
 51
317.9836818045
  0
ARC
  5
A3
  8
1
  6
CONTINUOUS
 62
     7
 10
81.0533099095
 20
152.1646975142
 30
0.0
 40
4.999700189
 50
269.9969877070999
 51
352.4845695232
  0
LINE
  5
A4
  8
1
  6
CONTINUOUS
 62
     7
 10
-17.851842662
 20
159.6650240102
 30
0.0
 11
-65.7643927505
 21
159.6650240102
 31
0.0
  0
ARC
  5
A5
  8
1
  6
CONTINUOUS
 62
     7
 10
-94.2436676726
 20
147.7795890751
 30
0.0
 40
0.9984177001
 50
222.0163181955
 51
244.5475276207
  0
LINE
  5
A6
  8
1
  6
CONTINUOUS
 62
     7
 10
119.741882294
 20
193.3898238447
 30
0.0
 11
109.362196841
 21
219.6015750197
 31
0.0
  0
ARC
  5
A7
  8
1
  6
CONTINUOUS
 62
     7
 10
-11.4107304767
 20
147.783684486
 30
0.0
 40
1.0031729826
 50
230.1293579236
 51
252.5490014532
  0
LINE
  5
A8
  8
1
  6
CONTINUOUS
 62
     7
 10
-3.308117706
 20
140.6650240102
 30
0.0
 11
3.691882294
 21
140.6650240102
 31
0.0
  0
LINE
  5
A9
  8
1
  6
CONTINUOUS
 62
     7
 10
32.226254805
 20
159.6650240102
 30
0.0
 11
22.160900657
 21
159.6650240102
 31
0.0
  0
LINE
  5
AA
  8
1
  6
CONTINUOUS
 62
     7
 10
-84.921730561
 20
219.7523608172
 30
0.0
 11
-95.358117706
 21
193.3898238447
 31
0.0
  0
LINE
  5
AB
  8
1
  6
CONTINUOUS
 62
     7
 10
-96.2001576355
 20
661.4042678632
 30
0.0
 11
-96.2078283935
 21
661.4042678632
 31
0.0
  0
LINE
  5
AC
  8
1
  6
CONTINUOUS
 62
     7
 10
19.56236421
 20
159.6650240102
 30
0.0
 11
17.7356072495
 21
159.6650240102
 31
0.0
  0
LINE
  5
AD
  8
1
  6
CONTINUOUS
 62
     7
 10
-92.8829343125
 20
192.8260301477
 30
0.0
 11
-92.6996884275
 21
193.3549987527
 31
0.0
  0
LINE
  5
AE
  8
1
  6
CONTINUOUS
 62
     7
 10
10.7423087015
 20
155.4090875257
 30
0.0
 11
1.7270923715
 21
155.4090875257
 31
0.0
  0
LINE
  5
AF
  8
1
  6
CONTINUOUS
 62
     7
 10
-84.9290000625
 20
219.7280828072
 30
0.0
 11
-84.9946242935
 21
219.5585302767
 31
0.0
  0
LINE
  5
B0
  8
1
  6
CONTINUOUS
 62
     7
 10
121.8380581835
 20
542.6662628577
 30
0.0
 11
121.3331325915
 21
625.1669433592
 31
0.0
  0
LINE
  5
B1
  8
1
  6
CONTINUOUS
 62
     7
 10
-62.6998245125
 20
159.6650240102
 30
0.0
 11
-61.626506772
 21
151.5123663712
 31
0.0
  0
ARC
  5
B2
  8
1
  6
CONTINUOUS
 62
     7
 10
13.975926463
 20
130.9092682617
 30
0.0
 40
3.498951706
 50
191.8693244026
 51
269.8179802385999
  0
CIRCLE
  5
B3
  8
1
  6
CONTINUOUS
 62
     7
 10
80.192056018
 20
102.6569412967
 30
0.0
 40
15.7686773275
  0
LINE
  5
B4
  8
1
  6
CONTINUOUS
 62
     7
 10
-82.357166858
 20
542.6669433592
 30
0.0
 11
106.7409314455
 21
542.6669433592
 31
0.0
  0
CIRCLE
  5
B5
  8
1
  6
CONTINUOUS
 62
     7
 10
34.191691114
 20
102.6611773327
 30
0.0
 40
13.776143728
  0
LINE
  5
B6
  8
1
  6
CONTINUOUS
 62
     7
 10
37.691882294
 20
329.6669433592
 30
0.0
 11
-13.308117206
 21
329.6669433592
 31
0.0
  0
LINE
  5
B7
  8
1
  6
CONTINUOUS
 62
     7
 10
10.049025151
 20
58.9649973322
 30
0.0
 11
14.3347394365
 21
58.9649973322
 31
0.0
  0
LINE
  5
B8
  8
1
  6
CONTINUOUS
 62
     7
 10
-18.946952947
 20
147.1649973322
 30
0.0
 11
-18.9453435485
 21
147.1649975827
 31
0.0
  0
LINE
  5
B9
  8
1
  6
CONTINUOUS
 62
     7
 10
112.1365896375
 20
649.5062323897
 30
0.0
 11
108.126635652
 21
542.6669433592
 31
0.0
  0
ARC
  5
BA
  8
1
  6
CONTINUOUS
 62
     7
 10
43.330338765
 20
152.1645655587
 30
0.0
 40
4.999568127
 50
187.495660726
 51
269.9858968141
  0
ARC
  5
BB
  8
1
  6
CONTINUOUS
 62
     7
 10
-18.9473979285
 20
152.1677182162
 30
0.0
 40
5.0027210555
 50
270.0235286581
 51
319.8794672075
  0
LINE
  5
BC
  8
1
  6
CONTINUOUS
 62
     7
 10
37.705886793
 20
329.6669433592
 30
0.0
 11
37.691893924
 21
344.9424119277
 31
0.0
  0
ARC
  5
BD
  8
1
  6
CONTINUOUS
 62
     7
 10
125.592439114
 20
646.1183323392
 30
0.0
 40
13.964484767
 50
114.7985745062
 51
162.2510923471
  0
ARC
  5
BE
  8
1
  6
CONTINUOUS
 62
     7
 10
-86.226736449
 20
649.7943931024
 30
0.0
 40
1.8561164517
 50
115.070492527
 51
132.8445087141
  0
LINE
  5
BF
  8
1
  6
CONTINUOUS
 62
     7
 10
122.2123728135
 20
645.9389188317
 30
0.0
 11
122.215269377
 21
645.7669433592
 31
0.0
  0
LINE
  5
C0
  8
1
  6
CONTINUOUS
 62
     7
 10
-86.615154879
 20
55.9649973322
 30
0.0
 11
-2.808117705999993
 21
55.9649973322
 31
0.0
  0
CIRCLE
  5
C1
  8
1
  6
CONTINUOUS
 62
     7
 10
34.1920183505
 20
102.6554479672
 30
0.0
 40
12.068639888
  0
LINE
  5
C2
  8
1
  6
CONTINUOUS
 62
     7
 10
-95.351557702
 20
658.7951228367
 30
0.0
 11
-95.3581172375
 21
658.6687775182
 31
0.0
  0
LINE
  5
C3
  8
1
  6
CONTINUOUS
 62
     7
 10
86.0102713595
 20
151.5123663712
 30
0.0
 11
87.0835891
 21
159.6650240102
 31
0.0
  0
LINE
  5
C4
  8
1
  6
CONTINUOUS
 62
     7
 10
-86.615154879
 20
55.9649973322
 30
0.0
 11
-87.386272561
 21
144.3263315782
 31
0.0
  0
LINE
  5
C5
  8
1
  6
CONTINUOUS
 62
     7
 10
108.126638254
 20
542.6669433592
 30
0.0
 11
99.4411472645
 21
314.1669433591999
 31
0.0
  0
LINE
  5
C6
  8
1
  6
CONTINUOUS
 62
     7
 10
37.3001754875
 20
159.6650240102
 30
0.0
 11
38.373493228
 21
151.5123663712
 31
0.0
  0
LINE
  5
C7
  8
1
  6
CONTINUOUS
 62
     7
 10
-56.669282465
 20
147.1649973322
 30
0.0
 11
-18.946952947
 21
147.1649973322
 31
0.0
  0
LINE
  5
C8
  8
1
  6
CONTINUOUS
 62
     7
 10
111.7700371485
 20
144.3263315782
 30
0.0
 11
110.998919467
 21
55.96499733220001
 31
0.0
  0
LINE
  5
C9
  8
1
  6
CONTINUOUS
 62
     7
 10
-13.3081293935
 20
344.9423995347
 30
0.0
 11
-13.3221222055
 21
329.6669433592
 31
0.0
  0
ARC
  5
CA
  8
1
  6
CONTINUOUS
 62
     7
 10
-86.3447469878
 20
650.0987082436
 30
0.0
 40
1.5799715673
 50
158.3277851891
 51
169.969978577
  0
ARC
  5
CB
  8
1
  6
CONTINUOUS
 62
     7
 10
110.6105010365
 20
649.7943931024
 30
0.0
 40
1.8561164517
 50
47.1554912859
 51
64.929507473
  0
LINE
  5
CC
  8
1
  6
CONTINUOUS
 62
     7
 10
-2.808117706
 20
55.9649973322
 30
0.0
 11
12.191882294
 21
59.4649973322
 31
0.0
  0
ARC
  5
CD
  8
1
  6
CONTINUOUS
 62
     7
 10
110.6105010372
 20
649.7943931018
 30
0.0
 40
1.8561164519
 50
64.9295074999
 51
82.6350686762
  0
ARC
  5
CE
  8
1
  6
CONTINUOUS
 62
     7
 10
-86.6048307056
 20
650.2020620537
 30
0.0
 40
1.3001045447
 50
132.8445086885
 51
158.327785171
  0
LINE
  5
CF
  8
1
  6
CONTINUOUS
 62
     7
 10
118.2933862235
 20
660.1546568897
 30
0.0
 11
118.272793272
 21
660.1669433592
 31
0.0
  0
LINE
  5
D0
  8
1
  6
CONTINUOUS
 62
     7
 10
121.527525958
 20
630.1669433592
 30
0.0
 11
121.637728354
 21
630.1669433592
 31
0.0
  0
LINE
  5
D1
  8
1
  6
CONTINUOUS
 62
     7
 10
121.437889999
 20
660.3985689032
 30
0.0
 11
119.741882294
 21
658.6687746187
 31
0.0
  0
LINE
  5
D2
  8
1
  6
CONTINUOUS
 62
     7
 10
43.330717535
 20
147.1649973322
 30
0.0
 11
81.053047053
 21
147.1649973322
 31
0.0
  0
LINE
  5
D3
  8
1
  6
CONTINUOUS
 62
     7
 10
122.2123728135
 20
645.9389188317
 30
0.0
 11
121.437889999
 21
660.3985689032
 31
0.0
  0
LINE
  5
D4
  8
1
  6
CONTINUOUS
 62
     7
 10
-96.949368004
 20
625.1669433592
 30
0.0
 11
-97.454293596
 21
542.6662628577
 31
0.0
  0
CIRCLE
  5
D5
  8
1
  6
CONTINUOUS
 62
     7
 10
80.191658457
 20
102.6602408177
 30
0.0
 40
17.2761108615
  0
ARC
  5
D6
  8
1
  6
CONTINUOUS
 62
     7
 10
-86.2267364497
 20
649.7943931018
 30
0.0
 40
1.8561164519
 50
97.36493132379998
 51
115.0704925002
  0
LINE
  5
D7
  8
1
  6
CONTINUOUS
 62
     7
 10
14.271727492
 20
145.8246835562
 30
0.0
 11
18.191882294
 21
145.8246835562
 31
0.0
  0
LINE
  5
D8
  8
1
  6
CONTINUOUS
 62
     7
 10
-93.8890286845
 20
660.1669433592
 30
0.0
 11
-93.9096216355
 21
660.1546568897
 31
0.0
  0
LINE
  5
D9
  8
1
  6
CONTINUOUS
 62
     7
 10
27.191882294
 20
55.9649973322
 30
0.0
 11
110.998919467
 21
55.9649973322
 31
0.0
  0
ARC
  5
DA
  8
1
  6
CONTINUOUS
 62
     7
 10
110.9885952931
 20
650.2020620537
 30
0.0
 40
1.3001045447
 50
21.672214829
 51
47.15549131140001
  0
LINE
  5
DB
  8
1
  6
CONTINUOUS
 62
     7
 10
-13.930094747
 20
329.0669433592
 30
0.0
 11
-13.924349338
 21
329.4669433592
 31
0.0
  0
LINE
  5
DC
  8
1
  6
CONTINUOUS
 62
     7
 10
-86.463773162
 20
651.6282621212
 30
0.0
 11
110.8475377495
 21
651.6282621212
 31
0.0
  0
ARC
  5
DD
  8
1
  6
CONTINUOUS
 62
     7
 10
-18.5608658527
 20
641.6138679301
 30
0.0
 40
140.8373824158
 50
355.6030161074
 51
1.68980841360002
  0
LINE
  5
DE
  8
1
  6
CONTINUOUS
 62
     7
 10
-87.75282505
 20
649.5062323897
 30
0.0
 11
-87.9088767275
 21
650.3753516387
 31
0.0
  0
CIRCLE
  5
DF
  8
1
  6
CONTINUOUS
 62
     7
 10
-55.807784153
 20
102.6686201372
 30
0.0
 40
17.276000518
  0
CIRCLE
  5
E0
  8
1
  6
CONTINUOUS
 62
     7
 10
-55.8081526115
 20
102.6565536932
 30
0.0
 40
15.7685384835
  0
ARC
  5
E1
  8
1
  6
CONTINUOUS
 62
     7
 10
-56.669601977
 20
152.1646328897
 30
0.0
 40
4.999635568
 50
187.5147811659999
 51
270.0036616037
  0
LINE
  5
E2
  8
1
  6
CONTINUOUS
 62
     7
 10
-61.626506772
 20
151.5123663712
 30
0.0
 11
-61.6262964515
 21
151.5107707467
 31
0.0
  0
LINE
  5
E3
  8
1
  6
CONTINUOUS
 62
     7
 10
37.691882294
 20
344.9449452217
 30
0.0
 11
-13.308117706
 21
344.9449452217
 31
0.0
  0
LINE
  5
E4
  8
1
  6
CONTINUOUS
 62
     7
 10
-75.0573826765
 20
314.1669433592
 30
0.0
 11
-83.742873666
 21
542.6669433592
 31
0.0
  0
LINE
  5
E5
  8
1
  6
CONTINUOUS
 62
     7
 10
-83.742871064
 20
542.6669433592
 30
0.0
 11
-87.75282505
 21
649.5062323897
 31
0.0
  0
LINE
  5
E6
  8
1
  6
CONTINUOUS
 62
     7
 10
119.741881825
 20
658.6687775182
 30
0.0
 11
119.7353222895
 21
658.7951228367
 31
0.0
  0
LINE
  5
E7
  8
1
  6
CONTINUOUS
 62
     7
 10
12.191882294
 20
59.4649973322
 30
0.0
 11
27.191882294
 21
55.9649973322
 31
0.0
  0
LINE
  5
E8
  8
1
  6
CONTINUOUS
 62
     7
 10
112.292641315
 20
650.3753516387
 30
0.0
 11
112.1365896375
 21
649.5062323897
 31
0.0
  0
LINE
  5
E9
  8
1
  6
CONTINUOUS
 62
     7
 10
18.191882294
 20
127.4103342122
 30
0.0
 11
13.9648108575
 21
127.4103342122
 31
0.0
  0
ARC
  5
EA
  8
1
  6
CONTINUOUS
 62
     7
 10
-102.1424357905
 20
645.2929313837
 30
0.0
 40
15.113742066
 50
19.6502764458
 51
63.30005670090001
  0
ARC
  5
EB
  8
1
  6
CONTINUOUS
 62
     7
 10
110.7285115753
 20
650.0987082436
 30
0.0
 40
1.5799715673
 50
10.030021423
 51
21.6722148109
  0
LINE
  5
EC
  8
1
  6
CONTINUOUS
 62
     7
 10
121.637728354
 20
630.1669433592
 30
0.0
 11
121.862002488
 21
630.8163528132
 31
0.0
  0
LINE
  5
ED
  8
1
  6
CONTINUOUS
 62
     7
 10
121.3331325915
 20
625.1669433592
 30
0.0
 11
121.527525958
 21
630.1669433592
 31
0.0
  0
LINE
  5
EE
  8
1
  6
CONTINUOUS
 62
     7
 10
-74.176214442
 20
219.6895354727
 30
0.0
 11
-92.6996884275
 21
193.3549987527
 31
0.0
  0
LINE
  5
EF
  8
1
  6
CONTINUOUS
 62
     7
 10
-97.831504789
 20
645.7669433592
 30
0.0
 11
-97.828608226
 21
645.9389188317
 31
0.0
  0
LINE
  5
F0
  8
1
  6
CONTINUOUS
 62
     7
 10
-97.454293596
 20
542.6662628577
 30
0.0
 11
-99.0114324865
 21
331.2545398737
 31
0.0
  0
LINE
  5
F1
  8
1
  6
CONTINUOUS
 62
     7
 10
99.4411472645
 20
221.5414658827
 30
0.0
 11
119.741882294
 21
193.3650240102
 31
0.0
  0
LINE
  5
F2
  8
1
  6
CONTINUOUS
 62
     7
 10
117.2666989
 20
192.8260301477
 30
0.0
 11
120.8994166428
 21
123.5096463527
 31
0.0
  0
LINE
  5
F3
  8
1
  6
CONTINUOUS
 62
     7
 10
119.741882294
 20
193.3650240102
 30
0.0
 11
123.4028475077
 21
123.5096463527
 31
0.0
  0
LINE
  5
F4
  8
1
  6
CONTINUOUS
 62
     7
 10
-97.054125411
 20
660.3985689032
 30
0.0
 11
-97.828608226
 21
645.9389188317
 31
0.0
  0
LINE
  5
F5
  8
1
  6
CONTINUOUS
 62
     7
 10
-98.394700328
 20
314.4898013677
 30
0.0
 11
-98.232966231
 21
314.1669433592
 31
0.0
  0
LINE
  5
F6
  8
1
  6
CONTINUOUS
 62
     7
 10
118.6532043225
 20
661.5389188317
 30
0.0
 11
-94.269440061
 21
661.5389188317
 31
0.0
  0
LINE
  5
F7
  8
1
  6
CONTINUOUS
 62
     7
 10
-97.4296929035
 20
630.5546793992
 30
0.0
 11
-97.2539637665
 21
630.1669433592
 31
0.0
  0
LINE
  5
F8
  8
1
  6
CONTINUOUS
 62
     7
 10
-75.0573826765
 20
221.5414658827
 30
0.0
 11
-95.358117706
 21
193.3650240102
 31
0.0
  0
ARC
  5
F9
  8
1
  6
CONTINUOUS
 62
     7
 10
-11.1210692997
 20
144.440843297
 30
0.0
 40
0.13622761
 50
97.7344112904
 51
174.6011497112
  0
LINE
  5
FA
  8
1
  6
CONTINUOUS
 62
     7
 10
-98.232966231
 20
138.5096463527
 30
0.0
 11
-95.729535366
 21
138.5096463527
 31
0.0
  0
LINE
  5
FB
  8
1
  6
CONTINUOUS
 62
     7
 10
11.639719163
 20
144.4535909787
 30
0.0
 11
11.6385210625
 21
143.9359528882
 31
0.0
  0
ARC
  5
FC
  8
1
  6
CONTINUOUS
 62
     7
 10
11.5048338872
 20
144.440843297
 30
0.0
 40
0.13622761
 50
5.3988502888
 51
82.26558870959998
  0
LINE
  5
FD
  8
1
  6
CONTINUOUS
 62
     7
 10
118.6532043225
 20
661.5389188317
 30
0.0
 11
118.611235539
 21
661.5175395737
 31
0.0
  0
ARC
  5
FE
  8
1
  6
CONTINUOUS
 62
     7
 10
106.7421981745
 20
220.6654925012
 30
0.0
 40
1.49952838
 50
22.5941473317
 51
89.98145044589998
  0
ARC
  5
FF
  8
1
  6
CONTINUOUS
 62
     7
 10
31.9849156373
 20
641.5844342141
 30
0.0
 40
129.8837803386
 50
178.1546459697
 51
184.8714352833
  0
LINE
  5
100
  8
1
  6
CONTINUOUS
 62
     7
 10
-92.8829343125
 20
192.8260301477
 30
0.0
 11
-96.5156520553
 21
123.5096463527
 31
0.0
  0
ARC
  5
101
  8
1
  6
CONTINUOUS
 62
     7
 10
-10.6020617466
 20
143.8132516291
 30
0.0
 40
0.8899505407
 50
90.9763069518
 51
114.1483743596
  0
LINE
  5
102
  8
1
  6
CONTINUOUS
 62
     7
 10
-73.839216221
 20
222.1650240102
 30
0.0
 11
-75.0573826765
 21
221.5414658827
 31
0.0
  0
LINE
  5
103
  8
1
  6
CONTINUOUS
 62
     7
 10
122.7852274125
 20
314.1669433592
 30
0.0
 11
-98.232966231
 21
314.1669433592
 31
0.0
  0
LINE
  5
104
  8
1
  6
CONTINUOUS
 62
     7
 10
98.55997903
 20
219.6895354727
 30
0.0
 11
117.083453015
 21
193.3549987527
 31
0.0
  0
ARC
  5
105
  8
1
  6
CONTINUOUS
 62
     7
 10
11.6081078515
 20
145.201234262
 30
0.0
 40
0.6311444844
 50
245.8516255483001
 51
262.2655884835
  0
ARC
  5
106
  8
1
  6
CONTINUOUS
 62
     7
 10
45.2078029556
 20
328.166286068
 30
0.0
 40
144.2522969768
 50
178.7732782621
 51
185.4403541008
  0
LINE
  5
107
  8
1
  6
CONTINUOUS
 62
     7
 10
-94.2274709515
 20
661.5175395737
 30
0.0
 11
-94.269440061
 21
661.5389188317
 31
0.0
  0
LINE
  5
108
  8
1
  6
CONTINUOUS
 62
     7
 10
-96.209221863
 20
661.4043260227
 30
0.0
 11
-95.213626838
 21
661.5175395737
 31
0.0
  0
ARC
  5
109
  8
1
  6
CONTINUOUS
 62
     7
 10
-11.2243432637
 20
145.2012342637
 30
0.0
 40
0.6311444861
 50
277.7344114728
 51
294.1483744081
  0
ARC
  5
10A
  8
1
  6
CONTINUOUS
 62
     7
 10
10.9858263343
 20
143.8132516279
 30
0.0
 40
0.8899505419
 50
65.8516256579
 51
89.0236930656
  0
ARC
  5
10B
  8
1
  6
CONTINUOUS
 62
     7
 10
5.1777130498
 20
134.0822801477
 30
0.0
 40
6.5071324616
 50
314.9887276415001
 51
337.4671370148999
  0
ARC
  5
10C
  8
1
  6
CONTINUOUS
 62
     7
 10
5.1834192702
 20
134.0765716815
 30
0.0
 40
6.4990610591
 50
292.4671628632
 51
314.9887276418
  0
ARC
  5
10D
  8
1
  6
CONTINUOUS
 62
     7
 10
5.177482926
 20
134.090926545
 30
0.0
 40
6.5145949668
 50
270.0000000044
 51
292.4671628737
  0
LINE
  5
10E
  8
1
  6
CONTINUOUS
 62
     7
 10
-10.257335538
 20
144.7078312207
 30
0.0
 11
10.6411001255
 21
144.7078312207
 31
0.0
  0
ARC
  5
10F
  8
1
  6
CONTINUOUS
 62
     7
 10
119.957994492
 20
660.0375403262
 30
0.0
 40
1.5232965385
 50
13.7098278391
 51
103.693354296
  0
LINE
  5
110
  8
1
  6
CONTINUOUS
 62
     7
 10
119.597391426
 20
661.5175395737
 30
0.0
 11
118.611235539
 21
661.5175395737
 31
0.0
  0
LINE
  5
111
  8
1
  6
CONTINUOUS
 62
     7
 10
5.334707917
 20
127.5763315782
 30
0.0
 11
-4.950943329000001
 21
127.5763315782
 31
0.0
  0
LINE
  5
112
  8
1
  6
CONTINUOUS
 62
     7
 10
-95.358117706
 20
658.6687746187
 30
0.0
 11
-97.054125411
 21
660.3985689032
 31
0.0
  0
LINE
  5
113
  8
1
  6
CONTINUOUS
 62
     7
 10
-94.2274709515
 20
661.5175395737
 30
0.0
 11
-95.213626838
 21
661.5175395737
 31
0.0
  0
LINE
  5
114
  8
1
  6
CONTINUOUS
 62
     7
 10
-97.054125411
 20
660.3985689032
 30
0.0
 11
-96.209221863
 21
661.4043260227
 31
0.0
  0
LINE
  5
115
  8
1
  6
CONTINUOUS
 62
     7
 10
120.1132999535
 20
138.5096463527
 30
0.0
 11
122.6167308185
 21
138.5096463527
 31
0.0
  0
ARC
  5
116
  8
1
  6
CONTINUOUS
 62
     7
 10
5.192050901
 20
134.0763315788
 30
0.0
 40
6.491609593
 50
337.4671370107
 51
0.0
  0
LINE
  5
117
  8
1
  6
CONTINUOUS
 62
     7
 10
122.6167308185
 20
314.1669433592
 30
0.0
 11
122.841231775
 21
314.7920067282
 31
0.0
  0
LINE
  5
118
  8
1
  6
CONTINUOUS
 62
     7
 10
-95.358117706
 20
193.3650240102
 30
0.0
 11
-99.0190829203
 21
123.5096463527
 31
0.0
  0
LINE
  5
119
  8
1
  6
CONTINUOUS
 62
     7
 10
-82.35891906
 20
222.1650240102
 30
0.0
 11
106.7426836455
 21
222.1650240102
 31
0.0
  0
LINE
  5
11A
  8
1
  6
CONTINUOUS
 62
     7
 10
-97.1437613705
 20
630.1669433592
 30
0.0
 11
-96.949368004
 21
625.1669433592
 31
0.0
  0
LINE
  5
11B
  8
1
  6
CONTINUOUS
 62
     7
 10
-97.1437613705
 20
630.1669433592
 30
0.0
 11
-97.2539637665
 21
630.1669433592
 31
0.0
  0
LINE
  5
11C
  8
1
  6
CONTINUOUS
 62
     7
 10
123.3951970745
 20
331.2545398737
 30
0.0
 11
121.8380581835
 21
542.6662628577
 31
0.0
  0
ARC
  5
11D
  8
1
  6
CONTINUOUS
 62
     7
 10
-30.0802947721
 20
328.1784129918
 30
0.0
 40
153.506316333
 50
354.9972089638
 51
1.148232136899992
  0
LINE
  5
11E
  8
1
  6
CONTINUOUS
 62
     7
 10
99.4411472645
 20
221.5414658827
 30
0.0
 11
98.222980809
 21
222.1650240102
 31
0.0
  0
LINE
  5
11F
  8
1
  6
CONTINUOUS
 62
     7
 10
11.6385210625
 20
143.9359528882
 30
0.0
 11
11.683592291
 21
134.1060937972
 31
0.0
  0
LINE
  5
120
  8
1
  6
CONTINUOUS
 62
     7
 10
11.640721683
 20
144.5595790592
 30
0.0
 11
11.435364468
 21
145.4277942962
 31
0.0
  0
ARC
  5
121
  8
1
  6
CONTINUOUS
 62
     7
 10
90.5183956255
 20
159.1059094322
 30
0.0
 40
2.985125187
 50
9.8651475966
 51
89.95269344289999
  0
LINE
  5
122
  8
1
  6
CONTINUOUS
 62
     7
 10
-10.806273896
 20
146.7523411702
 30
0.0
 11
-11.2223662355
 21
146.7808366257
 31
0.0
  0
LINE
  5
123
  8
1
  6
CONTINUOUS
 62
     7
 10
93.459381935
 20
159.6173504447
 30
0.0
 11
95.5824378165
 21
147.5769022227
 31
0.0
  0
LINE
  5
124
  8
1
  6
CONTINUOUS
 62
     7
 10
11.639719163
 20
144.4535909787
 30
0.0
 11
11.640721683
 21
144.5595790592
 31
0.0
  0
LINE
  5
125
  8
1
  6
CONTINUOUS
 62
     7
 10
-11.0534227525
 20
145.4134873212
 30
0.0
 11
-10.806273896
 21
146.7523411702
 31
0.0
  0
LINE
  5
126
  8
1
  6
CONTINUOUS
 62
     7
 10
11.190038484
 20
146.7523411702
 30
0.0
 11
11.435364468
 21
145.4277942962
 31
0.0
  0
ARC
  5
127
  8
1
  6
CONTINUOUS
 62
     7
 10
116.961563631
 20
141.3263283467
 30
0.0
 40
3.000003232
 50
3.0000585739
 51
89.9999414261
  0
LINE
  5
128
  8
1
  6
CONTINUOUS
 62
     7
 10
11.67542402
 20
144.3262817722
 30
0.0
 11
11.640721683
 21
144.5595790592
 31
0.0
  0
ARC
  5
129
  8
1
  6
CONTINUOUS
 62
     7
 10
-11.7908188125
 20
147.3263315782
 30
0.0
 40
3.0
 50
190.0
 51
270.0
  0
ARC
  5
12A
  8
1
  6
CONTINUOUS
 62
     7
 10
-71.8254165995
 20
147.3263315782
 30
0.0
 40
3.0
 50
270.0
 51
349.9999999999999
  0
LINE
  5
12B
  8
1
  6
CONTINUOUS
 62
     7
 10
95.5824378165
 20
147.5769022227
 30
0.0
 11
95.6030810655
 21
147.6016169942
 31
0.0
  0
LINE
  5
12C
  8
1
  6
CONTINUOUS
 62
     7
 10
93.2547579285
 20
146.8053870452
 30
0.0
 11
91.132965091
 21
158.8386721877
 31
0.0
  0
LINE
  5
12D
  8
1
  6
CONTINUOUS
 62
     7
 10
-11.0534227525
 20
145.4134873212
 30
0.0
 11
-11.256955829
 21
144.5594448457
 31
0.0
  0
LINE
  5
12E
  8
1
  6
CONTINUOUS
 62
     7
 10
17.3629042785
 20
162.0910336017
 30
0.0
 11
90.520860309
 21
162.0910336017
 31
0.0
  0
LINE
  5
12F
  8
1
  6
CONTINUOUS
 62
     7
 10
11.1093294985
 20
155.0003597157
 30
0.0
 11
11.273477822
 21
154.5032154997
 31
0.0
  0
ARC
  5
130
  8
1
  6
CONTINUOUS
 62
     7
 10
-9.9828862833
 20
150.2553292269
 30
0.0
 40
21.6766591698
 50
359.243265426
 51
11.30115497290001
  0
ARC
  5
131
  8
1
  6
CONTINUOUS
 62
     7
 10
-5.5330832125
 20
151.7638935157
 30
0.0
 40
6.0475211685
 50
142.9322920713
 51
197.2649726384
  0
ARC
  5
132
  8
1
  6
CONTINUOUS
 62
     7
 10
96.2091811875
 20
147.3263315782
 30
0.0
 40
3.0
 50
190.0
 51
270.0
  0
LINE
  5
133
  8
1
  6
CONTINUOUS
 62
     7
 10
116.961566698
 20
144.3263315782
 30
0.0
 11
96.2091811875
 21
144.3263315782
 31
0.0
  0
LINE
  5
134
  8
1
  6
CONTINUOUS
 62
     7
 10
11.190038484
 20
146.7523411702
 30
0.0
 11
12.1559344105
 21
146.7523411702
 31
0.0
  0
LINE
  5
135
  8
1
  6
CONTINUOUS
 62
     7
 10
-11.2916594325
 20
144.3263315782
 30
0.0
 11
-11.7908188125
 21
144.3263315782
 31
0.0
  0
LINE
  5
136
  8
1
  6
CONTINUOUS
 62
     7
 10
-71.8254165995
 20
144.3263315782
 30
0.0
 11
-92.5778021105
 21
144.3263315782
 31
0.0
  0
LINE
  5
137
  8
1
  6
CONTINUOUS
 62
     7
 10
-14.7452420715
 20
146.8053870452
 30
0.0
 11
-16.867034909
 21
158.8386721877
 31
0.0
  0
LINE
  5
138
  8
1
  6
CONTINUOUS
 62
     7
 10
10.7423087015
 20
155.4090875257
 30
0.0
 11
11.1093294985
 21
155.0003597157
 31
0.0
  0
ARC
  5
139
  8
1
  6
CONTINUOUS
 62
     7
 10
-92.5777993495
 20
141.3263286692
 30
0.0
 40
3.000002909
 50
90.00005272459997
 51
176.9999472754
  0
ARC
  5
13A
  8
1
  6
CONTINUOUS
 62
     7
 10
11.674574597
 20
147.3262816517
 30
0.0
 40
3.0
 50
270.0162227827
 51
349.9999999999999
  0
LINE
  5
13B
  8
1
  6
CONTINUOUS
 62
     7
 10
-11.256955829
 20
144.5594448457
 30
0.0
 11
-11.2916594325
 21
144.3263315782
 31
0.0
  0
LINE
  5
13C
  8
1
  6
CONTINUOUS
 62
     7
 10
-11.2785807045
 20
146.8459574682
 30
0.0
 11
-11.308117706
 21
149.9690428602
 31
0.0
  0
ARC
  5
13D
  8
1
  6
CONTINUOUS
 62
     7
 10
17.3638959275
 20
159.1076592697
 30
0.0
 40
2.9833744965
 50
90.0190446479
 51
170.1631143126
  0
LINE
  5
13E
  8
1
  6
CONTINUOUS
 62
     7
 10
16.7507994965
 20
158.8386721877
 30
0.0
 11
14.628997856
 21
146.8053371187
 31
0.0
  0
LINE
  5
13F
  8
1
  6
CONTINUOUS
 62
     7
 10
-11.2559545755
 20
144.4535909787
 30
0.0
 11
-11.256955829
 21
144.5594448457
 31
0.0
  0
LINE
  5
140
  8
1
  6
CONTINUOUS
 62
     7
 10
12.1559344105
 20
146.7523411702
 30
0.0
 11
14.4243826525
 21
159.6173504447
 31
0.0
  0
ARC
  5
141
  8
1
  6
CONTINUOUS
 62
     7
 10
-56.669674765
 20
152.1645501137
 30
0.0
 40
6.999552694
 50
187.4967896998
 51
269.9875768291
  0
LINE
  5
142
  8
1
  6
CONTINUOUS
 62
     7
 10
35.772312964
 20
159.6649973322
 30
0.0
 11
17.72830278
 21
159.6649973322
 31
0.0
  0
LINE
  5
143
  8
1
  6
CONTINUOUS
 62
     7
 10
-64.717078921
 20
159.6649973322
 30
0.0
 11
-65.77169722
 21
159.6649973322
 31
0.0
  0
ARC
  5
144
  8
1
  6
CONTINUOUS
 62
     7
 10
81.053436691
 20
152.1645531477
 30
0.0
 40
6.9995557285
 50
270.0124449525
 51
352.5031885186
  0
LINE
  5
145
  8
1
  6
CONTINUOUS
 62
     7
 10
89.100843509
 20
159.6649973322
 30
0.0
 11
90.155461808
 21
159.6649973322
 31
0.0
  0
LINE
  5
146
  8
1
  6
CONTINUOUS
 62
     7
 10
36.390853061
 20
151.2494203532
 30
0.0
 11
36.390603505
 21
151.2513139867
 31
0.0
  0
LINE
  5
147
  8
1
  6
CONTINUOUS
 62
     7
 10
88.8375385135
 20
157.6649973322
 30
0.0
 11
87.9931610825
 21
151.2513139867
 31
0.0
  0
ARC
  5
148
  8
1
  6
CONTINUOUS
 62
     7
 10
43.3301746315
 20
152.1643781087
 30
0.0
 40
6.9993807975
 50
187.511189578
 51
270.0044441178001
  0
LINE
  5
149
  8
1
  6
CONTINUOUS
 62
     7
 10
36.390603505
 20
151.2513139867
 30
0.0
 11
35.546226074
 21
157.6649973322
 31
0.0
  0
LINE
  5
14A
  8
1
  6
CONTINUOUS
 62
     7
 10
35.772312964
 20
157.6649973322
 30
0.0
 11
35.772312964
 21
159.6649973322
 31
0.0
  0
ARC
  5
14B
  8
1
  6
CONTINUOUS
 62
     7
 10
-18.9470709035
 20
152.1678595062
 30
0.0
 40
7.002862175
 50
270.000965092
 51
306.3141666850999
  0
LINE
  5
14C
  8
1
  6
CONTINUOUS
 62
     7
 10
-56.6711924445
 20
145.1649973322
 30
0.0
 11
-18.946952947
 21
145.1649973322
 31
0.0
  0
LINE
  5
14D
  8
1
  6
CONTINUOUS
 62
     7
 10
35.772312964
 20
157.6649973322
 30
0.0
 11
35.2909032575
 21
157.6649973322
 31
0.0
  0
LINE
  5
14E
  8
1
  6
CONTINUOUS
 62
     7
 10
18.191882294
 20
145.8246835562
 30
0.0
 11
18.191882294
 21
127.4103342122
 31
0.0
  0
LINE
  5
14F
  8
1
  6
CONTINUOUS
 62
     7
 10
35.2909032575
 20
159.6649973322
 30
0.0
 11
35.2909032575
 21
157.6649973322
 31
0.0
  0
LINE
  5
150
  8
1
  6
CONTINUOUS
 62
     7
 10
91.339915635
 20
157.6649973322
 30
0.0
 11
88.8375385135
 21
157.6649973322
 31
0.0
  0
LINE
  5
151
  8
1
  6
CONTINUOUS
 62
     7
 10
81.053047053
 20
145.1649973322
 30
0.0
 11
43.330717535
 21
145.1649973322
 31
0.0
  0
LINE
  5
152
  8
1
  6
CONTINUOUS
 62
     7
 10
-66.956151047
 20
157.6649973322
 30
0.0
 11
-64.453773926
 21
157.6649973322
 31
0.0
  0
LINE
  5
153
  8
1
  6
CONTINUOUS
 62
     7
 10
-64.453773926
 20
157.6649973322
 30
0.0
 11
-63.609396495
 21
151.2513139867
 31
0.0
  0
TEXT
  5
154
  8
1
  6
CONTINUOUS
 62
     7
 10
195.6095247782918
 20
72.07954536363636
 30
0.0
 40
8.0
  1
ＷＢＥＶ－３ＧＨ
 41
0.74813
  0
LINE
  5
155
  8
1
  6
CONTINUOUS
 62
     7
 10
264.624697736
 20
314.1669433592
 30
0.0
 11
264.624697736
 21
542.6669433592
 31
0.0
  0
LINE
  5
156
  8
1
  6
CONTINUOUS
 62
     7
 10
329.8509040205
 20
661.0043794567
 30
0.0
 11
329.8509040205
 21
661.0009376042
 31
0.0
  0
LINE
  5
157
  8
1
  6
CONTINUOUS
 62
     7
 10
430.824724414
 20
328.9603736357
 30
0.0
 11
430.824724414
 21
651.5744479817
 31
0.0
  0
ARC
  5
158
  8
1
  6
CONTINUOUS
 62
     7
 10
358.213390168
 20
315.1669433592
 30
0.0
 40
1.0
 50
270.0
 51
0.0
  0
ARC
  5
159
  8
1
  6
CONTINUOUS
 62
     7
 10
352.4756124847
 20
314.4580815227
 30
0.0
 40
0.2093594783
 50
316.0282478815
 51
330.5430099519001
  0
LINE
  5
15A
  8
1
  6
CONTINUOUS
 62
     7
 10
430.824724414
 20
328.9603736357
 30
0.0
 11
363.2563456115
 21
328.3707133272
 31
0.0
  0
LINE
  5
15B
  8
1
  6
CONTINUOUS
 62
     7
 10
356.124697736
 20
645.9389188317
 30
0.0
 11
356.124697736
 21
645.7669433592
 31
0.0
  0
ARC
  5
15C
  8
1
  6
CONTINUOUS
 62
     7
 10
338.422188302
 20
625.1668714677
 30
0.0
 40
5.000071892
 50
90.0008238019
 51
179.9991761981
  0
LINE
  5
15D
  8
1
  6
CONTINUOUS
 62
     7
 10
354.6596946615
 20
652.2391301267
 30
0.0
 11
430.824724414
 21
651.5744479817
 31
0.0
  0
LINE
  5
15E
  8
1
  6
CONTINUOUS
 62
     7
 10
326.824724414
 20
660.8457841042
 30
0.0
 11
326.8212987815
 21
660.8421627212
 31
0.0
  0
LINE
  5
15F
  8
1
  6
CONTINUOUS
 62
     7
 10
313.709536054
 20
660.1546568897
 30
0.0
 11
313.9373458405
 21
660.1669433592
 31
0.0
  0
ARC
  5
160
  8
1
  6
CONTINUOUS
 62
     7
 10
614.624697736
 20
542.6669433592
 30
0.0
 40
350.0
 50
162.1599865588
 51
179.992242963
  0
LINE
  5
161
  8
1
  6
CONTINUOUS
 62
     7
 10
313.3814414865
 20
658.6687775182
 30
0.0
 11
313.4028396975
 21
658.7951228367
 31
0.0
  0
LINE
  5
162
  8
1
  6
CONTINUOUS
 62
     7
 10
1.834073749
 20
218.0797183517
 30
0.0
 11
96.8119214205
 21
218.0797183437
 31
0.0
  0
LINE
  5
163
  8
1
  6
CONTINUOUS
 62
     7
 10
11.691882294
 20
149.9260232102
 30
0.0
 11
11.691882294
 21
149.9690428602
 31
0.0
  0
LINE
  5
164
  8
1
  6
CONTINUOUS
 62
     7
 10
-72.4281568515
 20
218.0797183577
 30
0.0
 11
-1.450309161500005
 21
218.0797183517
 31
0.0
  0
LINE
  5
165
  8
1
  6
CONTINUOUS
 62
     7
 10
264.624697736
 20
314.1669433592
 30
0.0
 11
348.2800753935
 21
314.1669433592
 31
0.0
  0
LINE
  5
166
  8
1
  6
CONTINUOUS
 62
     7
 10
-80.2308088585
 20
207.8504773827
 30
0.0
 11
-72.4281568515
 21
218.0797183577
 31
0.0
  0
LINE
  5
167
  8
1
  6
CONTINUOUS
 62
     7
 10
326.824724414
 20
660.8423422512
 30
0.0
 11
326.824724414
 21
660.8457841042
 31
0.0
  0
LINE
  5
168
  8
1
  6
CONTINUOUS
 62
     7
 10
338.4221164105
 20
630.1669433592
 30
0.0
 11
340.524697736
 21
630.1669433592
 31
0.0
  0
ARC
  5
169
  8
1
  6
CONTINUOUS
 62
     7
 10
340.5241944935
 20
645.9385796667
 30
0.0
 40
15.6005032465
 50
0.0012456472
 51
67.955478218
  0
ARC
  5
16A
  8
1
  6
CONTINUOUS
 62
     7
 10
340.524697736
 20
645.9389188317
 30
0.0
 40
15.6
 50
67.9567238653
 51
92.99999999999999
  0
LINE
  5
16B
  8
1
  6
CONTINUOUS
 62
     7
 10
333.4221164105
 20
542.6662628577
 30
0.0
 11
333.4221164105
 21
625.1669433592
 31
0.0
  0
LINE
  5
16C
  8
1
  6
CONTINUOUS
 62
     7
 10
363.134096425
 20
331.2545398737
 30
0.0
 11
333.4221164105
 21
542.6662628577
 31
0.0
  0
ARC
  5
16D
  8
1
  6
CONTINUOUS
 62
     7
 10
340.524471846
 20
645.7671692492
 30
0.0
 40
15.6002258915
 50
270.0008296376001
 51
0.0
  0
ARC
  5
16E
  8
1
  6
CONTINUOUS
 62
     7
 10
617.47873441
 20
546.6348518012
 30
0.0
 40
324.0783284675
 50
159.7754589294
 51
180.701528204
  0
LINE
  5
16F
  8
1
  6
CONTINUOUS
 62
     7
 10
293.424697736
 20
314.1669433592
 30
0.0
 11
293.424697736
 21
542.6669433592
 31
0.0
  0
ARC
  5
170
  8
1
  6
CONTINUOUS
 62
     7
 10
348.2800753935
 20
329.1669433592
 30
0.0
 40
15.0
 50
270.0
 51
8.0
  0
LINE
  5
171
  8
1
  6
CONTINUOUS
 62
     7
 10
313.9373458405
 20
660.1669433592
 30
0.0
 11
339.7082568185
 21
661.5175395737
 31
0.0
  0
ARC
  5
172
  8
1
  6
CONTINUOUS
 62
     7
 10
317.8625425585
 20
585.2697282527
 30
0.0
 40
75.0
 50
93.17428685280001
 51
117.7754843027
  0
LINE
  5
173
  8
1
  6
CONTINUOUS
 62
     7
 10
313.4028396975
 20
658.7951228367
 30
0.0
 11
313.709536054
 21
660.1546568897
 31
0.0
  0
LINE
  5
174
  8
1
  6
CONTINUOUS
 62
     7
 10
359.213390168
 20
318.1669433592
 30
0.0
 11
359.213390168
 21
315.1669433592
 31
0.0
  0
LINE
  5
175
  8
1
  6
CONTINUOUS
 62
     7
 10
358.474869554
 20
318.1669433592
 30
0.0
 11
359.213390168
 21
318.1669433592
 31
0.0
  0
LINE
  5
176
  8
1
  6
CONTINUOUS
 62
     7
 10
358.213390168
 20
314.1669433592
 30
0.0
 11
352.688206752
 21
314.1669433592
 31
0.0
  0
ARC
  5
177
  8
1
  6
CONTINUOUS
 62
     7
 10
352.688206752
 20
314.2529840859
 30
0.0
 40
0.0860407267
 50
136.0282480906
 51
269.9999999879
  0
LINE
  5
178
  8
1
  6
CONTINUOUS
 62
     7
 10
333.424724414
 20
625.2921516787
 30
0.0
 11
333.424724414
 21
625.2522382102
 31
0.0
  0
LINE
  5
179
  8
1
  6
CONTINUOUS
 62
     7
 10
281.4542120885
 20
649.8930012627
 30
0.0
 11
282.911934798
 21
651.6282621212
 31
0.0
  0
LINE
  5
17A
  8
1
  6
CONTINUOUS
 62
     7
 10
96.8119214205
 20
218.0797183437
 30
0.0
 11
104.6145736115
 21
207.8504771502
 31
0.0
  0
LINE
  5
17B
  8
1
  6
CONTINUOUS
 62
     7
 10
0.7005336625
 20
149.8274405472
 30
0.0
 11
0.7005336625
 21
219.5644660907
 31
0.0
  0
LINE
  5
17C
  8
1
  6
CONTINUOUS
 62
     7
 10
-12.3969189345
 20
147.6016169942
 30
0.0
 11
-14.519974816
 21
159.6420652162
 31
0.0
  0
LINE
  5
17D
  8
1
  6
CONTINUOUS
 62
     7
 10
-69.0962605965
 20
159.6420652162
 30
0.0
 11
-71.219316478
 21
147.6016169942
 31
0.0
  0
LINE
  5
17E
  8
1
  6
CONTINUOUS
 62
     7
 10
11.6837512335
 20
146.8181631507
 30
0.0
 11
11.691882294
 21
149.9260232102
 31
0.0
  0
LINE
  5
17F
  8
1
  6
CONTINUOUS
 62
     7
 10
-17.4553385895
 20
162.1195290577
 30
0.0
 11
-66.160896823
 21
162.1195290577
 31
0.0
  0
ARC
  5
180
  8
1
  6
CONTINUOUS
 62
     7
 10
-17.456036215
 20
159.1410227942
 30
0.0
 40
2.978506345
 50
9.6843048238
 51
89.9865801873
  0
ARC
  5
181
  8
1
  6
CONTINUOUS
 62
     7
 10
1.6850769851
 20
146.5552272784
 30
0.0
 40
0.5263596951
 50
186.9259112699
 51
248.138799587
  0
ARC
  5
182
  8
1
  6
CONTINUOUS
 62
     7
 10
-72.2055049358
 20
147.783684486
 30
0.0
 40
1.0031729826
 50
287.4509985468
 51
309.8706420764
  0
LINE
  5
183
  8
1
  6
CONTINUOUS
 62
     7
 10
110.3810048635
 20
194.3190586772
 30
0.0
 11
1.786248406000015
 21
194.3190586772
 31
0.0
  0
LINE
  5
184
  8
1
  6
CONTINUOUS
 62
     7
 10
104.6145736115
 20
207.8504771502
 30
0.0
 11
111.99938456
 21
197.4789436557
 31
0.0
  0
LINE
  5
185
  8
1
  6
CONTINUOUS
 62
     7
 10
-1.4024838185
 20
194.3190586772
 30
0.0
 11
-85.9972402765
 21
194.3190586767
 31
0.0
  0
ARC
  5
186
  8
1
  6
CONTINUOUS
 62
     7
 10
-66.162166245
 20
159.1433534037
 30
0.0
 40
2.9761759245
 50
89.9755617453
 51
170.3535532436
  0
LINE
  5
187
  8
1
  6
CONTINUOUS
 62
     7
 10
-87.615619973
 20
197.4789436552
 30
0.0
 11
-80.2308088585
 21
207.8504773827
 31
0.0
  0
ARC
  5
188
  8
1
  6
CONTINUOUS
 62
     7
 10
4.1379341651
 20
148.5260598339
 30
0.0
 40
3.4384740521
 50
180.1665664326
 51
203.3390984029
  0
ARC
  5
189
  8
1
  6
CONTINUOUS
 62
     7
 10
182.8137066865
 20
149.0454954149
 30
0.0
 40
182.115001608
 50
179.7539887981
 51
180.1665664143
  0
ARC
  5
18A
  8
1
  6
CONTINUOUS
 62
     7
 10
1.6421250732
 20
146.1976815089
 30
0.0
 40
2.4387141857
 50
156.6609016265
 51
173.0740887591
  0
ARC
  5
18B
  8
1
  6
CONTINUOUS
 62
     7
 10
-3.7541695777
 20
148.5260598339
 30
0.0
 40
3.4384740521
 50
336.6609015971
 51
359.8334335674
  0
ARC
  5
18C
  8
1
  6
CONTINUOUS
 62
     7
 10
-85.995163556
 20
196.3145027912
 30
0.0
 40
1.995445195
 50
144.2994216154
 51
269.9403705246
  0
ARC
  5
18D
  8
1
  6
CONTINUOUS
 62
     7
 10
-1.2583604854
 20
146.1976815071
 30
0.0
 40
2.4387141861
 50
6.925911280600001
 51
23.3390984132
  0
ARC
  5
18E
  8
1
  6
CONTINUOUS
 62
     7
 10
-72.2037520712
 20
147.7781084896
 30
0.0
 40
0.9973279617000002
 50
270.1017214345
 51
287.4509984815
  0
ARC
  5
18F
  8
1
  6
CONTINUOUS
 62
     7
 10
110.3801304065
 20
196.3138870352
 30
0.0
 40
1.9948285495
 50
270.0251162888
 51
35.73509157140001
  0
ARC
  5
190
  8
1
  6
CONTINUOUS
 62
     7
 10
-182.4299420988
 20
149.0454954844
 30
0.0
 40
182.115001608
 50
359.8334335639
 51
0.2460111799999822
  0
ARC
  5
191
  8
1
  6
CONTINUOUS
 62
     7
 10
-1.3013123973
 20
146.5552272788
 30
0.0
 40
0.5263596954
 50
291.8612003705
 51
353.0740886878
  0
LINE
  5
192
  8
1
  6
CONTINUOUS
 62
     7
 10
-0.3167690745
 20
219.5644660907
 30
0.0
 11
-0.3167690745
 21
149.8274405472
 31
0.0
  0
ENDSEC
  0
EOF
