  0
SECTION
  2
HEADER
  9
$ACADVER
  1
AC1006
  9
$DWGCODEPAGE
  3
ansi_932
  9
$INSBASE
 10
0.0
 20
0.0
 30
0.0
  9
$EXTMIN
 10
-1073.0
 20
-623.4449159487564
  9
$EXTMAX
 10
-161.5550840512436
 20
403.0000000000002
  9
$LIMMIN
 10
0.0
 20
0.0
  9
$LIMMAX
 10
12.0
 20
9.0
  9
$ORTHOMODE
 70
     0
  9
$REGENMODE
 70
     1
  9
$FILLMODE
 70
     1
  9
$QTEXTMODE
 70
     0
  9
$MIRRTEXT
 70
     1
  9
$DRAGMODE
 70
     2
  9
$LTSCALE
 40
1.0
  9
$OSMODE
 70
    37
  9
$ATTMODE
 70
     1
  9
$TEXTSIZE
 40
0.2
  9
$TRACEWID
 40
0.05
  9
$TEXTSTYLE
  7
STANDARD
  9
$CLAYER
  8
0
  9
$CELTYPE
  6
BYLAYER
  9
$CECOLOR
 62
   256
  9
$DIMSCALE
 40
1.0
  9
$DIMASZ
 40
3.0
  9
$DIMEXO
 40
0.0625
  9
$DIMDLI
 40
0.38
  9
$DIMRND
 40
0.0
  9
$DIMDLE
 40
0.0
  9
$DIMEXE
 40
1.5
  9
$DIMTP
 40
0.0
  9
$DIMTM
 40
0.0
  9
$DIMTXT
 40
3.0
  9
$DIMCEN
 40
0.09
  9
$DIMTSZ
 40
0.0
  9
$DIMTOL
 70
     0
  9
$DIMLIM
 70
     0
  9
$DIMTIH
 70
     1
  9
$DIMTOH
 70
     1
  9
$DIMSE1
 70
     0
  9
$DIMSE2
 70
     0
  9
$DIMTAD
 70
     1
  9
$DIMZIN
 70
     0
  9
$DIMBLK
  1

  9
$DIMASO
 70
     1
  9
$DIMSHO
 70
     1
  9
$DIMPOST
  1

  9
$DIMAPOST
  1

  9
$DIMALT
 70
     0
  9
$DIMALTD
 70
     2
  9
$DIMALTF
 40
25.4
  9
$DIMLFAC
 40
1.0
  9
$DIMTOFL
 70
     0
  9
$DIMTVP
 40
0.0
  9
$DIMTIX
 70
     0
  9
$DIMSOXD
 70
     0
  9
$DIMSAH
 70
     0
  9
$DIMBLK1
  1

  9
$DIMBLK2
  1

  9
$LUNITS
 70
     2
  9
$LUPREC
 70
     4
  9
$SKETCHINC
 40
0.1
  9
$FILLETRAD
 40
0.5
  9
$AUNITS
 70
     0
  9
$AUPREC
 70
     0
  9
$MENU
  1
.
  9
$ELEVATION
 40
0.0
  9
$THICKNESS
 40
0.0
  9
$LIMCHECK
 70
     0
  9
$CHAMFERA
 40
0.0
  9
$CHAMFERB
 40
0.0
  9
$SKPOLY
 70
     0
  9
$TDCREATE
 40
2460200.484465151
  9
$TDUPDATE
 40
2460200.484465532
  9
$TDINDWG
 40
0.0000000116
  9
$TDUSRTIMER
 40
0.0000000116
  9
$USRTIMER
 70
     1
  9
$ANGBASE
 50
0.0
  9
$ANGDIR
 70
     0
  9
$PDMODE
 70
     0
  9
$PDSIZE
 40
0.0
  9
$PLINEWID
 40
0.0
  9
$COORDS
 70
     1
  9
$SPLFRAME
 70
     0
  9
$SPLINETYPE
 70
     6
  9
$SPLINESEGS
 70
     8
  9
$ATTDIA
 70
     0
  9
$ATTREQ
 70
     1
  9
$HANDLING
 70
     1
  9
$HANDSEED
  5
52C
  9
$SURFTAB1
 70
     6
  9
$SURFTAB2
 70
     6
  9
$SURFTYPE
 70
     6
  9
$SURFU
 70
     6
  9
$SURFV
 70
     6
  9
$UCSNAME
  2

  9
$UCSORG
 10
0.0
 20
0.0
 30
0.0
  9
$UCSXDIR
 10
1.0
 20
0.0
 30
0.0
  9
$UCSYDIR
 10
0.0
 20
1.0
 30
0.0
  9
$USERI1
 70
     0
  9
$USERI2
 70
     0
  9
$USERI3
 70
     0
  9
$USERI4
 70
     0
  9
$USERI5
 70
     0
  9
$USERR1
 40
0.0
  9
$USERR2
 40
0.0
  9
$USERR3
 40
0.0
  9
$USERR4
 40
0.0
  9
$USERR5
 40
0.0
  9
$WORLDVIEW
 70
     1
  0
ENDSEC
  0
SECTION
  2
TABLES
  0
TABLE
  2
VPORT
 70
     1
  0
VPORT
  2
*ACTIVE
 70
     0
 10
0.0
 20
0.0
 11
1.0
 21
1.0
 12
-617.277542025622
 22
-110.2224579743781
 13
0.0
 23
0.0
 14
0.5
 24
0.5
 15
0.5
 25
0.5
 16
0.0
 26
0.0
 36
1.0
 17
0.0
 27
0.0
 37
0.0
 40
1026.444915948757
 41
1.6
 42
50.0
 43
0.0
 44
0.0
 50
0.0
 51
0.0
 71
     0
 72
   100
 73
     1
 74
     3
 75
     0
 76
     0
 77
     0
 78
     0
  0
ENDTAB
  0
TABLE
  2
LTYPE
 70
     1
  0
LTYPE
  2
CONTINUOUS
 70
     0
  3
Solid line
 72
    65
 73
     0
 40
0.0
  0
ENDTAB
  0
TABLE
  2
LAYER
 70
     1
  0
LAYER
  2
0
 70
     0
 62
     7
  6
CONTINUOUS
  0
ENDTAB
  0
TABLE
  2
STYLE
 70
     2
  0
STYLE
  2
STANDARD
 70
     0
 40
0.0
 41
1.0
 50
0.0
 71
     0
 42
0.2
  3
txt
  4

  0
STYLE
  2
ＭＳ_ゴシック
 70
     0
 40
0.0
 41
1.0
 50
0.0
 71
     0
 42
0.2
  3
ＭＳ ゴシック.shx
  4

  0
ENDTAB
  0
TABLE
  2
VIEW
 70
     0
  0
ENDTAB
  0
TABLE
  2
UCS
 70
     0
  0
ENDTAB
  0
ENDSEC
  0
SECTION
  2
BLOCKS
  0
BLOCK
  8
0
  2
D_FRAME_VIEW_1287
 70
     0
 10
0.0
 20
0.0
 30
0.0
  0
LINE
  5
71
  8
0
  6
CONTINUOUS
 62
     9
 10
-1022.758819045102
 20
83.00209764169956
 30
0.0
 11
-1023.124840917719
 21
83.00813525739308
 31
0.0
  0
ARC
  5
72
  8
0
  6
CONTINUOUS
 62
     9
 10
-1022.5
 20
107.0
 30
0.0
 40
24.0
 50
246.7325913526455
 51
268.5081336201615
  0
LINE
  5
73
  8
0
  6
CONTINUOUS
 62
     9
 10
-1021.875159082285
 20
83.00813525739296
 30
0.0
 11
-1022.241180954897
 21
83.00209764169956
 31
0.0
  0
ARC
  5
74
  8
0
  6
CONTINUOUS
 62
     9
 10
-1022.5
 20
107.0
 30
0.0
 40
24.0
 50
271.4918663798289
 51
293.2674086473545
  0
LINE
  5
75
  8
0
  6
CONTINUOUS
 62
     9
 10
-1022.241180954897
 20
83.00209764169955
 30
0.0
 11
-1022.5
 21
82.99999999999996
 31
0.0
  0
LINE
  5
76
  8
0
  6
CONTINUOUS
 62
   251
 10
-1022.241180954897
 20
83.00209764169956
 30
0.0
 11
-1022.241180954897
 21
83.00139560928817
 31
0.0
  0
LINE
  5
77
  8
0
  6
CONTINUOUS
 62
     9
 10
-1022.241180954897
 20
83.00139560928817
 30
0.0
 11
-1022.5
 21
82.99999999999997
 31
0.0
  0
LINE
  5
78
  8
0
  6
CONTINUOUS
 62
   251
 10
-1022.758819045103
 20
83.00209764169956
 30
0.0
 11
-1022.758819045103
 21
83.00139560928817
 31
0.0
  0
LINE
  5
79
  8
0
  6
CONTINUOUS
 62
     9
 10
-1022.5
 20
82.99999999999996
 30
0.0
 11
-1022.758819045102
 21
83.00209764169955
 31
0.0
  0
LINE
  5
7A
  8
0
  6
CONTINUOUS
 62
     9
 10
-1022.5
 20
82.99999999999997
 30
0.0
 11
-1022.758819045102
 21
83.00139560928817
 31
0.0
  0
ARC
  5
7B
  8
0
  6
CONTINUOUS
 62
     9
 10
-1022.5
 20
107.0
 30
0.0
 40
23.99999999999999
 50
268.5081336201615
 51
269.3821030670558
  0
ARC
  5
7C
  8
0
  6
CONTINUOUS
 62
     9
 10
-1022.5
 20
107.0
 30
0.0
 40
24.00000000000001
 50
270.6178969329442
 51
271.4918663798289
  0
LINE
  5
7D
  8
0
  6
CONTINUOUS
 62
     9
 10
-1017.646927569386
 20
109.258600042363
 30
0.0
 11
-1017.734366094803
 21
109.3758633252922
 31
0.0
  0
ARC
  5
7E
  8
0
  6
CONTINUOUS
 62
     9
 10
-1022.500000015015
 20
105.7310963243044
 30
0.0
 40
5.999632751507652
 50
37.40883640883836
 51
141.7247959934726
  0
LINE
  5
7F
  8
0
  6
CONTINUOUS
 62
     9
 10
-1027.209978827854
 20
109.4475049045826
 30
0.0
 11
-1027.353072430614
 21
109.258600042363
 31
0.0
  0
ARC
  5
80
  8
0
  6
CONTINUOUS
 62
     9
 10
-1041.908389797714
 20
91.61923615483961
 30
0.0
 40
29.99609462476697
 50
356.3547438662397
 51
35.64824389185742
  0
LINE
  5
81
  8
0
  6
CONTINUOUS
 62
     9
 10
-1017.533253843897
 20
109.1011822699292
 30
0.0
 11
-1017.646927569386
 21
109.258600042363
 31
0.0
  0
LINE
  5
82
  8
0
  6
CONTINUOUS
 62
     9
 10
-1011.972982646269
 20
89.71212016067504
 30
0.0
 11
-1011.981072943783
 21
89.58512670282259
 31
0.0
  0
LINE
  5
83
  8
0
  6
CONTINUOUS
 62
     9
 10
-1033.027017353731
 20
89.71212016067507
 30
0.0
 11
-1033.018927056236
 21
89.5851267031196
 31
0.0
  0
LINE
  5
84
  8
0
  6
CONTINUOUS
 62
     9
 10
-1027.353072430614
 20
109.258600042363
 30
0.0
 11
-1027.41293398298
 21
109.1759701698598
 31
0.0
  0
ARC
  5
85
  8
0
  6
CONTINUOUS
 62
     9
 10
-1003.091609177654
 20
91.61923603864518
 30
0.0
 40
29.99609563993834
 50
144.1757679449459
 51
183.6452557878317
  0
LINE
  5
86
  8
0
  6
CONTINUOUS
 62
     9
 10
-1011.981076758129
 20
89.58506682900718
 30
0.0
 11
-1012.254260891433
 21
85.29689353757915
 31
0.0
  0
LINE
  5
87
  8
0
  6
CONTINUOUS
 62
     9
 10
-1013.01944795104
 20
84.95189049267566
 30
0.0
 11
-1012.446251933441
 21
85.20729136123356
 31
0.0
  0
LINE
  5
88
  8
0
  6
CONTINUOUS
 62
     9
 10
-1012.446251933441
 20
85.20729136123354
 30
0.0
 11
-1012.254260891433
 21
85.29689353757915
 31
0.0
  0
LINE
  5
89
  8
0
  6
CONTINUOUS
 62
     9
 10
-1032.745739108567
 20
85.29689353757917
 30
0.0
 11
-1033.018923241871
 21
89.58506682900718
 31
0.0
  0
LINE
  5
8A
  8
0
  6
CONTINUOUS
 62
     9
 10
-1032.745739108567
 20
85.29689353757915
 30
0.0
 11
-1032.553827136171
 21
85.20732783901913
 31
0.0
  0
LINE
  5
8B
  8
0
  6
CONTINUOUS
 62
     9
 10
-1032.553827136171
 20
85.20732783901913
 30
0.0
 11
-1032.345435530366
 21
85.11239165149823
 31
0.0
  0
LINE
  5
8C
  8
0
  6
CONTINUOUS
 62
     9
 10
-1032.345435530366
 20
85.11239165149823
 30
0.0
 11
-1031.98055204896
 21
84.95189049267566
 31
0.0
  0
POLYLINE
  5
8D
  8
0
  6
CONTINUOUS
 62
   251
 66
     1
 10
0.0
 20
0.0
 30
0.0
  0
VERTEX
  5
292
  8
0
  6
CONTINUOUS
 62
   251
 10
-1022.758819045103
 20
54.15388033062636
 30
0.0
  0
VERTEX
  5
293
  8
0
  6
CONTINUOUS
 62
   251
 10
-1022.587155742748
 20
54.14815360408831
 30
0.0
  0
VERTEX
  5
294
  8
0
  6
CONTINUOUS
 62
   251
 10
-1022.412844257252
 20
54.14815360408831
 30
0.0
  0
VERTEX
  5
295
  8
0
  6
CONTINUOUS
 62
   251
 10
-1022.241180954897
 20
54.15388033062636
 30
0.0
  0
SEQEND
  5
4F9
  8
0
  6
CONTINUOUS
 62
   251
  0
LINE
  5
8E
  8
0
  6
CONTINUOUS
 62
     9
 10
-1029.735149729885
 20
54.5075434083988
 30
0.0
 11
-1032.373838255952
 21
83.24918889200444
 31
0.0
  0
LINE
  5
8F
  8
0
  6
CONTINUOUS
 62
     9
 10
-1023.57715764566
 20
83.02418444752301
 30
0.0
 11
-1032.373838255952
 21
83.24918889200443
 31
0.0
  0
LINE
  5
90
  8
0
  6
CONTINUOUS
 62
     9
 10
-1012.626161744048
 20
83.24918889200433
 30
0.0
 11
-1015.264850270115
 21
54.50754340839879
 31
0.0
  0
LINE
  5
91
  8
0
  6
CONTINUOUS
 62
     9
 10
-1012.626161744048
 20
83.24918889200433
 30
0.0
 11
-1021.422842354341
 21
83.02418444752297
 31
0.0
  0
LINE
  5
92
  8
0
  6
CONTINUOUS
 62
     9
 10
-1012.446400219565
 20
85.20722295220664
 30
0.0
 11
-1012.626161744048
 21
83.24918889200433
 31
0.0
  0
ARC
  5
93
  8
0
  6
CONTINUOUS
 62
     9
 10
-1022.5
 20
107.0
 30
0.0
 40
24.0
 50
293.2674086473545
 51
294.7651587778201
  0
LINE
  5
94
  8
0
  6
CONTINUOUS
 62
     9
 10
-1032.373838255952
 20
83.24918889200443
 30
0.0
 11
-1032.553599780435
 21
85.20722295220664
 31
0.0
  0
ARC
  5
95
  8
0
  6
CONTINUOUS
 62
     9
 10
-1022.5
 20
107.0
 30
0.0
 40
24.0
 50
245.7812230165513
 51
246.7325913526455
  0
ARC
  5
96
  8
0
  6
CONTINUOUS
 62
     9
 10
-1022.5
 20
107.0
 30
0.0
 40
24.0
 50
245.2348412221799
 51
245.7812230165514
  0
ARC
  5
97
  8
0
  6
CONTINUOUS
 62
     9
 10
-1022.5
 20
108.5
 30
0.0
 40
6.000000000000003
 50
36.67049090079845
 51
143.3295090992016
  0
LINE
  5
98
  8
0
  6
CONTINUOUS
 62
     9
 10
-1017.631069621294
 20
109.2363964504259
 30
0.0
 11
-1017.734491781735
 21
109.3757671428521
 31
0.0
  0
ARC
  5
99
  8
0
  6
CONTINUOUS
 62
     9
 10
-1022.499999300254
 20
105.7315008348789
 30
0.0
 40
5.999228186399314
 50
37.40577143401471
 51
141.7278334849765
  0
LINE
  5
9A
  8
0
  6
CONTINUOUS
 62
     9
 10
-1027.209857514099
 20
109.4474091273375
 30
0.0
 11
-1027.368930378706
 21
109.2363964504259
 31
0.0
  0
ARC
  5
9B
  8
0
  6
CONTINUOUS
 62
     9
 10
-1041.75
 20
94.16690891677584
 30
0.0
 40
29.99999999999999
 50
354.7545420677535
 51
36.67049090079831
  0
LINE
  5
9C
  8
0
  6
CONTINUOUS
 62
     9
 10
-1017.533908820016
 20
109.1006995428581
 30
0.0
 11
-1017.631069621294
 21
109.2363964504259
 31
0.0
  0
ARC
  5
9D
  8
0
  6
CONTINUOUS
 62
     9
 10
-1003.25
 20
94.16690891677585
 30
0.0
 40
29.99999999999999
 50
143.3295090992016
 51
185.2454579322465
  0
LINE
  5
9E
  8
0
  6
CONTINUOUS
 62
     9
 10
-1027.368930378706
 20
109.2363964504259
 30
0.0
 11
-1027.412543854455
 21
109.1756821448326
 31
0.0
  0
LINE
  5
9F
  8
0
  6
CONTINUOUS
 62
     9
 10
-1022.5
 20
44.4226637138407
 30
0.0
 11
-1022.199426398503
 21
44.46892400425401
 31
0.0
  0
LINE
  5
A0
  8
0
  6
CONTINUOUS
 62
     9
 10
-1022.800577952822
 20
44.4689253761325
 30
0.0
 11
-1022.5
 21
44.4226637138407
 31
0.0
  0
LINE
  5
A1
  8
0
  6
CONTINUOUS
 62
     9
 10
-1022.800578034682
 20
44.46890648840711
 30
0.0
 11
-1028.992688429199
 21
46.42035946122481
 31
0.0
  0
LINE
  5
A2
  8
0
  6
CONTINUOUS
 62
     9
 10
-1028.992688429199
 20
46.42035946122481
 30
0.0
 11
-1029.735149729885
 21
54.5075434083988
 31
0.0
  0
LINE
  5
A3
  8
0
  6
CONTINUOUS
 62
     9
 10
-1016.007311570801
 20
46.4203594612248
 30
0.0
 11
-1022.199421965318
 21
44.46890648840711
 31
0.0
  0
LINE
  5
A4
  8
0
  6
CONTINUOUS
 62
     9
 10
-1015.264850270115
 20
54.5075434083988
 30
0.0
 11
-1016.007311570801
 21
46.4203594612248
 31
0.0
  0
POLYLINE
  5
A5
  8
0
  6
CONTINUOUS
 62
     9
 66
     1
 10
0.0
 20
0.0
 30
0.0
  0
VERTEX
  5
296
  8
0
  6
CONTINUOUS
 62
     9
 10
-1058.091062633461
 20
350.1157968543962
 30
0.0
  0
VERTEX
  5
297
  8
0
  6
CONTINUOUS
 62
     9
 10
-1060.310242550828
 20
350.0788629451119
 30
0.0
  0
VERTEX
  5
298
  8
0
  6
CONTINUOUS
 62
     9
 10
-1062.445999541336
 20
349.9805745047574
 30
0.0
  0
VERTEX
  5
299
  8
0
  6
CONTINUOUS
 62
     9
 10
-1064.418046694574
 20
349.8246263709195
 30
0.0
  0
VERTEX
  5
29A
  8
0
  6
CONTINUOUS
 62
     9
 10
-1066.152251244589
 20
349.6168809117918
 30
0.0
  0
VERTEX
  5
29B
  8
0
  6
CONTINUOUS
 62
     9
 10
-1067.583421352627
 20
349.3651476493091
 30
0.0
  0
VERTEX
  5
29C
  8
0
  6
CONTINUOUS
 62
     9
 10
-1068.657756784506
 20
349.0788896853044
 30
0.0
  0
VERTEX
  5
29D
  8
0
  6
CONTINUOUS
 62
     9
 10
-1069.33487135727
 20
348.7688679666517
 30
0.0
  0
VERTEX
  5
29E
  8
0
  6
CONTINUOUS
 62
     9
 10
-1069.589311127759
 20
348.4467367621
 30
0.0
  0
SEQEND
  5
4FA
  8
0
  6
CONTINUOUS
 62
     9
  0
LINE
  5
A6
  8
0
  6
CONTINUOUS
 62
     9
 10
-1058.000778877041
 20
277.5479667545663
 30
0.0
 11
-1069.499027371339
 21
277.5479667545663
 31
0.0
  0
LINE
  5
A7
  8
0
  6
CONTINUOUS
 62
     9
 10
-1069.499027371339
 20
277.5479667545662
 30
0.0
 11
-1069.589311127759
 21
348.4467367620997
 31
0.0
  0
LINE
  5
A8
  8
0
  6
CONTINUOUS
 62
     9
 10
-1058.000778877041
 20
-92.54796675456647
 30
0.0
 11
-1069.499027371339
 21
-92.54796675456647
 31
0.0
  0
LINE
  5
A9
  8
0
  6
CONTINUOUS
 62
     9
 10
-1069.499027371339
 20
-92.54796675456647
 30
0.0
 11
-1069.499027371339
 21
277.5479667545662
 31
0.0
  0
LINE
  5
AA
  8
0
  6
CONTINUOUS
 62
     9
 10
-625.4106888722408
 20
348.4467367621002
 30
0.0
 11
-625.5009726286606
 21
277.5479667545663
 31
0.0
  0
LINE
  5
AB
  8
0
  6
CONTINUOUS
 62
     9
 10
-625.5009726286606
 20
277.5479667545663
 30
0.0
 11
-636.9992211229592
 21
277.5479667545663
 31
0.0
  0
POLYLINE
  5
AC
  8
0
  6
CONTINUOUS
 62
     9
 66
     1
 10
0.0
 20
0.0
 30
0.0
  0
VERTEX
  5
29F
  8
0
  6
CONTINUOUS
 62
     9
 10
-625.4106888722407
 20
348.4467367621
 30
0.0
  0
VERTEX
  5
2A0
  8
0
  6
CONTINUOUS
 62
     9
 10
-625.66512864273
 20
348.7688679666517
 30
0.0
  0
VERTEX
  5
2A1
  8
0
  6
CONTINUOUS
 62
     9
 10
-626.3422432154945
 20
349.0788896853044
 30
0.0
  0
VERTEX
  5
2A2
  8
0
  6
CONTINUOUS
 62
     9
 10
-627.4165786473737
 20
349.3651476493091
 30
0.0
  0
VERTEX
  5
2A3
  8
0
  6
CONTINUOUS
 62
     9
 10
-628.8477487554114
 20
349.6168809117918
 30
0.0
  0
VERTEX
  5
2A4
  8
0
  6
CONTINUOUS
 62
     9
 10
-630.5819533054257
 20
349.8246263709195
 30
0.0
  0
VERTEX
  5
2A5
  8
0
  6
CONTINUOUS
 62
     9
 10
-632.5540004586646
 20
349.9805745047574
 30
0.0
  0
VERTEX
  5
2A6
  8
0
  6
CONTINUOUS
 62
     9
 10
-634.6897574491722
 20
350.0788629451118
 30
0.0
  0
VERTEX
  5
2A7
  8
0
  6
CONTINUOUS
 62
     9
 10
-636.9089373665392
 20
350.1157968543961
 30
0.0
  0
SEQEND
  5
4FB
  8
0
  6
CONTINUOUS
 62
     9
  0
POLYLINE
  5
AD
  8
0
  6
CONTINUOUS
 62
     9
 66
     1
 10
0.0
 20
0.0
 30
0.0
  0
VERTEX
  5
2A8
  8
0
  6
CONTINUOUS
 62
     9
 10
-636.9089373665392
 20
-165.1157968543964
 30
0.0
  0
VERTEX
  5
2A9
  8
0
  6
CONTINUOUS
 62
     9
 10
-634.6897574491722
 20
-165.0788629451121
 30
0.0
  0
VERTEX
  5
2AA
  8
0
  6
CONTINUOUS
 62
     9
 10
-632.5540004586645
 20
-164.9805745047576
 30
0.0
  0
VERTEX
  5
2AB
  8
0
  6
CONTINUOUS
 62
     9
 10
-630.5819533054256
 20
-164.8246263709198
 30
0.0
  0
VERTEX
  5
2AC
  8
0
  6
CONTINUOUS
 62
     9
 10
-628.8477487554113
 20
-164.616880911792
 30
0.0
  0
VERTEX
  5
2AD
  8
0
  6
CONTINUOUS
 62
     9
 10
-627.4165786473736
 20
-164.3651476493093
 30
0.0
  0
VERTEX
  5
2AE
  8
0
  6
CONTINUOUS
 62
     9
 10
-626.3422432154944
 20
-164.0788896853047
 30
0.0
  0
VERTEX
  5
2AF
  8
0
  6
CONTINUOUS
 62
     9
 10
-625.6651286427299
 20
-163.7688679666519
 30
0.0
  0
VERTEX
  5
2B0
  8
0
  6
CONTINUOUS
 62
     9
 10
-625.4106888722407
 20
-163.4467367621003
 30
0.0
  0
SEQEND
  5
4FC
  8
0
  6
CONTINUOUS
 62
     9
  0
LINE
  5
AE
  8
0
  6
CONTINUOUS
 62
     9
 10
-625.5009726286606
 20
-92.54796675456647
 30
0.0
 11
-636.9992211229592
 21
-92.54796675456647
 31
0.0
  0
POLYLINE
  5
AF
  8
0
  6
CONTINUOUS
 62
     9
 66
     1
 10
0.0
 20
0.0
 30
0.0
  0
VERTEX
  5
2B1
  8
0
  6
CONTINUOUS
 62
     9
 10
-1069.589311127759
 20
-163.4467367621002
 30
0.0
  0
VERTEX
  5
2B2
  8
0
  6
CONTINUOUS
 62
     9
 10
-1069.33487135727
 20
-163.7688679666519
 30
0.0
  0
VERTEX
  5
2B3
  8
0
  6
CONTINUOUS
 62
     9
 10
-1068.657756784506
 20
-164.0788896853046
 30
0.0
  0
VERTEX
  5
2B4
  8
0
  6
CONTINUOUS
 62
     9
 10
-1067.583421352627
 20
-164.3651476493093
 30
0.0
  0
VERTEX
  5
2B5
  8
0
  6
CONTINUOUS
 62
     9
 10
-1066.152251244589
 20
-164.616880911792
 30
0.0
  0
VERTEX
  5
2B6
  8
0
  6
CONTINUOUS
 62
     9
 10
-1064.418046694575
 20
-164.8246263709198
 30
0.0
  0
VERTEX
  5
2B7
  8
0
  6
CONTINUOUS
 62
     9
 10
-1062.445999541336
 20
-164.9805745047576
 30
0.0
  0
VERTEX
  5
2B8
  8
0
  6
CONTINUOUS
 62
     9
 10
-1060.310242550828
 20
-165.0788629451121
 30
0.0
  0
VERTEX
  5
2B9
  8
0
  6
CONTINUOUS
 62
     9
 10
-1058.091062633461
 20
-165.1157968543964
 30
0.0
  0
SEQEND
  5
4FD
  8
0
  6
CONTINUOUS
 62
     9
  0
LINE
  5
B0
  8
0
  6
CONTINUOUS
 62
     9
 10
-1058.091062633461
 20
350.1157968543962
 30
0.0
 11
-636.9089373665391
 21
350.1157968543962
 31
0.0
  0
LINE
  5
B1
  8
0
  6
CONTINUOUS
 62
     9
 10
-636.9992211229592
 20
277.5479667545663
 30
0.0
 11
-1058.000778877041
 21
277.5479667545663
 31
0.0
  0
LINE
  5
B2
  8
0
  6
CONTINUOUS
 62
     9
 10
-1058.000778877041
 20
-92.54796675456647
 30
0.0
 11
-636.9992211229593
 21
-92.54796675456647
 31
0.0
  0
LINE
  5
B3
  8
0
  6
CONTINUOUS
 62
     9
 10
-636.9089373665392
 20
-165.1157968543965
 30
0.0
 11
-1058.091062633461
 21
-165.1157968543965
 31
0.0
  0
ARC
  5
B4
  8
0
  6
CONTINUOUS
 62
     9
 10
-1022.5
 20
92.49999999999999
 30
0.0
 40
53.85484107722258
 50
270.0
 51
90.0
  0
LINE
  5
B5
  8
0
  6
CONTINUOUS
 62
     9
 10
-1022.5
 20
41.63374301705268
 30
0.0
 11
-1022.5
 21
38.64515892277743
 31
0.0
  0
ARC
  5
B6
  8
0
  6
CONTINUOUS
 62
     9
 10
-1022.5
 20
92.49999999999999
 30
0.0
 40
50.86625698294734
 50
269.9999999999999
 51
90.0
  0
LINE
  5
B7
  8
0
  6
CONTINUOUS
 62
     9
 10
-1022.5
 20
146.3548410772226
 30
0.0
 11
-1022.5
 21
143.3662569829474
 31
0.0
  0
LINE
  5
B8
  8
0
  6
CONTINUOUS
 62
     9
 10
-625.5009726286606
 20
277.5479667545663
 30
0.0
 11
-625.5009726286606
 21
-92.54796675456639
 31
0.0
  0
LINE
  5
B9
  8
0
  6
CONTINUOUS
 62
     9
 10
-1048.354841077223
 20
50.00000000000003
 30
0.0
 11
-1048.354841077223
 21
135.0
 31
0.0
  0
LINE
  5
BA
  8
0
  6
CONTINUOUS
 62
     9
 10
-1048.354841077223
 20
135.0
 30
0.0
 11
-1045.366256982947
 21
135.0
 31
0.0
  0
LINE
  5
BB
  8
0
  6
CONTINUOUS
 62
     9
 10
-1045.366256982947
 20
135.0
 30
0.0
 11
-1045.366256982947
 21
50.00000000000004
 31
0.0
  0
LINE
  5
BC
  8
0
  6
CONTINUOUS
 62
     9
 10
-1045.366256982947
 20
50.00000000000003
 30
0.0
 11
-1048.354841077223
 21
50.00000000000003
 31
0.0
  0
ARC
  5
BD
  8
0
  6
CONTINUOUS
 62
     9
 10
-1037.0
 20
135.0
 30
0.0
 40
11.35484107722257
 50
90.0
 51
180.0
  0
ARC
  5
BE
  8
0
  6
CONTINUOUS
 62
     9
 10
-1037.0
 20
50.00000000000003
 30
0.0
 40
11.35484107722257
 50
180.0
 51
270.0
  0
LINE
  5
BF
  8
0
  6
CONTINUOUS
 62
     9
 10
-1022.5
 20
38.64515892277743
 30
0.0
 11
-1037.0
 21
38.64515892277743
 31
0.0
  0
LINE
  5
C0
  8
0
  6
CONTINUOUS
 62
     9
 10
-1037.0
 20
146.3548410772226
 30
0.0
 11
-1022.5
 21
146.3548410772226
 31
0.0
  0
LINE
  5
C1
  8
0
  6
CONTINUOUS
 62
     9
 10
-1037.0
 20
41.63374301705269
 30
0.0
 11
-1022.5
 21
41.63374301705269
 31
0.0
  0
LINE
  5
C2
  8
0
  6
CONTINUOUS
 62
     9
 10
-1037.0
 20
41.6337430170527
 30
0.0
 11
-1037.0
 21
38.64515892277743
 31
0.0
  0
LINE
  5
C3
  8
0
  6
CONTINUOUS
 62
     9
 10
-1022.5
 20
143.3662569829473
 30
0.0
 11
-1037.0
 21
143.3662569829474
 31
0.0
  0
LINE
  5
C4
  8
0
  6
CONTINUOUS
 62
     9
 10
-1037.0
 20
146.3548410772226
 30
0.0
 11
-1037.0
 21
143.3662569829474
 31
0.0
  0
ARC
  5
C5
  8
0
  6
CONTINUOUS
 62
     9
 10
-1037.0
 20
50.00000000000003
 30
0.0
 40
8.366256982947323
 50
180.0
 51
270.0
  0
ARC
  5
C6
  8
0
  6
CONTINUOUS
 62
     9
 10
-1037.0
 20
135.0
 30
0.0
 40
8.36625698294733
 50
90.0
 51
180.0
  0
LINE
  5
C7
  8
0
  6
CONTINUOUS
 62
     9
 10
-1045.366256982947
 20
50.00000000000003
 30
0.0
 11
-1043.869759447631
 21
50.00000000000003
 31
0.0
  0
LINE
  5
C8
  8
0
  6
CONTINUOUS
 62
     9
 10
-1037.0
 20
43.13024055236882
 30
0.0
 11
-1037.0
 21
41.63374301705269
 31
0.0
  0
LINE
  5
C9
  8
0
  6
CONTINUOUS
 62
     9
 10
-1022.5
 20
41.63374301705269
 30
0.0
 11
-1022.5
 21
43.13024055236882
 31
0.0
  0
LINE
  5
CA
  8
0
  6
CONTINUOUS
 62
     9
 10
-1043.869759447631
 20
135.0
 30
0.0
 11
-1045.366256982947
 21
135.0
 31
0.0
  0
LINE
  5
CB
  8
0
  6
CONTINUOUS
 62
     9
 10
-1022.5
 20
143.3662569829473
 30
0.0
 11
-1022.5
 21
141.8697594476312
 31
0.0
  0
LINE
  5
CC
  8
0
  6
CONTINUOUS
 62
     9
 10
-1037.0
 20
143.3662569829474
 30
0.0
 11
-1037.0
 21
141.8697594476313
 31
0.0
  0
LINE
  5
CD
  8
0
  6
CONTINUOUS
 62
     7
 10
-1069.973817402608
 20
-203.4755689083092
 30
0.0
 11
-1069.973817402608
 21
-168.0
 31
0.0
  0
LINE
  5
CE
  8
0
  6
CONTINUOUS
 62
     7
 10
-1069.912724675359
 20
-168.0
 30
0.0
 11
-1069.973817402608
 21
-168.0
 31
0.0
  0
LINE
  5
CF
  8
0
  6
CONTINUOUS
 62
     7
 10
-1069.912724675359
 20
-165.0
 30
0.0
 11
-1069.912724675359
 21
-168.0
 31
0.0
  0
LINE
  5
D0
  8
0
  6
CONTINUOUS
 62
     7
 10
-1069.973817402608
 20
-165.0
 30
0.0
 11
-1069.912724675359
 21
-165.0
 31
0.0
  0
LINE
  5
D1
  8
0
  6
CONTINUOUS
 62
     7
 10
-1069.973817402608
 20
-165.0
 30
0.0
 11
-1069.973817402608
 21
-149.9999999999999
 31
0.0
  0
LINE
  5
D2
  8
0
  6
CONTINUOUS
 62
     7
 10
-1069.912724675359
 20
-150.0
 30
0.0
 11
-1069.973817402608
 21
-150.0
 31
0.0
  0
LINE
  5
D3
  8
0
  6
CONTINUOUS
 62
     7
 10
-1069.912724675359
 20
-147.0
 30
0.0
 11
-1069.912724675359
 21
-150.0
 31
0.0
  0
LINE
  5
D4
  8
0
  6
CONTINUOUS
 62
     7
 10
-1069.973817402608
 20
-147.0
 30
0.0
 11
-1069.912724675359
 21
-147.0
 31
0.0
  0
LINE
  5
D5
  8
0
  6
CONTINUOUS
 62
     7
 10
-1069.973817402608
 20
-146.9999999999999
 30
0.0
 11
-1069.973817402608
 21
332.0000000000001
 31
0.0
  0
LINE
  5
D6
  8
0
  6
CONTINUOUS
 62
     7
 10
-1069.912724675359
 20
331.9999999999999
 30
0.0
 11
-1069.973817402608
 21
331.9999999999999
 31
0.0
  0
LINE
  5
D7
  8
0
  6
CONTINUOUS
 62
     7
 10
-1069.912724675359
 20
334.9999999999999
 30
0.0
 11
-1069.912724675359
 21
331.9999999999999
 31
0.0
  0
LINE
  5
D8
  8
0
  6
CONTINUOUS
 62
     7
 10
-1069.973817402608
 20
335.0000000000001
 30
0.0
 11
-1069.912724675359
 21
335.0000000000001
 31
0.0
  0
LINE
  5
D9
  8
0
  6
CONTINUOUS
 62
     7
 10
-1069.973817402608
 20
334.9999999999998
 30
0.0
 11
-1069.973817402608
 21
349.9999999999999
 31
0.0
  0
LINE
  5
DA
  8
0
  6
CONTINUOUS
 62
     7
 10
-1069.912724675359
 20
349.9999999999999
 30
0.0
 11
-1069.973817402608
 21
349.9999999999999
 31
0.0
  0
LINE
  5
DB
  8
0
  6
CONTINUOUS
 62
     7
 10
-1069.912724675359
 20
353.0
 30
0.0
 11
-1069.912724675359
 21
349.9999999999999
 31
0.0
  0
LINE
  5
DC
  8
0
  6
CONTINUOUS
 62
     7
 10
-1069.973817402608
 20
353.0000000000001
 30
0.0
 11
-1069.912724675359
 21
353.0000000000001
 31
0.0
  0
LINE
  5
DD
  8
0
  6
CONTINUOUS
 62
     7
 10
-1069.973817402608
 20
353.0000000000001
 30
0.0
 11
-1069.973817402608
 21
388.4755689083091
 31
0.0
  0
LINE
  5
DE
  8
0
  6
CONTINUOUS
 62
     7
 10
-625.0698202597129
 20
-74.05652717840997
 30
0.0
 11
-625.0261825973921
 21
-73.83780551959451
 31
0.0
  0
LINE
  5
DF
  8
0
  6
CONTINUOUS
 62
     7
 10
-625.0698202597129
 20
-113.9604744628804
 30
0.0
 11
-625.0698202597129
 21
-74.05652717840997
 31
0.0
  0
LINE
  5
E0
  8
0
  6
CONTINUOUS
 62
     7
 10
-625.0261825973922
 20
-114.1791961216955
 30
0.0
 11
-625.0698202597129
 21
-113.9604744628804
 31
0.0
  0
LINE
  5
E1
  8
0
  6
CONTINUOUS
 62
     7
 10
-625.0261825973923
 20
-114.1791961216955
 30
0.0
 11
-625.0261825973923
 21
-203.4755689083092
 31
0.0
  0
LINE
  5
E2
  8
0
  6
CONTINUOUS
 62
     7
 10
-625.0261825973922
 20
388.4755689083094
 30
0.0
 11
-625.0261825973922
 21
299.1791961216971
 31
0.0
  0
LINE
  5
E3
  8
0
  6
CONTINUOUS
 62
     7
 10
-625.0698202597129
 20
298.9604744628803
 30
0.0
 11
-625.026182597392
 21
299.1791961216969
 31
0.0
  0
LINE
  5
E4
  8
0
  6
CONTINUOUS
 62
     7
 10
-625.0698202597129
 20
259.0565271784099
 30
0.0
 11
-625.0698202597129
 21
298.9604744628803
 31
0.0
  0
LINE
  5
E5
  8
0
  6
CONTINUOUS
 62
     7
 10
-625.026182597392
 20
258.8378055195928
 30
0.0
 11
-625.0698202597129
 21
259.0565271784099
 31
0.0
  0
LINE
  5
E6
  8
0
  6
CONTINUOUS
 62
     7
 10
-625.0261825973923
 20
258.8378055195929
 30
0.0
 11
-625.0261825973923
 21
-73.83780551959451
 31
0.0
  0
LINE
  5
E7
  8
0
  6
CONTINUOUS
 62
     9
 10
-1043.829827685594
 20
92.50000000000001
 30
0.0
 11
-1043.792441393784
 21
96.89718891334148
 31
0.0
  0
LINE
  5
E8
  8
0
  6
CONTINUOUS
 62
     9
 10
-1043.792441393784
 20
88.1028110866588
 30
0.0
 11
-1043.829827685594
 21
92.5
 31
0.0
  0
ARC
  5
E9
  8
0
  6
CONTINUOUS
 62
     9
 10
-1022.5
 20
92.49999999999999
 30
0.0
 40
48.87166209858534
 50
269.9999999999999
 51
90.0
  0
LINE
  5
EA
  8
0
  6
CONTINUOUS
 62
     9
 10
-1022.5
 20
141.8697594476312
 30
0.0
 11
-1022.5
 21
141.3716620985853
 31
0.0
  0
LINE
  5
EB
  8
0
  6
CONTINUOUS
 62
     9
 10
-1022.5
 20
43.13024055236882
 30
0.0
 11
-1022.5
 21
43.62833790141465
 31
0.0
  0
LINE
  5
EC
  8
0
  6
CONTINUOUS
 62
     9
 10
-1043.869759447631
 20
50.00000000000003
 30
0.0
 11
-1043.371662098585
 21
50.00000000000003
 31
0.0
  0
LINE
  5
ED
  8
0
  6
CONTINUOUS
 62
     9
 10
-1043.371662098585
 20
80.49319559615155
 30
0.0
 11
-1043.792441393784
 21
88.10281108665882
 31
0.0
  0
LINE
  5
EE
  8
0
  6
CONTINUOUS
 62
     9
 10
-1043.371662098585
 20
80.49319559615155
 30
0.0
 11
-1043.371662098585
 21
50.00000000000004
 31
0.0
  0
LINE
  5
EF
  8
0
  6
CONTINUOUS
 62
     9
 10
-1037.0
 20
43.62833790141469
 30
0.0
 11
-1022.5
 21
43.62833790141465
 31
0.0
  0
LINE
  5
F0
  8
0
  6
CONTINUOUS
 62
     9
 10
-1037.0
 20
43.13024055236883
 30
0.0
 11
-1037.0
 21
43.62833790141469
 31
0.0
  0
LINE
  5
F1
  8
0
  6
CONTINUOUS
 62
     9
 10
-1037.0
 20
141.3716620985854
 30
0.0
 11
-1037.0
 21
141.8697594476313
 31
0.0
  0
ARC
  5
F2
  8
0
  6
CONTINUOUS
 62
     9
 10
-1037.0
 20
135.0
 30
0.0
 40
6.371662098585327
 50
90.0
 51
180.0
  0
LINE
  5
F3
  8
0
  6
CONTINUOUS
 62
     9
 10
-1043.371662098585
 20
135.0
 30
0.0
 11
-1043.869759447631
 21
135.0
 31
0.0
  0
LINE
  5
F4
  8
0
  6
CONTINUOUS
 62
     9
 10
-1022.5
 20
141.3716620985853
 30
0.0
 11
-1037.0
 21
141.3716620985854
 31
0.0
  0
LINE
  5
F5
  8
0
  6
CONTINUOUS
 62
     9
 10
-1043.371662098585
 20
135.0
 30
0.0
 11
-1043.371662098585
 21
104.5068044038485
 31
0.0
  0
LINE
  5
F6
  8
0
  6
CONTINUOUS
 62
     9
 10
-1043.792441393784
 20
96.89718891334148
 30
0.0
 11
-1043.371662098585
 21
104.5068044038485
 31
0.0
  0
ARC
  5
F7
  8
0
  6
CONTINUOUS
 62
     9
 10
-1037.0
 20
50.00000000000003
 30
0.0
 40
6.371662098585334
 50
180.0
 51
270.0
  0
ARC
  5
F8
  8
0
  6
CONTINUOUS
 62
     9
 10
-1020.462227681254
 20
91.2583593528436
 30
0.0
 40
23.4758059789597
 50
149.9427825646343
 51
167.4621402385903
  0
ARC
  5
F9
  8
0
  6
CONTINUOUS
 62
     9
 10
-1020.640377159534
 20
93.67219188443296
 30
0.0
 40
23.28684681477532
 50
192.4662141313174
 51
210.1288630654041
  0
ARC
  5
FA
  8
0
  6
CONTINUOUS
 62
     9
 10
-1023.494548037062
 20
92.0711575627025
 30
0.0
 40
20.33980098771909
 50
167.842836743945
 51
178.7918916939807
  0
ARC
  5
FB
  8
0
  6
CONTINUOUS
 62
     9
 10
-1023.494548037042
 20
92.92884243729952
 30
0.0
 40
20.3398009877397
 50
181.2081083060238
 51
192.1571632559874
  0
ARC
  5
FC
  8
0
  6
CONTINUOUS
 62
     9
 10
-1022.5
 20
92.50000000000001
 30
0.0
 40
21.09023711337107
 50
209.9104508963053
 51
244.8270294926574
  0
ARC
  5
FD
  8
0
  6
CONTINUOUS
 62
     9
 10
-1022.5
 20
92.50000000000001
 30
0.0
 40
21.09023711337107
 50
295.1729705073424
 51
80.080289978269
  0
ARC
  5
FE
  8
0
  6
CONTINUOUS
 62
     9
 10
-1022.5
 20
92.50000000000001
 30
0.0
 40
21.09023711337108
 50
99.91971002173096
 51
150.0895491036947
  0
ARC
  5
FF
  8
0
  6
CONTINUOUS
 62
     9
 10
-1022.5
 20
92.50000000000001
 30
0.0
 40
20.25865342085196
 50
103.481788205269
 51
243.4361149728099
  0
ARC
  5
100
  8
0
  6
CONTINUOUS
 62
     9
 10
-1022.5
 20
92.50000000000001
 30
0.0
 40
20.25865342085197
 50
296.5638850271898
 51
76.51821179473205
  0
ARC
  5
101
  8
0
  6
CONTINUOUS
 62
     9
 10
-1022.5
 20
92.50000000000001
 30
0.0
 40
24.07882120764631
 50
291.0800000513548
 51
150.0895491036947
  0
ARC
  5
102
  8
0
  6
CONTINUOUS
 62
     9
 10
-1022.5
 20
92.50000000000001
 30
0.0
 40
24.07882120764631
 50
209.9104508963053
 51
248.9199999486451
  0
LINE
  5
103
  8
0
  6
CONTINUOUS
 62
     7
 10
-625.0261825973923
 20
-203.4755689083092
 30
0.0
 11
-625.0272107986654
 21
-203.674786999196
 31
0.0
  0
LINE
  5
104
  8
0
  6
CONTINUOUS
 62
     7
 10
-625.0551212177818
 20
-204.3645027960416
 30
0.0
 11
-625.0272107986654
 21
-203.674786999196
 31
0.0
  0
LINE
  5
105
  8
0
  6
CONTINUOUS
 62
     7
 10
-635.6392044099347
 20
-214.945163966284
 30
0.0
 11
-635.5075967764151
 21
-214.9343008166506
 31
0.0
  0
POLYLINE
  5
106
  8
0
  6
CONTINUOUS
 62
     7
 66
     1
 10
0.0
 20
0.0
 30
0.0
  0
VERTEX
  5
2BA
  8
0
  6
CONTINUOUS
 62
     7
 10
-635.5075967764151
 20
-214.9343008166506
 30
0.0
  0
VERTEX
  5
2BB
  8
0
  6
CONTINUOUS
 62
     7
 10
-633.2590204989448
 20
-214.5070443229839
 30
0.0
  0
VERTEX
  5
2BC
  8
0
  6
CONTINUOUS
 62
     7
 10
-631.1397011721696
 20
-213.6429582390268
 30
0.0
  0
VERTEX
  5
2BD
  8
0
  6
CONTINUOUS
 62
     7
 10
-629.233573794628
 20
-212.3762644318089
 30
0.0
  0
VERTEX
  5
2BE
  8
0
  6
CONTINUOUS
 62
     7
 10
-627.6161299624322
 20
-210.7571299250134
 30
0.0
  0
VERTEX
  5
2BF
  8
0
  6
CONTINUOUS
 62
     7
 10
-626.3514280475213
 20
-208.8496800492334
 30
0.0
  0
VERTEX
  5
2C0
  8
0
  6
CONTINUOUS
 62
     7
 10
-625.4895561852882
 20
-206.7294587777223
 30
0.0
  0
VERTEX
  5
2C1
  8
0
  6
CONTINUOUS
 62
     7
 10
-625.0646485491833
 20
-204.4804368302663
 30
0.0
  0
SEQEND
  5
4FE
  8
0
  6
CONTINUOUS
 62
     7
  0
LINE
  5
107
  8
0
  6
CONTINUOUS
 62
     7
 10
-625.0646485491833
 20
-204.4804368302662
 30
0.0
 11
-625.0551212177816
 21
-204.3645027960416
 31
0.0
  0
LINE
  5
108
  8
0
  6
CONTINUOUS
 62
     7
 10
-636.5248880410221
 20
-214.9733604532764
 30
0.0
 11
-636.4520034422912
 21
-214.9735889103293
 31
0.0
  0
LINE
  5
109
  8
0
  6
CONTINUOUS
 62
     7
 10
-1069.972789201335
 20
-203.6747869991903
 30
0.0
 11
-1069.973817402608
 21
-203.4755689083092
 31
0.0
  0
LINE
  5
10A
  8
0
  6
CONTINUOUS
 62
     7
 10
-1059.360795590068
 20
-214.9451639662837
 30
0.0
 11
-1058.547996362688
 21
-214.9735889103282
 31
0.0
  0
LINE
  5
10B
  8
0
  6
CONTINUOUS
 62
     7
 10
-1069.944878782217
 20
-204.3645027960548
 30
0.0
 11
-1069.934025364215
 21
-204.4955170177874
 31
0.0
  0
POLYLINE
  5
10C
  8
0
  6
CONTINUOUS
 62
     7
 66
     1
 10
0.0
 20
0.0
 30
0.0
  0
VERTEX
  5
2C2
  8
0
  6
CONTINUOUS
 62
     7
 10
-1069.934025364215
 20
-204.4955170177874
 30
0.0
  0
VERTEX
  5
2C3
  8
0
  6
CONTINUOUS
 62
     7
 10
-1069.5061587167
 20
-206.7439735207398
 30
0.0
  0
VERTEX
  5
2C4
  8
0
  6
CONTINUOUS
 62
     7
 10
-1068.641498898555
 20
-208.8630548942821
 30
0.0
  0
VERTEX
  5
2C5
  8
0
  6
CONTINUOUS
 62
     7
 10
-1067.374290393892
 20
-210.7688358224633
 30
0.0
  0
VERTEX
  5
2C6
  8
0
  6
CONTINUOUS
 62
     7
 10
-1065.754720456233
 20
-212.3858386626938
 30
0.0
  0
VERTEX
  5
2C7
  8
0
  6
CONTINUOUS
 62
     7
 10
-1063.846931463695
 20
-213.6500227056574
 30
0.0
  0
VERTEX
  5
2C8
  8
0
  6
CONTINUOUS
 62
     7
 10
-1061.726480587403
 20
-214.5113204803498
 30
0.0
  0
VERTEX
  5
2C9
  8
0
  6
CONTINUOUS
 62
     7
 10
-1059.47734738188
 20
-214.9356206549592
 30
0.0
  0
SEQEND
  5
4FF
  8
0
  6
CONTINUOUS
 62
     7
  0
LINE
  5
10D
  8
0
  6
CONTINUOUS
 62
     7
 10
-1059.47734738188
 20
-214.9356206549592
 30
0.0
 11
-1059.360795590065
 21
-214.945163966284
 31
0.0
  0
LINE
  5
10E
  8
0
  6
CONTINUOUS
 62
     7
 10
-1069.972789201335
 20
-203.6747869991903
 30
0.0
 11
-1069.944878782217
 21
-204.3645027960549
 31
0.0
  0
LINE
  5
10F
  8
0
  6
CONTINUOUS
 62
     7
 10
-625.0272107986652
 20
388.6747869991931
 30
0.0
 11
-625.0261825973923
 21
388.4755689083093
 31
0.0
  0
LINE
  5
110
  8
0
  6
CONTINUOUS
 62
     7
 10
-635.6392044099323
 20
399.9451639662836
 30
0.0
 11
-636.4520036373073
 21
399.9735889103281
 31
0.0
  0
LINE
  5
111
  8
0
  6
CONTINUOUS
 62
     7
 10
-625.0551212177825
 20
389.3645027960537
 30
0.0
 11
-625.0659746357852
 21
389.4955170177874
 31
0.0
  0
POLYLINE
  5
112
  8
0
  6
CONTINUOUS
 62
     7
 66
     1
 10
0.0
 20
0.0
 30
0.0
  0
VERTEX
  5
2CA
  8
0
  6
CONTINUOUS
 62
     7
 10
-625.0659746357852
 20
389.4955170177874
 30
0.0
  0
VERTEX
  5
2CB
  8
0
  6
CONTINUOUS
 62
     7
 10
-625.4938412832996
 20
391.7439735207394
 30
0.0
  0
VERTEX
  5
2CC
  8
0
  6
CONTINUOUS
 62
     7
 10
-626.3585011014444
 20
393.8630548942815
 30
0.0
  0
VERTEX
  5
2CD
  8
0
  6
CONTINUOUS
 62
     7
 10
-627.6257096061076
 20
395.7688358224626
 30
0.0
  0
VERTEX
  5
2CE
  8
0
  6
CONTINUOUS
 62
     7
 10
-629.2452795437665
 20
397.385838662693
 30
0.0
  0
VERTEX
  5
2CF
  8
0
  6
CONTINUOUS
 62
     7
 10
-631.1530685363039
 20
398.6500227056567
 30
0.0
  0
VERTEX
  5
2D0
  8
0
  6
CONTINUOUS
 62
     7
 10
-633.2735194125956
 20
399.5113204803492
 30
0.0
  0
VERTEX
  5
2D1
  8
0
  6
CONTINUOUS
 62
     7
 10
-635.5226526181175
 20
399.9356206549591
 30
0.0
  0
SEQEND
  5
500
  8
0
  6
CONTINUOUS
 62
     7
  0
LINE
  5
113
  8
0
  6
CONTINUOUS
 62
     7
 10
-635.5226526181176
 20
399.9356206549591
 30
0.0
 11
-635.6392044099347
 21
399.945163966284
 31
0.0
  0
LINE
  5
114
  8
0
  6
CONTINUOUS
 62
     7
 10
-625.0272107986652
 20
388.6747869991931
 30
0.0
 11
-625.0551212177826
 21
389.3645027960537
 31
0.0
  0
LINE
  5
115
  8
0
  6
CONTINUOUS
 62
     7
 10
-1069.973817402608
 20
388.4755689083091
 30
0.0
 11
-1069.972789201335
 21
388.6747869991956
 31
0.0
  0
LINE
  5
116
  8
0
  6
CONTINUOUS
 62
     7
 10
-1069.944878782218
 20
389.364502796054
 30
0.0
 11
-1069.972789201335
 21
388.6747869991956
 31
0.0
  0
LINE
  5
117
  8
0
  6
CONTINUOUS
 62
     7
 10
-1059.360795590065
 20
399.945163966284
 30
0.0
 11
-1059.492403223587
 21
399.9343008166504
 31
0.0
  0
POLYLINE
  5
118
  8
0
  6
CONTINUOUS
 62
     7
 66
     1
 10
0.0
 20
0.0
 30
0.0
  0
VERTEX
  5
2D2
  8
0
  6
CONTINUOUS
 62
     7
 10
-1059.492403223587
 20
399.9343008166504
 30
0.0
  0
VERTEX
  5
2D3
  8
0
  6
CONTINUOUS
 62
     7
 10
-1061.740979501057
 20
399.5070443229833
 30
0.0
  0
VERTEX
  5
2D4
  8
0
  6
CONTINUOUS
 62
     7
 10
-1063.860298827832
 20
398.6429582390259
 30
0.0
  0
VERTEX
  5
2D5
  8
0
  6
CONTINUOUS
 62
     7
 10
-1065.766426205373
 20
397.3762644318079
 30
0.0
  0
VERTEX
  5
2D6
  8
0
  6
CONTINUOUS
 62
     7
 10
-1067.383870037569
 20
395.7571299250123
 30
0.0
  0
VERTEX
  5
2D7
  8
0
  6
CONTINUOUS
 62
     7
 10
-1068.648571952479
 20
393.8496800492325
 30
0.0
  0
VERTEX
  5
2D8
  8
0
  6
CONTINUOUS
 62
     7
 10
-1069.510443814712
 20
391.7294587777214
 30
0.0
  0
VERTEX
  5
2D9
  8
0
  6
CONTINUOUS
 62
     7
 10
-1069.935351450817
 20
389.4804368302657
 30
0.0
  0
SEQEND
  5
501
  8
0
  6
CONTINUOUS
 62
     7
  0
LINE
  5
119
  8
0
  6
CONTINUOUS
 62
     7
 10
-1069.935351450817
 20
389.4804368302657
 30
0.0
 11
-1069.944878782218
 21
389.3645027960538
 31
0.0
  0
LINE
  5
11A
  8
0
  6
CONTINUOUS
 62
     7
 10
-1058.475111958978
 20
399.9733604532764
 30
0.0
 11
-1058.547996557706
 21
399.9735889103293
 31
0.0
  0
LINE
  5
11B
  8
0
  6
CONTINUOUS
 62
     7
 10
-1058.475111958978
 20
-214.9733604532764
 30
0.0
 11
-636.5248880410223
 21
-214.9733604532764
 31
0.0
  0
LINE
  5
11C
  8
0
  6
CONTINUOUS
 62
     7
 10
-636.5248880410221
 20
399.9733604532764
 30
0.0
 11
-1058.475111958978
 21
399.9733604532764
 31
0.0
  0
ARC
  5
11D
  8
0
  6
CONTINUOUS
 62
     9
 10
-1022.5
 20
92.50000000000001
 30
0.0
 40
19.7605560718061
 50
297.4640977223439
 51
74.77833464703463
  0
ARC
  5
11E
  8
0
  6
CONTINUOUS
 62
     9
 10
-1022.5
 20
92.50000000000001
 30
0.0
 40
19.7605560718061
 50
105.2216653529653
 51
242.5359022776559
  0
LINE
  5
11F
  8
0
  6
CONTINUOUS
 62
     7
 10
-1058.547996362688
 20
-214.9735889103282
 30
0.0
 11
-1058.475111958978
 21
-214.9733604532764
 31
0.0
  0
LINE
  5
120
  8
0
  6
CONTINUOUS
 62
     7
 10
-636.4520034422914
 20
-214.9735889103293
 30
0.0
 11
-635.6392044099324
 21
-214.9451639662837
 31
0.0
  0
LINE
  5
121
  8
0
  6
CONTINUOUS
 62
     7
 10
-635.5077516799464
 20
-214.9316667636402
 30
0.0
 11
-635.6392044099346
 21
-214.945163966284
 31
0.0
  0
LINE
  5
122
  8
0
  6
CONTINUOUS
 62
     7
 10
-636.4520036373071
 20
399.9735889103282
 30
0.0
 11
-636.524888041022
 21
399.9733604532765
 31
0.0
  0
LINE
  5
123
  8
0
  6
CONTINUOUS
 62
     7
 10
-1058.547996557706
 20
399.9735889103293
 30
0.0
 11
-1059.360795590067
 21
399.9451639662836
 31
0.0
  0
LINE
  5
124
  8
0
  6
CONTINUOUS
 62
     7
 10
-1059.492248320056
 20
399.9316667636398
 30
0.0
 11
-1059.360795590065
 21
399.945163966284
 31
0.0
  0
LINE
  5
125
  8
0
  6
CONTINUOUS
 62
     7
 10
-625.0551212177818
 20
-204.3645027960416
 30
0.0
 11
-625.0663804126281
 21
-204.4802518010461
 31
0.0
  0
LINE
  5
126
  8
0
  6
CONTINUOUS
 62
     7
 10
-1069.944878782218
 20
389.364502796054
 30
0.0
 11
-1069.933619587372
 21
389.4802518010456
 31
0.0
  0
LINE
  5
127
  8
0
  6
CONTINUOUS
 62
     7
 10
-625.068600565992
 20
389.4953609672381
 30
0.0
 11
-625.0551212177826
 21
389.3645027960537
 31
0.0
  0
LINE
  5
128
  8
0
  6
CONTINUOUS
 62
     7
 10
-1069.931399434008
 20
-204.4953609672378
 30
0.0
 11
-1069.944878782218
 21
-204.3645027960549
 31
0.0
  0
LINE
  5
129
  8
0
  6
CONTINUOUS
 62
     9
 10
-625.0698202597129
 20
-103.9999999999985
 30
0.0
 11
-623.6500000000009
 21
-103.9999999999985
 31
0.0
  0
LINE
  5
12A
  8
0
  6
CONTINUOUS
 62
     9
 10
-623.6500000000008
 20
-84.00000000000036
 30
0.0
 11
-625.0698202597129
 21
-84.00000000000036
 31
0.0
  0
LINE
  5
12B
  8
0
  6
CONTINUOUS
 62
     9
 10
-623.6500000000008
 20
-103.9999999999985
 30
0.0
 11
-625.0698202597129
 21
-103.9999999999985
 31
0.0
  0
LINE
  5
12C
  8
0
  6
CONTINUOUS
 62
     9
 10
-625.0698202597129
 20
-112.9999999999977
 30
0.0
 11
-623.6500000000009
 21
-112.9999999999977
 31
0.0
  0
LINE
  5
12D
  8
0
  6
CONTINUOUS
 62
     9
 10
-625.0698202597129
 20
-75.00000000000118
 30
0.0
 11
-623.6500000000009
 21
-75.00000000000118
 31
0.0
  0
LINE
  5
12E
  8
0
  6
CONTINUOUS
 62
     9
 10
-625.0698202597129
 20
-84.00000000000036
 30
0.0
 11
-623.6500000000009
 21
-84.00000000000036
 31
0.0
  0
LINE
  5
12F
  8
0
  6
CONTINUOUS
 62
     9
 10
-625.0698202597129
 20
269.0000000000015
 30
0.0
 11
-623.6500000000009
 21
269.0000000000015
 31
0.0
  0
LINE
  5
130
  8
0
  6
CONTINUOUS
 62
     9
 10
-623.6500000000008
 20
288.9999999999997
 30
0.0
 11
-625.0698202597129
 21
288.9999999999997
 31
0.0
  0
LINE
  5
131
  8
0
  6
CONTINUOUS
 62
     9
 10
-625.0698202597129
 20
297.9999999999988
 30
0.0
 11
-623.6500000000009
 21
297.9999999999988
 31
0.0
  0
LINE
  5
132
  8
0
  6
CONTINUOUS
 62
     9
 10
-625.0698202597129
 20
288.9999999999997
 30
0.0
 11
-623.6500000000009
 21
288.9999999999997
 31
0.0
  0
LINE
  5
133
  8
0
  6
CONTINUOUS
 62
     9
 10
-623.6500000000008
 20
269.0000000000015
 30
0.0
 11
-625.0698202597129
 21
269.0000000000015
 31
0.0
  0
LINE
  5
134
  8
0
  6
CONTINUOUS
 62
     9
 10
-625.0698202597129
 20
260.0000000000023
 30
0.0
 11
-623.6500000000009
 21
260.0000000000023
 31
0.0
  0
POLYLINE
  5
135
  8
0
  6
CONTINUOUS
 62
     7
 66
     1
 10
0.0
 20
0.0
 30
0.0
  0
VERTEX
  5
2DA
  8
0
  6
CONTINUOUS
 62
     7
 10
-635.1995621152381
 20
-216.3
 30
0.0
  0
VERTEX
  5
2DB
  8
0
  6
CONTINUOUS
 62
     7
 10
-632.9560621844639
 20
-216.0790436671493
 30
0.0
  0
VERTEX
  5
2DC
  8
0
  6
CONTINUOUS
 62
     7
 10
-630.7988040180836
 20
-215.4246650759094
 30
0.0
  0
VERTEX
  5
2DD
  8
0
  6
CONTINUOUS
 62
     7
 10
-628.810681825438
 20
-214.3620091981599
 30
0.0
  0
VERTEX
  5
2DE
  8
0
  6
CONTINUOUS
 62
     7
 10
-627.0680906434309
 20
-212.9319093565693
 30
0.0
  0
VERTEX
  5
2DF
  8
0
  6
CONTINUOUS
 62
     7
 10
-625.6379908018403
 20
-211.1893181745623
 30
0.0
  0
VERTEX
  5
2E0
  8
0
  6
CONTINUOUS
 62
     7
 10
-624.5753349240907
 20
-209.2011959819166
 30
0.0
  0
VERTEX
  5
2E1
  8
0
  6
CONTINUOUS
 62
     7
 10
-623.9209563328508
 20
-207.0439378155363
 30
0.0
  0
VERTEX
  5
2E2
  8
0
  6
CONTINUOUS
 62
     7
 10
-623.7000000000002
 20
-204.8004378847621
 30
0.0
  0
SEQEND
  5
502
  8
0
  6
CONTINUOUS
 62
     7
  0
POLYLINE
  5
136
  8
0
  6
CONTINUOUS
 62
     7
 66
     1
 10
0.0
 20
0.0
 30
0.0
  0
VERTEX
  5
2E3
  8
0
  6
CONTINUOUS
 62
     7
 10
-1059.800437884762
 20
401.3000000000001
 30
0.0
  0
VERTEX
  5
2E4
  8
0
  6
CONTINUOUS
 62
     7
 10
-1062.043937815536
 20
401.0790436671494
 30
0.0
  0
VERTEX
  5
2E5
  8
0
  6
CONTINUOUS
 62
     7
 10
-1064.201195981917
 20
400.4246650759096
 30
0.0
  0
VERTEX
  5
2E6
  8
0
  6
CONTINUOUS
 62
     7
 10
-1066.189318174562
 20
399.36200919816
 30
0.0
  0
VERTEX
  5
2E7
  8
0
  6
CONTINUOUS
 62
     7
 10
-1067.931909356569
 20
397.9319093565693
 30
0.0
  0
VERTEX
  5
2E8
  8
0
  6
CONTINUOUS
 62
     7
 10
-1069.36200919816
 20
396.1893181745623
 30
0.0
  0
VERTEX
  5
2E9
  8
0
  6
CONTINUOUS
 62
     7
 10
-1070.424665075909
 20
394.2011959819167
 30
0.0
  0
VERTEX
  5
2EA
  8
0
  6
CONTINUOUS
 62
     7
 10
-1071.079043667149
 20
392.0439378155364
 30
0.0
  0
VERTEX
  5
2EB
  8
0
  6
CONTINUOUS
 62
     7
 10
-1071.3
 20
389.8004378847622
 30
0.0
  0
SEQEND
  5
503
  8
0
  6
CONTINUOUS
 62
     7
  0
POLYLINE
  5
137
  8
0
  6
CONTINUOUS
 62
     7
 66
     1
 10
0.0
 20
0.0
 30
0.0
  0
VERTEX
  5
2EC
  8
0
  6
CONTINUOUS
 62
     7
 10
-623.7
 20
389.8004378847623
 30
0.0
  0
VERTEX
  5
2ED
  8
0
  6
CONTINUOUS
 62
     7
 10
-623.9209563328507
 20
392.0439378155365
 30
0.0
  0
VERTEX
  5
2EE
  8
0
  6
CONTINUOUS
 62
     7
 10
-624.5753349240906
 20
394.2011959819168
 30
0.0
  0
VERTEX
  5
2EF
  8
0
  6
CONTINUOUS
 62
     7
 10
-625.6379908018403
 20
396.1893181745625
 30
0.0
  0
VERTEX
  5
2F0
  8
0
  6
CONTINUOUS
 62
     7
 10
-627.0680906434308
 20
397.9319093565695
 30
0.0
  0
VERTEX
  5
2F1
  8
0
  6
CONTINUOUS
 62
     7
 10
-628.8106818254378
 20
399.3620091981601
 30
0.0
  0
VERTEX
  5
2F2
  8
0
  6
CONTINUOUS
 62
     7
 10
-630.7988040180835
 20
400.4246650759096
 30
0.0
  0
VERTEX
  5
2F3
  8
0
  6
CONTINUOUS
 62
     7
 10
-632.9560621844637
 20
401.0790436671494
 30
0.0
  0
VERTEX
  5
2F4
  8
0
  6
CONTINUOUS
 62
     7
 10
-635.199562115238
 20
401.3000000000002
 30
0.0
  0
SEQEND
  5
504
  8
0
  6
CONTINUOUS
 62
     7
  0
POLYLINE
  5
138
  8
0
  6
CONTINUOUS
 62
     7
 66
     1
 10
0.0
 20
0.0
 30
0.0
  0
VERTEX
  5
2F5
  8
0
  6
CONTINUOUS
 62
     7
 10
-1071.3
 20
-204.8004378847621
 30
0.0
  0
VERTEX
  5
2F6
  8
0
  6
CONTINUOUS
 62
     7
 10
-1071.079043667149
 20
-207.0439378155363
 30
0.0
  0
VERTEX
  5
2F7
  8
0
  6
CONTINUOUS
 62
     7
 10
-1070.424665075909
 20
-209.2011959819166
 30
0.0
  0
VERTEX
  5
2F8
  8
0
  6
CONTINUOUS
 62
     7
 10
-1069.36200919816
 20
-211.1893181745623
 30
0.0
  0
VERTEX
  5
2F9
  8
0
  6
CONTINUOUS
 62
     7
 10
-1067.931909356569
 20
-212.9319093565693
 30
0.0
  0
VERTEX
  5
2FA
  8
0
  6
CONTINUOUS
 62
     7
 10
-1066.189318174562
 20
-214.3620091981599
 30
0.0
  0
VERTEX
  5
2FB
  8
0
  6
CONTINUOUS
 62
     7
 10
-1064.201195981917
 20
-215.4246650759094
 30
0.0
  0
VERTEX
  5
2FC
  8
0
  6
CONTINUOUS
 62
     7
 10
-1062.043937815536
 20
-216.0790436671493
 30
0.0
  0
VERTEX
  5
2FD
  8
0
  6
CONTINUOUS
 62
     7
 10
-1059.800437884762
 20
-216.3
 30
0.0
  0
SEQEND
  5
505
  8
0
  6
CONTINUOUS
 62
     7
  0
LINE
  5
139
  8
0
  6
CONTINUOUS
 62
     7
 10
-1071.3
 20
-204.8004378847621
 30
0.0
 11
-1071.3
 21
389.8004378847621
 31
0.0
  0
POLYLINE
  5
13A
  8
0
  6
CONTINUOUS
 62
     7
 66
     1
 10
0.0
 20
0.0
 30
0.0
  0
VERTEX
  5
2FE
  8
0
  6
CONTINUOUS
 62
     7
 10
-1070.226595261737
 20
341.7499999999999
 30
0.0
  0
VERTEX
  5
2FF
  8
0
  6
CONTINUOUS
 62
     7
 10
-1070.225318414771
 20
341.7644110396975
 30
0.0
  0
VERTEX
  5
300
  8
0
  6
CONTINUOUS
 62
     7
 10
-1070.224090636319
 20
341.8070903506164
 30
0.0
  0
VERTEX
  5
301
  8
0
  6
CONTINUOUS
 62
     7
 10
-1070.222959109217
 20
341.876397790773
 30
0.0
  0
VERTEX
  5
302
  8
0
  6
CONTINUOUS
 62
     7
 10
-1070.221967317416
 20
341.96966991411
 30
0.0
  0
VERTEX
  5
303
  8
0
  6
CONTINUOUS
 62
     7
 10
-1070.221153374921
 20
342.0833223252352
 30
0.0
  0
VERTEX
  5
304
  8
0
  6
CONTINUOUS
 62
     7
 10
-1070.220548561084
 20
342.2129874257261
 30
0.0
  0
VERTEX
  5
305
  8
0
  6
CONTINUOUS
 62
     7
 10
-1070.220176118562
 20
342.3536822584878
 30
0.0
  0
VERTEX
  5
306
  8
0
  6
CONTINUOUS
 62
     7
 10
-1070.220050360113
 20
342.4999999999999
 30
0.0
  0
SEQEND
  5
506
  8
0
  6
CONTINUOUS
 62
     7
  0
POLYLINE
  5
13B
  8
0
  6
CONTINUOUS
 62
     7
 66
     1
 10
0.0
 20
0.0
 30
0.0
  0
VERTEX
  5
307
  8
0
  6
CONTINUOUS
 62
     7
 10
-1070.331317675226
 20
341.7499999999999
 30
0.0
  0
VERTEX
  5
308
  8
0
  6
CONTINUOUS
 62
     7
 10
-1070.330040828261
 20
341.7644110396975
 30
0.0
  0
VERTEX
  5
309
  8
0
  6
CONTINUOUS
 62
     7
 10
-1070.328813049808
 20
341.8070903506164
 30
0.0
  0
VERTEX
  5
30A
  8
0
  6
CONTINUOUS
 62
     7
 10
-1070.327681522706
 20
341.876397790773
 30
0.0
  0
VERTEX
  5
30B
  8
0
  6
CONTINUOUS
 62
     7
 10
-1070.326689730905
 20
341.96966991411
 30
0.0
  0
VERTEX
  5
30C
  8
0
  6
CONTINUOUS
 62
     7
 10
-1070.32587578841
 20
342.0833223252352
 30
0.0
  0
VERTEX
  5
30D
  8
0
  6
CONTINUOUS
 62
     7
 10
-1070.325270974573
 20
342.2129874257261
 30
0.0
  0
VERTEX
  5
30E
  8
0
  6
CONTINUOUS
 62
     7
 10
-1070.324898532052
 20
342.3536822584878
 30
0.0
  0
VERTEX
  5
30F
  8
0
  6
CONTINUOUS
 62
     7
 10
-1070.324772773602
 20
342.4999999999999
 30
0.0
  0
SEQEND
  5
507
  8
0
  6
CONTINUOUS
 62
     7
  0
LINE
  5
13C
  8
0
  6
CONTINUOUS
 62
     7
 10
-623.7
 20
389.8004378847622
 30
0.0
 11
-623.7
 21
297.9999999999988
 31
0.0
  0
LINE
  5
13D
  8
0
  6
CONTINUOUS
 62
     7
 10
-623.7
 20
260.0000000000023
 30
0.0
 11
-623.7
 21
-75.00000000000118
 31
0.0
  0
LINE
  5
13E
  8
0
  6
CONTINUOUS
 62
     7
 10
-623.7
 20
-112.9999999999977
 30
0.0
 11
-623.7
 21
-204.8004378847621
 31
0.0
  0
LINE
  5
13F
  8
0
  6
CONTINUOUS
 62
     7
 10
-1059.800437884762
 20
401.3000000000001
 30
0.0
 11
-635.199562115238
 21
401.3000000000001
 31
0.0
  0
LINE
  5
140
  8
0
  6
CONTINUOUS
 62
     7
 10
-635.1995621152381
 20
-216.3
 30
0.0
 11
-1059.800437884762
 21
-216.3
 31
0.0
  0
POLYLINE
  5
141
  8
0
  6
CONTINUOUS
 62
     7
 66
     1
 10
0.0
 20
0.0
 30
0.0
  0
VERTEX
  5
310
  8
0
  6
CONTINUOUS
 62
     7
 10
-1070.220050360113
 20
342.4999999999999
 30
0.0
  0
VERTEX
  5
311
  8
0
  6
CONTINUOUS
 62
     7
 10
-1070.220176118562
 20
342.646317741512
 30
0.0
  0
VERTEX
  5
312
  8
0
  6
CONTINUOUS
 62
     7
 10
-1070.220548561084
 20
342.7870125742737
 30
0.0
  0
VERTEX
  5
313
  8
0
  6
CONTINUOUS
 62
     7
 10
-1070.221153374921
 20
342.9166776747646
 30
0.0
  0
VERTEX
  5
314
  8
0
  6
CONTINUOUS
 62
     7
 10
-1070.221967317416
 20
343.0303300858898
 30
0.0
  0
VERTEX
  5
315
  8
0
  6
CONTINUOUS
 62
     7
 10
-1070.222959109217
 20
343.1236022092268
 30
0.0
  0
VERTEX
  5
316
  8
0
  6
CONTINUOUS
 62
     7
 10
-1070.224090636319
 20
343.1929096493834
 30
0.0
  0
VERTEX
  5
317
  8
0
  6
CONTINUOUS
 62
     7
 10
-1070.225318414771
 20
343.2355889603023
 30
0.0
  0
VERTEX
  5
318
  8
0
  6
CONTINUOUS
 62
     7
 10
-1070.226595261737
 20
343.2499999999999
 30
0.0
  0
SEQEND
  5
508
  8
0
  6
CONTINUOUS
 62
     7
  0
POLYLINE
  5
142
  8
0
  6
CONTINUOUS
 62
     7
 66
     1
 10
0.0
 20
0.0
 30
0.0
  0
VERTEX
  5
319
  8
0
  6
CONTINUOUS
 62
     7
 10
-1070.226595261737
 20
343.2499999999999
 30
0.0
  0
VERTEX
  5
31A
  8
0
  6
CONTINUOUS
 62
     7
 10
-1070.227872108702
 20
343.2355889603023
 30
0.0
  0
VERTEX
  5
31B
  8
0
  6
CONTINUOUS
 62
     7
 10
-1070.229099887155
 20
343.1929096493834
 30
0.0
  0
VERTEX
  5
31C
  8
0
  6
CONTINUOUS
 62
     7
 10
-1070.230231414257
 20
343.1236022092268
 30
0.0
  0
VERTEX
  5
31D
  8
0
  6
CONTINUOUS
 62
     7
 10
-1070.231223206057
 20
343.0303300858898
 30
0.0
  0
VERTEX
  5
31E
  8
0
  6
CONTINUOUS
 62
     7
 10
-1070.232037148553
 20
342.9166776747646
 30
0.0
  0
VERTEX
  5
31F
  8
0
  6
CONTINUOUS
 62
     7
 10
-1070.232641962389
 20
342.7870125742737
 30
0.0
  0
VERTEX
  5
320
  8
0
  6
CONTINUOUS
 62
     7
 10
-1070.233014404911
 20
342.646317741512
 30
0.0
  0
VERTEX
  5
321
  8
0
  6
CONTINUOUS
 62
     7
 10
-1070.233140163361
 20
342.4999999999999
 30
0.0
  0
VERTEX
  5
322
  8
0
  6
CONTINUOUS
 62
     7
 10
-1070.233014404911
 20
342.3536822584878
 30
0.0
  0
VERTEX
  5
323
  8
0
  6
CONTINUOUS
 62
     7
 10
-1070.232641962389
 20
342.2129874257261
 30
0.0
  0
VERTEX
  5
324
  8
0
  6
CONTINUOUS
 62
     7
 10
-1070.232037148553
 20
342.0833223252352
 30
0.0
  0
VERTEX
  5
325
  8
0
  6
CONTINUOUS
 62
     7
 10
-1070.231223206057
 20
341.96966991411
 30
0.0
  0
VERTEX
  5
326
  8
0
  6
CONTINUOUS
 62
     7
 10
-1070.230231414257
 20
341.876397790773
 30
0.0
  0
VERTEX
  5
327
  8
0
  6
CONTINUOUS
 62
     7
 10
-1070.229099887155
 20
341.8070903506165
 30
0.0
  0
VERTEX
  5
328
  8
0
  6
CONTINUOUS
 62
     7
 10
-1070.227872108702
 20
341.7644110396975
 30
0.0
  0
VERTEX
  5
329
  8
0
  6
CONTINUOUS
 62
     7
 10
-1070.226595261737
 20
341.7499999999999
 30
0.0
  0
SEQEND
  5
509
  8
0
  6
CONTINUOUS
 62
     7
  0
POLYLINE
  5
143
  8
0
  6
CONTINUOUS
 62
     7
 66
     1
 10
0.0
 20
0.0
 30
0.0
  0
VERTEX
  5
32A
  8
0
  6
CONTINUOUS
 62
     7
 10
-1070.324772773602
 20
342.4999999999999
 30
0.0
  0
VERTEX
  5
32B
  8
0
  6
CONTINUOUS
 62
     7
 10
-1070.324898532052
 20
342.646317741512
 30
0.0
  0
VERTEX
  5
32C
  8
0
  6
CONTINUOUS
 62
     7
 10
-1070.325270974573
 20
342.7870125742737
 30
0.0
  0
VERTEX
  5
32D
  8
0
  6
CONTINUOUS
 62
     7
 10
-1070.32587578841
 20
342.9166776747646
 30
0.0
  0
VERTEX
  5
32E
  8
0
  6
CONTINUOUS
 62
     7
 10
-1070.326689730905
 20
343.0303300858898
 30
0.0
  0
VERTEX
  5
32F
  8
0
  6
CONTINUOUS
 62
     7
 10
-1070.327681522706
 20
343.1236022092268
 30
0.0
  0
VERTEX
  5
330
  8
0
  6
CONTINUOUS
 62
     7
 10
-1070.328813049808
 20
343.1929096493834
 30
0.0
  0
VERTEX
  5
331
  8
0
  6
CONTINUOUS
 62
     7
 10
-1070.330040828261
 20
343.2355889603023
 30
0.0
  0
VERTEX
  5
332
  8
0
  6
CONTINUOUS
 62
     7
 10
-1070.331317675226
 20
343.2499999999999
 30
0.0
  0
SEQEND
  5
50A
  8
0
  6
CONTINUOUS
 62
     7
  0
POLYLINE
  5
144
  8
0
  6
CONTINUOUS
 62
     7
 66
     1
 10
0.0
 20
0.0
 30
0.0
  0
VERTEX
  5
333
  8
0
  6
CONTINUOUS
 62
     7
 10
-1070.331317675226
 20
343.2499999999999
 30
0.0
  0
VERTEX
  5
334
  8
0
  6
CONTINUOUS
 62
     7
 10
-1070.332594522191
 20
343.2355889603023
 30
0.0
  0
VERTEX
  5
335
  8
0
  6
CONTINUOUS
 62
     7
 10
-1070.333822300644
 20
343.1929096493834
 30
0.0
  0
VERTEX
  5
336
  8
0
  6
CONTINUOUS
 62
     7
 10
-1070.334953827746
 20
343.1236022092268
 30
0.0
  0
VERTEX
  5
337
  8
0
  6
CONTINUOUS
 62
     7
 10
-1070.335945619546
 20
343.0303300858898
 30
0.0
  0
VERTEX
  5
338
  8
0
  6
CONTINUOUS
 62
     7
 10
-1070.336759562042
 20
342.9166776747646
 30
0.0
  0
VERTEX
  5
339
  8
0
  6
CONTINUOUS
 62
     7
 10
-1070.337364375878
 20
342.7870125742737
 30
0.0
  0
VERTEX
  5
33A
  8
0
  6
CONTINUOUS
 62
     7
 10
-1070.3377368184
 20
342.646317741512
 30
0.0
  0
VERTEX
  5
33B
  8
0
  6
CONTINUOUS
 62
     7
 10
-1070.33786257685
 20
342.4999999999999
 30
0.0
  0
VERTEX
  5
33C
  8
0
  6
CONTINUOUS
 62
     7
 10
-1070.3377368184
 20
342.3536822584878
 30
0.0
  0
VERTEX
  5
33D
  8
0
  6
CONTINUOUS
 62
     7
 10
-1070.337364375878
 20
342.2129874257261
 30
0.0
  0
VERTEX
  5
33E
  8
0
  6
CONTINUOUS
 62
     7
 10
-1070.336759562042
 20
342.0833223252352
 30
0.0
  0
VERTEX
  5
33F
  8
0
  6
CONTINUOUS
 62
     7
 10
-1070.335945619546
 20
341.96966991411
 30
0.0
  0
VERTEX
  5
340
  8
0
  6
CONTINUOUS
 62
     7
 10
-1070.334953827746
 20
341.876397790773
 30
0.0
  0
VERTEX
  5
341
  8
0
  6
CONTINUOUS
 62
     7
 10
-1070.333822300644
 20
341.8070903506165
 30
0.0
  0
VERTEX
  5
342
  8
0
  6
CONTINUOUS
 62
     7
 10
-1070.332594522191
 20
341.7644110396975
 30
0.0
  0
VERTEX
  5
343
  8
0
  6
CONTINUOUS
 62
     7
 10
-1070.331317675226
 20
341.7499999999999
 30
0.0
  0
SEQEND
  5
50B
  8
0
  6
CONTINUOUS
 62
     7
  0
POLYLINE
  5
145
  8
0
  6
CONTINUOUS
 62
     7
 66
     1
 10
0.0
 20
0.0
 30
0.0
  0
VERTEX
  5
344
  8
0
  6
CONTINUOUS
 62
     7
 10
-634.4980961894548
 20
-218.0
 30
0.0
  0
VERTEX
  5
345
  8
0
  6
CONTINUOUS
 62
     7
 10
-632.0596357901101
 20
-217.7598722702217
 30
0.0
  0
VERTEX
  5
346
  8
0
  6
CONTINUOUS
 62
     7
 10
-629.7149941147259
 20
-217.0487134880084
 30
0.0
  0
VERTEX
  5
347
  8
0
  6
CONTINUOUS
 62
     7
 10
-627.5542396005777
 20
-215.8938425229515
 30
0.0
  0
VERTEX
  5
348
  8
0
  6
CONTINUOUS
 62
     7
 10
-625.660376735929
 20
-214.3396232640709
 30
0.0
  0
VERTEX
  5
349
  8
0
  6
CONTINUOUS
 62
     7
 10
-624.1061574770484
 20
-212.4457603994222
 30
0.0
  0
VERTEX
  5
34A
  8
0
  6
CONTINUOUS
 62
     7
 10
-622.9512865119917
 20
-210.2850058852742
 30
0.0
  0
VERTEX
  5
34B
  8
0
  6
CONTINUOUS
 62
     7
 10
-622.2401277297782
 20
-207.9403642098899
 30
0.0
  0
VERTEX
  5
34C
  8
0
  6
CONTINUOUS
 62
     7
 10
-622.0
 20
-205.5019038105451
 30
0.0
  0
SEQEND
  5
50C
  8
0
  6
CONTINUOUS
 62
     7
  0
POLYLINE
  5
146
  8
0
  6
CONTINUOUS
 62
     7
 66
     1
 10
0.0
 20
0.0
 30
0.0
  0
VERTEX
  5
34D
  8
0
  6
CONTINUOUS
 62
     7
 10
-1073.0
 20
-205.5019038105455
 30
0.0
  0
VERTEX
  5
34E
  8
0
  6
CONTINUOUS
 62
     7
 10
-1072.759872270222
 20
-207.9403642098902
 30
0.0
  0
VERTEX
  5
34F
  8
0
  6
CONTINUOUS
 62
     7
 10
-1072.048713488008
 20
-210.2850058852745
 30
0.0
  0
VERTEX
  5
350
  8
0
  6
CONTINUOUS
 62
     7
 10
-1070.893842522951
 20
-212.4457603994225
 30
0.0
  0
VERTEX
  5
351
  8
0
  6
CONTINUOUS
 62
     7
 10
-1069.33962326407
 20
-214.3396232640711
 30
0.0
  0
VERTEX
  5
352
  8
0
  6
CONTINUOUS
 62
     7
 10
-1067.445760399422
 20
-215.8938425229516
 30
0.0
  0
VERTEX
  5
353
  8
0
  6
CONTINUOUS
 62
     7
 10
-1065.285005885274
 20
-217.0487134880084
 30
0.0
  0
VERTEX
  5
354
  8
0
  6
CONTINUOUS
 62
     7
 10
-1062.94036420989
 20
-217.7598722702218
 30
0.0
  0
VERTEX
  5
355
  8
0
  6
CONTINUOUS
 62
     7
 10
-1060.501903810545
 20
-218.0
 30
0.0
  0
SEQEND
  5
50D
  8
0
  6
CONTINUOUS
 62
     7
  0
POLYLINE
  5
147
  8
0
  6
CONTINUOUS
 62
     7
 66
     1
 10
0.0
 20
0.0
 30
0.0
  0
VERTEX
  5
356
  8
0
  6
CONTINUOUS
 62
     7
 10
-1060.501903810545
 20
402.9999999999999
 30
0.0
  0
VERTEX
  5
357
  8
0
  6
CONTINUOUS
 62
     7
 10
-1062.94036420989
 20
402.7598722702216
 30
0.0
  0
VERTEX
  5
358
  8
0
  6
CONTINUOUS
 62
     7
 10
-1065.285005885274
 20
402.0487134880083
 30
0.0
  0
VERTEX
  5
359
  8
0
  6
CONTINUOUS
 62
     7
 10
-1067.445760399422
 20
400.8938425229514
 30
0.0
  0
VERTEX
  5
35A
  8
0
  6
CONTINUOUS
 62
     7
 10
-1069.339623264071
 20
399.3396232640708
 30
0.0
  0
VERTEX
  5
35B
  8
0
  6
CONTINUOUS
 62
     7
 10
-1070.893842522951
 20
397.4457603994222
 30
0.0
  0
VERTEX
  5
35C
  8
0
  6
CONTINUOUS
 62
     7
 10
-1072.048713488008
 20
395.2850058852741
 30
0.0
  0
VERTEX
  5
35D
  8
0
  6
CONTINUOUS
 62
     7
 10
-1072.759872270222
 20
392.9403642098898
 30
0.0
  0
VERTEX
  5
35E
  8
0
  6
CONTINUOUS
 62
     7
 10
-1073.0
 20
390.5019038105451
 30
0.0
  0
SEQEND
  5
50E
  8
0
  6
CONTINUOUS
 62
     7
  0
POLYLINE
  5
148
  8
0
  6
CONTINUOUS
 62
     7
 66
     1
 10
0.0
 20
0.0
 30
0.0
  0
VERTEX
  5
35F
  8
0
  6
CONTINUOUS
 62
     7
 10
-621.9999999999999
 20
390.501903810545
 30
0.0
  0
VERTEX
  5
360
  8
0
  6
CONTINUOUS
 62
     7
 10
-622.2401277297781
 20
392.9403642098898
 30
0.0
  0
VERTEX
  5
361
  8
0
  6
CONTINUOUS
 62
     7
 10
-622.9512865119915
 20
395.285005885274
 30
0.0
  0
VERTEX
  5
362
  8
0
  6
CONTINUOUS
 62
     7
 10
-624.1061574770483
 20
397.4457603994222
 30
0.0
  0
VERTEX
  5
363
  8
0
  6
CONTINUOUS
 62
     7
 10
-625.6603767359289
 20
399.3396232640708
 30
0.0
  0
VERTEX
  5
364
  8
0
  6
CONTINUOUS
 62
     7
 10
-627.5542396005776
 20
400.8938425229514
 30
0.0
  0
VERTEX
  5
365
  8
0
  6
CONTINUOUS
 62
     7
 10
-629.7149941147258
 20
402.0487134880083
 30
0.0
  0
VERTEX
  5
366
  8
0
  6
CONTINUOUS
 62
     7
 10
-632.05963579011
 20
402.7598722702216
 30
0.0
  0
VERTEX
  5
367
  8
0
  6
CONTINUOUS
 62
     7
 10
-634.4980961894547
 20
402.9999999999999
 30
0.0
  0
SEQEND
  5
50F
  8
0
  6
CONTINUOUS
 62
     7
  0
LINE
  5
149
  8
0
  6
CONTINUOUS
 62
     7
 10
-634.4980961894548
 20
402.9999999999999
 30
0.0
 11
-1060.501903810545
 21
402.9999999999999
 31
0.0
  0
LINE
  5
14A
  8
0
  6
CONTINUOUS
 62
     7
 10
-1073.0
 20
390.5019038105451
 30
0.0
 11
-1072.999999999999
 21
-205.5019038105457
 31
0.0
  0
LINE
  5
14B
  8
0
  6
CONTINUOUS
 62
     7
 10
-1060.501903810545
 20
-218.0000000000001
 30
0.0
 11
-634.498096189455
 21
-218.0000000000001
 31
0.0
  0
LINE
  5
14C
  8
0
  6
CONTINUOUS
 62
     7
 10
-622.0
 20
-205.5019038105451
 30
0.0
 11
-621.9999999999999
 21
390.5019038105449
 31
0.0
  0
LINE
  5
14D
  8
0
  6
CONTINUOUS
 62
     7
 10
-636.5248880410221
 20
-214.9735889105418
 30
0.0
 11
-636.4520004913667
 21
-214.9735889105418
 31
0.0
  0
LINE
  5
14E
  8
0
  6
CONTINUOUS
 62
     7
 10
-1058.547999325358
 20
-214.9735889105418
 30
0.0
 11
-1058.475111958978
 21
-214.9735889105418
 31
0.0
  0
LINE
  5
14F
  8
0
  6
CONTINUOUS
 62
     7
 10
-1058.475111958978
 20
399.9735889105418
 30
0.0
 11
-1058.547999508631
 21
399.9735889105418
 31
0.0
  0
LINE
  5
150
  8
0
  6
CONTINUOUS
 62
     7
 10
-636.4520006746361
 20
399.9735889105418
 30
0.0
 11
-636.5248880410221
 21
399.9735889105418
 31
0.0
  0
ARC
  5
151
  8
0
  6
CONTINUOUS
 62
     7
 10
-625.6500000000004
 20
-112.3214285714263
 30
0.0
 40
1.378571428571432
 50
294.888627629078
 51
330.5128743270577
  0
ARC
  5
152
  8
0
  6
CONTINUOUS
 62
     7
 10
-625.6500000000004
 20
-75.67857142857257
 30
0.0
 40
1.378571428571418
 50
29.4871256729422
 51
65.11137237092197
  0
LINE
  5
153
  8
0
  6
CONTINUOUS
 62
     9
 10
-623.6500000000005
 20
-103.9999999999985
 30
0.0
 11
-623.6500000000005
 21
-84.00000000000036
 31
0.0
  0
LINE
  5
154
  8
0
  6
CONTINUOUS
 62
     9
 10
-623.6500000000005
 20
-112.9999999999977
 30
0.0
 11
-623.6500000000005
 21
-103.9999999999985
 31
0.0
  0
LINE
  5
155
  8
0
  6
CONTINUOUS
 62
     9
 10
-623.6500000000005
 20
-84.00000000000036
 30
0.0
 11
-623.6500000000005
 21
-75.00000000000118
 31
0.0
  0
ARC
  5
156
  8
0
  6
CONTINUOUS
 62
     7
 10
-625.6500000000004
 20
260.6785714285738
 30
0.0
 40
1.378571428571432
 50
294.888627629078
 51
330.5128743270577
  0
ARC
  5
157
  8
0
  6
CONTINUOUS
 62
     7
 10
-625.6500000000004
 20
297.3214285714274
 30
0.0
 40
1.378571428571418
 50
29.4871256729422
 51
65.11137237092197
  0
LINE
  5
158
  8
0
  6
CONTINUOUS
 62
     9
 10
-623.6500000000005
 20
269.0000000000015
 30
0.0
 11
-623.6500000000005
 21
288.9999999999997
 31
0.0
  0
LINE
  5
159
  8
0
  6
CONTINUOUS
 62
     9
 10
-623.6500000000005
 20
288.9999999999997
 30
0.0
 11
-623.6500000000005
 21
297.9999999999988
 31
0.0
  0
LINE
  5
15A
  8
0
  6
CONTINUOUS
 62
     9
 10
-623.6500000000005
 20
260.0000000000023
 30
0.0
 11
-623.6500000000005
 21
269.0000000000015
 31
0.0
  0
ENDBLK
  8
0
  0
BLOCK
  8
0
  2
D_FRAME_VIEW_2014
 70
     0
 10
0.0
 20
0.0
 30
0.0
  0
ARC
  5
160
  8
0
  6
CONTINUOUS
 62
   251
 10
-481.5930128063649
 20
91.07190049653653
 30
0.0
 40
93.90083070064976
 50
359.092735884179
 51
10.76028601932421
  0
POLYLINE
  5
161
  8
0
  6
CONTINUOUS
 62
   251
 66
     1
 10
0.0
 20
0.0
 30
0.0
  0
VERTEX
  5
368
  8
0
  6
CONTINUOUS
 62
   251
 10
-388.6698799947211
 20
89.64864435646463
 30
0.0
  0
VERTEX
  5
369
  8
0
  6
CONTINUOUS
 62
   251
 10
-388.604993791111
 20
89.63640436677078
 30
0.0
  0
VERTEX
  5
36A
  8
0
  6
CONTINUOUS
 62
   251
 10
-388.5086650424388
 20
89.62459150194225
 30
0.0
  0
VERTEX
  5
36B
  8
0
  6
CONTINUOUS
 62
   251
 10
-388.3842552224341
 20
89.61361798195846
 30
0.0
  0
VERTEX
  5
36C
  8
0
  6
CONTINUOUS
 62
   251
 10
-388.2361057177276
 20
89.60386673714555
 30
0.0
  0
VERTEX
  5
36D
  8
0
  6
CONTINUOUS
 62
   251
 10
-388.0693863314671
 20
89.59567804549653
 30
0.0
  0
VERTEX
  5
36E
  8
0
  6
CONTINUOUS
 62
   251
 10
-387.8899148786336
 20
89.58933765838091
 30
0.0
  0
VERTEX
  5
36F
  8
0
  6
CONTINUOUS
 62
   251
 10
-387.7039541684321
 20
89.58506682900735
 30
0.0
  0
SEQEND
  5
510
  8
0
  6
CONTINUOUS
 62
   251
  0
ARC
  5
162
  8
0
  6
CONTINUOUS
 62
   251
 10
-476.0459300713665
 20
91.94518952919704
 30
0.0
 40
87.40622544605642
 50
358.4944151358153
 51
10.60196864332806
  0
POLYLINE
  5
163
  8
0
  6
CONTINUOUS
 62
   251
 66
     1
 10
0.0
 20
0.0
 30
0.0
  0
VERTEX
  5
370
  8
0
  6
CONTINUOUS
 62
   251
 10
-389.343250160313
 20
108.6032238356109
 30
0.0
  0
VERTEX
  5
371
  8
0
  6
CONTINUOUS
 62
   251
 10
-389.5300631789385
 20
108.5459416781038
 30
0.0
  0
VERTEX
  5
372
  8
0
  6
CONTINUOUS
 62
   251
 10
-389.7027547500174
 20
108.468524177192
 30
0.0
  0
VERTEX
  5
373
  8
0
  6
CONTINUOUS
 62
   251
 10
-389.8546282764335
 20
108.3739734123061
 30
0.0
  0
VERTEX
  5
374
  8
0
  6
CONTINUOUS
 62
   251
 10
-389.9797944387909
 20
108.265955852953
 30
0.0
  0
VERTEX
  5
375
  8
0
  6
CONTINUOUS
 62
   251
 10
-390.0733995701929
 20
108.1486601811395
 30
0.0
  0
VERTEX
  5
376
  8
0
  6
CONTINUOUS
 62
   251
 10
-390.1318138707072
 20
108.0266348635491
 30
0.0
  0
SEQEND
  5
511
  8
0
  6
CONTINUOUS
 62
   251
  0
LINE
  5
164
  8
0
  6
CONTINUOUS
 62
     9
 10
-391.1229346123464
 20
83.00813525739314
 30
0.0
 11
-391.2210098775249
 21
83.00209764169973
 31
0.0
  0
LINE
  5
165
  8
0
  6
CONTINUOUS
 62
   251
 10
-391.2210098775249
 20
83.00209764169973
 30
0.0
 11
-391.2210098775249
 21
109.761425345482
 31
0.0
  0
ARC
  5
166
  8
0
  6
CONTINUOUS
 62
   251
 10
-394.1502741012461
 20
107.386303358154
 30
0.0
 40
4.069158033563132
 50
9.053817513387708
 51
30.97539825298846
  0
POLYLINE
  5
167
  8
0
  6
CONTINUOUS
 62
   251
 66
     1
 10
0.0
 20
0.0
 30
0.0
  0
VERTEX
  5
377
  8
0
  6
CONTINUOUS
 62
   251
 10
-390.661425329642
 20
109.4805768242963
 30
0.0
  0
VERTEX
  5
378
  8
0
  6
CONTINUOUS
 62
   251
 10
-390.7770007544053
 20
109.6179488127259
 30
0.0
  0
VERTEX
  5
379
  8
0
  6
CONTINUOUS
 62
   251
 10
-390.8849099351458
 20
109.706316389
 30
0.0
  0
VERTEX
  5
37A
  8
0
  6
CONTINUOUS
 62
   251
 10
-390.9943526696319
 20
109.759722702168
 30
0.0
  0
VERTEX
  5
37B
  8
0
  6
CONTINUOUS
 62
   251
 10
-391.1076695633005
 20
109.7785047851697
 30
0.0
  0
VERTEX
  5
37C
  8
0
  6
CONTINUOUS
 62
   251
 10
-391.2210098775249
 20
109.761425345482
 30
0.0
  0
SEQEND
  5
512
  8
0
  6
CONTINUOUS
 62
   251
  0
LINE
  5
168
  8
0
  6
CONTINUOUS
 62
   251
 10
-388.7500539663261
 20
84.95189049267583
 30
0.0
 11
-388.6698799947211
 21
89.64864435646464
 31
0.0
  0
POLYLINE
  5
169
  8
0
  6
CONTINUOUS
 62
     9
 66
     1
 10
0.0
 20
0.0
 30
0.0
  0
VERTEX
  5
37D
  8
0
  6
CONTINUOUS
 62
     9
 10
-391.1229346123464
 20
83.00813525739315
 30
0.0
  0
VERTEX
  5
37E
  8
0
  6
CONTINUOUS
 62
     9
 10
-389.9116766751887
 20
83.55803523286514
 30
0.0
  0
VERTEX
  5
37F
  8
0
  6
CONTINUOUS
 62
     9
 10
-388.750053966326
 20
84.95189049267584
 30
0.0
  0
SEQEND
  5
513
  8
0
  6
CONTINUOUS
 62
     9
  0
LINE
  5
16A
  8
0
  6
CONTINUOUS
 62
   251
 10
-387.2550840512359
 20
109.2586000423632
 30
0.0
 11
-389.343250160313
 21
108.6032238356111
 31
0.0
  0
LINE
  5
16B
  8
0
  6
CONTINUOUS
 62
   251
 10
-387.2550840512359
 20
89.71212016067521
 30
0.0
 11
-387.7039541684321
 21
89.58506682900733
 31
0.0
  0
LINE
  5
16C
  8
0
  6
CONTINUOUS
 62
     9
 10
-387.2550840512359
 20
89.71212016067521
 30
0.0
 11
-387.2550840512359
 21
109.2586000423632
 31
0.0
  0
LINE
  5
16D
  8
0
  6
CONTINUOUS
 62
   251
 10
-387.7039541684321
 20
89.58506682900733
 30
0.0
 11
-387.7771536363358
 21
85.29689353757931
 31
0.0
  0
LINE
  5
16E
  8
0
  6
CONTINUOUS
 62
     9
 10
-387.2550840512359
 20
85.29689353757931
 30
0.0
 11
-387.7771536363358
 21
85.29689353757931
 31
0.0
  0
LINE
  5
16F
  8
0
  6
CONTINUOUS
 62
     9
 10
-387.2550840512359
 20
89.71212016067521
 30
0.0
 11
-387.2550840512359
 21
85.29689353757931
 31
0.0
  0
LINE
  5
170
  8
0
  6
CONTINUOUS
 62
     9
 10
-388.7500539663261
 20
84.95189049267583
 30
0.0
 11
-388.396575466669
 21
85.19426238769826
 31
0.0
  0
LINE
  5
171
  8
0
  6
CONTINUOUS
 62
     9
 10
-388.396575466669
 20
85.19426238769826
 30
0.0
 11
-387.7771536363358
 21
85.29689353757931
 31
0.0
  0
LINE
  5
172
  8
0
  6
CONTINUOUS
 62
     9
 10
-391.2209231130121
 20
83.00139560928834
 30
0.0
 11
-391.2550840512359
 21
83.00000000000014
 31
0.0
  0
LINE
  5
173
  8
0
  6
CONTINUOUS
 62
     9
 10
-391.2209231130121
 20
83.00139560928834
 30
0.0
 11
-391.1229346123464
 21
83.00813525739314
 31
0.0
  0
LINE
  5
174
  8
0
  6
CONTINUOUS
 62
     9
 10
-387.2550840512359
 20
85.20722295220679
 30
0.0
 11
-387.2550840512359
 21
85.29689353757931
 31
0.0
  0
POLYLINE
  5
175
  8
0
  6
CONTINUOUS
 62
   251
 66
     1
 10
0.0
 20
0.0
 30
0.0
  0
VERTEX
  5
380
  8
0
  6
CONTINUOUS
 62
   251
 10
-390.5491699000734
 20
110.717204354204
 30
0.0
  0
VERTEX
  5
381
  8
0
  6
CONTINUOUS
 62
   251
 10
-390.4237839473978
 20
110.7303746137668
 30
0.0
  0
VERTEX
  5
382
  8
0
  6
CONTINUOUS
 62
   251
 10
-390.3239773057447
 20
110.705300500258
 30
0.0
  0
VERTEX
  5
383
  8
0
  6
CONTINUOUS
 62
   251
 10
-390.207644476268
 20
110.6369268292767
 30
0.0
  0
VERTEX
  5
384
  8
0
  6
CONTINUOUS
 62
   251
 10
-390.0901082574082
 20
110.5248336564601
 30
0.0
  0
SEQEND
  5
514
  8
0
  6
CONTINUOUS
 62
   251
  0
ARC
  5
176
  8
0
  6
CONTINUOUS
 62
   251
 10
-394.5258681027411
 20
107.69487631619
 30
0.0
 40
5.261617997652094
 50
9.941148512500206
 51
32.53734825096142
  0
LINE
  5
177
  8
0
  6
CONTINUOUS
 62
     9
 10
-387.2550840512359
 20
109.2586000423632
 30
0.0
 11
-387.2550840512361
 21
111.7307692307656
 31
0.0
  0
POLYLINE
  5
178
  8
0
  6
CONTINUOUS
 62
   251
 66
     1
 10
0.0
 20
0.0
 30
0.0
  0
VERTEX
  5
385
  8
0
  6
CONTINUOUS
 62
   251
 10
-390.5491699000734
 20
110.717204354204
 30
0.0
  0
VERTEX
  5
386
  8
0
  6
CONTINUOUS
 62
   251
 10
-390.7119500782968
 20
110.6495997224254
 30
0.0
  0
VERTEX
  5
387
  8
0
  6
CONTINUOUS
 62
   251
 10
-390.8594309636081
 20
110.5522523670801
 30
0.0
  0
VERTEX
  5
388
  8
0
  6
CONTINUOUS
 62
   251
 10
-390.9866737924975
 20
110.4284222059897
 30
0.0
  0
VERTEX
  5
389
  8
0
  6
CONTINUOUS
 62
   251
 10
-391.0894175230077
 20
110.2822559994594
 30
0.0
  0
VERTEX
  5
38A
  8
0
  6
CONTINUOUS
 62
   251
 10
-391.1642215263005
 20
110.1186484857169
 30
0.0
  0
VERTEX
  5
38B
  8
0
  6
CONTINUOUS
 62
   251
 10
-391.2085808046532
 20
109.9430784684532
 30
0.0
  0
VERTEX
  5
38C
  8
0
  6
CONTINUOUS
 62
   251
 10
-391.221009877525
 20
109.761425345482
 30
0.0
  0
SEQEND
  5
515
  8
0
  6
CONTINUOUS
 62
   251
  0
LINE
  5
179
  8
0
  6
CONTINUOUS
 62
     9
 10
-387.2550840512359
 20
107.0000000000002
 30
0.0
 11
-387.1281154303666
 21
109.2219508652123
 31
0.0
  0
LINE
  5
17A
  8
0
  6
CONTINUOUS
 62
     9
 10
-387.1281154303666
 20
109.2219508652123
 30
0.0
 11
-387.0550840512359
 21
110.5000000000002
 31
0.0
  0
LINE
  5
17B
  8
0
  6
CONTINUOUS
 62
   251
 10
-391.2210098775249
 20
83.00209764169973
 30
0.0
 11
-391.2209231130121
 21
83.00139560928834
 31
0.0
  0
LINE
  5
17C
  8
0
  6
CONTINUOUS
 62
     9
 10
-391.221009877525
 20
83.00209764169972
 30
0.0
 11
-391.2550840512359
 21
83.00000000000013
 31
0.0
  0
LINE
  5
17D
  8
0
  6
CONTINUOUS
 62
   251
 10
-391.221009877525
 20
109.761425345482
 30
0.0
 11
-391.2550840512359
 21
109.761425345482
 31
0.0
  0
LINE
  5
17E
  8
0
  6
CONTINUOUS
 62
   251
 10
-382.0550840512359
 20
110.8179944061928
 30
0.0
 11
-387.0550840512359
 21
109.2363964504261
 31
0.0
  0
LINE
  5
17F
  8
0
  6
CONTINUOUS
 62
   251
 10
-382.0550840512359
 20
90.33149591440892
 30
0.0
 11
-387.0550840512359
 21
88.96558004516815
 31
0.0
  0
LINE
  5
180
  8
0
  6
CONTINUOUS
 62
     9
 10
-387.0550840512359
 20
88.96558004516815
 30
0.0
 11
-387.0550840512359
 21
109.2363964504261
 31
0.0
  0
ARC
  5
181
  8
0
  6
CONTINUOUS
 62
     9
 10
-374.8183456026788
 20
56.05529568495911
 30
0.0
 40
8.943512341567695
 50
189.9657039686616
 51
215.9783829251793
  0
LINE
  5
182
  8
0
  6
CONTINUOUS
 62
     9
 10
-388.4446732447683
 20
83.2491888920045
 30
0.0
 11
-383.6269139252938
 21
54.50754340839896
 31
0.0
  0
LINE
  5
183
  8
0
  6
CONTINUOUS
 62
     9
 10
-388.3965062894526
 20
85.20722295220679
 30
0.0
 11
-388.4446732447683
 21
83.2491888920045
 31
0.0
  0
LINE
  5
184
  8
0
  6
CONTINUOUS
 62
     9
 10
-387.0550840512359
 20
85.20722295220679
 30
0.0
 11
-387.2550840512359
 21
85.20722295220679
 31
0.0
  0
LINE
  5
185
  8
0
  6
CONTINUOUS
 62
     9
 10
-387.2550840512359
 20
85.20722295220679
 30
0.0
 11
-388.3965062894526
 21
85.20722295220679
 31
0.0
  0
LINE
  5
186
  8
0
  6
CONTINUOUS
 62
     9
 10
-387.0550840512359
 20
88.96558004516815
 30
0.0
 11
-387.0550840512359
 21
85.20722295220679
 31
0.0
  0
POLYLINE
  5
187
  8
0
  6
CONTINUOUS
 62
     9
 66
     1
 10
0.0
 20
0.0
 30
0.0
  0
VERTEX
  5
38D
  8
0
  6
CONTINUOUS
 62
     9
 10
-390.8017367103708
 20
83.02418444752313
 30
0.0
  0
VERTEX
  5
38E
  8
0
  6
CONTINUOUS
 62
     9
 10
-389.5707113736511
 20
83.6797267275419
 30
0.0
  0
VERTEX
  5
38F
  8
0
  6
CONTINUOUS
 62
     9
 10
-388.3965062894527
 20
85.20722295220679
 30
0.0
  0
SEQEND
  5
516
  8
0
  6
CONTINUOUS
 62
     9
  0
LINE
  5
188
  8
0
  6
CONTINUOUS
 62
     9
 10
-391.0206520608243
 20
83.00139560928835
 30
0.0
 11
-390.8017367103707
 21
83.02418444752313
 31
0.0
  0
LINE
  5
189
  8
0
  6
CONTINUOUS
 62
     9
 10
-391.0206520608244
 20
83.00139560928837
 30
0.0
 11
-391.0550840512359
 21
83.00000000000017
 31
0.0
  0
LINE
  5
18A
  8
0
  6
CONTINUOUS
 62
     9
 10
-388.4446732447683
 20
83.2491888920045
 30
0.0
 11
-390.8017367103708
 21
83.02418444752313
 31
0.0
  0
LINE
  5
18B
  8
0
  6
CONTINUOUS
 62
     9
 10
-385.462455546138
 20
54.15388033062652
 30
0.0
 11
-383.6269139252938
 21
54.50754340839897
 31
0.0
  0
LINE
  5
18C
  8
0
  6
CONTINUOUS
 62
   251
 10
-391.0206520608244
 20
83.00139560928837
 30
0.0
 11
-385.4624748178234
 21
54.15398035232172
 31
0.0
  0
ARC
  5
18D
  8
0
  6
CONTINUOUS
 62
     9
 10
-373.7150038194028
 20
56.43109516074654
 30
0.0
 40
11.96613260304294
 50
190.969608552622
 51
225.814062183938
  0
LINE
  5
18E
  8
0
  6
CONTINUOUS
 62
     9
 10
-387.0550840512359
 20
109.2363964504261
 30
0.0
 11
-387.055084051236
 21
111.7307692307692
 31
0.0
  0
LINE
  5
18F
  8
0
  6
CONTINUOUS
 62
   251
 10
-385.4959143228631
 20
54.14743365907155
 30
0.0
 11
-385.462455546138
 21
54.15388033062656
 31
0.0
  0
LINE
  5
190
  8
0
  6
CONTINUOUS
 62
     7
 10
-342.0550840512359
 20
372.0000000000001
 30
0.0
 11
-343.5158186287741
 21
371.9946332225657
 31
0.0
  0
LINE
  5
191
  8
0
  6
CONTINUOUS
 62
     7
 10
-341.602786788695
 20
299.3500000000004
 30
0.0
 11
-343.0628661097478
 21
299.2222596115595
 31
0.0
  0
LINE
  5
192
  8
0
  6
CONTINUOUS
 62
     9
 10
-343.5158186287741
 20
371.9946332225657
 30
0.0
 11
-343.5158186287745
 21
388.6747869991933
 31
0.0
  0
LINE
  5
193
  8
0
  6
CONTINUOUS
 62
     7
 10
-343.5158186287745
 20
388.6747869991933
 30
0.0
 11
-343.2644548258522
 21
389.364502796054
 31
0.0
  0
LINE
  5
194
  8
0
  6
CONTINUOUS
 62
     7
 10
-343.1050840512359
 20
389.5692272962555
 30
0.0
 11
-343.2644548258522
 21
389.364502796054
 31
0.0
  0
LINE
  5
195
  8
0
  6
CONTINUOUS
 62
     7
 10
-343.5158186287742
 20
-186.9946332225657
 30
0.0
 11
-342.0550840512359
 21
-186.9999999999998
 31
0.0
  0
LINE
  5
196
  8
0
  6
CONTINUOUS
 62
     7
 10
-343.0628661097495
 20
-114.2222596115592
 30
0.0
 11
-341.602786788695
 21
-114.3500000000001
 31
0.0
  0
LINE
  5
197
  8
0
  6
CONTINUOUS
 62
     7
 10
-343.2644548258563
 20
-204.3645027960414
 30
0.0
 11
-343.1050840512359
 21
-204.5692272962541
 31
0.0
  0
LINE
  5
198
  8
0
  6
CONTINUOUS
 62
     7
 10
-343.2644548258563
 20
-204.3645027960414
 30
0.0
 11
-343.5158186287716
 21
-203.6747869991958
 31
0.0
  0
LINE
  5
199
  8
0
  6
CONTINUOUS
 62
     7
 10
-341.408457139519
 20
-73.65000000000008
 30
0.0
 11
-342.869749336446
 21
-73.77784650133006
 31
0.0
  0
LINE
  5
19A
  8
0
  6
CONTINUOUS
 62
     7
 10
-342.8697493364489
 20
258.7778465013306
 30
0.0
 11
-341.408457139519
 21
258.6500000000004
 31
0.0
  0
LINE
  5
19B
  8
0
  6
CONTINUOUS
 62
     7
 10
-346.0550840512359
 20
-113.9604744628802
 30
0.0
 11
-346.0550840512359
 21
-74.0565271784098
 31
0.0
  0
LINE
  5
19C
  8
0
  6
CONTINUOUS
 62
     7
 10
-343.5550840512359
 20
-114.1791961216953
 30
0.0
 11
-343.5550840512359
 21
-203.4755689083091
 31
0.0
  0
LINE
  5
19D
  8
0
  6
CONTINUOUS
 62
     7
 10
-343.5550840512359
 20
388.4755689083095
 30
0.0
 11
-343.5550840512359
 21
299.1791961216972
 31
0.0
  0
LINE
  5
19E
  8
0
  6
CONTINUOUS
 62
     7
 10
-346.0550840512359
 20
259.0565271784101
 30
0.0
 11
-346.0550840512359
 21
298.9604744628804
 31
0.0
  0
LINE
  5
19F
  8
0
  6
CONTINUOUS
 62
     7
 10
-343.5550840512359
 20
258.837805519593
 30
0.0
 11
-343.5550840512359
 21
-73.8378055195944
 31
0.0
  0
LINE
  5
1A0
  8
0
  6
CONTINUOUS
 62
     7
 10
-346.0550840512359
 20
-74.0565271784098
 30
0.0
 11
-343.5550840512287
 21
-73.83780551959434
 31
0.0
  0
LINE
  5
1A1
  8
0
  6
CONTINUOUS
 62
     7
 10
-343.5550840512102
 20
258.837805519593
 30
0.0
 11
-346.0550840512359
 21
259.0565271784101
 31
0.0
  0
LINE
  5
1A2
  8
0
  6
CONTINUOUS
 62
     7
 10
-346.0550840512359
 20
298.9604744628804
 30
0.0
 11
-343.555084051215
 21
299.1791961216971
 31
0.0
  0
LINE
  5
1A3
  8
0
  6
CONTINUOUS
 62
     7
 10
-343.5550840512322
 20
-114.1791961216954
 30
0.0
 11
-346.0550840512359
 21
-113.9604744628802
 31
0.0
  0
LINE
  5
1A4
  8
0
  6
CONTINUOUS
 62
     7
 10
-343.5550840512287
 20
-73.83780551959434
 30
0.0
 11
-342.869749336446
 21
-73.77784650133009
 31
0.0
  0
LINE
  5
1A5
  8
0
  6
CONTINUOUS
 62
     7
 10
-342.8697493364489
 20
258.7778465013306
 30
0.0
 11
-343.5550840512101
 21
258.8378055195931
 31
0.0
  0
LINE
  5
1A6
  8
0
  6
CONTINUOUS
 62
     7
 10
-343.5158186287745
 20
388.6747869991933
 30
0.0
 11
-343.5550840512358
 21
388.4755689083095
 31
0.0
  0
LINE
  5
1A7
  8
0
  6
CONTINUOUS
 62
     7
 10
-343.555084051215
 20
299.1791961216973
 30
0.0
 11
-343.0628661097478
 21
299.2222596115595
 31
0.0
  0
LINE
  5
1A8
  8
0
  6
CONTINUOUS
 62
     7
 10
-343.5550840512356
 20
-203.475568908309
 30
0.0
 11
-343.5158186287716
 21
-203.6747869991958
 31
0.0
  0
LINE
  5
1A9
  8
0
  6
CONTINUOUS
 62
     7
 10
-343.0628661097495
 20
-114.2222596115592
 30
0.0
 11
-343.5550840512322
 21
-114.1791961216953
 31
0.0
  0
LINE
  5
1AA
  8
0
  6
CONTINUOUS
 62
     7
 10
-359.2876947191792
 20
399.6992036619085
 30
0.0
 11
-343.5812626608918
 21
399.9733604532766
 31
0.0
  0
LINE
  5
1AB
  8
0
  6
CONTINUOUS
 62
     7
 10
-343.2644522303315
 20
399.9451639662842
 30
0.0
 11
-343.5812626608918
 21
399.9733604532766
 31
0.0
  0
LINE
  5
1AC
  8
0
  6
CONTINUOUS
 62
     7
 10
-343.5812626608918
 20
-214.9733604532762
 30
0.0
 11
-359.2876947191794
 21
-214.6992036619082
 31
0.0
  0
LINE
  5
1AD
  8
0
  6
CONTINUOUS
 62
     7
 10
-343.5812626608918
 20
-214.9733604532762
 30
0.0
 11
-343.2644522303315
 21
-214.9451639662838
 31
0.0
  0
LINE
  5
1AE
  8
0
  6
CONTINUOUS
 62
     7
 10
-343.2644522303315
 20
399.9451639662842
 30
0.0
 11
-343.1050840512359
 21
399.9044977126674
 31
0.0
  0
POLYLINE
  5
1AF
  8
0
  6
CONTINUOUS
 62
     7
 66
     1
 10
0.0
 20
0.0
 30
0.0
  0
VERTEX
  5
390
  8
0
  6
CONTINUOUS
 62
     7
 10
-342.7550840512359
 20
399.4275281119589
 30
0.0
  0
VERTEX
  5
391
  8
0
  6
CONTINUOUS
 62
     7
 10
-342.7552906475061
 20
399.4419000842708
 30
0.0
  0
VERTEX
  5
392
  8
0
  6
CONTINUOUS
 62
     7
 10
-342.755890073489
 20
399.4559065215454
 30
0.0
  0
VERTEX
  5
393
  8
0
  6
CONTINUOUS
 62
     7
 10
-342.7568818744385
 20
399.4698907255984
 30
0.0
  0
VERTEX
  5
394
  8
0
  6
CONTINUOUS
 62
     7
 10
-342.7582704172407
 20
399.4838856680765
 30
0.0
  0
VERTEX
  5
395
  8
0
  6
CONTINUOUS
 62
     7
 10
-342.7600519521153
 20
399.4978361544592
 30
0.0
  0
VERTEX
  5
396
  8
0
  6
CONTINUOUS
 62
     7
 10
-342.7622403986534
 20
399.5118198324756
 30
0.0
  0
VERTEX
  5
397
  8
0
  6
CONTINUOUS
 62
     7
 10
-342.7648237312443
 20
399.5257361495208
 30
0.0
  0
VERTEX
  5
398
  8
0
  6
CONTINUOUS
 62
     7
 10
-342.7678102631508
 20
399.5396183209564
 30
0.0
  0
VERTEX
  5
399
  8
0
  6
CONTINUOUS
 62
     7
 10
-342.7711897763605
 20
399.5534103217536
 30
0.0
  0
VERTEX
  5
39A
  8
0
  6
CONTINUOUS
 62
     7
 10
-342.7768100064033
 20
399.5733154160682
 30
0.0
  0
VERTEX
  5
39B
  8
0
  6
CONTINUOUS
 62
     7
 10
-342.7832724673314
 20
399.5930389251814
 30
0.0
  0
VERTEX
  5
39C
  8
0
  6
CONTINUOUS
 62
     7
 10
-342.7905614101063
 20
399.6125111270657
 30
0.0
  0
VERTEX
  5
39D
  8
0
  6
CONTINUOUS
 62
     7
 10
-342.7987605128726
 20
399.6319023479468
 30
0.0
  0
VERTEX
  5
39E
  8
0
  6
CONTINUOUS
 62
     7
 10
-342.8077857333791
 20
399.6509653846832
 30
0.0
  0
VERTEX
  5
39F
  8
0
  6
CONTINUOUS
 62
     7
 10
-342.8177364985695
 20
399.6698648986354
 30
0.0
  0
VERTEX
  5
3A0
  8
0
  6
CONTINUOUS
 62
     7
 10
-342.8285062084162
 20
399.6883563006488
 30
0.0
  0
VERTEX
  5
3A1
  8
0
  6
CONTINUOUS
 62
     7
 10
-342.8401016926009
 20
399.706436057385
 30
0.0
  0
VERTEX
  5
3A2
  8
0
  6
CONTINUOUS
 62
     7
 10
-342.8520409776207
 20
399.7234269038717
 30
0.0
  0
VERTEX
  5
3A3
  8
0
  6
CONTINUOUS
 62
     7
 10
-342.8646757882577
 20
399.7399083101124
 30
0.0
  0
VERTEX
  5
3A4
  8
0
  6
CONTINUOUS
 62
     7
 10
-342.8780802794734
 20
399.7559606999686
 30
0.0
  0
VERTEX
  5
3A5
  8
0
  6
CONTINUOUS
 62
     7
 10
-342.8921447165194
 20
399.7714394948987
 30
0.0
  0
VERTEX
  5
3A6
  8
0
  6
CONTINUOUS
 62
     7
 10
-342.9032597053238
 20
399.7828020425748
 30
0.0
  0
VERTEX
  5
3A7
  8
0
  6
CONTINUOUS
 62
     7
 10
-342.9147305843587
 20
399.7938060359247
 30
0.0
  0
VERTEX
  5
3A8
  8
0
  6
CONTINUOUS
 62
     7
 10
-342.9265947826382
 20
399.8044826655407
 30
0.0
  0
VERTEX
  5
3A9
  8
0
  6
CONTINUOUS
 62
     7
 10
-342.9387940732296
 20
399.8147756423743
 30
0.0
  0
VERTEX
  5
3AA
  8
0
  6
CONTINUOUS
 62
     7
 10
-342.9557107166348
 20
399.8279973448967
 30
0.0
  0
VERTEX
  5
3AB
  8
0
  6
CONTINUOUS
 62
     7
 10
-342.9682889928848
 20
399.8370992734157
 30
0.0
  0
VERTEX
  5
3AC
  8
0
  6
CONTINUOUS
 62
     7
 10
-342.981144170701
 20
399.8458066577302
 30
0.0
  0
VERTEX
  5
3AD
  8
0
  6
CONTINUOUS
 62
     7
 10
-342.994315501781
 20
399.854142345725
 30
0.0
  0
VERTEX
  5
3AE
  8
0
  6
CONTINUOUS
 62
     7
 10
-343.0077406307062
 20
399.8620637633394
 30
0.0
  0
VERTEX
  5
3AF
  8
0
  6
CONTINUOUS
 62
     7
 10
-343.0262525372983
 20
399.8720909739133
 30
0.0
  0
VERTEX
  5
3B0
  8
0
  6
CONTINUOUS
 62
     7
 10
-343.0452049281238
 20
399.8813460861311
 30
0.0
  0
VERTEX
  5
3B1
  8
0
  6
CONTINUOUS
 62
     7
 10
-343.0647787832995
 20
399.8898958281716
 30
0.0
  0
VERTEX
  5
3B2
  8
0
  6
CONTINUOUS
 62
     7
 10
-343.0847374491206
 20
399.8976153752918
 30
0.0
  0
VERTEX
  5
3B3
  8
0
  6
CONTINUOUS
 62
     7
 10
-343.1050840512359
 20
399.9044977126674
 30
0.0
  0
SEQEND
  5
517
  8
0
  6
CONTINUOUS
 62
     7
  0
LINE
  5
1B0
  8
0
  6
CONTINUOUS
 62
     7
 10
-342.7550840512359
 20
399.4275281119589
 30
0.0
 11
-342.7550840512359
 21
389.5463175429964
 31
0.0
  0
LINE
  5
1B1
  8
0
  6
CONTINUOUS
 62
     7
 10
-342.7550840512359
 20
389.5463175429964
 30
0.0
 11
-343.1050840512359
 21
389.5692272962555
 31
0.0
  0
LINE
  5
1B2
  8
0
  6
CONTINUOUS
 62
     7
 10
-343.1050840512359
 20
-214.9044977126671
 30
0.0
 11
-343.2644522303315
 21
-214.9451639662838
 31
0.0
  0
LINE
  5
1B3
  8
0
  6
CONTINUOUS
 62
     7
 10
-343.1050840512359
 20
-204.5692272962541
 30
0.0
 11
-342.7550840512359
 21
-204.546317542996
 31
0.0
  0
LINE
  5
1B4
  8
0
  6
CONTINUOUS
 62
     7
 10
-342.7550840512359
 20
-204.546317542996
 30
0.0
 11
-342.7550840512359
 21
-214.4275281119586
 31
0.0
  0
POLYLINE
  5
1B5
  8
0
  6
CONTINUOUS
 62
     7
 66
     1
 10
0.0
 20
0.0
 30
0.0
  0
VERTEX
  5
3B4
  8
0
  6
CONTINUOUS
 62
     7
 10
-343.1050840512359
 20
-214.9044977126671
 30
0.0
  0
VERTEX
  5
3B5
  8
0
  6
CONTINUOUS
 62
     7
 10
-343.0854826857839
 20
-214.8978847605103
 30
0.0
  0
VERTEX
  5
3B6
  8
0
  6
CONTINUOUS
 62
     7
 10
-343.0661392625299
 20
-214.8904534480775
 30
0.0
  0
VERTEX
  5
3B7
  8
0
  6
CONTINUOUS
 62
     7
 10
-343.0470227366105
 20
-214.8821823645026
 30
0.0
  0
VERTEX
  5
3B8
  8
0
  6
CONTINUOUS
 62
     7
 10
-343.0282355784661
 20
-214.8731061302697
 30
0.0
  0
VERTEX
  5
3B9
  8
0
  6
CONTINUOUS
 62
     7
 10
-343.0094813080245
 20
-214.8630499742423
 30
0.0
  0
VERTEX
  5
3BA
  8
0
  6
CONTINUOUS
 62
     7
 10
-342.9911397795923
 20
-214.8521849398403
 30
0.0
  0
VERTEX
  5
3BB
  8
0
  6
CONTINUOUS
 62
     7
 10
-342.9731816613835
 20
-214.8404821561276
 30
0.0
  0
VERTEX
  5
3BC
  8
0
  6
CONTINUOUS
 62
     7
 10
-342.9557107166348
 20
-214.8279973448964
 30
0.0
  0
VERTEX
  5
3BD
  8
0
  6
CONTINUOUS
 62
     7
 10
-342.9394066507018
 20
-214.8152751671273
 30
0.0
  0
VERTEX
  5
3BE
  8
0
  6
CONTINUOUS
 62
     7
 10
-342.9236167491271
 20
-214.8018667656303
 30
0.0
  0
VERTEX
  5
3BF
  8
0
  6
CONTINUOUS
 62
     7
 10
-342.9081967962032
 20
-214.7876239854422
 30
0.0
  0
VERTEX
  5
3C0
  8
0
  6
CONTINUOUS
 62
     7
 10
-342.8933886702368
 20
-214.7727475369103
 30
0.0
  0
VERTEX
  5
3C1
  8
0
  6
CONTINUOUS
 62
     7
 10
-342.8791201393019
 20
-214.7571505282941
 30
0.0
  0
VERTEX
  5
3C2
  8
0
  6
CONTINUOUS
 62
     7
 10
-342.8655239598528
 20
-214.7409654026589
 30
0.0
  0
VERTEX
  5
3C3
  8
0
  6
CONTINUOUS
 62
     7
 10
-342.8524539049429
 20
-214.7239888434158
 30
0.0
  0
VERTEX
  5
3C4
  8
0
  6
CONTINUOUS
 62
     7
 10
-342.8401016926009
 20
-214.7064360573846
 30
0.0
  0
VERTEX
  5
3C5
  8
0
  6
CONTINUOUS
 62
     7
 10
-342.8289189872136
 20
-214.6890301926518
 30
0.0
  0
VERTEX
  5
3C6
  8
0
  6
CONTINUOUS
 62
     7
 10
-342.818449047233
 20
-214.6711464061802
 30
0.0
  0
VERTEX
  5
3C7
  8
0
  6
CONTINUOUS
 62
     7
 10
-342.8086809993064
 20
-214.6527487043297
 30
0.0
  0
VERTEX
  5
3C8
  8
0
  6
CONTINUOUS
 62
     7
 10
-342.799673101756
 20
-214.6339278868952
 30
0.0
  0
VERTEX
  5
3C9
  8
0
  6
CONTINUOUS
 62
     7
 10
-342.7913032364505
 20
-214.6143632152902
 30
0.0
  0
VERTEX
  5
3CA
  8
0
  6
CONTINUOUS
 62
     7
 10
-342.7837607924766
 20
-214.5944244443106
 30
0.0
  0
VERTEX
  5
3CB
  8
0
  6
CONTINUOUS
 62
     7
 10
-342.7770409193971
 20
-214.5740708159794
 30
0.0
  0
VERTEX
  5
3CC
  8
0
  6
CONTINUOUS
 62
     7
 10
-342.7711897763605
 20
-214.5534103217533
 30
0.0
  0
VERTEX
  5
3CD
  8
0
  6
CONTINUOUS
 62
     7
 10
-342.7678568205839
 20
-214.5398207017014
 30
0.0
  0
VERTEX
  5
3CE
  8
0
  6
CONTINUOUS
 62
     7
 10
-342.7649033176472
 20
-214.5261326170202
 30
0.0
  0
VERTEX
  5
3CF
  8
0
  6
CONTINUOUS
 62
     7
 10
-342.7623201711954
 20
-214.5122849365976
 30
0.0
  0
VERTEX
  5
3D0
  8
0
  6
CONTINUOUS
 62
     7
 10
-342.7601280904462
 20
-214.4983701678208
 30
0.0
  0
VERTEX
  5
3D1
  8
0
  6
CONTINUOUS
 62
     7
 10
-342.7583238510713
 20
-214.4843547240024
 30
0.0
  0
VERTEX
  5
3D2
  8
0
  6
CONTINUOUS
 62
     7
 10
-342.7569163317044
 20
-214.4702940238127
 30
0.0
  0
VERTEX
  5
3D3
  8
0
  6
CONTINUOUS
 62
     7
 10
-342.7559018907909
 20
-214.4561143095643
 30
0.0
  0
VERTEX
  5
3D4
  8
0
  6
CONTINUOUS
 62
     7
 10
-342.7552906475061
 20
-214.4419000842705
 30
0.0
  0
VERTEX
  5
3D5
  8
0
  6
CONTINUOUS
 62
     7
 10
-342.7550840512359
 20
-214.4275281119586
 30
0.0
  0
SEQEND
  5
518
  8
0
  6
CONTINUOUS
 62
     7
  0
ARC
  5
1B6
  8
0
  6
CONTINUOUS
 62
     7
 10
-342.5550840512359
 20
374.5000000000001
 30
0.0
 40
0.5000000000000004
 50
0.0000000000063611
 51
72.54239687627985
  0
ARC
  5
1B7
  8
0
  6
CONTINUOUS
 62
     7
 10
-342.5550840512359
 20
-189.4999999999998
 30
0.0
 40
0.4999999999999988
 50
287.4576031237232
 51
0.0
  0
LINE
  5
1B8
  8
0
  6
CONTINUOUS
 62
     7
 10
-342.7550840512359
 20
-190.2905081272948
 30
0.0
 11
-342.7550840512359
 21
-204.546317542996
 31
0.0
  0
LINE
  5
1B9
  8
0
  6
CONTINUOUS
 62
     7
 10
-342.7550840512359
 20
389.5463175429964
 30
0.0
 11
-342.7550840512359
 21
375.2905081272934
 31
0.0
  0
ARC
  5
1BA
  8
0
  6
CONTINUOUS
 62
     7
 10
-359.0869920451505
 20
388.2009551676101
 30
0.0
 40
11.50000000000001
 50
91.0
 51
170.3471331416159
  0
ARC
  5
1BB
  8
0
  6
CONTINUOUS
 62
     7
 10
1379.444915948764
 20
92.50000000000004
 30
0.0
 40
1775.000000000001
 50
170.3471331416161
 51
171.6548649526684
  0
ARC
  5
1BC
  8
0
  6
CONTINUOUS
 62
     7
 10
1379.444915948764
 20
92.50000000000004
 30
0.0
 40
1775.000000000001
 50
188.3451350473316
 51
189.652866858384
  0
ARC
  5
1BD
  8
0
  6
CONTINUOUS
 62
     7
 10
-359.0869920451506
 20
-203.2009551676097
 30
0.0
 40
11.49999999999998
 50
189.652866858384
 51
269.0
  0
ARC
  5
1BE
  8
0
  6
CONTINUOUS
 62
     7
 10
117.944915948764
 20
277.5479667545664
 30
0.0
 40
500.0
 50
171.6548649526685
 51
180.0
  0
ARC
  5
1BF
  8
0
  6
CONTINUOUS
 62
     7
 10
117.944915948764
 20
-92.5479667545663
 30
0.0
 40
500.0
 50
180.0
 51
188.3451350473315
  0
LINE
  5
1C0
  8
0
  6
CONTINUOUS
 62
     7
 10
-382.0550840512359
 20
-92.5479667545663
 30
0.0
 11
-382.0550840512359
 21
277.5479667545664
 31
0.0
  0
ARC
  5
1C1
  8
0
  6
CONTINUOUS
 62
     7
 10
-342.2550840512359
 20
375.4539392014171
 30
0.0
 40
0.4999999999999449
 50
180.0
 51
252.5423968762787
  0
ARC
  5
1C2
  8
0
  6
CONTINUOUS
 62
     7
 10
-342.2550840512359
 20
-190.4539392014167
 30
0.0
 40
0.4999999999999449
 50
160.4999999999993
 51
180.0
  0
ARC
  5
1C3
  8
0
  6
CONTINUOUS
 62
     7
 10
-342.2550840512359
 20
-190.4539392014167
 30
0.0
 40
0.4999999999999815
 50
107.4576031237202
 51
160.4999999999993
  0
ARC
  5
1C4
  8
0
  6
CONTINUOUS
 62
     7
 10
-343.5550840512359
 20
398.4735889105419
 30
0.0
 40
1.500000000000066
 50
71.36605192801869
 51
72.54239687627785
  0
ARC
  5
1C5
  8
0
  6
CONTINUOUS
 62
     7
 10
-343.5550840512359
 20
398.4735889105419
 30
0.0
 40
1.500000000000083
 50
0.0
 51
71.36605192801869
  0
ARC
  5
1C6
  8
0
  6
CONTINUOUS
 62
     7
 10
-343.5550840512359
 20
397.9725889105421
 30
0.0
 40
1.500000000000001
 50
302.2401917955052
 51
0.0000000000021032
  0
ARC
  5
1C7
  8
0
  6
CONTINUOUS
 62
     7
 10
-343.5550840512359
 20
-212.9725889105417
 30
0.0
 40
1.50000000000001
 50
0.0
 51
57.76904736449802
  0
ARC
  5
1C8
  8
0
  6
CONTINUOUS
 62
     7
 10
-343.5550840512359
 20
-213.4735889105417
 30
0.0
 40
1.500000000000001
 50
287.4576031237222
 51
0.0
  0
LINE
  5
1C9
  8
0
  6
CONTINUOUS
 62
     9
 10
-346.0550840512432
 20
-103.9999999999983
 30
0.0
 11
-342.0550840512439
 21
-103.9999999999983
 31
0.0
  0
LINE
  5
1CA
  8
0
  6
CONTINUOUS
 62
     9
 10
-342.0550840512439
 20
-84.00000000000018
 30
0.0
 11
-342.0550840512439
 21
-103.9999999999983
 31
0.0
  0
LINE
  5
1CB
  8
0
  6
CONTINUOUS
 62
     9
 10
-342.0550840512439
 20
-84.00000000000018
 30
0.0
 11
-346.0550840512432
 21
-84.00000000000018
 31
0.0
  0
LINE
  5
1CC
  8
0
  6
CONTINUOUS
 62
     9
 10
-342.0550840512439
 20
-103.9999999999983
 30
0.0
 11
-346.0550840512432
 21
-103.9999999999983
 31
0.0
  0
LINE
  5
1CD
  8
0
  6
CONTINUOUS
 62
     9
 10
-346.0550840512432
 20
-112.9999999999975
 30
0.0
 11
-342.0550840512439
 21
-112.9999999999975
 31
0.0
  0
LINE
  5
1CE
  8
0
  6
CONTINUOUS
 62
     9
 10
-346.0550840512432
 20
-75.00000000000101
 30
0.0
 11
-342.0550840512439
 21
-75.00000000000101
 31
0.0
  0
LINE
  5
1CF
  8
0
  6
CONTINUOUS
 62
     9
 10
-346.0550840512432
 20
-84.00000000000018
 30
0.0
 11
-342.0550840512439
 21
-84.00000000000018
 31
0.0
  0
LINE
  5
1D0
  8
0
  6
CONTINUOUS
 62
     9
 10
-346.0550840512432
 20
269.0000000000016
 30
0.0
 11
-342.0550840512439
 21
269.0000000000016
 31
0.0
  0
LINE
  5
1D1
  8
0
  6
CONTINUOUS
 62
     9
 10
-342.0550840512439
 20
288.9999999999998
 30
0.0
 11
-342.0550840512439
 21
269.0000000000016
 31
0.0
  0
LINE
  5
1D2
  8
0
  6
CONTINUOUS
 62
     9
 10
-342.0550840512439
 20
288.9999999999998
 30
0.0
 11
-346.0550840512432
 21
288.9999999999998
 31
0.0
  0
LINE
  5
1D3
  8
0
  6
CONTINUOUS
 62
     9
 10
-342.0550840512439
 20
269.0000000000016
 30
0.0
 11
-346.0550840512432
 21
269.0000000000016
 31
0.0
  0
LINE
  5
1D4
  8
0
  6
CONTINUOUS
 62
     9
 10
-346.0550840512432
 20
260.0000000000025
 30
0.0
 11
-342.0550840512439
 21
260.0000000000025
 31
0.0
  0
LINE
  5
1D5
  8
0
  6
CONTINUOUS
 62
     9
 10
-346.0550840512432
 20
297.999999999999
 30
0.0
 11
-342.0550840512439
 21
297.999999999999
 31
0.0
  0
LINE
  5
1D6
  8
0
  6
CONTINUOUS
 62
     9
 10
-346.0550840512432
 20
288.9999999999998
 30
0.0
 11
-342.0550840512439
 21
288.9999999999998
 31
0.0
  0
LINE
  5
1D7
  8
0
  6
CONTINUOUS
 62
     7
 10
-340.5681738544912
 20
400.0475802390441
 30
0.0
 11
-197.0550840512435
 21
401.3000000000003
 31
0.0
  0
LINE
  5
1D8
  8
0
  6
CONTINUOUS
 62
     7
 10
-197.0550840512435
 20
-216.2999999999998
 30
0.0
 11
-340.5681738544912
 21
-215.0475802390436
 31
0.0
  0
LINE
  5
1D9
  8
0
  6
CONTINUOUS
 62
     7
 10
-342.0550840512436
 20
-79.06491077035929
 30
0.0
 11
-342.0550840512436
 21
-75.00000000000101
 31
0.0
  0
LINE
  5
1DA
  8
0
  6
CONTINUOUS
 62
     7
 10
-342.0550840512436
 20
-75.00000000000101
 30
0.0
 11
-342.0550840512436
 21
-73.70657252430676
 31
0.0
  0
LINE
  5
1DB
  8
0
  6
CONTINUOUS
 62
     7
 10
-342.0550840512436
 20
258.706572524307
 30
0.0
 11
-342.0550840512436
 21
260.0000000000026
 31
0.0
  0
LINE
  5
1DC
  8
0
  6
CONTINUOUS
 62
     7
 10
-342.0550840512436
 20
260.0000000000026
 30
0.0
 11
-342.0550840512436
 21
264.0649107703596
 31
0.0
  0
LINE
  5
1DD
  8
0
  6
CONTINUOUS
 62
     7
 10
-342.0550840512436
 20
293.9350247865099
 30
0.0
 11
-342.0550840512436
 21
297.999999999999
 31
0.0
  0
LINE
  5
1DE
  8
0
  6
CONTINUOUS
 62
     7
 10
-342.0550840512436
 20
297.999999999999
 30
0.0
 11
-342.0550840512436
 21
299.3104291169836
 31
0.0
  0
LINE
  5
1DF
  8
0
  6
CONTINUOUS
 62
     7
 10
-342.0550840512436
 20
-114.3104291169832
 30
0.0
 11
-342.0550840512436
 21
-112.9999999999975
 31
0.0
  0
LINE
  5
1E0
  8
0
  6
CONTINUOUS
 62
     7
 10
-342.0550840512436
 20
-112.9999999999975
 30
0.0
 11
-342.0550840512436
 21
-108.9350247865095
 31
0.0
  0
ARC
  5
1E1
  8
0
  6
CONTINUOUS
 62
     7
 10
-340.5550840512436
 20
398.5476373544479
 30
0.0
 40
1.500000000000057
 50
90.50000000000159
 51
180.0
  0
ARC
  5
1E2
  8
0
  6
CONTINUOUS
 62
     7
 10
-340.5550840512436
 20
-213.5476373544473
 30
0.0
 40
1.500000000000057
 50
180.0000000000021
 51
269.4999999999985
  0
LINE
  5
1E3
  8
0
  6
CONTINUOUS
 62
     7
 10
-342.0550840512436
 20
380.3000000000002
 30
0.0
 11
-342.7550840512359
 21
380.3000000000002
 31
0.0
  0
LINE
  5
1E4
  8
0
  6
CONTINUOUS
 62
     7
 10
-342.0550840512436
 20
-212.1999999999998
 30
0.0
 11
-342.7550840512359
 21
-211.5000000000075
 31
0.0
  0
LINE
  5
1E5
  8
0
  6
CONTINUOUS
 62
     7
 10
-162.0550840512436
 20
403.0000000000001
 30
0.0
 11
-161.5550840512436
 21
402.9999999999993
 31
0.0
  0
LINE
  5
1E6
  8
0
  6
CONTINUOUS
 62
     7
 10
-161.5550840512436
 20
403.0000000000002
 30
0.0
 11
-161.5550840512436
 21
390.5019038105443
 31
0.0
  0
LINE
  5
1E7
  8
0
  6
CONTINUOUS
 62
     7
 10
-161.5550840512436
 20
390.5019038105443
 30
0.0
 11
-161.5550840512436
 21
-205.5019038105453
 31
0.0
  0
LINE
  5
1E8
  8
0
  6
CONTINUOUS
 62
     7
 10
-162.0550840512436
 20
-217.9999999999999
 30
0.0
 11
-161.5550840512436
 21
-218.0000000000003
 31
0.0
  0
LINE
  5
1E9
  8
0
  6
CONTINUOUS
 62
     7
 10
-161.5550840512436
 20
-205.5019038105453
 30
0.0
 11
-161.5550840512436
 21
-218.0000000000002
 31
0.0
  0
LINE
  5
1EA
  8
0
  6
CONTINUOUS
 62
     7
 10
-196.0725364576809
 20
402.4062231595532
 30
0.0
 11
-162.0550840512436
 21
403.0000000000001
 31
0.0
  0
LINE
  5
1EB
  8
0
  6
CONTINUOUS
 62
     7
 10
-162.0550840512436
 20
-217.9999999999999
 30
0.0
 11
-196.0725364576809
 21
-217.406223159553
 31
0.0
  0
LINE
  5
1EC
  8
0
  6
CONTINUOUS
 62
     7
 10
-197.0550840512435
 20
-204.908126970098
 30
0.0
 11
-197.0550840512435
 21
389.9081269700981
 31
0.0
  0
LINE
  5
1ED
  8
0
  6
CONTINUOUS
 62
     7
 10
-197.0550840512435
 20
389.9081269700981
 30
0.0
 11
-197.0550840512435
 21
401.4063754643967
 31
0.0
  0
ARC
  5
1EE
  8
0
  6
CONTINUOUS
 62
     7
 10
-196.0550840512435
 20
401.4063754643968
 30
0.0
 40
0.9999999999999841
 50
91.00000000000026
 51
180.0000000000032
  0
ARC
  5
1EF
  8
0
  6
CONTINUOUS
 62
     7
 10
-196.0550840512435
 20
-216.4063754643965
 30
0.0
 40
0.9999999999999841
 50
180.0
 51
268.9999999999998
  0
LINE
  5
1F0
  8
0
  6
CONTINUOUS
 62
     7
 10
-197.0550840512435
 20
-216.4063754643965
 30
0.0
 11
-197.0550840512435
 21
-204.908126970098
 31
0.0
  0
LINE
  5
1F1
  8
0
  6
CONTINUOUS
 62
     9
 10
-391.2550840512359
 20
83.00000000000016
 30
0.0
 11
-391.0547683721153
 21
83.00000000000016
 31
0.0
  0
LINE
  5
1F2
  8
0
  6
CONTINUOUS
 62
     9
 10
-387.2119468041399
 20
111.7440422298758
 30
0.0
 11
-390.5491699000735
 21
110.717204354204
 31
0.0
  0
LINE
  5
1F3
  8
0
  6
CONTINUOUS
 62
     9
 10
-390.5491699000735
 20
110.717204354204
 30
0.0
 11
-390.5691168801386
 21
110.7110668218762
 31
0.0
  0
LINE
  5
1F4
  8
0
  6
CONTINUOUS
 62
     9
 10
-387.0550840512359
 20
110.5000000000002
 30
0.0
 11
-387.2550840512359
 21
110.5000000000002
 31
0.0
  0
LINE
  5
1F5
  8
0
  6
CONTINUOUS
 62
     9
 10
-387.2550840512359
 20
104.4000000000002
 30
0.0
 11
-387.0550840512359
 21
104.4000000000002
 31
0.0
  0
LINE
  5
1F6
  8
0
  6
CONTINUOUS
 62
     9
 10
-387.055084051236
 20
109.6000000000002
 30
0.0
 11
-387.1065126226645
 21
109.6000000000002
 31
0.0
  0
ARC
  5
1F7
  8
0
  6
CONTINUOUS
 62
     9
 10
-390.2550840512359
 20
109.761425345482
 30
0.0
 40
1.0
 50
107.1027289690511
 51
180.0
  0
LINE
  5
1F8
  8
0
  6
CONTINUOUS
 62
     9
 10
-391.2550840512359
 20
109.761425345482
 30
0.0
 11
-391.2550840512359
 21
83.00000000000013
 31
0.0
  0
LINE
  5
1F9
  8
0
  6
CONTINUOUS
 62
     9
 10
-382.0550840512359
 20
113.269230769231
 30
0.0
 11
-387.0554779644476
 21
111.7306480267043
 31
0.0
  0
ARC
  5
1FA
  8
0
  6
CONTINUOUS
 62
     9
 10
-373.7126404536804
 20
56.41777656793661
 30
0.0
 40
12.00000000000002
 50
190.9058231992856
 51
225.9565536407809
  0
LINE
  5
1FB
  8
0
  6
CONTINUOUS
 62
     9
 10
-391.0550786082608
 20
82.99997175049378
 30
0.0
 11
-385.4959143228631
 21
54.14743365907154
 31
0.0
  0
ARC
  5
1FC
  8
0
  6
CONTINUOUS
 62
     7
 10
-344.0550840512435
 20
-75.6785714285724
 30
0.0
 40
1.378571428571445
 50
29.48712567294447
 51
150.5128743270556
  0
ARC
  5
1FD
  8
0
  6
CONTINUOUS
 62
     7
 10
-344.0550840512435
 20
-112.3214285714261
 30
0.0
 40
1.378571428571445
 50
209.4871256729445
 51
270.0
  0
ARC
  5
1FE
  8
0
  6
CONTINUOUS
 62
     7
 10
-344.0550840512435
 20
-112.3214285714261
 30
0.0
 40
1.378571428571423
 50
270.0
 51
330.5128743270556
  0
LINE
  5
1FF
  8
0
  6
CONTINUOUS
 62
     9
 10
-342.0550840512439
 20
-112.9999999999975
 30
0.0
 11
-342.0550840512439
 21
-103.9999999999983
 31
0.0
  0
LINE
  5
200
  8
0
  6
CONTINUOUS
 62
     9
 10
-342.0550840512439
 20
-84.00000000000018
 30
0.0
 11
-342.0550840512439
 21
-75.00000000000101
 31
0.0
  0
ARC
  5
201
  8
0
  6
CONTINUOUS
 62
     7
 10
-344.0550840512435
 20
297.3214285714276
 30
0.0
 40
1.378571428571432
 50
29.48712567294447
 51
150.5128743270556
  0
ARC
  5
202
  8
0
  6
CONTINUOUS
 62
     7
 10
-344.0550840512435
 20
260.6785714285739
 30
0.0
 40
1.378571428571432
 50
209.4871256729445
 51
270.0
  0
ARC
  5
203
  8
0
  6
CONTINUOUS
 62
     7
 10
-344.0550840512435
 20
260.6785714285739
 30
0.0
 40
1.378571428571396
 50
270.0
 51
330.5128743270556
  0
LINE
  5
204
  8
0
  6
CONTINUOUS
 62
     9
 10
-342.0550840512439
 20
260.0000000000025
 30
0.0
 11
-342.0550840512439
 21
269.0000000000016
 31
0.0
  0
LINE
  5
205
  8
0
  6
CONTINUOUS
 62
     9
 10
-342.0550840512439
 20
288.9999999999998
 30
0.0
 11
-342.0550840512439
 21
297.999999999999
 31
0.0
  0
ENDBLK
  8
0
  0
BLOCK
  8
0
  2
D_FRAME_VIEW_2517
 70
     0
 10
0.0
 20
0.0
 30
0.0
  0
ARC
  5
20A
  8
0
  6
CONTINUOUS
 62
     9
 10
-1022.500000000001
 20
-394.744915948764
 30
0.0
 40
1.000000000000001
 50
75.00000000000128
 51
90.0
  0
ARC
  5
20B
  8
0
  6
CONTINUOUS
 62
     9
 10
-1022.500000000001
 20
-394.744915948764
 30
0.0
 40
1.000000000000001
 50
90.0
 51
104.9999999999987
  0
LINE
  5
20C
  8
0
  6
CONTINUOUS
 62
     9
 10
-1032.745739108568
 20
-397.2228463636641
 30
0.0
 11
-1032.745739108568
 21
-397.744915948764
 31
0.0
  0
POLYLINE
  5
20D
  8
0
  6
CONTINUOUS
 62
     9
 66
     1
 10
0.0
 20
0.0
 30
0.0
  0
VERTEX
  5
3D8
  8
0
  6
CONTINUOUS
 62
     9
 10
-1032.745739108568
 20
-397.2228463636641
 30
0.0
  0
VERTEX
  5
3D9
  8
0
  6
CONTINUOUS
 62
     9
 10
-1032.745293122395
 20
-397.1934575954994
 30
0.0
  0
VERTEX
  5
3DA
  8
0
  6
CONTINUOUS
 62
     9
 10
-1032.743954505374
 20
-397.1640688273346
 30
0.0
  0
VERTEX
  5
3DB
  8
0
  6
CONTINUOUS
 62
     9
 10
-1032.741060933824
 20
-397.1277348295671
 30
0.0
  0
VERTEX
  5
3DC
  8
0
  6
CONTINUOUS
 62
     9
 10
-1032.736811534126
 20
-397.091564009575
 30
0.0
  0
VERTEX
  5
3DD
  8
0
  6
CONTINUOUS
 62
     9
 10
-1032.731175514062
 20
-397.055371323263
 30
0.0
  0
VERTEX
  5
3DE
  8
0
  6
CONTINUOUS
 62
     9
 10
-1032.724196285629
 20
-397.0194655214286
 30
0.0
  0
VERTEX
  5
3DF
  8
0
  6
CONTINUOUS
 62
     9
 10
-1032.715705393332
 20
-396.9831636024511
 30
0.0
  0
VERTEX
  5
3E0
  8
0
  6
CONTINUOUS
 62
     9
 10
-1032.70586185401
 20
-396.9472804864544
 30
0.0
  0
VERTEX
  5
3E1
  8
0
  6
CONTINUOUS
 62
     9
 10
-1032.694612430152
 20
-396.9116334902877
 30
0.0
  0
VERTEX
  5
3E2
  8
0
  6
CONTINUOUS
 62
     9
 10
-1032.682052909335
 20
-396.8765228581988
 30
0.0
  0
VERTEX
  5
3E3
  8
0
  6
CONTINUOUS
 62
     9
 10
-1032.663497585604
 20
-396.8310299677947
 30
0.0
  0
VERTEX
  5
3E4
  8
0
  6
CONTINUOUS
 62
     9
 10
-1032.642785501146
 20
-396.7866416775278
 30
0.0
  0
VERTEX
  5
3E5
  8
0
  6
CONTINUOUS
 62
     9
 10
-1032.620033620738
 20
-396.7435176685048
 30
0.0
  0
VERTEX
  5
3E6
  8
0
  6
CONTINUOUS
 62
     9
 10
-1032.594686696305
 20
-396.7007219160852
 30
0.0
  0
VERTEX
  5
3E7
  8
0
  6
CONTINUOUS
 62
     9
 10
-1032.56736463265
 20
-396.6593755861125
 30
0.0
  0
VERTEX
  5
3E8
  8
0
  6
CONTINUOUS
 62
     9
 10
-1032.53820428704
 20
-396.6196076291311
 30
0.0
  0
VERTEX
  5
3E9
  8
0
  6
CONTINUOUS
 62
     9
 10
-1032.534936750197
 20
-396.6153944751631
 30
0.0
  0
SEQEND
  5
519
  8
0
  6
CONTINUOUS
 62
     9
  0
POLYLINE
  5
20E
  8
0
  6
CONTINUOUS
 62
     9
 66
     1
 10
0.0
 20
0.0
 30
0.0
  0
VERTEX
  5
3EA
  8
0
  6
CONTINUOUS
 62
     9
 10
-1032.534936750197
 20
-396.6153944751631
 30
0.0
  0
VERTEX
  5
3EB
  8
0
  6
CONTINUOUS
 62
     9
 10
-1032.505148437542
 20
-396.578963558835
 30
0.0
  0
VERTEX
  5
3EC
  8
0
  6
CONTINUOUS
 62
     9
 10
-1032.470195638728
 20
-396.5402101942951
 30
0.0
  0
VERTEX
  5
3ED
  8
0
  6
CONTINUOUS
 62
     9
 10
-1032.433511981176
 20
-396.5034595031488
 30
0.0
  0
VERTEX
  5
3EE
  8
0
  6
CONTINUOUS
 62
     9
 10
-1032.394282709059
 20
-396.4679668552794
 30
0.0
  0
VERTEX
  5
3EF
  8
0
  6
CONTINUOUS
 62
     9
 10
-1032.353440798395
 20
-396.4346308361672
 30
0.0
  0
VERTEX
  5
3F0
  8
0
  6
CONTINUOUS
 62
     9
 10
-1032.311156137429
 20
-396.4035348339
 30
0.0
  0
VERTEX
  5
3F1
  8
0
  6
CONTINUOUS
 62
     9
 10
-1032.263340536808
 20
-396.3721036172365
 30
0.0
  0
VERTEX
  5
3F2
  8
0
  6
CONTINUOUS
 62
     9
 10
-1032.214024525965
 20
-396.3433991315737
 30
0.0
  0
VERTEX
  5
3F3
  8
0
  6
CONTINUOUS
 62
     9
 10
-1032.163417877325
 20
-396.3174966869605
 30
0.0
  0
VERTEX
  5
3F4
  8
0
  6
CONTINUOUS
 62
     9
 10
-1032.110362789264
 20
-396.2938962877349
 30
0.0
  0
VERTEX
  5
3F5
  8
0
  6
CONTINUOUS
 62
     9
 10
-1032.056180609335
 20
-396.2732687397539
 30
0.0
  0
VERTEX
  5
3F6
  8
0
  6
CONTINUOUS
 62
     9
 10
-1032.001086678628
 20
-396.2556698471262
 30
0.0
  0
VERTEX
  5
3F7
  8
0
  6
CONTINUOUS
 62
     9
 10
-1031.98055204896
 20
-396.2499460336738
 30
0.0
  0
SEQEND
  5
51A
  8
0
  6
CONTINUOUS
 62
     9
  0
LINE
  5
20F
  8
0
  6
CONTINUOUS
 62
     9
 10
-1023.124840917719
 20
-393.8770653876545
 30
0.0
 11
-1031.98055204896
 21
-396.2499460336738
 31
0.0
  0
LINE
  5
210
  8
0
  6
CONTINUOUS
 62
     9
 10
-1023.124840917719
 20
-393.8770653876546
 30
0.0
 11
-1022.758819045103
 21
-393.7790768869878
 31
0.0
  0
LINE
  5
211
  8
0
  6
CONTINUOUS
 62
     9
 10
-1022.241180954898
 20
-393.7790768869878
 30
0.0
 11
-1021.875159082286
 21
-393.8770653876535
 31
0.0
  0
LINE
  5
212
  8
0
  6
CONTINUOUS
 62
     9
 10
-1013.019447951041
 20
-396.2499460336738
 30
0.0
 11
-1021.875159082286
 21
-393.8770653876535
 31
0.0
  0
POLYLINE
  5
213
  8
0
  6
CONTINUOUS
 62
     9
 66
     1
 10
0.0
 20
0.0
 30
0.0
  0
VERTEX
  5
3F8
  8
0
  6
CONTINUOUS
 62
     9
 10
-1013.019447951041
 20
-396.2499460336738
 30
0.0
  0
VERTEX
  5
3F9
  8
0
  6
CONTINUOUS
 62
     9
 10
-1012.969321800587
 20
-396.2647094007039
 30
0.0
  0
VERTEX
  5
3FA
  8
0
  6
CONTINUOUS
 62
     9
 10
-1012.919914833719
 20
-396.2819481205015
 30
0.0
  0
VERTEX
  5
3FB
  8
0
  6
CONTINUOUS
 62
     9
 10
-1012.870921130931
 20
-396.3018230940378
 30
0.0
  0
VERTEX
  5
3FC
  8
0
  6
CONTINUOUS
 62
     9
 10
-1012.822877972832
 20
-396.3241722884449
 30
0.0
  0
VERTEX
  5
3FD
  8
0
  6
CONTINUOUS
 62
     9
 10
-1012.780629350503
 20
-396.3463367224669
 30
0.0
  0
VERTEX
  5
3FE
  8
0
  6
CONTINUOUS
 62
     9
 10
-1012.739322160978
 20
-396.370457294934
 30
0.0
  0
VERTEX
  5
3FF
  8
0
  6
CONTINUOUS
 62
     9
 10
-1012.698740884579
 20
-396.3967184216924
 30
0.0
  0
VERTEX
  5
400
  8
0
  6
CONTINUOUS
 62
     9
 10
-1012.65929169799
 20
-396.4249176541536
 30
0.0
  0
VERTEX
  5
401
  8
0
  6
CONTINUOUS
 62
     9
 10
-1012.620125611307
 20
-396.4558072142424
 30
0.0
  0
VERTEX
  5
402
  8
0
  6
CONTINUOUS
 62
     9
 10
-1012.582347347698
 20
-396.488668147013
 30
0.0
  0
VERTEX
  5
403
  8
0
  6
CONTINUOUS
 62
     9
 10
-1012.545738496719
 20
-396.5237887244543
 30
0.0
  0
VERTEX
  5
404
  8
0
  6
CONTINUOUS
 62
     9
 10
-1012.510759210337
 20
-396.560828619636
 30
0.0
  0
VERTEX
  5
405
  8
0
  6
CONTINUOUS
 62
     9
 10
-1012.481126037564
 20
-396.5953229798375
 30
0.0
  0
VERTEX
  5
406
  8
0
  6
CONTINUOUS
 62
     9
 10
-1012.470059070336
 20
-396.6090397745666
 30
0.0
  0
SEQEND
  5
51B
  8
0
  6
CONTINUOUS
 62
     9
  0
POLYLINE
  5
214
  8
0
  6
CONTINUOUS
 62
     9
 66
     1
 10
0.0
 20
0.0
 30
0.0
  0
VERTEX
  5
407
  8
0
  6
CONTINUOUS
 62
     9
 10
-1012.470059070336
 20
-396.6090397745666
 30
0.0
  0
VERTEX
  5
408
  8
0
  6
CONTINUOUS
 62
     9
 10
-1012.45294977249
 20
-396.631247519317
 30
0.0
  0
VERTEX
  5
409
  8
0
  6
CONTINUOUS
 62
     9
 10
-1012.42609467061
 20
-396.6688755630819
 30
0.0
  0
VERTEX
  5
40A
  8
0
  6
CONTINUOUS
 62
     9
 10
-1012.400887766777
 20
-396.7078506628661
 30
0.0
  0
VERTEX
  5
40B
  8
0
  6
CONTINUOUS
 62
     9
 10
-1012.376772746526
 20
-396.7492742653052
 30
0.0
  0
VERTEX
  5
40C
  8
0
  6
CONTINUOUS
 62
     9
 10
-1012.354579724349
 20
-396.7919762558707
 30
0.0
  0
VERTEX
  5
40D
  8
0
  6
CONTINUOUS
 62
     9
 10
-1012.3407597571
 20
-396.8214190991785
 30
0.0
  0
VERTEX
  5
40E
  8
0
  6
CONTINUOUS
 62
     9
 10
-1012.327874376714
 20
-396.8513827018536
 30
0.0
  0
VERTEX
  5
40F
  8
0
  6
CONTINUOUS
 62
     9
 10
-1012.315956835878
 20
-396.8818177038261
 30
0.0
  0
VERTEX
  5
410
  8
0
  6
CONTINUOUS
 62
     9
 10
-1012.302463519559
 20
-396.9204595056253
 30
0.0
  0
VERTEX
  5
411
  8
0
  6
CONTINUOUS
 62
     9
 10
-1012.290556730553
 20
-396.9597307165881
 30
0.0
  0
VERTEX
  5
412
  8
0
  6
CONTINUOUS
 62
     9
 10
-1012.280200928584
 20
-396.9998926714334
 30
0.0
  0
VERTEX
  5
413
  8
0
  6
CONTINUOUS
 62
     9
 10
-1012.271537978901
 20
-397.0405404105047
 30
0.0
  0
VERTEX
  5
414
  8
0
  6
CONTINUOUS
 62
     9
 10
-1012.264439090273
 20
-397.0827110545988
 30
0.0
  0
VERTEX
  5
415
  8
0
  6
CONTINUOUS
 62
     9
 10
-1012.259190724713
 20
-397.1252111548546
 30
0.0
  0
VERTEX
  5
416
  8
0
  6
CONTINUOUS
 62
     9
 10
-1012.255795400728
 20
-397.1683533909672
 30
0.0
  0
VERTEX
  5
417
  8
0
  6
CONTINUOUS
 62
     9
 10
-1012.254325875654
 20
-397.2116280541978
 30
0.0
  0
VERTEX
  5
418
  8
0
  6
CONTINUOUS
 62
     9
 10
-1012.254260891433
 20
-397.2228463636641
 30
0.0
  0
SEQEND
  5
51C
  8
0
  6
CONTINUOUS
 62
     9
  0
LINE
  5
215
  8
0
  6
CONTINUOUS
 62
     9
 10
-1012.254260891433
 20
-397.744915948764
 30
0.0
 11
-1012.254260891433
 21
-397.2228463636641
 31
0.0
  0
LINE
  5
216
  8
0
  6
CONTINUOUS
 62
     9
 10
-1012.446400219565
 20
-397.744915948764
 30
0.0
 11
-1012.254260891433
 21
-397.744915948764
 31
0.0
  0
LINE
  5
217
  8
0
  6
CONTINUOUS
 62
     9
 10
-1032.745739108568
 20
-397.744915948764
 30
0.0
 11
-1032.553599780436
 21
-397.744915948764
 31
0.0
  0
LINE
  5
218
  8
0
  6
CONTINUOUS
 62
     9
 10
-1021.875159082286
 20
-393.8770653876535
 30
0.0
 11
-1022.241180954898
 21
-393.778990122475
 31
0.0
  0
LINE
  5
219
  8
0
  6
CONTINUOUS
 62
     9
 10
-1022.758819045103
 20
-393.778990122475
 30
0.0
 11
-1023.124840917719
 21
-393.8770653876545
 31
0.0
  0
LINE
  5
21A
  8
0
  6
CONTINUOUS
 62
     9
 10
-1013.019447951041
 20
-396.2499460336738
 30
0.0
 11
-1012.720234615567
 21
-396.3301200052788
 31
0.0
  0
LINE
  5
21B
  8
0
  6
CONTINUOUS
 62
     9
 10
-1032.279765384435
 20
-396.3301200052788
 30
0.0
 11
-1031.98055204896
 21
-396.2499460336738
 31
0.0
  0
LINE
  5
21C
  8
0
  6
CONTINUOUS
 62
     9
 10
-1011.97298264627
 20
-397.744915948764
 30
0.0
 11
-1012.254260891433
 21
-397.744915948764
 31
0.0
  0
LINE
  5
21D
  8
0
  6
CONTINUOUS
 62
     9
 10
-1032.745739108568
 20
-397.744915948764
 30
0.0
 11
-1033.027017353731
 21
-397.744915948764
 31
0.0
  0
LINE
  5
21E
  8
0
  6
CONTINUOUS
 62
     9
 10
-1012.720234615567
 20
-396.3301200052788
 30
0.0
 11
-1012.66144980357
 21
-396.3458713481804
 31
0.0
  0
LINE
  5
21F
  8
0
  6
CONTINUOUS
 62
     9
 10
-1032.338550196446
 20
-396.3458713481846
 30
0.0
 11
-1032.279765384435
 21
-396.3301200052788
 31
0.0
  0
LINE
  5
220
  8
0
  6
CONTINUOUS
 62
     9
 10
-1022.785984100469
 20
-402.9447318343861
 30
0.0
 11
-1022.758818182757
 21
-399.5375056853028
 31
0.0
  0
LINE
  5
221
  8
0
  6
CONTINUOUS
 62
     9
 10
-1022.241181817244
 20
-399.5375056853028
 30
0.0
 11
-1022.214015899532
 21
-402.9447318343861
 31
0.0
  0
LINE
  5
222
  8
0
  6
CONTINUOUS
 62
     9
 10
-1029.735149729886
 20
-401.3730860747061
 30
0.0
 11
-1022.758819045103
 21
-399.5375444538619
 31
0.0
  0
ARC
  5
223
  8
0
  6
CONTINUOUS
 62
     9
 10
-1035.282729790107
 20
-403.3970977125522
 30
0.0
 40
5.905274560484426
 50
4.392646786692953
 51
20.04428863219733
  0
LINE
  5
224
  8
0
  6
CONTINUOUS
 62
     9
 10
-1022.241180954898
 20
-399.5375444538619
 30
0.0
 11
-1015.264850270116
 21
-401.3730860747061
 31
0.0
  0
ARC
  5
225
  8
0
  6
CONTINUOUS
 62
     9
 10
-1010.037263947738
 20
-403.3276791656187
 30
0.0
 40
5.581047653349473
 50
159.4992436602096
 51
176.0602334303496
  0
LINE
  5
226
  8
0
  6
CONTINUOUS
 62
     9
 10
-1029.735149729886
 20
-401.3730860747061
 30
0.0
 11
-1032.373838255952
 21
-396.5553267552316
 31
0.0
  0
LINE
  5
227
  8
0
  6
CONTINUOUS
 62
     9
 10
-1032.553599780436
 20
-397.944915948764
 30
0.0
 11
-1032.898643829626
 21
-397.944915948764
 31
0.0
  0
LINE
  5
228
  8
0
  6
CONTINUOUS
 62
     9
 10
-1032.553599780436
 20
-396.6034937105472
 30
0.0
 11
-1032.553599780436
 21
-397.744915948764
 31
0.0
  0
LINE
  5
229
  8
0
  6
CONTINUOUS
 62
     9
 10
-1032.553599780436
 20
-397.744915948764
 30
0.0
 11
-1032.553599780436
 21
-397.944915948764
 31
0.0
  0
LINE
  5
22A
  8
0
  6
CONTINUOUS
 62
     9
 10
-1032.373838255952
 20
-396.5553267552316
 30
0.0
 11
-1032.553599780436
 21
-396.6034937105472
 31
0.0
  0
LINE
  5
22B
  8
0
  6
CONTINUOUS
 62
     9
 10
-1012.626161744049
 20
-396.5553267552316
 30
0.0
 11
-1015.264850270116
 21
-401.3730860747061
 31
0.0
  0
LINE
  5
22C
  8
0
  6
CONTINUOUS
 62
     9
 10
-1012.446400219565
 20
-396.6034937105472
 30
0.0
 11
-1012.626161744049
 21
-396.5553267552316
 31
0.0
  0
LINE
  5
22D
  8
0
  6
CONTINUOUS
 62
     9
 10
-1012.446400219565
 20
-397.944915948764
 30
0.0
 11
-1012.446400219565
 21
-397.744915948764
 31
0.0
  0
LINE
  5
22E
  8
0
  6
CONTINUOUS
 62
     9
 10
-1012.446400219565
 20
-397.744915948764
 30
0.0
 11
-1012.446400219565
 21
-396.6034937105472
 31
0.0
  0
LINE
  5
22F
  8
0
  6
CONTINUOUS
 62
     9
 10
-1012.101356170375
 20
-397.944915948764
 30
0.0
 11
-1012.446400219565
 21
-397.944915948764
 31
0.0
  0
LINE
  5
230
  8
0
  6
CONTINUOUS
 62
     9
 10
-1022.241180954898
 20
-393.9793479391756
 30
0.0
 11
-1022.758819045103
 21
-393.9793479391756
 31
0.0
  0
LINE
  5
231
  8
0
  6
CONTINUOUS
 62
     9
 10
-1023.57715764566
 20
-394.1982632896294
 30
0.0
 11
-1032.373838255952
 21
-396.5553267552316
 31
0.0
  0
LINE
  5
232
  8
0
  6
CONTINUOUS
 62
     9
 10
-1023.57715764566
 20
-394.1982632896294
 30
0.0
 11
-1022.758819045103
 21
-393.9793479391756
 31
0.0
  0
LINE
  5
233
  8
0
  6
CONTINUOUS
 62
     9
 10
-1022.241180954898
 20
-393.9793479391756
 30
0.0
 11
-1021.422842354342
 21
-394.1982632896292
 31
0.0
  0
LINE
  5
234
  8
0
  6
CONTINUOUS
 62
     9
 10
-1012.626161744049
 20
-396.5553267552316
 30
0.0
 11
-1021.422842354342
 21
-394.1982632896292
 31
0.0
  0
LINE
  5
235
  8
0
  6
CONTINUOUS
 62
     9
 10
-1012.101356170375
 20
-397.944915948764
 30
0.0
 11
-1011.976867548569
 21
-397.9449159487639
 31
0.0
  0
LINE
  5
236
  8
0
  6
CONTINUOUS
 62
     9
 10
-1033.023386748727
 20
-397.9449159487638
 30
0.0
 11
-1032.898643829626
 21
-397.944915948764
 31
0.0
  0
LINE
  5
237
  8
0
  6
CONTINUOUS
 62
     7
 10
-1069.972789201335
 20
-441.4841813712256
 30
0.0
 11
-1069.973817402608
 21
-441.4449159487652
 31
0.0
  0
LINE
  5
238
  8
0
  6
CONTINUOUS
 62
     7
 10
-1069.973817402608
 20
-441.444915948764
 30
0.0
 11
-1069.699203661909
 21
-425.7123052808205
 31
0.0
  0
LINE
  5
239
  8
0
  6
CONTINUOUS
 62
     7
 10
-1059.360795590066
 20
-441.7355477696685
 30
0.0
 11
-1058.475111958978
 21
-441.4187373391081
 31
0.0
  0
LINE
  5
23A
  8
0
  6
CONTINUOUS
 62
     7
 10
-1069.972789201335
 20
-441.4841813712256
 30
0.0
 11
-1069.944878782218
 21
-441.7355451741485
 31
0.0
  0
LINE
  5
23B
  8
0
  6
CONTINUOUS
 62
     7
 10
-1059.360795590066
 20
-441.7355477696685
 30
0.0
 11
-1059.566224245173
 21
-441.894915948764
 31
0.0
  0
LINE
  5
23C
  8
0
  6
CONTINUOUS
 62
     9
 10
-1058.475111958978
 20
-441.4187373391081
 30
0.0
 11
-636.5248880410228
 21
-441.4187373391081
 31
0.0
  0
LINE
  5
23D
  8
0
  6
CONTINUOUS
 62
     7
 10
-636.5248880410227
 20
-441.4187373391081
 30
0.0
 11
-635.6392044099351
 21
-441.7355477696685
 31
0.0
  0
LINE
  5
23E
  8
0
  6
CONTINUOUS
 62
     7
 10
-635.4337757548284
 20
-441.894915948764
 30
0.0
 11
-635.6392044099351
 21
-441.7355477696685
 31
0.0
  0
LINE
  5
23F
  8
0
  6
CONTINUOUS
 62
     7
 10
-625.3007963380923
 20
-425.7123052808205
 30
0.0
 11
-625.0261825973929
 21
-441.444915948764
 31
0.0
  0
LINE
  5
240
  8
0
  6
CONTINUOUS
 62
     7
 10
-625.0261825973929
 20
-441.4449159487643
 30
0.0
 11
-625.0272107986659
 21
-441.4841813712284
 31
0.0
  0
LINE
  5
241
  8
0
  6
CONTINUOUS
 62
     7
 10
-625.0551212177824
 20
-441.7355451741437
 30
0.0
 11
-625.0272107986659
 21
-441.4841813712284
 31
0.0
  0
LINE
  5
242
  8
0
  6
CONTINUOUS
 62
     7
 10
-625.0551212177824
 20
-441.7355451741437
 30
0.0
 11
-625.0957879840037
 21
-441.894915948764
 31
0.0
  0
POLYLINE
  5
243
  8
0
  6
CONTINUOUS
 62
     7
 66
     1
 10
0.0
 20
0.0
 30
0.0
  0
VERTEX
  5
419
  8
0
  6
CONTINUOUS
 62
     7
 10
-625.0957879840037
 20
-441.894915948764
 30
0.0
  0
VERTEX
  5
41A
  8
0
  6
CONTINUOUS
 62
     7
 10
-625.1024070239965
 20
-441.9145341967047
 30
0.0
  0
VERTEX
  5
41B
  8
0
  6
CONTINUOUS
 62
     7
 10
-625.1098458469543
 20
-441.9338940507915
 30
0.0
  0
VERTEX
  5
41C
  8
0
  6
CONTINUOUS
 62
     7
 10
-625.1181501420799
 20
-441.9530795217139
 30
0.0
  0
VERTEX
  5
41D
  8
0
  6
CONTINUOUS
 62
     7
 10
-625.1272654999107
 20
-441.9719331339708
 30
0.0
  0
VERTEX
  5
41E
  8
0
  6
CONTINUOUS
 62
     7
 10
-625.13729191751
 20
-441.9906183148252
 30
0.0
  0
VERTEX
  5
41F
  8
0
  6
CONTINUOUS
 62
     7
 10
-625.148121353281
 20
-442.0088933549105
 30
0.0
  0
VERTEX
  5
420
  8
0
  6
CONTINUOUS
 62
     7
 10
-625.1598144718099
 20
-442.0268343509773
 30
0.0
  0
VERTEX
  5
421
  8
0
  6
CONTINUOUS
 62
     7
 10
-625.1722881417219
 20
-442.0442890023793
 30
0.0
  0
VERTEX
  5
422
  8
0
  6
CONTINUOUS
 62
     7
 10
-625.1850574762829
 20
-442.060651005297
 30
0.0
  0
VERTEX
  5
423
  8
0
  6
CONTINUOUS
 62
     7
 10
-625.198518009613
 20
-442.0764951103974
 30
0.0
  0
VERTEX
  5
424
  8
0
  6
CONTINUOUS
 62
     7
 10
-625.2109413282913
 20
-442.0900085204368
 30
0.0
  0
VERTEX
  5
425
  8
0
  6
CONTINUOUS
 62
     7
 10
-625.223851583856
 20
-442.1030564275799
 30
0.0
  0
VERTEX
  5
426
  8
0
  6
CONTINUOUS
 62
     7
 10
-625.237305714174
 20
-442.1156880170355
 30
0.0
  0
VERTEX
  5
427
  8
0
  6
CONTINUOUS
 62
     7
 10
-625.2512160669546
 20
-442.1278141759186
 30
0.0
  0
VERTEX
  5
428
  8
0
  6
CONTINUOUS
 62
     7
 10
-625.2615348634537
 20
-442.1362475041757
 30
0.0
  0
VERTEX
  5
429
  8
0
  6
CONTINUOUS
 62
     7
 10
-625.2720743885832
 20
-442.1444026388622
 30
0.0
  0
VERTEX
  5
42A
  8
0
  6
CONTINUOUS
 62
     7
 10
-625.2828582041537
 20
-442.152295768222
 30
0.0
  0
VERTEX
  5
42B
  8
0
  6
CONTINUOUS
 62
     7
 10
-625.2938487489101
 20
-442.1598977089794
 30
0.0
  0
VERTEX
  5
42C
  8
0
  6
CONTINUOUS
 62
     7
 10
-625.3068660141764
 20
-442.1683562311155
 30
0.0
  0
VERTEX
  5
42D
  8
0
  6
CONTINUOUS
 62
     7
 10
-625.3201520760481
 20
-442.1764138711142
 30
0.0
  0
VERTEX
  5
42E
  8
0
  6
CONTINUOUS
 62
     7
 10
-625.3429960400854
 20
-442.1889988606292
 30
0.0
  0
VERTEX
  5
42F
  8
0
  6
CONTINUOUS
 62
     7
 10
-625.36652884317
 20
-442.2004043747003
 30
0.0
  0
VERTEX
  5
430
  8
0
  6
CONTINUOUS
 62
     7
 10
-625.3860273093458
 20
-442.2087389799532
 30
0.0
  0
VERTEX
  5
431
  8
0
  6
CONTINUOUS
 62
     7
 10
-625.4058969323723
 20
-442.2162518403537
 30
0.0
  0
VERTEX
  5
432
  8
0
  6
CONTINUOUS
 62
     7
 10
-625.4262323556483
 20
-442.2229644371496
 30
0.0
  0
VERTEX
  5
433
  8
0
  6
CONTINUOUS
 62
     7
 10
-625.4468740138908
 20
-442.2288098695744
 30
0.0
  0
VERTEX
  5
434
  8
0
  6
CONTINUOUS
 62
     7
 10
-625.460488019118
 20
-442.2321484852815
 30
0.0
  0
VERTEX
  5
435
  8
0
  6
CONTINUOUS
 62
     7
 10
-625.47420084175
 20
-442.2351062877311
 30
0.0
  0
VERTEX
  5
436
  8
0
  6
CONTINUOUS
 62
     7
 10
-625.4880514968218
 20
-442.2376885529537
 30
0.0
  0
VERTEX
  5
437
  8
0
  6
CONTINUOUS
 62
     7
 10
-625.501969225411
 20
-442.2398795920627
 30
0.0
  0
VERTEX
  5
438
  8
0
  6
CONTINUOUS
 62
     7
 10
-625.5159876340123
 20
-442.2416826273679
 30
0.0
  0
VERTEX
  5
439
  8
0
  6
CONTINUOUS
 62
     7
 10
-625.5300512709728
 20
-442.2430887809887
 30
0.0
  0
VERTEX
  5
43A
  8
0
  6
CONTINUOUS
 62
     7
 10
-625.5442112237799
 20
-442.2441003889036
 30
0.0
  0
VERTEX
  5
43B
  8
0
  6
CONTINUOUS
 62
     7
 10
-625.558405542346
 20
-442.2447099251983
 30
0.0
  0
VERTEX
  5
43C
  8
0
  6
CONTINUOUS
 62
     7
 10
-625.5727575847123
 20
-442.244915948764
 30
0.0
  0
SEQEND
  5
51D
  8
0
  6
CONTINUOUS
 62
     7
  0
LINE
  5
244
  8
0
  6
CONTINUOUS
 62
     7
 10
-625.5727575847123
 20
-442.244915948764
 30
0.0
 11
-635.4566220162196
 21
-442.244915948764
 31
0.0
  0
LINE
  5
245
  8
0
  6
CONTINUOUS
 62
     7
 10
-635.4337757548284
 20
-441.894915948764
 30
0.0
 11
-635.4566220162196
 21
-442.244915948764
 31
0.0
  0
LINE
  5
246
  8
0
  6
CONTINUOUS
 62
     7
 10
-1069.904212015997
 20
-441.894915948764
 30
0.0
 11
-1069.944878782218
 21
-441.7355451741485
 31
0.0
  0
LINE
  5
247
  8
0
  6
CONTINUOUS
 62
     7
 10
-1059.566224245173
 20
-441.894915948764
 30
0.0
 11
-1059.543377983782
 21
-442.244915948764
 31
0.0
  0
LINE
  5
248
  8
0
  6
CONTINUOUS
 62
     7
 10
-1059.543377983782
 20
-442.244915948764
 30
0.0
 11
-1069.427242415289
 21
-442.244915948764
 31
0.0
  0
POLYLINE
  5
249
  8
0
  6
CONTINUOUS
 62
     7
 66
     1
 10
0.0
 20
0.0
 30
0.0
  0
VERTEX
  5
43D
  8
0
  6
CONTINUOUS
 62
     7
 10
-1069.904212015997
 20
-441.894915948764
 30
0.0
  0
VERTEX
  5
43E
  8
0
  6
CONTINUOUS
 62
     7
 10
-1069.897581952809
 20
-441.9145647608598
 30
0.0
  0
VERTEX
  5
43F
  8
0
  6
CONTINUOUS
 62
     7
 10
-1069.890106528073
 20
-441.9340106686709
 30
0.0
  0
VERTEX
  5
440
  8
0
  6
CONTINUOUS
 62
     7
 10
-1069.881812675699
 20
-441.9531607046418
 30
0.0
  0
VERTEX
  5
441
  8
0
  6
CONTINUOUS
 62
     7
 10
-1069.872642094044
 20
-441.9721143778186
 30
0.0
  0
VERTEX
  5
442
  8
0
  6
CONTINUOUS
 62
     7
 10
-1069.862663619053
 20
-441.9906971020534
 30
0.0
  0
VERTEX
  5
443
  8
0
  6
CONTINUOUS
 62
     7
 10
-1069.851810305516
 20
-442.00900325741
 30
0.0
  0
VERTEX
  5
444
  8
0
  6
CONTINUOUS
 62
     7
 10
-1069.840166516836
 20
-442.0268621960551
 30
0.0
  0
VERTEX
  5
445
  8
0
  6
CONTINUOUS
 62
     7
 10
-1069.82771185828
 20
-442.0442890023793
 30
0.0
  0
VERTEX
  5
446
  8
0
  6
CONTINUOUS
 62
     7
 10
-1069.816330916358
 20
-442.0589382724846
 30
0.0
  0
VERTEX
  5
447
  8
0
  6
CONTINUOUS
 62
     7
 10
-1069.804415082224
 20
-442.0731548546193
 30
0.0
  0
VERTEX
  5
448
  8
0
  6
CONTINUOUS
 62
     7
 10
-1069.791909888626
 20
-442.0869941749208
 30
0.0
  0
VERTEX
  5
449
  8
0
  6
CONTINUOUS
 62
     7
 10
-1069.778897959818
 20
-442.1003570521862
 30
0.0
  0
VERTEX
  5
44A
  8
0
  6
CONTINUOUS
 62
     7
 10
-1069.767221663801
 20
-442.1115411555617
 30
0.0
  0
VERTEX
  5
44B
  8
0
  6
CONTINUOUS
 62
     7
 10
-1069.75519040756
 20
-442.1223415896068
 30
0.0
  0
VERTEX
  5
44C
  8
0
  6
CONTINUOUS
 62
     7
 10
-1069.742763794854
 20
-442.1327898839781
 30
0.0
  0
VERTEX
  5
44D
  8
0
  6
CONTINUOUS
 62
     7
 10
-1069.730005078795
 20
-442.1428289663778
 30
0.0
  0
VERTEX
  5
44E
  8
0
  6
CONTINUOUS
 62
     7
 10
-1069.718208291463
 20
-442.1515347615386
 30
0.0
  0
VERTEX
  5
44F
  8
0
  6
CONTINUOUS
 62
     7
 10
-1069.706151251091
 20
-442.1598977089794
 30
0.0
  0
VERTEX
  5
450
  8
0
  6
CONTINUOUS
 62
     7
 10
-1069.69473004787
 20
-442.1673497683068
 30
0.0
  0
VERTEX
  5
451
  8
0
  6
CONTINUOUS
 62
     7
 10
-1069.683110236595
 20
-442.1744874306156
 30
0.0
  0
VERTEX
  5
452
  8
0
  6
CONTINUOUS
 62
     7
 10
-1069.67126483257
 20
-442.1813251889856
 30
0.0
  0
VERTEX
  5
453
  8
0
  6
CONTINUOUS
 62
     7
 10
-1069.659237202854
 20
-442.1878362785554
 30
0.0
  0
VERTEX
  5
454
  8
0
  6
CONTINUOUS
 62
     7
 10
-1069.637444893627
 20
-442.1985842395896
 30
0.0
  0
VERTEX
  5
455
  8
0
  6
CONTINUOUS
 62
     7
 10
-1069.615103820875
 20
-442.2082819944463
 30
0.0
  0
VERTEX
  5
456
  8
0
  6
CONTINUOUS
 62
     7
 10
-1069.594600558807
 20
-442.2160754247359
 30
0.0
  0
VERTEX
  5
457
  8
0
  6
CONTINUOUS
 62
     7
 10
-1069.573735498576
 20
-442.2229742888744
 30
0.0
  0
VERTEX
  5
458
  8
0
  6
CONTINUOUS
 62
     7
 10
-1069.55312598611
 20
-442.2288098695744
 30
0.0
  0
VERTEX
  5
459
  8
0
  6
CONTINUOUS
 62
     7
 10
-1069.539490196836
 20
-442.2321534646059
 30
0.0
  0
VERTEX
  5
45A
  8
0
  6
CONTINUOUS
 62
     7
 10
-1069.5257661377
 20
-442.2351129256236
 30
0.0
  0
VERTEX
  5
45B
  8
0
  6
CONTINUOUS
 62
     7
 10
-1069.511920788734
 20
-442.2376933162416
 30
0.0
  0
VERTEX
  5
45C
  8
0
  6
CONTINUOUS
 62
     7
 10
-1069.498008441104
 20
-442.2398827856232
 30
0.0
  0
VERTEX
  5
45D
  8
0
  6
CONTINUOUS
 62
     7
 10
-1069.483984266968
 20
-442.2416858376233
 30
0.0
  0
VERTEX
  5
45E
  8
0
  6
CONTINUOUS
 62
     7
 10
-1069.469914850278
 20
-442.2430916841146
 30
0.0
  0
VERTEX
  5
45F
  8
0
  6
CONTINUOUS
 62
     7
 10
-1069.45576609253
 20
-442.2441016452138
 30
0.0
  0
VERTEX
  5
460
  8
0
  6
CONTINUOUS
 62
     7
 10
-1069.441594457656
 20
-442.2447099251982
 30
0.0
  0
VERTEX
  5
461
  8
0
  6
CONTINUOUS
 62
     7
 10
-1069.427242415289
 20
-442.244915948764
 30
0.0
  0
SEQEND
  5
51E
  8
0
  6
CONTINUOUS
 62
     7
  0
ARC
  5
24A
  8
0
  6
CONTINUOUS
 62
     7
 10
-1049.5
 20
-442.444915948764
 30
0.0
 40
0.5000000000000683
 50
197.4576031237232
 51
270.0000000000032
  0
ARC
  5
24B
  8
0
  6
CONTINUOUS
 62
     7
 10
-645.5000000000006
 20
-442.444915948764
 30
0.0
 40
0.500000000000056
 50
270.0
 51
342.5423968762768
  0
LINE
  5
24C
  8
0
  6
CONTINUOUS
 62
     7
 10
-635.4566220162196
 20
-442.244915948764
 30
0.0
 11
-644.7094918727056
 21
-442.244915948764
 31
0.0
  0
LINE
  5
24D
  8
0
  6
CONTINUOUS
 62
     7
 10
-1050.290508127295
 20
-442.244915948764
 30
0.0
 11
-1059.543377983782
 21
-442.244915948764
 31
0.0
  0
ARC
  5
24E
  8
0
  6
CONTINUOUS
 62
     7
 10
-644.5460607985837
 20
-442.744915948764
 30
0.0
 40
0.5000000000000004
 50
90.0
 51
162.5423968762798
  0
ARC
  5
24F
  8
0
  6
CONTINUOUS
 62
     7
 10
-1050.453939201418
 20
-442.744915948764
 30
0.0
 40
0.5000000000000517
 50
17.45760312372109
 51
90.0
  0
LINE
  5
250
  8
0
  6
CONTINUOUS
 62
     7
 10
-625.4106888722413
 20
-419.4165662159115
 30
0.0
 11
-625.3007963380923
 21
-425.7123052808205
 31
0.0
  0
LINE
  5
251
  8
0
  6
CONTINUOUS
 62
     7
 10
-1069.699203661909
 20
-425.7123052808205
 30
0.0
 11
-1069.58931112776
 21
-419.4165662159115
 31
0.0
  0
ARC
  5
252
  8
0
  6
CONTINUOUS
 62
     7
 10
-1068.473303213872
 20
-441.444915948764
 30
0.0
 40
1.500000000000057
 50
197.4576031237225
 51
270.0
  0
ARC
  5
253
  8
0
  6
CONTINUOUS
 62
     7
 10
-626.5266967861292
 20
-441.444915948764
 30
0.0
 40
1.499999999999977
 50
270.0
 51
342.5423968762778
  0
ARC
  5
254
  8
0
  6
CONTINUOUS
 62
     7
 10
-1067.972588910543
 20
-441.444915948764
 30
0.0
 40
1.500000000000092
 50
270.0
 51
327.7657162322331
  0
ARC
  5
255
  8
0
  6
CONTINUOUS
 62
     7
 10
-627.0274110894588
 20
-441.444915948764
 30
0.0
 40
1.500000000000057
 50
212.2401917955058
 51
270.0
  0
LINE
  5
256
  8
0
  6
CONTINUOUS
 62
     7
 10
-1069.946603279847
 20
-442.4841813681097
 30
0.0
 11
-1069.965831118668
 21
-441.749899827926
 31
0.0
  0
ARC
  5
257
  8
0
  6
CONTINUOUS
 62
     7
 10
-626.5377134733423
 20
-441.8977842647705
 30
0.0
 40
1.499158205338206
 50
303.7339102916518
 51
358.4959383088838
  0
LINE
  5
258
  8
0
  6
CONTINUOUS
 62
     7
 10
-625.0288693632706
 20
-441.5475193981267
 30
0.0
 11
-625.0339184940472
 21
-441.7403379232777
 31
0.0
  0
LINE
  5
259
  8
0
  6
CONTINUOUS
 62
     7
 10
-625.0339184940472
 20
-441.7403379232777
 30
0.0
 11
-625.0390717778034
 21
-441.9371338902504
 31
0.0
  0
LINE
  5
25A
  8
0
  6
CONTINUOUS
 62
     7
 10
-1058.000778877041
 20
-402.944915948764
 30
0.0
 11
-636.9992211229599
 21
-402.944915948764
 31
0.0
  0
ARC
  5
25B
  8
0
  6
CONTINUOUS
 62
     7
 10
-1058.000778877041
 20
-414.444915948764
 30
0.0
 40
11.49999999999995
 50
90.0000000000003
 51
178.9999999999999
  0
LINE
  5
25C
  8
0
  6
CONTINUOUS
 62
     7
 10
-1069.58931112776
 20
-419.4165662159114
 30
0.0
 11
-1069.49902737134
 21
-414.2442132747352
 31
0.0
  0
ARC
  5
25D
  8
0
  6
CONTINUOUS
 62
     7
 10
-625.650000000001
 20
-440.9449159487564
 30
0.0
 40
1.200000000000009
 50
301.6408749597214
 51
60.16971447624394
  0
ARC
  5
25E
  8
0
  6
CONTINUOUS
 62
     7
 10
-625.650000000001
 20
-440.9449159487564
 30
0.0
 40
1.200000000000028
 50
294.7567440553414
 51
301.6408749597214
  0
ARC
  5
25F
  8
0
  6
CONTINUOUS
 62
     9
 10
-625.650000000001
 20
-440.9449159487564
 30
0.0
 40
2.000000000000046
 50
275.5746481940304
 51
73.09148144229482
  0
LINE
  5
260
  8
0
  6
CONTINUOUS
 62
     7
 10
-1071.300000000001
 20
-587.9449159487563
 30
0.0
 11
-1070.047580239044
 21
-444.4318261455088
 31
0.0
  0
LINE
  5
261
  8
0
  6
CONTINUOUS
 62
     7
 10
-624.9524197609568
 20
-444.4318261455087
 30
0.0
 11
-623.7000000000006
 21
-587.9449159487563
 31
0.0
  0
POLYLINE
  5
262
  8
0
  6
CONTINUOUS
 62
     7
 66
     1
 10
0.0
 20
0.0
 30
0.0
  0
VERTEX
  5
462
  8
0
  6
CONTINUOUS
 62
     7
 10
-696.7500000000007
 20
-464.9449159487564
 30
0.0
  0
VERTEX
  5
463
  8
0
  6
CONTINUOUS
 62
     7
 10
-696.7644110396982
 20
-464.7986037785756
 30
0.0
  0
VERTEX
  5
464
  8
0
  6
CONTINUOUS
 62
     7
 10
-696.8070903506172
 20
-464.6579143030419
 30
0.0
  0
VERTEX
  5
465
  8
0
  6
CONTINUOUS
 62
     7
 10
-696.8763977907737
 20
-464.5282541398008
 30
0.0
  0
VERTEX
  5
466
  8
0
  6
CONTINUOUS
 62
     7
 10
-696.9696699141107
 20
-464.4146060562112
 30
0.0
  0
VERTEX
  5
467
  8
0
  6
CONTINUOUS
 62
     7
 10
-697.0833223252359
 20
-464.3213374843908
 30
0.0
  0
VERTEX
  5
468
  8
0
  6
CONTINUOUS
 62
     7
 10
-697.2129874257267
 20
-464.2520326832492
 30
0.0
  0
VERTEX
  5
469
  8
0
  6
CONTINUOUS
 62
     7
 10
-697.3536822584884
 20
-464.2093549974277
 30
0.0
  0
VERTEX
  5
46A
  8
0
  6
CONTINUOUS
 62
     7
 10
-697.5000000000006
 20
-464.1949445064583
 30
0.0
  0
SEQEND
  5
51F
  8
0
  6
CONTINUOUS
 62
     7
  0
POLYLINE
  5
263
  8
0
  6
CONTINUOUS
 62
     7
 66
     1
 10
0.0
 20
0.0
 30
0.0
  0
VERTEX
  5
46B
  8
0
  6
CONTINUOUS
 62
     7
 10
-996.7500000000007
 20
-464.9449159487564
 30
0.0
  0
VERTEX
  5
46C
  8
0
  6
CONTINUOUS
 62
     7
 10
-996.7644110396982
 20
-464.7986037785756
 30
0.0
  0
VERTEX
  5
46D
  8
0
  6
CONTINUOUS
 62
     7
 10
-996.8070903506172
 20
-464.6579143030419
 30
0.0
  0
VERTEX
  5
46E
  8
0
  6
CONTINUOUS
 62
     7
 10
-996.8763977907737
 20
-464.5282541398008
 30
0.0
  0
VERTEX
  5
46F
  8
0
  6
CONTINUOUS
 62
     7
 10
-996.9696699141107
 20
-464.4146060562112
 30
0.0
  0
VERTEX
  5
470
  8
0
  6
CONTINUOUS
 62
     7
 10
-997.0833223252359
 20
-464.3213374843908
 30
0.0
  0
VERTEX
  5
471
  8
0
  6
CONTINUOUS
 62
     7
 10
-997.2129874257267
 20
-464.2520326832492
 30
0.0
  0
VERTEX
  5
472
  8
0
  6
CONTINUOUS
 62
     7
 10
-997.3536822584884
 20
-464.2093549974277
 30
0.0
  0
VERTEX
  5
473
  8
0
  6
CONTINUOUS
 62
     7
 10
-997.5000000000006
 20
-464.1949445064583
 30
0.0
  0
SEQEND
  5
520
  8
0
  6
CONTINUOUS
 62
     7
  0
POLYLINE
  5
264
  8
0
  6
CONTINUOUS
 62
     7
 66
     1
 10
0.0
 20
0.0
 30
0.0
  0
VERTEX
  5
474
  8
0
  6
CONTINUOUS
 62
     7
 10
-696.7500000000007
 20
-476.9449159487564
 30
0.0
  0
VERTEX
  5
475
  8
0
  6
CONTINUOUS
 62
     7
 10
-696.7644110396982
 20
-476.7986037785756
 30
0.0
  0
VERTEX
  5
476
  8
0
  6
CONTINUOUS
 62
     7
 10
-696.8070903506172
 20
-476.6579143030419
 30
0.0
  0
VERTEX
  5
477
  8
0
  6
CONTINUOUS
 62
     7
 10
-696.8763977907737
 20
-476.5282541398008
 30
0.0
  0
VERTEX
  5
478
  8
0
  6
CONTINUOUS
 62
     7
 10
-696.9696699141107
 20
-476.4146060562112
 30
0.0
  0
VERTEX
  5
479
  8
0
  6
CONTINUOUS
 62
     7
 10
-697.0833223252359
 20
-476.3213374843908
 30
0.0
  0
VERTEX
  5
47A
  8
0
  6
CONTINUOUS
 62
     7
 10
-697.2129874257267
 20
-476.2520326832492
 30
0.0
  0
VERTEX
  5
47B
  8
0
  6
CONTINUOUS
 62
     7
 10
-697.3536822584884
 20
-476.2093549974277
 30
0.0
  0
VERTEX
  5
47C
  8
0
  6
CONTINUOUS
 62
     7
 10
-697.5000000000006
 20
-476.1949445064583
 30
0.0
  0
SEQEND
  5
521
  8
0
  6
CONTINUOUS
 62
     7
  0
POLYLINE
  5
265
  8
0
  6
CONTINUOUS
 62
     7
 66
     1
 10
0.0
 20
0.0
 30
0.0
  0
VERTEX
  5
47D
  8
0
  6
CONTINUOUS
 62
     7
 10
-996.7500000000007
 20
-476.9449159487564
 30
0.0
  0
VERTEX
  5
47E
  8
0
  6
CONTINUOUS
 62
     7
 10
-996.7644110396982
 20
-476.7986037785756
 30
0.0
  0
VERTEX
  5
47F
  8
0
  6
CONTINUOUS
 62
     7
 10
-996.8070903506172
 20
-476.6579143030419
 30
0.0
  0
VERTEX
  5
480
  8
0
  6
CONTINUOUS
 62
     7
 10
-996.8763977907737
 20
-476.5282541398008
 30
0.0
  0
VERTEX
  5
481
  8
0
  6
CONTINUOUS
 62
     7
 10
-996.9696699141107
 20
-476.4146060562112
 30
0.0
  0
VERTEX
  5
482
  8
0
  6
CONTINUOUS
 62
     7
 10
-997.0833223252359
 20
-476.3213374843908
 30
0.0
  0
VERTEX
  5
483
  8
0
  6
CONTINUOUS
 62
     7
 10
-997.2129874257267
 20
-476.2520326832492
 30
0.0
  0
VERTEX
  5
484
  8
0
  6
CONTINUOUS
 62
     7
 10
-997.3536822584884
 20
-476.2093549974277
 30
0.0
  0
VERTEX
  5
485
  8
0
  6
CONTINUOUS
 62
     7
 10
-997.5000000000006
 20
-476.1949445064583
 30
0.0
  0
SEQEND
  5
522
  8
0
  6
CONTINUOUS
 62
     7
  0
POLYLINE
  5
266
  8
0
  6
CONTINUOUS
 62
     7
 66
     1
 10
0.0
 20
0.0
 30
0.0
  0
VERTEX
  5
486
  8
0
  6
CONTINUOUS
 62
     7
 10
-997.5000000000006
 20
-476.1949445064583
 30
0.0
  0
VERTEX
  5
487
  8
0
  6
CONTINUOUS
 62
     7
 10
-997.6463177415119
 20
-476.2093549974275
 30
0.0
  0
VERTEX
  5
488
  8
0
  6
CONTINUOUS
 62
     7
 10
-997.7870125742729
 20
-476.2520326832486
 30
0.0
  0
VERTEX
  5
489
  8
0
  6
CONTINUOUS
 62
     7
 10
-997.9166776747633
 20
-476.3213374843895
 30
0.0
  0
VERTEX
  5
48A
  8
0
  6
CONTINUOUS
 62
     7
 10
-998.0303300858882
 20
-476.4146060562089
 30
0.0
  0
VERTEX
  5
48B
  8
0
  6
CONTINUOUS
 62
     7
 10
-998.1236022092252
 20
-476.5282541397975
 30
0.0
  0
VERTEX
  5
48C
  8
0
  6
CONTINUOUS
 62
     7
 10
-998.1929096493822
 20
-476.6579143030376
 30
0.0
  0
VERTEX
  5
48D
  8
0
  6
CONTINUOUS
 62
     7
 10
-998.2355889603018
 20
-476.7986037785701
 30
0.0
  0
VERTEX
  5
48E
  8
0
  6
CONTINUOUS
 62
     7
 10
-998.2500000000005
 20
-476.94491594875
 30
0.0
  0
SEQEND
  5
523
  8
0
  6
CONTINUOUS
 62
     7
  0
POLYLINE
  5
267
  8
0
  6
CONTINUOUS
 62
     7
 66
     1
 10
0.0
 20
0.0
 30
0.0
  0
VERTEX
  5
48F
  8
0
  6
CONTINUOUS
 62
     7
 10
-998.2500000000005
 20
-476.94491594875
 30
0.0
  0
VERTEX
  5
490
  8
0
  6
CONTINUOUS
 62
     7
 10
-998.2355889603041
 20
-477.0912281189313
 30
0.0
  0
VERTEX
  5
491
  8
0
  6
CONTINUOUS
 62
     7
 10
-998.1929096493861
 20
-477.2319175944656
 30
0.0
  0
VERTEX
  5
492
  8
0
  6
CONTINUOUS
 62
     7
 10
-998.1236022092303
 20
-477.3615777577076
 30
0.0
  0
VERTEX
  5
493
  8
0
  6
CONTINUOUS
 62
     7
 10
-998.0303300858939
 20
-477.4752258412981
 30
0.0
  0
VERTEX
  5
494
  8
0
  6
CONTINUOUS
 62
     7
 10
-997.916677674769
 20
-477.5684944131194
 30
0.0
  0
VERTEX
  5
495
  8
0
  6
CONTINUOUS
 62
     7
 10
-997.787012574278
 20
-477.637799214262
 30
0.0
  0
VERTEX
  5
496
  8
0
  6
CONTINUOUS
 62
     7
 10
-997.6463177415162
 20
-477.6804769000844
 30
0.0
  0
VERTEX
  5
497
  8
0
  6
CONTINUOUS
 62
     7
 10
-997.5000000000038
 20
-477.6948873910544
 30
0.0
  0
VERTEX
  5
498
  8
0
  6
CONTINUOUS
 62
     7
 10
-997.3536822584913
 20
-477.6804769000856
 30
0.0
  0
VERTEX
  5
499
  8
0
  6
CONTINUOUS
 62
     7
 10
-997.212987425729
 20
-477.6377992142644
 30
0.0
  0
VERTEX
  5
49A
  8
0
  6
CONTINUOUS
 62
     7
 10
-997.0833223252375
 20
-477.568494413123
 30
0.0
  0
VERTEX
  5
49B
  8
0
  6
CONTINUOUS
 62
     7
 10
-996.9696699141118
 20
-477.4752258413027
 30
0.0
  0
VERTEX
  5
49C
  8
0
  6
CONTINUOUS
 62
     7
 10
-996.8763977907744
 20
-477.361577757713
 30
0.0
  0
VERTEX
  5
49D
  8
0
  6
CONTINUOUS
 62
     7
 10
-996.8070903506175
 20
-477.2319175944716
 30
0.0
  0
VERTEX
  5
49E
  8
0
  6
CONTINUOUS
 62
     7
 10
-996.7644110396983
 20
-477.0912281189376
 30
0.0
  0
VERTEX
  5
49F
  8
0
  6
CONTINUOUS
 62
     7
 10
-996.7500000000007
 20
-476.9449159487564
 30
0.0
  0
SEQEND
  5
524
  8
0
  6
CONTINUOUS
 62
     7
  0
POLYLINE
  5
268
  8
0
  6
CONTINUOUS
 62
     7
 66
     1
 10
0.0
 20
0.0
 30
0.0
  0
VERTEX
  5
4A0
  8
0
  6
CONTINUOUS
 62
     7
 10
-697.5000000000006
 20
-476.1949445064583
 30
0.0
  0
VERTEX
  5
4A1
  8
0
  6
CONTINUOUS
 62
     7
 10
-697.6463177415119
 20
-476.2093549974275
 30
0.0
  0
VERTEX
  5
4A2
  8
0
  6
CONTINUOUS
 62
     7
 10
-697.7870125742729
 20
-476.2520326832486
 30
0.0
  0
VERTEX
  5
4A3
  8
0
  6
CONTINUOUS
 62
     7
 10
-697.9166776747633
 20
-476.3213374843895
 30
0.0
  0
VERTEX
  5
4A4
  8
0
  6
CONTINUOUS
 62
     7
 10
-698.0303300858882
 20
-476.4146060562089
 30
0.0
  0
VERTEX
  5
4A5
  8
0
  6
CONTINUOUS
 62
     7
 10
-698.1236022092252
 20
-476.5282541397975
 30
0.0
  0
VERTEX
  5
4A6
  8
0
  6
CONTINUOUS
 62
     7
 10
-698.1929096493822
 20
-476.6579143030376
 30
0.0
  0
VERTEX
  5
4A7
  8
0
  6
CONTINUOUS
 62
     7
 10
-698.2355889603018
 20
-476.7986037785701
 30
0.0
  0
VERTEX
  5
4A8
  8
0
  6
CONTINUOUS
 62
     7
 10
-698.2500000000005
 20
-476.94491594875
 30
0.0
  0
SEQEND
  5
525
  8
0
  6
CONTINUOUS
 62
     7
  0
POLYLINE
  5
269
  8
0
  6
CONTINUOUS
 62
     7
 66
     1
 10
0.0
 20
0.0
 30
0.0
  0
VERTEX
  5
4A9
  8
0
  6
CONTINUOUS
 62
     7
 10
-698.2500000000005
 20
-476.94491594875
 30
0.0
  0
VERTEX
  5
4AA
  8
0
  6
CONTINUOUS
 62
     7
 10
-698.2355889603041
 20
-477.0912281189313
 30
0.0
  0
VERTEX
  5
4AB
  8
0
  6
CONTINUOUS
 62
     7
 10
-698.1929096493861
 20
-477.2319175944656
 30
0.0
  0
VERTEX
  5
4AC
  8
0
  6
CONTINUOUS
 62
     7
 10
-698.1236022092303
 20
-477.3615777577076
 30
0.0
  0
VERTEX
  5
4AD
  8
0
  6
CONTINUOUS
 62
     7
 10
-698.0303300858939
 20
-477.4752258412981
 30
0.0
  0
VERTEX
  5
4AE
  8
0
  6
CONTINUOUS
 62
     7
 10
-697.916677674769
 20
-477.5684944131194
 30
0.0
  0
VERTEX
  5
4AF
  8
0
  6
CONTINUOUS
 62
     7
 10
-697.787012574278
 20
-477.637799214262
 30
0.0
  0
VERTEX
  5
4B0
  8
0
  6
CONTINUOUS
 62
     7
 10
-697.6463177415162
 20
-477.6804769000844
 30
0.0
  0
VERTEX
  5
4B1
  8
0
  6
CONTINUOUS
 62
     7
 10
-697.5000000000038
 20
-477.6948873910544
 30
0.0
  0
VERTEX
  5
4B2
  8
0
  6
CONTINUOUS
 62
     7
 10
-697.3536822584913
 20
-477.6804769000856
 30
0.0
  0
VERTEX
  5
4B3
  8
0
  6
CONTINUOUS
 62
     7
 10
-697.212987425729
 20
-477.6377992142644
 30
0.0
  0
VERTEX
  5
4B4
  8
0
  6
CONTINUOUS
 62
     7
 10
-697.0833223252375
 20
-477.568494413123
 30
0.0
  0
VERTEX
  5
4B5
  8
0
  6
CONTINUOUS
 62
     7
 10
-696.9696699141118
 20
-477.4752258413027
 30
0.0
  0
VERTEX
  5
4B6
  8
0
  6
CONTINUOUS
 62
     7
 10
-696.8763977907744
 20
-477.361577757713
 30
0.0
  0
VERTEX
  5
4B7
  8
0
  6
CONTINUOUS
 62
     7
 10
-696.8070903506175
 20
-477.2319175944716
 30
0.0
  0
VERTEX
  5
4B8
  8
0
  6
CONTINUOUS
 62
     7
 10
-696.7644110396983
 20
-477.0912281189376
 30
0.0
  0
VERTEX
  5
4B9
  8
0
  6
CONTINUOUS
 62
     7
 10
-696.7500000000007
 20
-476.9449159487564
 30
0.0
  0
SEQEND
  5
526
  8
0
  6
CONTINUOUS
 62
     7
  0
POLYLINE
  5
26A
  8
0
  6
CONTINUOUS
 62
     7
 66
     1
 10
0.0
 20
0.0
 30
0.0
  0
VERTEX
  5
4BA
  8
0
  6
CONTINUOUS
 62
     7
 10
-697.5000000000006
 20
-464.1949445064583
 30
0.0
  0
VERTEX
  5
4BB
  8
0
  6
CONTINUOUS
 62
     7
 10
-697.6463177415127
 20
-464.2093549974277
 30
0.0
  0
VERTEX
  5
4BC
  8
0
  6
CONTINUOUS
 62
     7
 10
-697.7870125742744
 20
-464.2520326832492
 30
0.0
  0
VERTEX
  5
4BD
  8
0
  6
CONTINUOUS
 62
     7
 10
-697.9166776747652
 20
-464.3213374843908
 30
0.0
  0
VERTEX
  5
4BE
  8
0
  6
CONTINUOUS
 62
     7
 10
-698.0303300858905
 20
-464.4146060562112
 30
0.0
  0
VERTEX
  5
4BF
  8
0
  6
CONTINUOUS
 62
     7
 10
-698.1236022092274
 20
-464.5282541398008
 30
0.0
  0
VERTEX
  5
4C0
  8
0
  6
CONTINUOUS
 62
     7
 10
-698.192909649384
 20
-464.6579143030419
 30
0.0
  0
VERTEX
  5
4C1
  8
0
  6
CONTINUOUS
 62
     7
 10
-698.235588960303
 20
-464.7986037785756
 30
0.0
  0
VERTEX
  5
4C2
  8
0
  6
CONTINUOUS
 62
     7
 10
-698.2500000000005
 20
-464.9449159487564
 30
0.0
  0
SEQEND
  5
527
  8
0
  6
CONTINUOUS
 62
     7
  0
POLYLINE
  5
26B
  8
0
  6
CONTINUOUS
 62
     7
 66
     1
 10
0.0
 20
0.0
 30
0.0
  0
VERTEX
  5
4C3
  8
0
  6
CONTINUOUS
 62
     7
 10
-698.2500000000005
 20
-464.9449159487564
 30
0.0
  0
VERTEX
  5
4C4
  8
0
  6
CONTINUOUS
 62
     7
 10
-698.235588960303
 20
-465.0912281189372
 30
0.0
  0
VERTEX
  5
4C5
  8
0
  6
CONTINUOUS
 62
     7
 10
-698.192909649384
 20
-465.2319175944708
 30
0.0
  0
VERTEX
  5
4C6
  8
0
  6
CONTINUOUS
 62
     7
 10
-698.1236022092274
 20
-465.3615777577119
 30
0.0
  0
VERTEX
  5
4C7
  8
0
  6
CONTINUOUS
 62
     7
 10
-698.0303300858905
 20
-465.4752258413016
 30
0.0
  0
VERTEX
  5
4C8
  8
0
  6
CONTINUOUS
 62
     7
 10
-697.9166776747652
 20
-465.5684944131219
 30
0.0
  0
VERTEX
  5
4C9
  8
0
  6
CONTINUOUS
 62
     7
 10
-697.7870125742744
 20
-465.6377992142635
 30
0.0
  0
VERTEX
  5
4CA
  8
0
  6
CONTINUOUS
 62
     7
 10
-697.6463177415127
 20
-465.6804769000851
 30
0.0
  0
VERTEX
  5
4CB
  8
0
  6
CONTINUOUS
 62
     7
 10
-697.5000000000006
 20
-465.6948873910544
 30
0.0
  0
VERTEX
  5
4CC
  8
0
  6
CONTINUOUS
 62
     7
 10
-697.3536822584884
 20
-465.6804769000851
 30
0.0
  0
VERTEX
  5
4CD
  8
0
  6
CONTINUOUS
 62
     7
 10
-697.2129874257267
 20
-465.6377992142635
 30
0.0
  0
VERTEX
  5
4CE
  8
0
  6
CONTINUOUS
 62
     7
 10
-697.0833223252359
 20
-465.5684944131219
 30
0.0
  0
VERTEX
  5
4CF
  8
0
  6
CONTINUOUS
 62
     7
 10
-696.9696699141107
 20
-465.4752258413016
 30
0.0
  0
VERTEX
  5
4D0
  8
0
  6
CONTINUOUS
 62
     7
 10
-696.8763977907737
 20
-465.3615777577119
 30
0.0
  0
VERTEX
  5
4D1
  8
0
  6
CONTINUOUS
 62
     7
 10
-696.8070903506172
 20
-465.2319175944708
 30
0.0
  0
VERTEX
  5
4D2
  8
0
  6
CONTINUOUS
 62
     7
 10
-696.7644110396982
 20
-465.0912281189372
 30
0.0
  0
VERTEX
  5
4D3
  8
0
  6
CONTINUOUS
 62
     7
 10
-696.7500000000007
 20
-464.9449159487564
 30
0.0
  0
SEQEND
  5
528
  8
0
  6
CONTINUOUS
 62
     7
  0
POLYLINE
  5
26C
  8
0
  6
CONTINUOUS
 62
     7
 66
     1
 10
0.0
 20
0.0
 30
0.0
  0
VERTEX
  5
4D4
  8
0
  6
CONTINUOUS
 62
     7
 10
-997.5000000000006
 20
-464.1949445064583
 30
0.0
  0
VERTEX
  5
4D5
  8
0
  6
CONTINUOUS
 62
     7
 10
-997.6463177415127
 20
-464.2093549974277
 30
0.0
  0
VERTEX
  5
4D6
  8
0
  6
CONTINUOUS
 62
     7
 10
-997.7870125742744
 20
-464.2520326832492
 30
0.0
  0
VERTEX
  5
4D7
  8
0
  6
CONTINUOUS
 62
     7
 10
-997.9166776747652
 20
-464.3213374843908
 30
0.0
  0
VERTEX
  5
4D8
  8
0
  6
CONTINUOUS
 62
     7
 10
-998.0303300858905
 20
-464.4146060562112
 30
0.0
  0
VERTEX
  5
4D9
  8
0
  6
CONTINUOUS
 62
     7
 10
-998.1236022092274
 20
-464.5282541398008
 30
0.0
  0
VERTEX
  5
4DA
  8
0
  6
CONTINUOUS
 62
     7
 10
-998.192909649384
 20
-464.6579143030419
 30
0.0
  0
VERTEX
  5
4DB
  8
0
  6
CONTINUOUS
 62
     7
 10
-998.235588960303
 20
-464.7986037785756
 30
0.0
  0
VERTEX
  5
4DC
  8
0
  6
CONTINUOUS
 62
     7
 10
-998.2500000000005
 20
-464.9449159487564
 30
0.0
  0
SEQEND
  5
529
  8
0
  6
CONTINUOUS
 62
     7
  0
POLYLINE
  5
26D
  8
0
  6
CONTINUOUS
 62
     7
 66
     1
 10
0.0
 20
0.0
 30
0.0
  0
VERTEX
  5
4DD
  8
0
  6
CONTINUOUS
 62
     7
 10
-998.2500000000005
 20
-464.9449159487564
 30
0.0
  0
VERTEX
  5
4DE
  8
0
  6
CONTINUOUS
 62
     7
 10
-998.235588960303
 20
-465.0912281189372
 30
0.0
  0
VERTEX
  5
4DF
  8
0
  6
CONTINUOUS
 62
     7
 10
-998.192909649384
 20
-465.2319175944708
 30
0.0
  0
VERTEX
  5
4E0
  8
0
  6
CONTINUOUS
 62
     7
 10
-998.1236022092274
 20
-465.3615777577119
 30
0.0
  0
VERTEX
  5
4E1
  8
0
  6
CONTINUOUS
 62
     7
 10
-998.0303300858905
 20
-465.4752258413016
 30
0.0
  0
VERTEX
  5
4E2
  8
0
  6
CONTINUOUS
 62
     7
 10
-997.9166776747652
 20
-465.5684944131219
 30
0.0
  0
VERTEX
  5
4E3
  8
0
  6
CONTINUOUS
 62
     7
 10
-997.7870125742744
 20
-465.6377992142635
 30
0.0
  0
VERTEX
  5
4E4
  8
0
  6
CONTINUOUS
 62
     7
 10
-997.6463177415127
 20
-465.6804769000851
 30
0.0
  0
VERTEX
  5
4E5
  8
0
  6
CONTINUOUS
 62
     7
 10
-997.5000000000006
 20
-465.6948873910544
 30
0.0
  0
VERTEX
  5
4E6
  8
0
  6
CONTINUOUS
 62
     7
 10
-997.3536822584884
 20
-465.6804769000851
 30
0.0
  0
VERTEX
  5
4E7
  8
0
  6
CONTINUOUS
 62
     7
 10
-997.2129874257267
 20
-465.6377992142635
 30
0.0
  0
VERTEX
  5
4E8
  8
0
  6
CONTINUOUS
 62
     7
 10
-997.0833223252359
 20
-465.5684944131219
 30
0.0
  0
VERTEX
  5
4E9
  8
0
  6
CONTINUOUS
 62
     7
 10
-996.9696699141107
 20
-465.4752258413016
 30
0.0
  0
VERTEX
  5
4EA
  8
0
  6
CONTINUOUS
 62
     7
 10
-996.8763977907737
 20
-465.3615777577119
 30
0.0
  0
VERTEX
  5
4EB
  8
0
  6
CONTINUOUS
 62
     7
 10
-996.8070903506172
 20
-465.2319175944708
 30
0.0
  0
VERTEX
  5
4EC
  8
0
  6
CONTINUOUS
 62
     7
 10
-996.7644110396982
 20
-465.0912281189372
 30
0.0
  0
VERTEX
  5
4ED
  8
0
  6
CONTINUOUS
 62
     7
 10
-996.7500000000007
 20
-464.9449159487564
 30
0.0
  0
SEQEND
  5
52A
  8
0
  6
CONTINUOUS
 62
     7
  0
LINE
  5
26E
  8
0
  6
CONTINUOUS
 62
     7
 10
-1058.548018123807
 20
-442.9449159487563
 30
0.0
 11
-636.4519818761948
 21
-442.9449159487563
 31
0.0
  0
LINE
  5
26F
  8
0
  6
CONTINUOUS
 62
     7
 10
-636.4519818761948
 20
-442.9449159487563
 30
0.0
 11
-626.4523626455532
 21
-442.9449159487563
 31
0.0
  0
ARC
  5
270
  8
0
  6
CONTINUOUS
 62
     7
 10
-626.4523626455532
 20
-444.4449159487563
 30
0.0
 40
1.500000000000001
 50
0.5000000000026147
 51
90.0
  0
ARC
  5
271
  8
0
  6
CONTINUOUS
 62
     7
 10
-1068.547637354448
 20
-444.4449159487563
 30
0.0
 40
1.500000000000061
 50
90.0
 51
179.4999999999974
  0
LINE
  5
272
  8
0
  6
CONTINUOUS
 62
     7
 10
-1068.547637354448
 20
-442.9449159487563
 30
0.0
 11
-1058.548018123807
 21
-442.9449159487563
 31
0.0
  0
LINE
  5
273
  8
0
  6
CONTINUOUS
 62
     7
 10
-634.4980961894552
 20
-623.4449159487564
 30
0.0
 11
-1060.501903810544
 21
-623.4449159487564
 31
0.0
  0
LINE
  5
274
  8
0
  6
CONTINUOUS
 62
     7
 10
-1060.501903810544
 20
-623.4449159487564
 30
0.0
 11
-1072.999999999999
 21
-623.4449159487564
 31
0.0
  0
LINE
  5
275
  8
0
  6
CONTINUOUS
 62
     7
 10
-1072.999999999999
 20
-622.944915948672
 30
0.0
 11
-1072.999999999999
 21
-623.4449159487564
 31
0.0
  0
LINE
  5
276
  8
0
  6
CONTINUOUS
 62
     7
 10
-622.0000000000006
 20
-622.9449159487564
 30
0.0
 11
-622.0000000000003
 21
-623.4449159487564
 31
0.0
  0
LINE
  5
277
  8
0
  6
CONTINUOUS
 62
     7
 10
-622.0000000000003
 20
-623.4449159487564
 30
0.0
 11
-634.4980961894552
 21
-623.4449159487564
 31
0.0
  0
LINE
  5
278
  8
0
  6
CONTINUOUS
 62
     7
 10
-1072.999999999999
 20
-622.944915948672
 30
0.0
 11
-1072.406223159554
 21
-588.9274635423191
 31
0.0
  0
LINE
  5
279
  8
0
  6
CONTINUOUS
 62
     7
 10
-622.5937768404475
 20
-588.9274635423191
 30
0.0
 11
-622.0000000000006
 21
-622.9449159487564
 31
0.0
  0
LINE
  5
27A
  8
0
  6
CONTINUOUS
 62
     7
 10
-1071.406375464397
 20
-587.9449159487563
 30
0.0
 11
-1059.908126970098
 21
-587.9449159487563
 31
0.0
  0
ARC
  5
27B
  8
0
  6
CONTINUOUS
 62
     7
 10
-1071.406375464397
 20
-588.9449159487563
 30
0.0
 40
1.000000000000001
 50
90.0
 51
178.9999999999996
  0
LINE
  5
27C
  8
0
  6
CONTINUOUS
 62
     7
 10
-635.0918730299023
 20
-587.9449159487563
 30
0.0
 11
-623.5936245356038
 21
-587.9449159487563
 31
0.0
  0
ARC
  5
27D
  8
0
  6
CONTINUOUS
 62
     7
 10
-623.5936245356038
 20
-588.9449159487563
 30
0.0
 40
0.9999999999999831
 50
1.000000000000032
 51
89.99999999999841
  0
LINE
  5
27E
  8
0
  6
CONTINUOUS
 62
     7
 10
-1059.908126970098
 20
-587.9449159487563
 30
0.0
 11
-635.0918730299024
 21
-587.9449159487563
 31
0.0
  0
LINE
  5
27F
  8
0
  6
CONTINUOUS
 62
     9
 10
-1011.948115272848
 20
-397.7593376788058
 30
0.0
 11
-1011.956817943717
 21
-397.2707086734792
 31
0.0
  0
LINE
  5
280
  8
0
  6
CONTINUOUS
 62
     9
 10
-1033.043193341673
 20
-397.2713423217398
 30
0.0
 11
-1033.051627834864
 21
-397.7449141059888
 31
0.0
  0
LINE
  5
281
  8
0
  6
CONTINUOUS
 62
     9
 10
-1033.051627834864
 20
-397.7449141059888
 30
0.0
 11
-1033.051884726839
 21
-397.759337661215
 31
0.0
  0
ARC
  5
282
  8
0
  6
CONTINUOUS
 62
     9
 10
-1012.920268848652
 20
-397.3117971744752
 30
0.0
 40
1.000000000000008
 50
1.032992544290199
 51
75.00000000000126
  0
ARC
  5
283
  8
0
  6
CONTINUOUS
 62
     9
 10
-1032.07973115135
 20
-397.3117971744752
 30
0.0
 40
0.9999999999999972
 50
104.9999999999987
 51
178.9670074557066
  0
LINE
  5
284
  8
0
  6
CONTINUOUS
 62
     9
 10
-1011.872147963396
 20
-402.944877211511
 30
0.0
 11
-1011.996397049101
 21
-397.9447730852246
 31
0.0
  0
LINE
  5
285
  8
0
  6
CONTINUOUS
 62
     9
 10
-1033.003604085149
 20
-397.9448187404965
 30
0.0
 11
-1033.127852036606
 21
-402.944877211511
 31
0.0
  0
ARC
  5
286
  8
0
  6
CONTINUOUS
 62
     7
 10
-1068.447117292302
 20
-442.4449159487565
 30
0.0
 40
1.499999999999964
 50
181.4999999999996
 51
218.9977668659683
  0
LINE
  5
287
  8
0
  6
CONTINUOUS
 62
     7
 10
-625.4106888722414
 20
-419.4165662159115
 30
0.0
 11
-625.4515870717038
 21
-418.3172616568904
 31
0.0
  0
POLYLINE
  5
288
  8
0
  6
CONTINUOUS
 62
     7
 66
     1
 10
0.0
 20
0.0
 30
0.0
  0
VERTEX
  5
4EE
  8
0
  6
CONTINUOUS
 62
     7
 10
-625.4515870717038
 20
-418.3172616568904
 30
0.0
  0
VERTEX
  5
4EF
  8
0
  6
CONTINUOUS
 62
     7
 10
-625.5970725630141
 20
-416.6738432974296
 30
0.0
  0
VERTEX
  5
4F0
  8
0
  6
CONTINUOUS
 62
     7
 10
-626.0546077803012
 20
-414.0748597973747
 30
0.0
  0
VERTEX
  5
4F1
  8
0
  6
CONTINUOUS
 62
     7
 10
-626.772592378207
 20
-411.6625333141077
 30
0.0
  0
VERTEX
  5
4F2
  8
0
  6
CONTINUOUS
 62
     7
 10
-627.7340178946272
 20
-409.4777906227895
 30
0.0
  0
VERTEX
  5
4F3
  8
0
  6
CONTINUOUS
 62
     7
 10
-628.9159804496877
 20
-407.558522093256
 30
0.0
  0
VERTEX
  5
4F4
  8
0
  6
CONTINUOUS
 62
     7
 10
-630.2902327843811
 20
-405.9386114153086
 30
0.0
  0
VERTEX
  5
4F5
  8
0
  6
CONTINUOUS
 62
     7
 10
-631.8238641683827
 20
-404.6470661476713
 30
0.0
  0
VERTEX
  5
4F6
  8
0
  6
CONTINUOUS
 62
     7
 10
-633.4800918679055
 20
-403.7072719932656
 30
0.0
  0
VERTEX
  5
4F7
  8
0
  6
CONTINUOUS
 62
     7
 10
-635.2191452151781
 20
-403.1363904770264
 30
0.0
  0
VERTEX
  5
4F8
  8
0
  6
CONTINUOUS
 62
     7
 10
-636.9992211229597
 20
-402.9449159487639
 30
0.0
  0
SEQEND
  5
52B
  8
0
  6
CONTINUOUS
 62
     7
  0
ARC
  5
289
  8
0
  6
CONTINUOUS
 62
     7
 10
-626.5528827076974
 20
-442.4449159487535
 30
0.0
 40
1.500000000000059
 50
321.0022331336842
 51
343.4567388744003
  0
ENDBLK
  8
0
  0
ENDSEC
  0
SECTION
  2
ENTITIES
  0
TEXT
  5
6F
  8
0
  6
CONTINUOUS
 62
     7
 10
-437.7160497686632
 20
-540.0681818181818
 30
0.0
 40
15.00000000000001
  1
%%UＷＢＪ－６Ｌ
  0
INSERT
  5
15B
  8
0
  6
CONTINUOUS
 62
     7
  2
D_FRAME_VIEW_1287
 10
0.0
 20
0.0
 30
0.0
  0
LINE
  5
15C
  8
0
  6
CONTINUOUS
 62
     7
 10
-342.0550840512436
 20
-213.5476373544474
 30
0.0
 11
-342.0550840512436
 21
398.5476373544479
 31
0.0
  0
INSERT
  5
206
  8
0
  6
CONTINUOUS
 62
     7
  2
D_FRAME_VIEW_2014
 10
0.0
 20
0.0
 30
0.0
  0
INSERT
  5
28A
  8
0
  6
CONTINUOUS
 62
     7
  2
D_FRAME_VIEW_2517
 10
0.0
 20
0.0
 30
0.0
  0
ENDSEC
  0
EOF
