  0
SECTION
  2
HEADER
  9
$ACADVER
  1
AC1006
  9
$DWGCODEPAGE
  3
ansi_932
  9
$INSBASE
 10
0.0
 20
0.0
 30
0.0
  9
$EXTMIN
 10
41.60001500000206
 20
41.60001499999583
  9
$EXTMAX
 10
496.392041385782
 20
290.206574253356
  9
$LIMMIN
 10
0.0
 20
0.0
  9
$LIMMAX
 10
12.0
 20
9.0
  9
$ORTHOMODE
 70
     0
  9
$REGENMODE
 70
     1
  9
$FILLMODE
 70
     1
  9
$QTEXTMODE
 70
     0
  9
$MIRRTEXT
 70
     1
  9
$DRAGMODE
 70
     2
  9
$LTSCALE
 40
1.0
  9
$OSMODE
 70
    37
  9
$ATTMODE
 70
     1
  9
$TEXTSIZE
 40
0.2
  9
$TRACEWID
 40
0.05
  9
$TEXTSTYLE
  7
STANDARD
  9
$CLAYER
  8
0
  9
$CELTYPE
  6
BYLAYER
  9
$CECOLOR
 62
   256
  9
$DIMSCALE
 40
1.0
  9
$DIMASZ
 40
3.0
  9
$DIMEXO
 40
0.0625
  9
$DIMDLI
 40
0.38
  9
$DIMRND
 40
0.0
  9
$DIMDLE
 40
0.0
  9
$DIMEXE
 40
1.5
  9
$DIMTP
 40
0.0
  9
$DIMTM
 40
0.0
  9
$DIMTXT
 40
3.0
  9
$DIMCEN
 40
0.09
  9
$DIMTSZ
 40
0.0
  9
$DIMTOL
 70
     0
  9
$DIMLIM
 70
     0
  9
$DIMTIH
 70
     1
  9
$DIMTOH
 70
     1
  9
$DIMSE1
 70
     0
  9
$DIMSE2
 70
     0
  9
$DIMTAD
 70
     1
  9
$DIMZIN
 70
     0
  9
$DIMBLK
  1

  9
$DIMASO
 70
     1
  9
$DIMSHO
 70
     1
  9
$DIMPOST
  1

  9
$DIMAPOST
  1

  9
$DIMALT
 70
     0
  9
$DIMALTD
 70
     2
  9
$DIMALTF
 40
25.4
  9
$DIMLFAC
 40
1.0
  9
$DIMTOFL
 70
     0
  9
$DIMTVP
 40
0.0
  9
$DIMTIX
 70
     0
  9
$DIMSOXD
 70
     0
  9
$DIMSAH
 70
     0
  9
$DIMBLK1
  1

  9
$DIMBLK2
  1

  9
$LUNITS
 70
     2
  9
$LUPREC
 70
     4
  9
$SKETCHINC
 40
0.1
  9
$FILLETRAD
 40
0.5
  9
$AUNITS
 70
     0
  9
$AUPREC
 70
     0
  9
$MENU
  1
.
  9
$ELEVATION
 40
0.0
  9
$THICKNESS
 40
0.0
  9
$LIMCHECK
 70
     0
  9
$CHAMFERA
 40
0.0
  9
$CHAMFERB
 40
0.0
  9
$SKPOLY
 70
     0
  9
$TDCREATE
 40
2458900.463764699
  9
$TDUPDATE
 40
2458900.463765243
  9
$TDINDWG
 40
0.0000000116
  9
$TDUSRTIMER
 40
0.0000000116
  9
$USRTIMER
 70
     1
  9
$ANGBASE
 50
0.0
  9
$ANGDIR
 70
     0
  9
$PDMODE
 70
     0
  9
$PDSIZE
 40
0.0
  9
$PLINEWID
 40
0.0
  9
$COORDS
 70
     1
  9
$SPLFRAME
 70
     0
  9
$SPLINETYPE
 70
     6
  9
$SPLINESEGS
 70
     8
  9
$ATTDIA
 70
     0
  9
$ATTREQ
 70
     1
  9
$HANDLING
 70
     1
  9
$HANDSEED
  5
30B
  9
$SURFTAB1
 70
     6
  9
$SURFTAB2
 70
     6
  9
$SURFTYPE
 70
     6
  9
$SURFU
 70
     6
  9
$SURFV
 70
     6
  9
$UCSNAME
  2

  9
$UCSORG
 10
0.0
 20
0.0
 30
0.0
  9
$UCSXDIR
 10
1.0
 20
0.0
 30
0.0
  9
$UCSYDIR
 10
0.0
 20
1.0
 30
0.0
  9
$USERI1
 70
     0
  9
$USERI2
 70
     0
  9
$USERI3
 70
     0
  9
$USERI4
 70
     0
  9
$USERI5
 70
     0
  9
$USERR1
 40
0.0
  9
$USERR2
 40
0.0
  9
$USERR3
 40
0.0
  9
$USERR4
 40
0.0
  9
$USERR5
 40
0.0
  9
$WORLDVIEW
 70
     1
  0
ENDSEC
  0
SECTION
  2
TABLES
  0
TABLE
  2
VPORT
 70
     1
  0
VPORT
  2
*ACTIVE
 70
     0
 10
0.0
 20
0.0
 11
1.0
 21
1.0
 12
268.996028192892
 22
165.9032946266759
 13
0.0
 23
0.0
 14
0.5
 24
0.5
 15
0.5
 25
0.5
 16
0.0
 26
0.0
 36
1.0
 17
0.0
 27
0.0
 37
0.0
 40
248.6065592533602
 41
1.6
 42
50.0
 43
0.0
 44
0.0
 50
0.0
 51
0.0
 71
     0
 72
   100
 73
     1
 74
     3
 75
     0
 76
     0
 77
     0
 78
     0
  0
ENDTAB
  0
TABLE
  2
LTYPE
 70
     2
  0
LTYPE
  2
CONTINUOUS
 70
     0
  3
Solid line
 72
    65
 73
     0
 40
0.0
  0
LTYPE
  2
CENTER
 70
     0
  3

 72
    65
 73
     0
 40
0.0
  0
ENDTAB
  0
TABLE
  2
LAYER
 70
     1
  0
LAYER
  2
0
 70
     0
 62
     7
  6
CONTINUOUS
  0
ENDTAB
  0
TABLE
  2
STYLE
 70
     2
  0
STYLE
  2
STANDARD
 70
     0
 40
0.0
 41
1.0
 50
0.0
 71
     0
 42
0.2
  3
txt
  4

  0
STYLE
  2
ＭＳ_ゴシック
 70
     0
 40
0.0
 41
1.0
 50
0.0
 71
     0
 42
0.2
  3
ＭＳ ゴシック.shx
  4

  0
ENDTAB
  0
TABLE
  2
VIEW
 70
     0
  0
ENDTAB
  0
TABLE
  2
UCS
 70
     0
  0
ENDTAB
  0
ENDSEC
  0
SECTION
  2
BLOCKS
  0
ENDSEC
  0
SECTION
  2
ENTITIES
  0
ARC
  5
6F
  8
0
  6
CONTINUOUS
 62
     7
 10
162.6939242704536
 20
286.2158881320356
 30
0.0
 40
1.490346558473687
 50
116.5213458505356
 51
139.186191480926
  0
ARC
  5
70
  8
0
  6
CONTINUOUS
 62
     7
 10
162.6939242704538
 20
286.2158881320356
 30
0.0
 40
1.490346558473743
 50
93.85650022014613
 51
116.5213458505356
  0
TEXT
  5
71
  8
0
  6
CONTINUOUS
 62
     7
 10
360.0799549831187
 20
55.54245342003251
 30
0.0
 40
8.0
  1
WBKS-2
 41
1.5
  0
LINE
  5
72
  8
0
  6
CONTINUOUS
 62
     7
 10
170.0043253562346
 20
287.6632171115154
 30
0.0
 11
170.0061468851144
 21
287.6449559058822
 31
0.0
  0
ARC
  5
73
  8
0
  6
CONTINUOUS
 62
     7
 10
324.3932969191988
 20
280.4066846994232
 30
0.0
 40
28.25517109463277
 50
171.5420628184244
 51
173.7365498140997
  0
ARC
  5
74
  8
0
  6
CONTINUOUS
 62
     7
 10
297.7828448351964
 20
281.6121988848142
 30
0.0
 40
1.227671269348696
 50
243.2739134532466
 51
256.3888162671106
  0
ARC
  5
75
  8
0
  6
CONTINUOUS
 62
     7
 10
304.9643344397858
 20
284.114879099509
 30
0.0
 40
8.493241190674405
 50
166.3967229871108
 51
171.7031276115936
  0
ARC
  5
76
  8
0
  6
CONTINUOUS
 62
     7
 10
163.8124865297554
 20
281.0481406058274
 30
0.0
 40
1.530214301416866
 50
140.1908142845631
 51
160.8439772881047
  0
LINE
  5
77
  8
0
  6
CONTINUOUS
 62
     7
 10
170.0043253562346
 20
287.6632171115154
 30
0.0
 11
169.5043443947026
 21
287.7065797068144
 31
0.0
  0
ARC
  5
78
  8
0
  6
CONTINUOUS
 62
     7
 10
291.3870772209248
 20
287.4003853185044
 30
0.0
 40
5.475884218676452
 50
346.3967229871101
 51
351.5129086597219
  0
ARC
  5
79
  8
0
  6
CONTINUOUS
 62
     7
 10
297.2924906527632
 20
286.2041560936495
 30
0.0
 40
1.508296350558769
 50
18.42219872189577
 51
40.81380851908312
  0
ARC
  5
7A
  8
0
  6
CONTINUOUS
 62
     7
 10
163.8266568911998
 20
280.8803666284882
 30
0.0
 40
1.674170669522301
 50
96.11451630227621
 51
116.0165558147165
  0
ARC
  5
7B
  8
0
  6
CONTINUOUS
 62
     7
 10
297.9152273621198
 20
286.4262503263512
 30
0.0
 40
1.124546316441821
 50
146.4080020989827
 51
171.5129086597402
  0
ARC
  5
7C
  8
0
  6
CONTINUOUS
 62
     7
 10
297.3013584819186
 20
286.2071098442316
 30
0.0
 40
1.498949530969629
 50
359.9795233916538
 51
18.42219872189616
  0
ARC
  5
7D
  8
0
  6
CONTINUOUS
 62
     7
 10
297.3060757295464
 20
286.2158881320358
 30
0.0
 40
1.490346558473521
 50
40.81380851907215
 51
63.47865414946444
  0
ARC
  5
7E
  8
0
  6
CONTINUOUS
 62
     7
 10
162.9989438665514
 20
285.6046838145356
 30
0.0
 40
1.509763425321831
 50
116.5213458505348
 51
138.8571486463968
  0
LINE
  5
7F
  8
0
  6
CONTINUOUS
 62
   253
 10
297.7024050338292
 20
281.164982458009
 30
0.0
 11
297.6645359161016
 21
280.217654778612
 31
0.0
  0
LINE
  5
80
  8
0
  6
CONTINUOUS
 62
   253
 10
297.2995729628658
 20
224.7065797068144
 30
0.0
 11
297.2995729628658
 21
112.4822851376319
 31
0.0
  0
LINE
  5
81
  8
0
  6
CONTINUOUS
 62
     7
 10
161.7235216665424
 20
124.3065643314061
 30
0.0
 11
161.5929484861766
 21
121.3065797068144
 31
0.0
  0
LINE
  5
82
  8
0
  6
CONTINUOUS
 62
     7
 10
404.5
 20
164.453979307109
 30
0.0
 11
409.5
 21
164.453979307109
 31
0.0
  0
ARC
  5
83
  8
0
  6
CONTINUOUS
 62
     7
 10
1394.955593332001
 20
162.9067093477614
 30
0.0
 40
1105.246292092524
 50
173.7365498141021
 51
173.785327798259
  0
ARC
  5
84
  8
0
  6
CONTINUOUS
 62
     7
 10
162.9976353411718
 20
285.6225643065536
 30
0.0
 40
1.491835117161944
 50
90.23932741583864
 51
94.18554305468098
  0
LINE
  5
85
  8
0
  6
CONTINUOUS
 62
     7
 10
162.6957210748826
 20
287.7065797068144
 30
0.0
 11
169.5043443947026
 21
287.7065797068144
 31
0.0
  0
ARC
  5
86
  8
0
  6
CONTINUOUS
 62
     7
 10
3639.658626055735
 20
234.0977480412838
 30
0.0
 40
3342.321572617619
 50
179.2093617737548
 51
179.5426635818757
  0
ARC
  5
87
  8
0
  6
CONTINUOUS
 62
     7
 10
297.3060757295462
 20
286.2158881320354
 30
0.0
 40
1.490346558473965
 50
63.47865414946546
 51
86.14349977985216
  0
ARC
  5
88
  8
0
  6
CONTINUOUS
 62
     7
 10
4816.173028785194
 20
224.7065797068149
 30
0.0
 40
4518.873455822326
 50
179.5426635818756
 51
180.0
  0
ARC
  5
89
  8
0
  6
CONTINUOUS
 62
     7
 10
433.1317813068064
 20
324.3861002489892
 30
0.0
 40
274.1977028822712
 50
188.4936317412023
 51
188.6542564264516
  0
ARC
  5
8A
  8
0
  6
CONTINUOUS
 62
     7
 10
295.726489913712
 20
247.5534102261174
 30
0.0
 40
33.10889700212732
 50
88.29865128552261
 51
89.22917343811537
  0
ARC
  5
8B
  8
0
  6
CONTINUOUS
 62
     7
 10
162.695131534247
 20
286.19797898493
 30
0.0
 40
1.508296350559324
 50
89.9776095900894
 51
93.85650022014522
  0
LINE
  5
8C
  8
0
  6
CONTINUOUS
 62
   253
 10
297.0085948414372
 20
287.1140820742905
 30
0.0
 11
297.3042789251174
 21
287.7065797068144
 31
0.0
  0
ARC
  5
8D
  8
0
  6
CONTINUOUS
 62
     7
 10
297.0145574319488
 20
285.6164795414
 30
0.0
 40
1.491835117162721
 50
18.53510957703435
 51
41.14285135360291
  0
ARC
  5
8E
  8
0
  6
CONTINUOUS
 62
     7
 10
163.698329713868
 20
281.1432834894588
 30
0.0
 40
1.381607616105396
 50
116.0165558147177
 51
140.1908142845646
  0
ARC
  5
8F
  8
0
  6
CONTINUOUS
 62
     7
 10
19.77107041406138
 20
325.7041777913506
 30
0.0
 40
279.7165220223816
 50
351.5420628184241
 51
351.7031276115977
  0
ARC
  5
90
  8
0
  6
CONTINUOUS
 62
     7
 10
297.0023646588282
 20
285.6225643065533
 30
0.0
 40
1.49183511716211
 50
85.81445694531952
 51
89.76067258416879
  0
ARC
  5
91
  8
0
  6
CONTINUOUS
 62
     7
 10
297.0010561334484
 20
285.6046838145352
 30
0.0
 40
1.50976342532233
 50
41.14285135360905
 51
63.47865414946529
  0
LINE
  5
92
  8
0
  6
CONTINUOUS
 62
   253
 10
295.801000630493
 20
112.2934202931856
 30
0.0
 11
295.801000630493
 21
224.7065797068144
 31
0.0
  0
ARC
  5
93
  8
0
  6
CONTINUOUS
 62
     7
 10
116.2904393093996
 20
121.2520471476714
 30
0.0
 40
45.56445461806687
 50
356.5837237127508
 51
3.691440367618725
  0
LINE
  5
94
  8
0
  6
CONTINUOUS
 62
     7
 10
161.7603589777774
 20
124.1856336886029
 30
0.0
 11
161.7235216665424
 21
124.3065643314061
 31
0.0
  0
LINE
  5
95
  8
0
  6
CONTINUOUS
 62
   253
 10
162.7004270371342
 20
224.7065797068144
 30
0.0
 11
164.198999369507
 21
224.7065797068144
 31
0.0
  0
LINE
  5
96
  8
0
  6
CONTINUOUS
 62
   253
 10
162.6957210748826
 20
287.7065797068144
 30
0.0
 11
162.9914051585626
 21
287.1140820742905
 31
0.0
  0
ARC
  5
97
  8
0
  6
CONTINUOUS
 62
     7
 10
297.304868465753
 20
286.1979789849298
 30
0.0
 40
1.50829635055949
 50
86.14349977985621
 51
90.02239040991265
  0
ARC
  5
98
  8
0
  6
CONTINUOUS
 62
     7
 10
135.3548599055902
 20
279.0631032244348
 30
0.0
 40
27.00865325662893
 50
6.410705432727343
 51
8.654256426451717
  0
ARC
  5
99
  8
0
  6
CONTINUOUS
 62
     7
 10
153.8942555490428
 20
282.6855015374356
 30
0.0
 40
8.13638242132747
 50
8.493631741199746
 51
13.9087289293223
  0
ARC
  5
9A
  8
0
  6
CONTINUOUS
 62
     7
 10
-874.6828636327406
 20
165.578121083199
 30
0.0
 40
1043.401807573447
 50
6.360211005522199
 51
6.410705432726793
  0
ARC
  5
9B
  8
0
  6
CONTINUOUS
 62
     7
 10
297.0057375022358
 20
285.613522423237
 30
0.0
 40
1.501137574255906
 50
0.2391754825129055
 51
18.5351095770344
  0
ARC
  5
9C
  8
0
  6
CONTINUOUS
 62
     7
 10
297.4410271700562
 20
280.2004997247768
 30
0.0
 40
0.2248210145042173
 50
4.389040045246645
 51
76.38881626713612
  0
ARC
  5
9D
  8
0
  6
CONTINUOUS
 62
     7
 10
166.9888379312206
 20
285.928200257294
 30
0.0
 40
5.353731838804388
 50
188.7868020695186
 51
193.9087289293218
  0
LINE
  5
9E
  8
0
  6
CONTINUOUS
 62
   253
 10
162.3354640838984
 20
280.217654778612
 30
0.0
 11
162.2975949661708
 21
281.164982458009
 31
0.0
  0
ARC
  5
9F
  8
0
  6
CONTINUOUS
 62
     7
 10
160.6199066915704
 20
284.9437397810824
 30
0.0
 40
1.090835451915351
 50
8.786802069508935
 51
34.12234143294214
  0
ARC
  5
A0
  8
0
  6
CONTINUOUS
 62
     7
 10
162.298010400653
 20
286.0808559554308
 30
0.0
 40
0.936247489752573
 50
209.7965910514532
 51
214.1223414329414
  0
LINE
  5
A1
  8
0
  6
CONTINUOUS
 62
     7
 10
478.0003426750244
 20
166.203979307109
 30
0.0
 11
381.9996573249756
 21
166.203979307109
 31
0.0
  0
ARC
  5
A2
  8
0
  6
CONTINUOUS
 62
     7
 10
295.7264899137102
 20
247.5534102259776
 30
0.0
 40
33.1088970022671
 50
89.22917343811537
 51
89.23945735223981
  0
ARC
  5
A3
  8
0
  6
CONTINUOUS
 62
     7
 10
162.9942624977644
 20
285.6135224232368
 30
0.0
 40
1.501137574256239
 50
161.464890422965
 51
179.7608245174829
  0
LINE
  5
A4
  8
0
  6
CONTINUOUS
 62
   253
 10
163.7961672985436
 20
282.554042830285
 30
0.0
 11
296.2038327014561
 21
282.554042830285
 31
0.0
  0
ARC
  5
A5
  8
0
  6
CONTINUOUS
 62
     7
 10
-3231.53714482243
 20
234.1727470735976
 30
0.0
 40
3395.698662761244
 50
0.4537246137626312
 51
0.7843978619305291
  0
ARC
  5
A6
  8
0
  6
CONTINUOUS
 62
     7
 10
-4426.88799056274
 20
224.7065797068136
 30
0.0
 40
4591.086989932248
 50
0.0000000000000568
 51
0.4537246137626881
  0
ARC
  5
A7
  8
0
  6
CONTINUOUS
 62
     7
 10
162.985442568051
 20
285.6164795414
 30
0.0
 40
1.491835117162388
 50
138.8571486463933
 51
161.4648904229642
  0
LINE
  5
A8
  8
0
  6
CONTINUOUS
 62
   253
 10
162.7004270371342
 20
112.4822851376319
 30
0.0
 11
162.7004270371342
 21
224.7065797068144
 31
0.0
  0
LINE
  5
A9
  8
0
  6
CONTINUOUS
 62
     7
 10
295.801000630493
 20
112.2934202931856
 30
0.0
 11
164.198999369507
 21
112.2934202931856
 31
0.0
  0
ARC
  5
AA
  8
0
  6
CONTINUOUS
 62
     7
 10
162.9989438665512
 20
285.6046838145362
 30
0.0
 40
1.509763425321164
 50
94.18554305466262
 51
116.5213458505347
  0
ARC
  5
AB
  8
0
  6
CONTINUOUS
 62
     7
 10
163.551563388155
 20
281.1387791593294
 30
0.0
 40
1.25399657352171
 50
160.8439772880935
 51
178.802904497345
  0
LINE
  5
AC
  8
0
  6
CONTINUOUS
 62
     7
 10
161.7235194864688
 20
118.3065952462818
 30
0.0
 11
161.7739231668286
 21
118.5368637592317
 31
0.0
  0
LINE
  5
AD
  8
0
  6
CONTINUOUS
 62
   253
 10
163.7961672985436
 20
282.554042830285
 30
0.0
 11
163.8340364162712
 21
280.6593874714911
 31
0.0
  0
ARC
  5
AE
  8
0
  6
CONTINUOUS
 62
     7
 10
297.0010561334486
 20
285.6046838145354
 30
0.0
 40
1.509763425322053
 50
63.47865414946529
 51
85.81445694532502
  0
ARC
  5
AF
  8
0
  6
CONTINUOUS
 62
     7
 10
163.8266568911998
 20
280.8803666284886
 30
0.0
 40
1.674170669521968
 50
91.04364976188651
 51
96.11451630227748
  0
ARC
  5
B0
  8
0
  6
CONTINUOUS
 62
     7
 10
296.2188509809121
 20
287.552978627168
 30
0.0
 40
0.9119235435319228
 50
326.408002098983
 51
330.9370827310823
  0
ARC
  5
B1
  8
0
  6
CONTINUOUS
 62
     7
 10
296.672642007037
 20
279.4073077253222
 30
0.0
 40
1.240950885793568
 50
63.27391345324594
 51
88.29865128553024
  0
LINE
  5
B2
  8
0
  6
CONTINUOUS
 62
     7
 10
296.5976182870918
 20
42.60001500000001
 30
0.0
 11
296.4078080556822
 21
46.94738403889975
 31
0.0
  0
LINE
  5
B3
  8
0
  6
CONTINUOUS
 62
     7
 10
221.5
 20
75.800015
 30
0.0
 11
221.5
 21
74.5263668223331
 31
0.0
  0
LINE
  5
B4
  8
0
  6
CONTINUOUS
 62
     7
 10
294.5212703047708
 20
49.0530753777578
 30
0.0
 11
294.6676890308634
 21
49.05690948703552
 31
0.0
  0
ARC
  5
B5
  8
0
  6
CONTINUOUS
 62
     7
 10
295.801000630493
 20
76.90001500000001
 30
0.0
 40
1.500000000000001
 50
2.499999999999095
 51
89.9999999999979
  0
LINE
  5
B6
  8
0
  6
CONTINUOUS
 62
     7
 10
162.7004270371342
 20
76.96544408104799
 30
0.0
 11
161.3898102314096
 21
46.94738403889975
 31
0.0
  0
LINE
  5
B7
  8
0
  6
CONTINUOUS
 62
     7
 10
295.801000630493
 20
78.40001500000001
 30
0.0
 11
164.198999369507
 21
78.40001500000001
 31
0.0
  0
LINE
  5
B8
  8
0
  6
CONTINUOUS
 62
     7
 10
163.5921919443178
 20
46.94738403889975
 30
0.0
 11
163.4023817129082
 21
42.60001500000001
 31
0.0
  0
LINE
  5
B9
  8
0
  6
CONTINUOUS
 62
     7
 10
163.8363242581282
 20
49.09608327771851
 30
0.0
 11
165.3323109691368
 21
49.05690948703552
 31
0.0
  0
LINE
  5
BA
  8
0
  6
CONTINUOUS
 62
     7
 10
294.6437088882385
 20
75.90001500000001
 30
0.0
 11
295.1655185819209
 21
75.40049088920908
 31
0.0
  0
LINE
  5
BB
  8
0
  6
CONTINUOUS
 62
     7
 10
236.0303061543302
 20
74.70001500000001
 30
0.0
 11
236.0
 21
74.70001500000001
 31
0.0
  0
LINE
  5
BC
  8
0
  6
CONTINUOUS
 62
     7
 10
166.2
 20
60.56510752883695
 30
0.0
 11
170.2
 21
60.60001500000001
 31
0.0
  0
LINE
  5
BD
  8
0
  6
CONTINUOUS
 62
     7
 10
170.5061278466464
 20
287.6015933105832
 30
0.0
 11
170.0061468851144
 21
287.6449559058822
 31
0.0
  0
LINE
  5
BE
  8
0
  6
CONTINUOUS
 62
     7
 10
163.592191944318
 20
46.94738403889971
 30
0.0
 11
163.8673463197256
 21
53.24945534286366
 31
0.0
  0
LINE
  5
BF
  8
0
  6
CONTINUOUS
 62
     7
 10
296.167403432094
 20
49.09618089072229
 30
0.0
 11
294.6676890308634
 21
49.05690948703552
 31
0.0
  0
LINE
  5
C0
  8
0
  6
CONTINUOUS
 62
     7
 10
165.3323109691368
 20
49.05690948703552
 30
0.0
 11
165.4787296952292
 21
49.0530753777578
 31
0.0
  0
ARC
  5
C1
  8
0
  6
CONTINUOUS
 62
     7
 10
145.2823217081682
 20
53.86263108715611
 30
0.0
 40
20.26370114237869
 50
337.3980824182001
 51
337.509793860695
  0
LINE
  5
C2
  8
0
  6
CONTINUOUS
 62
     7
 10
166.2
 20
48.63492247116302
 30
0.0
 11
166.2
 21
60.56510752883698
 31
0.0
  0
LINE
  5
C3
  8
0
  6
CONTINUOUS
 62
     7
 10
163.8673463197256
 20
53.24945534286366
 30
0.0
 11
163.9212090744112
 21
54.48311524797283
 31
0.0
  0
LINE
  5
C4
  8
0
  6
CONTINUOUS
 62
     7
 10
298.6101897685904
 20
46.94738403889975
 30
0.0
 11
298.8
 21
42.60001500000001
 31
0.0
  0
LINE
  5
C5
  8
0
  6
CONTINUOUS
 62
     7
 10
294.6437088882385
 20
75.90001500000001
 30
0.0
 11
165.3562911117618
 21
75.90001500000001
 31
0.0
  0
ARC
  5
C6
  8
0
  6
CONTINUOUS
 62
     7
 10
291.908974780453
 20
44.3673885269931
 30
0.0
 40
4.442504295654681
 50
17.4481145880332
 51
22.60191758180031
  0
LINE
  5
C7
  8
0
  6
CONTINUOUS
 62
     7
 10
170.5061278466464
 20
287.6015933105832
 30
0.0
 11
289.4938721533536
 21
287.6015933105832
 31
0.0
  0
LINE
  5
C8
  8
0
  6
CONTINUOUS
 62
     7
 10
298.8
 20
42.60001500000001
 30
0.0
 11
296.5976182870918
 21
42.60001500000001
 31
0.0
  0
LINE
  5
C9
  8
0
  6
CONTINUOUS
 62
     7
 10
296.2980510759494
 20
46.10385788640249
 30
0.0
 11
294.7949034965306
 21
46.14321919102404
 31
0.0
  0
LINE
  5
CA
  8
0
  6
CONTINUOUS
 62
     7
 10
296.3138221581864
 20
49.10001500000001
 30
0.0
 11
296.167403432094
 21
49.09618089072229
 31
0.0
  0
LINE
  5
CB
  8
0
  6
CONTINUOUS
 62
     7
 10
166.0643745696496
 20
42.60001500000001
 30
0.0
 11
164.8772839925604
 21
42.60001500000001
 31
0.0
  0
LINE
  5
CC
  8
0
  6
CONTINUOUS
 62
     7
 10
294.7949034965306
 20
46.14321919102404
 30
0.0
 11
294.648149585568
 21
46.14706207742648
 31
0.0
  0
LINE
  5
CD
  8
0
  6
CONTINUOUS
 62
     7
 10
295.1227160074396
 20
42.60001500000001
 30
0.0
 11
293.9356254303506
 21
42.60001500000001
 31
0.0
  0
LINE
  5
CE
  8
0
  6
CONTINUOUS
 62
     7
 10
295.1227160074396
 20
42.60001500000001
 30
0.0
 11
296.259746047403
 21
42.60001500000001
 31
0.0
  0
LINE
  5
CF
  8
0
  6
CONTINUOUS
 62
     7
 10
289.9938531148858
 20
287.6449559058822
 30
0.0
 11
289.9956746437655
 21
287.6632171115154
 31
0.0
  0
LINE
  5
D0
  8
0
  6
CONTINUOUS
 62
     7
 10
290.4956556052974
 20
287.7065797068144
 30
0.0
 11
289.9956746437655
 21
287.6632171115154
 31
0.0
  0
LINE
  5
D1
  8
0
  6
CONTINUOUS
 62
     7
 10
290.4956556052974
 20
287.7065797068144
 30
0.0
 11
297.3042789251174
 21
287.7065797068144
 31
0.0
  0
LINE
  5
D2
  8
0
  6
CONTINUOUS
 62
     7
 10
164.8344814180792
 20
75.40049088920908
 30
0.0
 11
165.3562911117618
 21
75.90001500000001
 31
0.0
  0
LINE
  5
D3
  8
0
  6
CONTINUOUS
 62
     7
 10
170.2
 20
48.60001499999999
 30
0.0
 11
166.2
 21
48.63492247116304
 31
0.0
  0
LINE
  5
D4
  8
0
  6
CONTINUOUS
 62
     7
 10
289.9938531148858
 20
287.6449559058822
 30
0.0
 11
289.4938721533537
 21
287.6015933105832
 31
0.0
  0
LINE
  5
D5
  8
0
  6
CONTINUOUS
 62
     7
 10
167.8023302246116
 20
75.800015
 30
0.0
 11
221.5
 21
75.800015
 31
0.0
  0
LINE
  5
D6
  8
0
  6
CONTINUOUS
 62
   253
 10
238.5
 20
74.52636682233307
 30
0.0
 11
221.5
 21
74.5263668223331
 31
0.0
  0
ARC
  5
D7
  8
0
  6
CONTINUOUS
 62
     7
 10
164.198999369507
 20
76.90001500000001
 30
0.0
 40
1.500000000000001
 50
90.0
 51
177.500000000001
  0
LINE
  5
D8
  8
0
  6
CONTINUOUS
 62
     7
 10
163.555195013088
 20
46.10001500000005
 30
0.0
 11
163.7019489240506
 21
46.10385788640249
 31
0.0
  0
LINE
  5
D9
  8
0
  6
CONTINUOUS
 62
     7
 10
293.7043253562346
 20
75.30437826774919
 30
0.0
 11
293.962678720502
 21
45.70001499999998
 31
0.0
  0
LINE
  5
DA
  8
0
  6
CONTINUOUS
 62
     7
 10
275.5336884348746
 20
75.30001500000003
 30
0.0
 11
274.9663115651256
 21
75.30001500000003
 31
0.0
  0
LINE
  5
DB
  8
0
  6
CONTINUOUS
 62
     7
 10
165.5400045620794
 20
50.33284958120998
 30
0.0
 11
165.540028180103
 21
50.33339052288377
 31
0.0
  0
LINE
  5
DC
  8
0
  6
CONTINUOUS
 62
     7
 10
161.2
 20
42.60001500000001
 30
0.0
 11
161.3898102314096
 21
46.94738403889975
 31
0.0
  0
LINE
  5
DD
  8
0
  6
CONTINUOUS
 62
     7
 10
292.1976697753886
 20
75.800015
 30
0.0
 11
293.2043443947026
 21
75.800015
 31
0.0
  0
LINE
  5
DE
  8
0
  6
CONTINUOUS
 62
     7
 10
262.5336884348746
 20
75.300015
 30
0.0
 11
260.8798946261642
 21
75.300015
 31
0.0
  0
ARC
  5
DF
  8
0
  6
CONTINUOUS
 62
     7
 10
293.2043443947026
 20
75.30001500000003
 30
0.0
 40
0.5000000000000004
 50
0.4999999999972982
 51
90.0
  0
LINE
  5
E0
  8
0
  6
CONTINUOUS
 62
     7
 10
165.351850414432
 20
46.14706207742648
 30
0.0
 11
165.2050965034694
 21
46.14321919102404
 31
0.0
  0
LINE
  5
E1
  8
0
  6
CONTINUOUS
 62
     7
 10
238.5
 20
75.800015
 30
0.0
 11
292.1976697753886
 21
75.800015
 31
0.0
  0
LINE
  5
E2
  8
0
  6
CONTINUOUS
 62
     7
 10
166.1670578512084
 20
60.5663536246899
 30
0.0
 11
166.2956746437654
 21
75.30437826774919
 31
0.0
  0
LINE
  5
E3
  8
0
  6
CONTINUOUS
 62
     7
 10
199.5200940578118
 20
74.80001499999997
 30
0.0
 11
215.479905942188
 21
74.80001499999997
 31
0.0
  0
LINE
  5
E4
  8
0
  6
CONTINUOUS
 62
     7
 10
297.2995729628658
 20
76.96544408104799
 30
0.0
 11
298.6101897685904
 21
46.94738403889975
 31
0.0
  0
LINE
  5
E5
  8
0
  6
CONTINUOUS
 62
     7
 10
238.5
 20
74.52636682233307
 30
0.0
 11
238.5
 21
75.800015
 31
0.0
  0
LINE
  5
E6
  8
0
  6
CONTINUOUS
 62
     7
 10
163.4023817129084
 20
42.60001500000001
 30
0.0
 11
161.2
 21
42.60001500000001
 31
0.0
  0
LINE
  5
E7
  8
0
  6
CONTINUOUS
 62
     7
 10
296.2980510759494
 20
46.10385788640249
 30
0.0
 11
296.444804986912
 21
46.10001500000005
 31
0.0
  0
LINE
  5
E8
  8
0
  6
CONTINUOUS
 62
     7
 10
170.2
 20
60.60001500000001
 30
0.0
 11
170.2
 21
48.60001499999999
 31
0.0
  0
LINE
  5
E9
  8
0
  6
CONTINUOUS
 62
     7
 10
163.7481852421444
 20
42.60001500000001
 30
0.0
 11
164.8772839925604
 21
42.60001500000001
 31
0.0
  0
LINE
  5
EA
  8
0
  6
CONTINUOUS
 62
     7
 10
165.909601197068
 20
58.79800425647885
 30
0.0
 11
165.5400045620794
 21
50.33284958120998
 31
0.0
  0
LINE
  5
EB
  8
0
  6
CONTINUOUS
 62
     7
 10
163.9212090744112
 20
54.48311524797283
 30
0.0
 11
164.8344814180792
 21
75.40049088920908
 31
0.0
  0
LINE
  5
EC
  8
0
  6
CONTINUOUS
 62
     7
 10
167.570885447986
 20
41.60001500000001
 30
0.0
 11
292.4291145520141
 21
41.60001500000001
 31
0.0
  0
LINE
  5
ED
  8
0
  6
CONTINUOUS
 62
     7
 10
216.0829742032454
 20
74.800015
 30
0.0
 11
215.4799059421882
 21
74.800015
 31
0.0
  0
LINE
  5
EE
  8
0
  6
CONTINUOUS
 62
     7
 10
296.407808055682
 20
46.94738403889971
 30
0.0
 11
295.1655185819209
 21
75.40049088920908
 31
0.0
  0
LINE
  5
EF
  8
0
  6
CONTINUOUS
 62
     7
 10
163.7019489240506
 20
46.10385788640249
 30
0.0
 11
165.2050965034694
 21
46.14321919102404
 31
0.0
  0
ARC
  5
F0
  8
0
  6
CONTINUOUS
 62
     7
 10
168.0910252195472
 20
44.36738852699303
 30
0.0
 40
4.442504295654903
 50
157.3980824181999
 51
162.5518854120064
  0
ARC
  5
F1
  8
0
  6
CONTINUOUS
 62
     7
 10
314.7176782919495
 20
53.86263108720525
 30
0.0
 40
20.26370114250625
 50
202.4902061393061
 51
202.6019175818002
  0
LINE
  5
F2
  8
0
  6
CONTINUOUS
 62
     7
 10
217.0
 20
68.30001500000004
 30
0.0
 11
217.0
 21
75.30001500000006
 31
0.0
  0
LINE
  5
F3
  8
0
  6
CONTINUOUS
 62
     7
 10
184.4663115651256
 20
75.30001500000003
 30
0.0
 11
185.0336884348746
 21
75.30001500000003
 31
0.0
  0
LINE
  5
F4
  8
0
  6
CONTINUOUS
 62
     7
 10
215.8798946261642
 20
75.300015
 30
0.0
 11
217.5336884348746
 21
75.300015
 31
0.0
  0
LINE
  5
F5
  8
0
  6
CONTINUOUS
 62
   253
 10
244.520094057812
 20
75.300015
 30
0.0
 11
244.520094057812
 21
74.800015
 31
0.0
  0
ARC
  5
F6
  8
0
  6
CONTINUOUS
 62
     7
 10
166.7956556052974
 20
75.300015
 30
0.0
 40
0.5000000000000004
 50
90.0
 51
179.4999999999994
  0
LINE
  5
F7
  8
0
  6
CONTINUOUS
 62
     7
 10
243.0
 20
68.30001500000004
 30
0.0
 11
243.0
 21
75.30001500000006
 31
0.0
  0
LINE
  5
F8
  8
0
  6
CONTINUOUS
 62
     7
 10
261.116022172506
 20
74.80001500000003
 30
0.0
 11
261.0829742032454
 21
74.800015
 31
0.0
  0
LINE
  5
F9
  8
0
  6
CONTINUOUS
 62
     7
 10
243.9170257967548
 20
74.800015
 30
0.0
 11
243.8839778274944
 21
74.800015
 31
0.0
  0
ARC
  5
FA
  8
0
  6
CONTINUOUS
 62
     7
 10
247.4977144575032
 20
68.3928075792459
 30
0.0
 40
3.613737835002295
 50
180.0467898512221
 51
270.0362372385774
  0
LINE
  5
FB
  8
0
  6
CONTINUOUS
 62
     7
 10
242.5
 20
75.30001500000003
 30
0.0
 11
242.5
 21
68.30001500000002
 31
0.0
  0
LINE
  5
FC
  8
0
  6
CONTINUOUS
 62
     7
 10
166.0373212794982
 20
45.70001499999998
 30
0.0
 11
166.1670578512084
 21
60.5663536246899
 31
0.0
  0
LINE
  5
FD
  8
0
  6
CONTINUOUS
 62
     7
 10
184.5
 20
68.30001500000002
 30
0.0
 11
184.5
 21
75.30001500000003
 31
0.0
  0
LINE
  5
FE
  8
0
  6
CONTINUOUS
 62
   253
 10
215.4799059421882
 20
74.800015
 30
0.0
 11
215.4799059421882
 21
75.300015
 31
0.0
  0
LINE
  5
FF
  8
0
  6
CONTINUOUS
 62
     7
 10
257.5
 20
64.77907046699927
 30
0.0
 11
247.49999999882
 21
64.77907046699934
 31
0.0
  0
LINE
  5
100
  8
0
  6
CONTINUOUS
 62
     7
 10
197.5
 20
68.30001500000002
 30
0.0
 11
197.5
 21
75.30001500000003
 31
0.0
  0
LINE
  5
101
  8
0
  6
CONTINUOUS
 62
   253
 10
199.5200940578118
 20
75.300015
 30
0.0
 11
199.5200940578118
 21
74.800015
 31
0.0
  0
LINE
  5
102
  8
0
  6
CONTINUOUS
 62
     7
 10
185.0
 20
75.30001500000003
 30
0.0
 11
185.0
 21
68.30001500000002
 31
0.0
  0
LINE
  5
103
  8
0
  6
CONTINUOUS
 62
     7
 10
199.5200940578118
 20
74.80001500000003
 30
0.0
 11
198.9170257967546
 21
74.80001500000003
 31
0.0
  0
LINE
  5
104
  8
0
  6
CONTINUOUS
 62
     7
 10
275.5
 20
68.30001500000002
 30
0.0
 11
275.5
 21
75.30001500000003
 31
0.0
  0
LINE
  5
105
  8
0
  6
CONTINUOUS
 62
     7
 10
217.5
 20
75.30001500000003
 30
0.0
 11
217.5
 21
68.30001500000002
 31
0.0
  0
LINE
  5
106
  8
0
  6
CONTINUOUS
 62
   253
 10
262.5249832770687
 20
68.30009189386682
 30
0.0
 11
262.5000000000002
 21
68.30001500000002
 31
0.0
  0
LINE
  5
107
  8
0
  6
CONTINUOUS
 62
     7
 10
261.0829742032454
 20
74.80001500000003
 30
0.0
 11
260.4799059421882
 21
74.80001500000003
 31
0.0
  0
LINE
  5
108
  8
0
  6
CONTINUOUS
 62
     7
 10
243.8839778274944
 20
68.38985646769285
 30
0.0
 11
243.8839778274944
 21
74.800015
 31
0.0
  0
LINE
  5
109
  8
0
  6
CONTINUOUS
 62
     7
 10
260.4799059421882
 20
74.800015
 30
0.0
 11
244.520094057812
 21
74.800015
 31
0.0
  0
LINE
  5
10A
  8
0
  6
CONTINUOUS
 62
   253
 10
262.5249832770684
 20
68.30009189386682
 30
0.0
 11
262.5249832770684
 21
75.300015
 31
0.0
  0
LINE
  5
10B
  8
0
  6
CONTINUOUS
 62
     7
 10
237.4445197167032
 20
75.70001500000001
 30
0.0
 11
238.5
 21
75.70001500000001
 31
0.0
  0
LINE
  5
10C
  8
0
  6
CONTINUOUS
 62
   253
 10
216.0829742032454
 20
75.300015
 30
0.0
 11
216.0829742032454
 21
74.800015
 31
0.0
  0
LINE
  5
10D
  8
0
  6
CONTINUOUS
 62
   253
 10
243.9170257967548
 20
74.800015
 30
0.0
 11
243.9170257967548
 21
75.300015
 31
0.0
  0
LINE
  5
10E
  8
0
  6
CONTINUOUS
 62
     7
 10
244.520094057812
 20
74.800015
 30
0.0
 11
243.9170257967548
 21
74.800015
 31
0.0
  0
LINE
  5
10F
  8
0
  6
CONTINUOUS
 62
   253
 10
260.4799059421882
 20
74.800015
 30
0.0
 11
260.4799059421882
 21
75.300015
 31
0.0
  0
LINE
  5
110
  8
0
  6
CONTINUOUS
 62
     7
 10
166.7956556052974
 20
75.800015
 30
0.0
 11
167.8023302246116
 21
75.800015
 31
0.0
  0
LINE
  5
111
  8
0
  6
CONTINUOUS
 62
   253
 10
198.9170257967546
 20
74.800015
 30
0.0
 11
198.9170257967546
 21
75.300015
 31
0.0
  0
LINE
  5
112
  8
0
  6
CONTINUOUS
 62
     7
 10
199.1201053738358
 20
75.300015
 30
0.0
 11
199.5200940578118
 21
75.300015
 31
0.0
  0
LINE
  5
113
  8
0
  6
CONTINUOUS
 62
   253
 10
217.5249832770686
 20
68.30009189386682
 30
0.0
 11
217.5
 21
68.30001500000002
 31
0.0
  0
LINE
  5
114
  8
0
  6
CONTINUOUS
 62
     7
 10
197.4663115651256
 20
75.300015
 30
0.0
 11
199.1201053738358
 21
75.300015
 31
0.0
  0
LINE
  5
115
  8
0
  6
CONTINUOUS
 62
     7
 10
221.5
 20
75.70001500000001
 30
0.0
 11
222.5554802832968
 21
75.70001500000001
 31
0.0
  0
ARC
  5
116
  8
0
  6
CONTINUOUS
 62
     7
 10
257.5024454179614
 20
68.39264704624354
 30
0.0
 40
3.613577406688828
 50
269.9612261968507
 51
359.9655776250637
  0
LINE
  5
117
  8
0
  6
CONTINUOUS
 62
     7
 10
260.4799059421882
 20
75.300015
 30
0.0
 11
260.8798946261642
 21
75.300015
 31
0.0
  0
ARC
  5
118
  8
0
  6
CONTINUOUS
 62
     7
 10
212.502285362282
 20
68.39280775972125
 30
0.0
 40
3.613738015364409
 50
269.9637656018247
 51
359.9532072897546
  0
LINE
  5
119
  8
0
  6
CONTINUOUS
 62
     7
 10
275.0
 20
75.30001500000003
 30
0.0
 11
275.0
 21
68.30001500000002
 31
0.0
  0
LINE
  5
11A
  8
0
  6
CONTINUOUS
 62
     7
 10
198.8839778274942
 20
74.8000150000001
 30
0.0
 11
198.8839778274942
 21
68.39047606882117
 31
0.0
  0
LINE
  5
11B
  8
0
  6
CONTINUOUS
 62
     7
 10
261.116022172506
 20
74.80001500000003
 30
0.0
 11
261.116022172506
 21
68.39047606768406
 31
0.0
  0
LINE
  5
11C
  8
0
  6
CONTINUOUS
 62
   253
 10
216.1160221725075
 20
68.38985646771206
 30
0.0
 11
216.999999874547
 21
68.2992491128795
 31
0.0
  0
LINE
  5
11D
  8
0
  6
CONTINUOUS
 62
     7
 10
262.0000000000002
 20
75.30001500000006
 30
0.0
 11
262.0000000000002
 21
68.30001500000007
 31
0.0
  0
LINE
  5
11E
  8
0
  6
CONTINUOUS
 62
     7
 10
202.4999999960836
 20
64.77907046699927
 30
0.0
 11
212.5
 21
64.77907046699934
 31
0.0
  0
LINE
  5
11F
  8
0
  6
CONTINUOUS
 62
     7
 10
215.4799059421882
 20
75.300015
 30
0.0
 11
215.8798946261642
 21
75.300015
 31
0.0
  0
LINE
  5
120
  8
0
  6
CONTINUOUS
 62
   253
 10
243.0000000773474
 20
68.29924910792407
 30
0.0
 11
243.8839778274956
 21
68.38985646767995
 31
0.0
  0
LINE
  5
121
  8
0
  6
CONTINUOUS
 62
     7
 10
216.0829742032454
 20
74.800015
 30
0.0
 11
216.1160221725056
 21
74.80001500000003
 31
0.0
  0
LINE
  5
122
  8
0
  6
CONTINUOUS
 62
   253
 10
261.0829742032454
 20
75.300015
 30
0.0
 11
261.0829742032454
 21
74.800015
 31
0.0
  0
ARC
  5
123
  8
0
  6
CONTINUOUS
 62
     7
 10
202.5004482339738
 20
68.30046323397382
 30
0.0
 40
4.500448256295308
 50
180.0057065237754
 51
269.9942934762247
  0
ARC
  5
124
  8
0
  6
CONTINUOUS
 62
     7
 10
257.4995517660262
 20
68.30046323397387
 30
0.0
 40
4.500448256295364
 50
270.0057065237752
 51
359.994293476224
  0
LINE
  5
125
  8
0
  6
CONTINUOUS
 62
     7
 10
198.8839778274942
 20
74.8000150000001
 30
0.0
 11
198.9170257967546
 21
74.800015
 31
0.0
  0
ARC
  5
126
  8
0
  6
CONTINUOUS
 62
     7
 10
247.5
 20
68.30001500000002
 30
0.0
 40
5.000000000000004
 50
180.0
 51
270.0
  0
ARC
  5
127
  8
0
  6
CONTINUOUS
 62
     7
 10
270.5003520405486
 20
68.29966295945158
 30
0.0
 40
4.999647971845711
 50
269.9959656284256
 51
0.0040343715743916
  0
LINE
  5
128
  8
0
  6
CONTINUOUS
 62
   253
 10
247.5
 20
63.80001500000004
 30
0.0
 11
247.49999999882
 21
64.77907046699934
 31
0.0
  0
LINE
  5
129
  8
0
  6
CONTINUOUS
 62
   253
 10
257.5
 20
63.80001500000002
 30
0.0
 11
257.5
 21
64.77907046699927
 31
0.0
  0
LINE
  5
12A
  8
0
  6
CONTINUOUS
 62
     7
 10
262.5000000000002
 20
68.30001500000002
 30
0.0
 11
262.5000000000002
 21
75.30001500000003
 31
0.0
  0
LINE
  5
12B
  8
0
  6
CONTINUOUS
 62
     7
 10
244.120105373836
 20
75.300015
 30
0.0
 11
244.520094057812
 21
75.300015
 31
0.0
  0
LINE
  5
12C
  8
0
  6
CONTINUOUS
 62
   253
 10
262.0000000000002
 20
68.30001500000004
 30
0.0
 11
261.116022172506
 21
68.39047606768406
 31
0.0
  0
ARC
  5
12D
  8
0
  6
CONTINUOUS
 62
     7
 10
202.497554582034
 20
68.3926470462409
 30
0.0
 40
3.613577406683499
 50
180.0344223568648
 51
270.0387737411239
  0
LINE
  5
12E
  8
0
  6
CONTINUOUS
 62
     7
 10
198.0
 20
75.30001500000006
 30
0.0
 11
198.0
 21
68.30001500000007
 31
0.0
  0
LINE
  5
12F
  8
0
  6
CONTINUOUS
 62
     7
 10
216.1160221725056
 20
68.38985646769774
 30
0.0
 11
216.1160221725056
 21
74.80001500000003
 31
0.0
  0
ARC
  5
130
  8
0
  6
CONTINUOUS
 62
     7
 10
189.4996479594514
 20
68.29966295945147
 30
0.0
 40
4.9996479718456
 50
179.9959656284243
 51
270.0040343715752
  0
LINE
  5
131
  8
0
  6
CONTINUOUS
 62
     7
 10
244.120105373836
 20
75.300015
 30
0.0
 11
242.4663115651256
 21
75.300015
 31
0.0
  0
LINE
  5
132
  8
0
  6
CONTINUOUS
 62
   253
 10
212.5
 20
63.80001500000004
 30
0.0
 11
212.5
 21
64.77907046699934
 31
0.0
  0
ARC
  5
133
  8
0
  6
CONTINUOUS
 62
     7
 10
202.4996479594514
 20
68.29966295945147
 30
0.0
 40
4.9996479718456
 50
179.9959656284243
 51
270.0040343715758
  0
LINE
  5
134
  8
0
  6
CONTINUOUS
 62
     7
 10
170.2
 20
48.60001499999999
 30
0.0
 11
170.2151910811384
 21
48.59988242944333
 31
0.0
  0
LINE
  5
135
  8
0
  6
CONTINUOUS
 62
   253
 10
202.5
 20
63.80001500000002
 30
0.0
 11
202.4999999960836
 21
64.77907046699927
 31
0.0
  0
ARC
  5
136
  8
0
  6
CONTINUOUS
 62
     7
 10
247.5001246574026
 20
68.30013970966131
 30
0.0
 40
4.500124711387832
 50
180.0210903421381
 51
269.9984128566412
  0
LINE
  5
137
  8
0
  6
CONTINUOUS
 62
     7
 10
202.5
 20
63.80001500000002
 30
0.0
 11
212.5
 21
63.80001500000004
 31
0.0
  0
ARC
  5
138
  8
0
  6
CONTINUOUS
 62
     7
 10
257.5003520405486
 20
68.29966295945158
 30
0.0
 40
4.999647971845711
 50
269.995965628425
 51
0.0040343715743347
  0
LINE
  5
139
  8
0
  6
CONTINUOUS
 62
     7
 10
257.5
 20
63.80001500000002
 30
0.0
 11
247.5
 21
63.80001500000004
 31
0.0
  0
LINE
  5
13A
  8
0
  6
CONTINUOUS
 62
     7
 10
212.5
 20
63.30001500000002
 30
0.0
 11
202.5
 21
63.30001500000002
 31
0.0
  0
LINE
  5
13B
  8
0
  6
CONTINUOUS
 62
     7
 10
189.5
 20
63.80001500000002
 30
0.0
 11
198.5971895136786
 21
63.80001500000002
 31
0.0
  0
LINE
  5
13C
  8
0
  6
CONTINUOUS
 62
     7
 10
199.2807690259226
 20
63.30001500000002
 30
0.0
 11
189.5
 21
63.30001500000002
 31
0.0
  0
ARC
  5
13D
  8
0
  6
CONTINUOUS
 62
     7
 10
270.5011531934812
 20
68.29886180651884
 30
0.0
 40
4.498846954318402
 50
269.985313321208
 51
0.0146866787930549
  0
LINE
  5
13E
  8
0
  6
CONTINUOUS
 62
     7
 10
170.2
 20
60.60001500000001
 30
0.0
 11
170.2
 21
60.61520665959019
 31
0.0
  0
ARC
  5
13F
  8
0
  6
CONTINUOUS
 62
     7
 10
189.4988468065188
 20
68.2988618065189
 30
0.0
 40
4.498846954318458
 50
179.9853133212077
 51
270.0146866787923
  0
ARC
  5
140
  8
0
  6
CONTINUOUS
 62
     7
 10
212.4998753425974
 20
68.30013970966137
 30
0.0
 40
4.500124711387887
 50
270.0015871433595
 51
359.9789096578613
  0
ARC
  5
141
  8
0
  6
CONTINUOUS
 62
     7
 10
212.5
 20
68.30001500000002
 30
0.0
 40
5.000000000000004
 50
270.0
 51
0.0
  0
LINE
  5
142
  8
0
  6
CONTINUOUS
 62
     7
 10
247.5
 20
63.30001500000002
 30
0.0
 11
257.5
 21
63.30001500000002
 31
0.0
  0
LINE
  5
143
  8
0
  6
CONTINUOUS
 62
     7
 10
493.9364981171264
 20
270.703979307109
 30
0.0
 11
495.2243937681057
 21
271.991924002811
 31
0.0
  0
LINE
  5
144
  8
0
  6
CONTINUOUS
 62
     7
 10
493.9364981171264
 20
273.7039793071092
 30
0.0
 11
493.9626787205019
 21
273.7888972784008
 31
0.0
  0
LINE
  5
145
  8
0
  6
CONTINUOUS
 62
     7
 10
366.037321279498
 20
270.6190613357748
 30
0.0
 11
364.664510890868
 21
271.99192400279
 31
0.0
  0
LINE
  5
146
  8
0
  6
CONTINUOUS
 62
     7
 10
366.037321279498
 20
273.7888972784008
 30
0.0
 11
366.0635018828734
 21
273.703979307109
 31
0.0
  0
ARC
  5
147
  8
0
  6
CONTINUOUS
 62
     7
 10
495.0120472812843
 20
272.204177260045
 30
0.0
 40
0.3002373437768213
 50
315.0125804640433
 51
337.4762981017118
  0
LINE
  5
148
  8
0
  6
CONTINUOUS
 62
     7
 10
495.335489109132
 20
272.4160346113862
 30
0.0
 11
493.9626787205019
 21
273.7888972784008
 31
0.0
  0
ARC
  5
149
  8
0
  6
CONTINUOUS
 62
     7
 10
364.9879527187148
 20
272.203781354174
 30
0.0
 40
0.3002373437756556
 50
135.0125804640358
 51
157.4762981017937
  0
LINE
  5
14A
  8
0
  6
CONTINUOUS
 62
     7
 10
295.423340548234
 20
45.70001500000002
 30
0.0
 11
295.4075219710418
 21
46.12717721169867
 31
0.0
  0
LINE
  5
14B
  8
0
  6
CONTINUOUS
 62
   253
 10
163.9876967567942
 20
49.15440457214117
 30
0.0
 11
163.9849804351796
 21
49.09219057872546
 31
0.0
  0
LINE
  5
14C
  8
0
  6
CONTINUOUS
 62
     7
 10
296.593776785463
 20
42.60001500000001
 30
0.0
 11
296.4024634855932
 21
42.60001500000001
 31
0.0
  0
LINE
  5
14D
  8
0
  6
CONTINUOUS
 62
     7
 10
493.9626787205019
 20
270.6190613357748
 30
0.0
 11
493.9364981171264
 21
270.703979307109
 31
0.0
  0
LINE
  5
14E
  8
0
  6
CONTINUOUS
 62
     7
 10
366.037321279498
 20
155.0119379213272
 30
0.0
 11
366.037321279498
 21
270.6190613357748
 31
0.0
  0
ARC
  5
14F
  8
0
  6
CONTINUOUS
 62
     7
 10
43.70717065041459
 20
222.3614266983272
 30
0.0
 40
65.00000000000009
 50
67.82574192609648
 51
85.00000000000001
  0
LINE
  5
150
  8
0
  6
CONTINUOUS
 62
     7
 10
493.9600606629984
 20
154.7119379213272
 30
0.0
 11
496.092041385782
 21
154.7119379213272
 31
0.0
  0
ARC
  5
151
  8
0
  6
CONTINUOUS
 62
     7
 10
164.682460519484
 20
60.45584705630069
 30
0.0
 40
0.5000000000000004
 50
177.5
 51
254.9999999999997
  0
LINE
  5
152
  8
0
  6
CONTINUOUS
 62
     7
 10
495.2243937681057
 20
272.4160346114072
 30
0.0
 11
493.9364981171264
 21
273.7039793071092
 31
0.0
  0
LINE
  5
153
  8
0
  6
CONTINUOUS
 62
     7
 10
41.60001500000206
 20
128.8065797068143
 30
0.0
 11
41.60001500000206
 21
130.3274115391584
 31
0.0
  0
ARC
  5
154
  8
0
  6
CONTINUOUS
 62
     7
 10
364.8768573776892
 20
272.2037813541528
 30
0.0
 40
0.3002373437760442
 50
135.0125804640359
 51
157.4762981126128
  0
LINE
  5
155
  8
0
  6
CONTINUOUS
 62
     7
 10
493.9626787205019
 20
154.7039793071092
 30
0.0
 11
493.9626787205019
 21
155.0119379213406
 31
0.0
  0
LINE
  5
156
  8
0
  6
CONTINUOUS
 62
   253
 10
495.2243937681057
 20
272.4160346114072
 30
0.0
 11
495.335489109132
 21
272.4160346113862
 31
0.0
  0
ARC
  5
157
  8
0
  6
CONTINUOUS
 62
     7
 10
495.123142622311
 20
272.203781354153
 30
0.0
 40
0.3002373437757111
 50
22.52370188738792
 51
44.98741953597163
  0
LINE
  5
158
  8
0
  6
CONTINUOUS
 62
     7
 10
364.664510890868
 20
272.4160346113862
 30
0.0
 11
366.037321279498
 21
273.7888972784008
 31
0.0
  0
LINE
  5
159
  8
0
  6
CONTINUOUS
 62
   253
 10
296.1635021769175
 20
45.6913796432399
 30
0.0
 11
296.1453183682774
 21
46.10785733310666
 31
0.0
  0
LINE
  5
15A
  8
0
  6
CONTINUOUS
 62
     7
 10
166.2
 20
48.62471585473066
 30
0.0
 11
166.2
 21
48.63492247116304
 31
0.0
  0
LINE
  5
15B
  8
0
  6
CONTINUOUS
 62
     7
 10
296.5976182870918
 20
42.60001500000001
 30
0.0
 11
296.593776785463
 21
42.60001500000001
 31
0.0
  0
LINE
  5
15C
  8
0
  6
CONTINUOUS
 62
     7
 10
296.0658554642128
 20
44.10001500000001
 30
0.0
 11
293.9487157320366
 21
44.10001500000001
 31
0.0
  0
LINE
  5
15D
  8
0
  6
CONTINUOUS
 62
     7
 10
163.6224938437826
 20
44.83092800287003
 30
0.0
 11
163.5069219037232
 21
44.25903232388172
 31
0.0
  0
LINE
  5
15E
  8
0
  6
CONTINUOUS
 62
     7
 10
166.4630929388978
 20
75.90001500000001
 30
0.0
 11
166.1656594804858
 21
75.63917285766603
 31
0.0
  0
ARC
  5
15F
  8
0
  6
CONTINUOUS
 62
     7
 10
495.123619964362
 20
272.203979307088
 30
0.0
 40
0.2997205838718431
 50
359.9999999891655
 51
22.52370188749154
  0
ARC
  5
160
  8
0
  6
CONTINUOUS
 62
     7
 10
364.8763800356394
 20
272.203979307088
 30
0.0
 40
0.2997205838733974
 50
157.4762981126304
 51
180.0000000108452
  0
LINE
  5
161
  8
0
  6
CONTINUOUS
 62
   253
 10
364.7756062318942
 20
271.991924002811
 30
0.0
 11
364.664510890868
 21
271.99192400279
 31
0.0
  0
ARC
  5
162
  8
0
  6
CONTINUOUS
 62
     7
 10
296.3097901391776
 20
42.31468773024795
 30
0.0
 40
0.3000000000000225
 50
72.00055234972967
 51
87.00000000000063
  0
ARC
  5
163
  8
0
  6
CONTINUOUS
 62
     7
 10
364.8763800356388
 20
272.203979307088
 30
0.0
 40
0.2997205838727868
 50
180.0000000108452
 51
202.5237019090942
  0
LINE
  5
164
  8
0
  6
CONTINUOUS
 62
     7
 10
163.5975365144068
 20
42.60001500000001
 30
0.0
 11
163.4083925086436
 21
42.60001500000001
 31
0.0
  0
ARC
  5
165
  8
0
  6
CONTINUOUS
 62
     7
 10
164.9104399827262
 20
58.84172440069296
 30
0.0
 40
1.000117284749746
 50
357.4945155878738
 51
74.99460750612639
  0
LINE
  5
166
  8
0
  6
CONTINUOUS
 62
     7
 10
364.7756062318942
 20
272.4160346114072
 30
0.0
 11
366.0635018828734
 21
273.703979307109
 31
0.0
  0
ARC
  5
167
  8
0
  6
CONTINUOUS
 62
     7
 10
495.1231426223104
 20
272.2041772600238
 30
0.0
 40
0.3002373437765993
 50
315.0125804640508
 51
337.4762980909049
  0
ARC
  5
168
  8
0
  6
CONTINUOUS
 62
     7
 10
364.987475376665
 20
272.203979307109
 30
0.0
 40
0.2997205838729533
 50
157.476298101751
 51
180.0
  0
ARC
  5
169
  8
0
  6
CONTINUOUS
 62
     7
 10
364.987475376665
 20
272.203979307109
 30
0.0
 40
0.2997205838729533
 50
180.0
 51
202.523701898249
  0
ARC
  5
16A
  8
0
  6
CONTINUOUS
 62
     7
 10
364.9879527187148
 20
272.2041772600442
 30
0.0
 40
0.3002373437756556
 50
202.5237018982063
 51
224.9874195359642
  0
LINE
  5
16B
  8
0
  6
CONTINUOUS
 62
     7
 10
296.3255025015894
 20
42.61427603362844
 30
0.0
 11
296.4028145121613
 21
42.60000454729241
 31
0.0
  0
LINE
  5
16C
  8
0
  6
CONTINUOUS
 62
   253
 10
364.664510890868
 20
272.4160346113862
 30
0.0
 11
364.7756062318942
 21
272.4160346114072
 31
0.0
  0
LINE
  5
16D
  8
0
  6
CONTINUOUS
 62
     7
 10
366.037321279498
 20
154.7039793071092
 30
0.0
 11
366.037321279498
 21
155.0119379213272
 31
0.0
  0
LINE
  5
16E
  8
0
  6
CONTINUOUS
 62
     7
 10
166.2
 20
60.5911799836282
 30
0.0
 11
166.2
 21
61.57897350670746
 31
0.0
  0
LINE
  5
16F
  8
0
  6
CONTINUOUS
 62
     7
 10
163.4083925086436
 20
42.60001500000001
 30
0.0
 11
163.4023817129082
 21
42.60001500000001
 31
0.0
  0
ARC
  5
170
  8
0
  6
CONTINUOUS
 62
     7
 10
164.7490738653374
 20
66.56666063733091
 30
0.0
 40
17.42889406991582
 50
267.2728544785937
 51
267.4962507049243
  0
LINE
  5
171
  8
0
  6
CONTINUOUS
 62
     7
 10
366.0635018828736
 20
270.703979307109
 30
0.0
 11
366.037321279498
 21
270.6190613357748
 31
0.0
  0
LINE
  5
172
  8
0
  6
CONTINUOUS
 62
     7
 10
366.0635018828736
 20
270.703979307109
 30
0.0
 11
364.7756062318942
 21
271.991924002811
 31
0.0
  0
LINE
  5
173
  8
0
  6
CONTINUOUS
 62
     7
 10
493.9364981171264
 20
273.7039793071092
 30
0.0
 11
493.9364981171264
 21
270.703979307109
 31
0.0
  0
LINE
  5
174
  8
0
  6
CONTINUOUS
 62
     7
 10
366.0635018828736
 20
270.703979307109
 30
0.0
 11
366.0635018828734
 21
273.703979307109
 31
0.0
  0
ARC
  5
175
  8
0
  6
CONTINUOUS
 62
     7
 10
495.012524623335
 20
272.203979307109
 30
0.0
 40
0.2997205838729533
 50
337.476298101751
 51
0.0
  0
ARC
  5
176
  8
0
  6
CONTINUOUS
 62
     7
 10
364.876857377689
 20
272.2041772600234
 30
0.0
 40
0.3002373437760442
 50
202.5237019090631
 51
224.9874195359491
  0
ARC
  5
177
  8
0
  6
CONTINUOUS
 62
     7
 10
495.012524623335
 20
272.203979307109
 30
0.0
 40
0.2997205838729533
 50
0.0
 51
22.52370189824896
  0
LINE
  5
178
  8
0
  6
CONTINUOUS
 62
     7
 10
293.8343405195144
 20
75.63917285766603
 30
0.0
 11
293.5369070611022
 21
75.90001500000001
 31
0.0
  0
ARC
  5
179
  8
0
  6
CONTINUOUS
 62
     7
 10
495.123619964361
 20
272.203979307088
 30
0.0
 40
0.2997205838728423
 50
337.4762980909336
 51
359.9999999891655
  0
ARC
  5
17A
  8
0
  6
CONTINUOUS
 62
     7
 10
495.0120472812843
 20
272.2037813541732
 30
0.0
 40
0.3002373437768213
 50
22.52370189828817
 51
44.98741953594928
  0
LINE
  5
17B
  8
0
  6
CONTINUOUS
 62
     7
 10
166.2
 20
60.56510752883698
 30
0.0
 11
166.2
 21
60.5911799836282
 31
0.0
  0
LINE
  5
17C
  8
0
  6
CONTINUOUS
 62
     7
 10
164.0362642252734
 20
49.20566237156945
 30
0.0
 11
164.0408240545774
 21
49.20688417414909
 31
0.0
  0
LINE
  5
17D
  8
0
  6
CONTINUOUS
 62
   253
 10
495.335489109132
 20
271.99192400279
 30
0.0
 11
495.2243937681057
 21
271.991924002811
 31
0.0
  0
LINE
  5
17E
  8
0
  6
CONTINUOUS
 62
     7
 10
296.4930790789975
 20
44.2590259859407
 30
0.0
 11
296.3775638661617
 21
44.83069057233448
 31
0.0
  0
LINE
  5
17F
  8
0
  6
CONTINUOUS
 62
     7
 10
78.40001500000206
 20
112.2934202931856
 30
0.0
 11
76.96544408105007
 21
112.4822851376319
 31
0.0
  0
LINE
  5
180
  8
0
  6
CONTINUOUS
 62
     7
 10
493.9626787205019
 20
270.6190613357748
 30
0.0
 11
493.9626787205019
 21
155.0119379213272
 31
0.0
  0
LINE
  5
181
  8
0
  6
CONTINUOUS
 62
     7
 10
42.60001500000206
 20
287.7065797068144
 30
0.0
 11
49.37229392901238
 21
287.1140820742905
 31
0.0
  0
LINE
  5
182
  8
0
  6
CONTINUOUS
 62
     7
 10
493.9626787205019
 20
270.6190613357748
 30
0.0
 11
495.335489109132
 21
271.99192400279
 31
0.0
  0
ARC
  5
183
  8
0
  6
CONTINUOUS
 62
     7
 10
236.0303061543302
 20
76.20001500000001
 30
0.0
 40
1.500000000000001
 50
270.0
 51
348.4630409671844
  0
ARC
  5
184
  8
0
  6
CONTINUOUS
 62
     7
 10
-111.599984999998
 20
224.7065797068144
 30
0.0
 40
190.0000000000001
 50
0.0
 51
17.1268658521438
  0
ARC
  5
185
  8
0
  6
CONTINUOUS
 62
     7
 10
165.5
 20
43.21063268920892
 30
0.0
 40
0.5000000000000004
 50
272.9999999999994
 51
0.0000000000001705
  0
LINE
  5
186
  8
0
  6
CONTINUOUS
 62
     7
 10
236.0
 20
74.70001500000001
 30
0.0
 11
224.0
 21
74.70001500000001
 31
0.0
  0
LINE
  5
187
  8
0
  6
CONTINUOUS
 62
     7
 10
224.0
 20
74.70001500000001
 30
0.0
 11
223.96969384567
 21
74.70001500000001
 31
0.0
  0
LINE
  5
188
  8
0
  6
CONTINUOUS
 62
     7
 10
296.3254909260506
 20
42.61427659067434
 30
0.0
 11
295.215012976776
 21
42.6724742739386
 31
0.0
  0
LINE
  5
189
  8
0
  6
CONTINUOUS
 62
     7
 10
166.1656594804858
 20
75.63917285766603
 30
0.0
 11
165.1824162468584
 21
68.17069902203188
 31
0.0
  0
LINE
  5
18A
  8
0
  6
CONTINUOUS
 62
     7
 10
165.5261679781214
 20
42.71131792183166
 30
0.0
 11
164.784987023224
 21
42.6724742739386
 31
0.0
  0
LINE
  5
18B
  8
0
  6
CONTINUOUS
 62
     7
 10
41.60001500000206
 20
281.7847625373374
 30
0.0
 11
42.60001500000207
 21
281.7934894051281
 31
0.0
  0
LINE
  5
18C
  8
0
  6
CONTINUOUS
 62
     7
 10
455.5000000000001
 20
242.9539793071091
 30
0.0
 11
450.5000000000001
 21
242.9539793071091
 31
0.0
  0
ARC
  5
18D
  8
0
  6
CONTINUOUS
 62
     7
 10
382.0007912246974
 20
167.20383733717
 30
0.0
 40
1.000791176062499
 50
180.0114904626226
 51
202.4762971995343
  0
ARC
  5
18E
  8
0
  6
CONTINUOUS
 62
     7
 10
426.4021376408824
 20
279.8497834790875
 30
0.0
 40
0.4976272523732894
 50
7.023411586306849
 51
31.01638443278802
  0
LINE
  5
18F
  8
0
  6
CONTINUOUS
 62
     7
 10
41.60001500000206
 20
280.284819652741
 30
0.0
 11
41.60001500000206
 21
130.3274115391584
 31
0.0
  0
LINE
  5
190
  8
0
  6
CONTINUOUS
 62
     7
 10
41.60001500000206
 20
280.284819652741
 30
0.0
 11
41.60001500000206
 21
281.7847625373374
 31
0.0
  0
LINE
  5
191
  8
0
  6
CONTINUOUS
 62
     7
 10
166.0
 20
43.49282957037992
 30
0.0
 11
166.0
 21
43.21063268920892
 31
0.0
  0
ARC
  5
192
  8
0
  6
CONTINUOUS
 62
     7
 10
478.0008005214364
 20
167.2031787856726
 30
0.0
 40
0.9990685774935448
 50
314.9999999999978
 51
337.5237028004942
  0
LINE
  5
193
  8
0
  6
CONTINUOUS
 62
     7
 10
433.5865853687316
 20
280.351773688899
 30
0.0
 11
426.4134146312684
 21
280.351773688899
 31
0.0
  0
LINE
  5
194
  8
0
  6
CONTINUOUS
 62
     7
 10
479.0
 20
240.2043219821336
 30
0.0
 11
479.0
 21
167.2036366320846
 31
0.0
  0
LINE
  5
195
  8
0
  6
CONTINUOUS
 62
     7
 10
163.764858923181
 20
44.08445063395772
 30
0.0
 11
164.784987023224
 21
44.03098798565028
 31
0.0
  0
LINE
  5
196
  8
0
  6
CONTINUOUS
 62
     7
 10
363.907958614218
 20
154.7119379213272
 30
0.0
 11
366.0399393369956
 21
154.7119379213272
 31
0.0
  0
ARC
  5
197
  8
0
  6
CONTINUOUS
 62
     7
 10
294.5000000000001
 20
43.49282957037992
 30
0.0
 40
0.5000000000000004
 50
92.99999999999939
 51
179.9999999999998
  0
LINE
  5
198
  8
0
  6
CONTINUOUS
 62
     7
 10
78.40001500000203
 20
224.7065797068144
 30
0.0
 11
78.40001500000203
 21
112.2934202931856
 31
0.0
  0
LINE
  5
199
  8
0
  6
CONTINUOUS
 62
     7
 10
164.784987023224
 20
42.6724742739386
 30
0.0
 11
163.6745090739496
 21
42.61427659067434
 31
0.0
  0
LINE
  5
19A
  8
0
  6
CONTINUOUS
 62
     7
 10
42.60001500000206
 20
121.3914620217782
 30
0.0
 11
42.60001500000206
 21
286.206574253356
 31
0.0
  0
LINE
  5
19B
  8
0
  6
CONTINUOUS
 62
     7
 10
294.8614920088064
 20
67.83718270848426
 30
0.0
 11
294.8175837531418
 21
68.17069902203188
 31
0.0
  0
LINE
  5
19C
  8
0
  6
CONTINUOUS
 62
     7
 10
433.1
 20
279.834243945283
 30
0.0
 11
433.1
 21
279.1120035063728
 31
0.0
  0
ARC
  5
19D
  8
0
  6
CONTINUOUS
 62
     7
 10
363.907958614218
 20
155.0119379213272
 30
0.0
 40
0.3000000000000225
 50
180.0
 51
270.0
  0
ARC
  5
19E
  8
0
  6
CONTINUOUS
 62
     7
 10
455.5000000000001
 20
161.953979307109
 30
0.0
 40
2.499999999999947
 50
270.0000000000007
 51
90.0
  0
LINE
  5
19F
  8
0
  6
CONTINUOUS
 62
     7
 10
42.60001500000206
 20
286.206574253356
 30
0.0
 11
42.60001500000206
 21
287.7065797068144
 31
0.0
  0
LINE
  5
1A0
  8
0
  6
CONTINUOUS
 62
     7
 10
76.96544408105007
 20
112.4822851376319
 30
0.0
 11
46.94738403890181
 21
116.4342377149091
 31
0.0
  0
LINE
  5
1A1
  8
0
  6
CONTINUOUS
 62
     7
 10
294.0000000000001
 20
43.21063268920892
 30
0.0
 11
294.0000000000001
 21
43.49282957037992
 31
0.0
  0
ARC
  5
1A2
  8
0
  6
CONTINUOUS
 62
     7
 10
47.60001500000206
 20
121.3914620217782
 30
0.0
 40
5.000000000000004
 50
180.0
 51
262.5
  0
ARC
  5
1A3
  8
0
  6
CONTINUOUS
 62
     7
 10
163.780559710054
 20
44.38403949438412
 30
0.0
 40
0.3000000000000225
 50
177.4999999999966
 51
267.0000000000007
  0
LINE
  5
1A4
  8
0
  6
CONTINUOUS
 62
     7
 10
164.784987023224
 20
44.03098798565028
 30
0.0
 11
165.5261679781214
 21
43.9921443377572
 31
0.0
  0
ARC
  5
1A5
  8
0
  6
CONTINUOUS
 62
     7
 10
496.092041385782
 20
155.0119379213272
 30
0.0
 40
0.299999999999967
 50
270.0
 51
0.0
  0
LINE
  5
1A6
  8
0
  6
CONTINUOUS
 62
     7
 10
165.1824162468584
 20
68.17069902203188
 30
0.0
 11
165.1386832603136
 21
67.8385140096224
 31
0.0
  0
ARC
  5
1A7
  8
0
  6
CONTINUOUS
 62
     7
 10
381.9991994785647
 20
167.2031787856738
 30
0.0
 40
0.9990685774950436
 50
202.4762971995361
 51
225.0000000000011
  0
LINE
  5
1A8
  8
0
  6
CONTINUOUS
 62
     7
 10
294.4738320218786
 20
43.9921443377572
 30
0.0
 11
295.215012976776
 21
44.03098798565025
 31
0.0
  0
ARC
  5
1A9
  8
0
  6
CONTINUOUS
 62
     7
 10
381.9991994785648
 20
167.2031787856738
 30
0.0
 40
0.9990685774952657
 50
225.0
 51
247.52370280046
  0
ARC
  5
1AA
  8
0
  6
CONTINUOUS
 62
     7
 10
426.416039796192
 20
279.8946816448174
 30
0.0
 40
0.4568099722537244
 50
76.83450066603808
 51
90.32905673791906
  0
ARC
  5
1AB
  8
0
  6
CONTINUOUS
 62
     7
 10
426.416039796192
 20
279.894681644817
 30
0.0
 40
0.456809972254113
 50
51.88786264542421
 51
76.83450066603564
  0
ARC
  5
1AC
  8
0
  6
CONTINUOUS
 62
     7
 10
426.3103305350456
 20
279.8384729032114
 30
0.0
 40
0.590128462142514
 50
359.5890964321519
 51
7.023411586328109
  0
ARC
  5
1AD
  8
0
  6
CONTINUOUS
 62
     7
 10
478.0001419699392
 20
167.2047705318058
 30
0.0
 40
1.000791176061666
 50
270.0114904626179
 51
292.4762971995416
  0
ARC
  5
1AE
  8
0
  6
CONTINUOUS
 62
     7
 10
477.999208775303
 20
167.2038373371698
 30
0.0
 40
1.000791176061777
 50
337.523702800457
 51
359.988509537379
  0
LINE
  5
1AF
  8
0
  6
CONTINUOUS
 62
     7
 10
294.8175837531418
 20
68.17069902203188
 30
0.0
 11
293.8343405195144
 21
75.63917285766603
 31
0.0
  0
LINE
  5
1B0
  8
0
  6
CONTINUOUS
 62
     7
 10
404.5
 20
247.953979307109
 30
0.0
 11
409.5
 21
247.953979307109
 31
0.0
  0
ARC
  5
1B1
  8
0
  6
CONTINUOUS
 62
     7
 10
165.5
 20
43.49282957037992
 30
0.0
 40
0.5000000000000004
 50
0.0000000000002842
 51
87.00000000000063
  0
ARC
  5
1B2
  8
0
  6
CONTINUOUS
 62
     7
 10
381.9991994785647
 20
240.2047798285444
 30
0.0
 40
0.9990685774951547
 50
112.4762971995382
 51
135.0
  0
ARC
  5
1B3
  8
0
  6
CONTINUOUS
 62
     7
 10
67.1075065328234
 20
279.775922085733
 30
0.0
 40
3.000000000000003
 50
17.1268658521451
 51
67.82574192609786
  0
LINE
  5
1B4
  8
0
  6
CONTINUOUS
 62
   253
 10
426.9
 20
279.834243945283
 30
0.0
 11
426.7424039155954
 21
279.160505037126
 31
0.0
  0
LINE
  5
1B5
  8
0
  6
CONTINUOUS
 62
     7
 10
381.0
 20
167.2036366320846
 30
0.0
 11
381.0
 21
240.2043219821336
 31
0.0
  0
LINE
  5
1B6
  8
0
  6
CONTINUOUS
 62
     7
 10
295.215012976776
 20
44.03098798565025
 30
0.0
 11
296.235141076819
 21
44.08445063395772
 31
0.0
  0
ARC
  5
1B7
  8
0
  6
CONTINUOUS
 62
     7
 10
296.219440289946
 20
44.38403949438412
 30
0.0
 40
0.299999999999967
 50
272.999999999999
 51
2.499999999999943
  0
ARC
  5
1B8
  8
0
  6
CONTINUOUS
 62
     7
 10
381.9998580300608
 20
167.2047705318068
 30
0.0
 40
1.000791176062721
 50
247.5237028004727
 51
269.9885095373758
  0
ARC
  5
1B9
  8
0
  6
CONTINUOUS
 62
     7
 10
478.0008005214358
 20
167.2031787856732
 30
0.0
 40
0.999068577494322
 50
292.4762971995145
 51
315.0000000000011
  0
LINE
  5
1BA
  8
0
  6
CONTINUOUS
 62
     7
 10
381.9996573249756
 20
241.203979307109
 30
0.0
 11
478.0003426750246
 21
241.203979307109
 31
0.0
  0
ARC
  5
1BB
  8
0
  6
CONTINUOUS
 62
     7
 10
294.5000000000001
 20
43.21063268920892
 30
0.0
 40
0.5000000000000004
 50
179.9999999999999
 51
267.0000000000007
  0
LINE
  5
1BC
  8
0
  6
CONTINUOUS
 62
     7
 10
295.215012976776
 20
42.6724742739386
 30
0.0
 11
294.4738320218786
 21
42.71131792183166
 31
0.0
  0
ARC
  5
1BD
  8
0
  6
CONTINUOUS
 62
     7
 10
426.3617899604852
 20
279.8255244406796
 30
0.0
 40
0.5447062950345583
 50
31.01638443278694
 51
51.88786264538726
  0
LINE
  5
1BE
  8
0
  6
CONTINUOUS
 62
     7
 10
42.60001500000207
 20
128.6302527261059
 30
0.0
 11
41.60001500000206
 21
128.8065797068143
 31
0.0
  0
CIRCLE
  5
1BF
  8
0
  6
CONTINUOUS
 62
     7
 10
54.59994923217739
 20
121.3035164239553
 30
0.0
 40
2.999935796159523
  0
ARC
  5
1C0
  8
0
  6
CONTINUOUS
 62
     7
 10
381.9998580300608
 20
240.2031880824118
 30
0.0
 40
1.000791176062388
 50
90.01149046262418
 51
112.4762971995382
  0
LINE
  5
1C1
  8
0
  6
CONTINUOUS
 62
     7
 10
455.5000000000001
 20
159.453979307109
 30
0.0
 11
450.5000000000001
 21
159.453979307109
 31
0.0
  0
ARC
  5
1C2
  8
0
  6
CONTINUOUS
 62
     7
 10
223.96969384567
 20
76.20001500000001
 30
0.0
 40
1.500000000000001
 50
191.5369590328155
 51
269.9999999999999
  0
ARC
  5
1C3
  8
0
  6
CONTINUOUS
 62
     7
 10
164.27351008629
 20
247.5534102259584
 30
0.0
 40
33.10889700228631
 50
90.76054264775995
 51
90.77082656188435
  0
ARC
  5
1C4
  8
0
  6
CONTINUOUS
 62
     7
 10
-3179.658626056156
 20
234.0977480412757
 30
0.0
 40
3342.321572618042
 50
0.4573364181243536
 51
0.790638226245105
  0
ARC
  5
1C5
  8
0
  6
CONTINUOUS
 62
     7
 10
455.5000000000001
 20
245.4539793071091
 30
0.0
 40
2.499999999999947
 50
270.0000000000007
 51
90.00000000000011
  0
ARC
  5
1C6
  8
0
  6
CONTINUOUS
 62
     7
 10
478.000800521436
 20
240.2047798285452
 30
0.0
 40
0.9990685774939889
 50
22.47629719951474
 51
45.0
  0
ARC
  5
1C7
  8
0
  6
CONTINUOUS
 62
     7
 10
382.0007912246974
 20
240.2041212770482
 30
0.0
 40
1.000791176062388
 50
157.5237028004618
 51
179.988509537379
  0
LINE
  5
1C8
  8
0
  6
CONTINUOUS
 62
     7
 10
450.5000000000001
 20
164.453979307109
 30
0.0
 11
455.5000000000001
 21
164.453979307109
 31
0.0
  0
LINE
  5
1C9
  8
0
  6
CONTINUOUS
 62
   253
 10
298.8
 20
286.206574253356
 30
0.0
 11
298.5071671738103
 21
285.619790027153
 31
0.0
  0
ARC
  5
1CA
  8
0
  6
CONTINUOUS
 62
     7
 10
296.1733431088002
 20
280.8803666284883
 30
0.0
 40
1.674170669522024
 50
83.88548369772292
 51
88.95635023812115
  0
ARC
  5
1CB
  8
0
  6
CONTINUOUS
 62
     7
 10
409.5
 20
161.953979307109
 30
0.0
 40
2.500000000000002
 50
270.0000000000004
 51
90.0
  0
ARC
  5
1CC
  8
0
  6
CONTINUOUS
 62
     7
 10
296.4484366118448
 20
281.1387791593294
 30
0.0
 40
1.253996573521932
 50
1.197095502654975
 51
19.15602271190323
  0
LINE
  5
1CD
  8
0
  6
CONTINUOUS
 62
     7
 10
162.7004270371342
 20
112.4822851376319
 30
0.0
 11
161.3898102314096
 21
116.4342377149091
 31
0.0
  0
ARC
  5
1CE
  8
0
  6
CONTINUOUS
 62
     7
 10
450.5000000000001
 20
161.953979307109
 30
0.0
 40
2.500000000000058
 50
89.99999999999943
 51
270.0
  0
LINE
  5
1CF
  8
0
  6
CONTINUOUS
 62
     7
 10
409.5
 20
159.453979307109
 30
0.0
 11
404.5
 21
159.453979307109
 31
0.0
  0
LINE
  5
1D0
  8
0
  6
CONTINUOUS
 62
     7
 10
297.2995729628658
 20
112.4822851376319
 30
0.0
 11
298.6101897685904
 21
116.4342377149091
 31
0.0
  0
ARC
  5
1D1
  8
0
  6
CONTINUOUS
 62
     7
 10
296.1733431088002
 20
280.8803666284882
 30
0.0
 40
1.674170669522412
 50
63.98344418528342
 51
83.88548369772231
  0
ARC
  5
1D2
  8
0
  6
CONTINUOUS
 62
     7
 10
296.3016702861318
 20
281.1432834894586
 30
0.0
 40
1.381607616105729
 50
39.80918571543583
 51
63.98344418527915
  0
ARC
  5
1D3
  8
0
  6
CONTINUOUS
 62
     7
 10
404.5
 20
245.4539793071091
 30
0.0
 40
2.500000000000002
 50
89.99999999999966
 51
270.0
  0
LINE
  5
1D4
  8
0
  6
CONTINUOUS
 62
     7
 10
297.2995729628658
 20
112.4822851376319
 30
0.0
 11
295.801000630493
 21
112.2934202931856
 31
0.0
  0
ARC
  5
1D5
  8
0
  6
CONTINUOUS
 62
     7
 10
296.1875134702442
 20
281.0481406058272
 30
0.0
 40
1.530214301417421
 50
19.15602271190096
 51
39.80918571543521
  0
ARC
  5
1D6
  8
0
  6
CONTINUOUS
 62
     7
 10
26.86821869796256
 20
324.3861002482602
 30
0.0
 40
274.1977028774468
 50
351.3457435735489
 51
351.5063682588011
  0
ARC
  5
1D7
  8
0
  6
CONTINUOUS
 62
     7
 10
135.6067030808295
 20
280.4066846994268
 30
0.0
 40
28.25517109460429
 50
6.26345018589916
 51
8.45793718157671
  0
LINE
  5
1D8
  8
0
  6
CONTINUOUS
 62
     7
 10
450.5000000000001
 20
247.953979307109
 30
0.0
 11
455.5000000000001
 21
247.953979307109
 31
0.0
  0
LINE
  5
1D9
  8
0
  6
CONTINUOUS
 62
     7
 10
161.5929484861766
 20
121.3065797068144
 30
0.0
 11
161.7235194864688
 21
118.3065952462818
 31
0.0
  0
LINE
  5
1DA
  8
0
  6
CONTINUOUS
 62
   253
 10
433.5865853687316
 20
280.351773688899
 30
0.0
 11
433.7556934334504
 21
279.628819921902
 31
0.0
  0
LINE
  5
1DB
  8
0
  6
CONTINUOUS
 62
   253
 10
164.198999369507
 20
224.7065797068144
 30
0.0
 11
295.801000630493
 21
224.7065797068144
 31
0.0
  0
LINE
  5
1DC
  8
0
  6
CONTINUOUS
 62
   253
 10
426.2443065665496
 20
279.628819921902
 30
0.0
 11
426.4134146312684
 21
280.351773688899
 31
0.0
  0
LINE
  5
1DD
  8
0
  6
CONTINUOUS
 62
     7
 10
161.2
 20
121.3914620217782
 30
0.0
 11
161.2
 21
286.206574253356
 31
0.0
  0
ARC
  5
1DE
  8
0
  6
CONTINUOUS
 62
     7
 10
162.0847726378802
 20
286.4262503263512
 30
0.0
 40
1.124546316441932
 50
8.487091340262111
 51
33.59199790101798
  0
ARC
  5
1DF
  8
0
  6
CONTINUOUS
 62
     7
 10
155.0356655602146
 20
284.114879099509
 30
0.0
 40
8.493241190673961
 50
8.296872388406598
 51
13.60327701288969
  0
LINE
  5
1E0
  8
0
  6
CONTINUOUS
 62
     7
 10
426.9
 20
279.1120035063728
 30
0.0
 11
426.9
 21
279.834243945283
 31
0.0
  0
ARC
  5
1E1
  8
0
  6
CONTINUOUS
 62
     7
 10
293.0111620687864
 20
285.9282002572924
 30
0.0
 40
5.353731838797226
 50
346.0912710706776
 51
351.2131979304876
  0
ARC
  5
1E2
  8
0
  6
CONTINUOUS
 62
     7
 10
306.1057444509506
 20
282.6855015374372
 30
0.0
 40
8.136382421320532
 50
166.0912710706777
 51
171.5063682588049
  0
LINE
  5
1E3
  8
0
  6
CONTINUOUS
 62
     7
 10
298.6101897685904
 20
116.4342377149091
 30
0.0
 11
298.8
 21
121.3914620217782
 31
0.0
  0
ARC
  5
1E4
  8
0
  6
CONTINUOUS
 62
     7
 10
404.5
 20
161.953979307109
 30
0.0
 40
2.500000000000002
 50
89.99999999999966
 51
270.0
  0
LINE
  5
1E5
  8
0
  6
CONTINUOUS
 62
     7
 10
298.8
 20
286.206574253356
 30
0.0
 11
298.8
 21
121.3914620217782
 31
0.0
  0
ARC
  5
1E6
  8
0
  6
CONTINUOUS
 62
     7
 10
4886.88799056274
 20
224.7065797068136
 30
0.0
 40
4591.086989932248
 50
179.5462753862373
 51
180.0
  0
ARC
  5
1E7
  8
0
  6
CONTINUOUS
 62
     7
 10
3691.53714482243
 20
234.1727470735976
 30
0.0
 40
3395.698662761244
 50
179.2156021380695
 51
179.5462753862374
  0
ARC
  5
1E8
  8
0
  6
CONTINUOUS
 62
     7
 10
478.0008005214358
 20
240.2047798285448
 30
0.0
 40
0.999068577494433
 50
44.99999999999775
 51
67.52370280048198
  0
LINE
  5
1E9
  8
0
  6
CONTINUOUS
 62
   253
 10
162.9914051585626
 20
287.1140820742905
 30
0.0
 11
297.0085948414372
 21
287.1140820742905
 31
0.0
  0
LINE
  5
1EA
  8
0
  6
CONTINUOUS
 62
   253
 10
295.801000630493
 20
224.7065797068144
 30
0.0
 11
297.2995729628658
 21
224.7065797068144
 31
0.0
  0
ARC
  5
1EB
  8
0
  6
CONTINUOUS
 62
     7
 10
477.9992087753028
 20
240.2041212770482
 30
0.0
 40
1.000791176061999
 50
0.0114904626209977
 51
22.47629719953954
  0
LINE
  5
1EC
  8
0
  6
CONTINUOUS
 62
     7
 10
161.2
 20
121.3914620217782
 30
0.0
 11
161.3898102314096
 21
116.4342377149091
 31
0.0
  0
ARC
  5
1ED
  8
0
  6
CONTINUOUS
 62
     7
 10
299.38009330843
 20
284.943739781082
 30
0.0
 40
1.090835451915906
 50
145.8776585670565
 51
171.2131979304778
  0
ARC
  5
1EE
  8
0
  6
CONTINUOUS
 62
     7
 10
324.6451400944896
 20
279.063103224423
 30
0.0
 40
27.00865325670937
 50
171.3457435735489
 51
173.5892945672667
  0
LINE
  5
1EF
  8
0
  6
CONTINUOUS
 62
     7
 10
409.5
 20
242.9539793071091
 30
0.0
 11
404.5
 21
242.9539793071091
 31
0.0
  0
ARC
  5
1F0
  8
0
  6
CONTINUOUS
 62
     7
 10
1334.682863663988
 20
165.578121079704
 30
0.0
 40
1043.40180760489
 50
173.5892945672742
 51
173.6397889944772
  0
ARC
  5
1F1
  8
0
  6
CONTINUOUS
 62
     7
 10
297.701989599348
 20
286.08085595543
 30
0.0
 40
0.9362474897515183
 50
325.8776585670581
 51
330.2034089485514
  0
LINE
  5
1F2
  8
0
  6
CONTINUOUS
 62
   253
 10
161.4928328261898
 20
285.619790027153
 30
0.0
 11
161.2
 21
286.206574253356
 31
0.0
  0
LINE
  5
1F3
  8
0
  6
CONTINUOUS
 62
   253
 10
296.165963583729
 20
280.6593874714911
 30
0.0
 11
163.8340364162712
 21
280.6593874714911
 31
0.0
  0
ARC
  5
1F4
  8
0
  6
CONTINUOUS
 62
     7
 10
440.2289295959091
 20
325.7041777928388
 30
0.0
 40
279.7165220324624
 50
188.2968723884092
 51
188.4579371815768
  0
ARC
  5
1F5
  8
0
  6
CONTINUOUS
 62
     7
 10
478.0001419699391
 20
240.2031880824122
 30
0.0
 40
1.000791176061888
 50
67.52370280045675
 51
89.98850953737579
  0
ARC
  5
1F6
  8
0
  6
CONTINUOUS
 62
     7
 10
409.5
 20
245.4539793071091
 30
0.0
 40
2.500000000000002
 50
270.0000000000004
 51
90.0
  0
LINE
  5
1F7
  8
0
  6
CONTINUOUS
 62
     7
 10
164.198999369507
 20
112.2934202931856
 30
0.0
 11
162.7004270371342
 21
112.4822851376319
 31
0.0
  0
ARC
  5
1F8
  8
0
  6
CONTINUOUS
 62
     7
 10
381.9991994785647
 20
240.2047798285444
 30
0.0
 40
0.9990685774951547
 50
135.0
 51
157.5237028004618
  0
ARC
  5
1F9
  8
0
  6
CONTINUOUS
 62
     7
 10
163.7811490190882
 20
287.5529786271682
 30
0.0
 40
0.9119235435322004
 50
209.062917268917
 51
213.5919979010149
  0
ARC
  5
1FA
  8
0
  6
CONTINUOUS
 62
     7
 10
168.6129227790686
 20
287.4003853185028
 30
0.0
 40
5.475884218669568
 50
188.4870913402717
 51
193.6032770128902
  0
ARC
  5
1FB
  8
0
  6
CONTINUOUS
 62
     7
 10
450.5000000000001
 20
245.4539793071091
 30
0.0
 40
2.500000000000058
 50
89.99999999999943
 51
270.0
  0
LINE
  5
1FC
  8
0
  6
CONTINUOUS
 62
   253
 10
164.198999369507
 20
224.7065797068144
 30
0.0
 11
164.198999369507
 21
112.2934202931856
 31
0.0
  0
ARC
  5
1FD
  8
0
  6
CONTINUOUS
 62
     7
 10
-4356.1730287862
 20
224.7065797068144
 30
0.0
 40
4518.873455823334
 50
0.0
 51
0.4573364181243278
  0
ARC
  5
1FE
  8
0
  6
CONTINUOUS
 62
     7
 10
162.5589728299438
 20
280.2004997247768
 30
0.0
 40
0.2248210145042728
 50
103.6111837328914
 51
175.6109599547539
  0
ARC
  5
1FF
  8
0
  6
CONTINUOUS
 62
     7
 10
-934.955593329509
 20
162.9067093480336
 30
0.0
 40
1105.246292090017
 50
6.214672201740996
 51
6.263450185897968
  0
ARC
  5
200
  8
0
  6
CONTINUOUS
 62
     7
 10
162.217155164804
 20
281.6121988848134
 30
0.0
 40
1.227671269347808
 50
283.6111837328822
 51
296.7260865467571
  0
ARC
  5
201
  8
0
  6
CONTINUOUS
 62
     7
 10
164.2735100862874
 20
247.5534102261446
 30
0.0
 40
33.10889700210018
 50
90.77082656188435
 51
91.70134871447776
  0
ARC
  5
202
  8
0
  6
CONTINUOUS
 62
     7
 10
163.3273579929628
 20
279.4073077253224
 30
0.0
 40
1.24095088579329
 50
91.701348714465
 51
116.7260865467564
  0
ARC
  5
203
  8
0
  6
CONTINUOUS
 62
     7
 10
14942.53015388012
 20
238.3490431381134
 30
0.0
 40
14449.3154835364
 50
179.8375829644347
 51
179.9145351446444
  0
LINE
  5
204
  8
0
  6
CONTINUOUS
 62
   253
 10
491.4276455696069
 20
130.9888838553134
 30
0.0
 11
491.7
 21
125.4859433335528
 31
0.0
  0
ARC
  5
205
  8
0
  6
CONTINUOUS
 62
     7
 10
490.6998988779982
 20
125.4728277489251
 30
0.0
 40
0.9979465543049626
 50
318.0155162607242
 51
340.8606919591708
  0
ARC
  5
206
  8
0
  6
CONTINUOUS
 62
     7
 10
-13918.57617187399
 20
238.349037957883
 30
0.0
 40
14410.26581794438
 50
0.0856964744062878
 51
0.1581895480236985
  0
LINE
  5
207
  8
0
  6
CONTINUOUS
 62
     7
 10
493.7043253562346
 20
123.7864386987189
 30
0.0
 11
493.7020555756794
 21
123.7023269096662
 31
0.0
  0
LINE
  5
208
  8
0
  6
CONTINUOUS
 62
   253
 10
493.2043443947027
 20
224.5039793071092
 30
0.0
 11
493.7043253562346
 21
224.5039793071092
 31
0.0
  0
ARC
  5
209
  8
0
  6
CONTINUOUS
 62
     7
 10
24096.67242417978
 20
224.5039793071072
 30
0.0
 40
23602.96809882355
 50
179.9143035255941
 51
180.0
  0
ARC
  5
20A
  8
0
  6
CONTINUOUS
 62
     7
 10
-23364.27681995424
 20
224.5039793071114
 30
0.0
 40
23731.07247555954
 50
0.0
 51
0.0854648553557809
  0
ARC
  5
20B
  8
0
  6
CONTINUOUS
 62
     7
 10
492.0543750587946
 20
123.7478678289363
 30
0.0
 40
1.648309758828681
 50
314.2400289994993
 51
358.4167814698471
  0
LINE
  5
20C
  8
0
  6
CONTINUOUS
 62
     7
 10
491.7
 20
224.5039793071092
 30
0.0
 11
491.7
 21
125.4859433335528
 31
0.0
  0
ARC
  5
20D
  8
0
  6
CONTINUOUS
 62
     7
 10
369.3711628699942
 20
278.1301433758316
 30
0.0
 40
1.001844969515053
 50
89.95480100943094
 51
179.7400239100247
  0
ARC
  5
20E
  8
0
  6
CONTINUOUS
 62
     7
 10
492.4627023790169
 20
279.8888298925453
 30
0.0
 40
1.500131754609724
 50
67.50263351468402
 51
89.99872215323444
  0
ARC
  5
20F
  8
0
  6
CONTINUOUS
 62
     7
 10
490.6848714735085
 20
125.486351117619
 30
0.0
 40
1.018162992827421
 50
295.8674380541063
 51
318.0155162607226
  0
ARC
  5
210
  8
0
  6
CONTINUOUS
 62
     7
 10
490.7017396915308
 20
125.4515620903545
 30
0.0
 40
0.9795001786869761
 50
272.8334009218913
 51
295.8674380541287
  0
ARC
  5
211
  8
0
  6
CONTINUOUS
 62
     7
 10
24035.23278194084
 20
224.5039793071074
 30
0.0
 40
23666.93278194084
 50
179.9143035255938
 51
180.0
  0
ARC
  5
212
  8
0
  6
CONTINUOUS
 62
     7
 10
490.6629515047935
 20
125.4856503181686
 30
0.0
 40
1.037055717793112
 50
340.8606919591593
 51
0.0161887746587581
  0
ARC
  5
213
  8
0
  6
CONTINUOUS
 62
     7
 10
14778.5761718557
 20
238.3490379579554
 30
0.0
 40
14410.2658179261
 50
179.8418104519764
 51
179.9143035255939
  0
ARC
  5
214
  8
0
  6
CONTINUOUS
 62
     7
 10
492.4628122489426
 20
279.8890951764965
 30
0.0
 40
1.499844618796375
 50
45.0
 51
67.50263351469152
  0
ARC
  5
215
  8
0
  6
CONTINUOUS
 62
     7
 10
492.4625469649913
 20
279.8889853065712
 30
0.0
 40
1.500131754609835
 50
0.0012778467655039
 51
22.49736648530757
  0
ARC
  5
216
  8
0
  6
CONTINUOUS
 62
     7
 10
490.4258798023503
 20
131.0253306547532
 30
0.0
 40
1.021262795745992
 50
270.1012015578215
 51
272.8334009218926
  0
ARC
  5
217
  8
0
  6
CONTINUOUS
 62
     7
 10
490.4258798023503
 20
131.0253306547534
 30
0.0
 40
1.021262795746325
 50
272.8334009218919
 51
294.8061098846195
  0
ARC
  5
218
  8
0
  6
CONTINUOUS
 62
     7
 10
490.442038133971
 20
130.9903706124666
 30
0.0
 40
0.9827492106435631
 50
294.8061098846175
 51
317.6512855830634
  0
LINE
  5
219
  8
0
  6
CONTINUOUS
 62
     7
 10
490.7014773263028
 20
124.4720554453235
 30
0.0
 11
438.5
 21
124.4720554453235
 31
0.0
  0
ARC
  5
21A
  8
0
  6
CONTINUOUS
 62
     7
 10
492.1972762275463
 20
123.6428565344262
 30
0.0
 40
1.469250268030686
 50
270.0153469299789
 51
290.2006362103419
  0
ARC
  5
21B
  8
0
  6
CONTINUOUS
 62
     7
 10
490.4273245336896
 20
131.0037818440614
 30
0.0
 40
1.002657780811322
 50
317.6512855830629
 51
339.7993637896693
  0
LINE
  5
21C
  8
0
  6
CONTINUOUS
 62
   253
 10
492.3135027589321
 20
281.2397285710824
 30
0.0
 11
492.4627358359057
 21
281.388961648056
 31
0.0
  0
LINE
  5
21D
  8
0
  6
CONTINUOUS
 62
   253
 10
366.7956556052974
 20
224.5039793071092
 30
0.0
 11
368.3
 21
224.5039793071092
 31
0.0
  0
ARC
  5
21E
  8
0
  6
CONTINUOUS
 62
     7
 10
490.4630566020586
 20
130.9906345522568
 30
0.0
 40
0.9645837477741948
 50
339.7993637896581
 51
359.8960101770879
  0
LINE
  5
21F
  8
0
  6
CONTINUOUS
 62
   253
 10
366.037321279498
 20
129.0064866895177
 30
0.0
 11
366.2956746437654
 21
123.7864386987189
 31
0.0
  0
LINE
  5
220
  8
0
  6
CONTINUOUS
 62
     7
 10
493.7043253562346
 20
224.5039793071092
 30
0.0
 11
493.7043253562346
 21
123.786438698719
 31
0.0
  0
ARC
  5
221
  8
0
  6
CONTINUOUS
 62
     7
 10
14865.03380489197
 20
238.3116188803894
 30
0.0
 40
14371.31915358973
 50
179.8371428165359
 51
179.9143035255936
  0
ARC
  5
222
  8
0
  6
CONTINUOUS
 62
     7
 10
-14082.53015388799
 20
238.3490431380692
 30
0.0
 40
14449.31548354426
 50
0.0854648553556672
 51
0.1624170355654542
  0
ARC
  5
223
  8
0
  6
CONTINUOUS
 62
     7
 10
490.6288248877796
 20
278.1301310682252
 30
0.0
 40
1.001857267534989
 50
0.2606767725872601
 51
90.04449830795926
  0
ARC
  5
224
  8
0
  6
CONTINUOUS
 62
     7
 10
492.4628122489422
 20
279.8890951764964
 30
0.0
 40
1.49984461879682
 50
22.4973664853087
 51
44.99999999999853
  0
LINE
  5
225
  8
0
  6
CONTINUOUS
 62
   253
 10
438.5
 20
123.6505885122171
 30
0.0
 11
421.5000000000001
 21
123.6505885122171
 31
0.0
  0
LINE
  5
226
  8
0
  6
CONTINUOUS
 62
   253
 10
490.4276836465426
 20
130.0040761023012
 30
0.0
 11
369.5723163534574
 21
130.0040761023012
 31
0.0
  0
LINE
  5
227
  8
0
  6
CONTINUOUS
 62
   253
 10
491.7
 20
224.5039793071092
 30
0.0
 11
493.2043443947027
 21
224.5039793071092
 31
0.0
  0
LINE
  5
228
  8
0
  6
CONTINUOUS
 62
     7
 10
421.5000000000001
 20
124.4720554453235
 30
0.0
 11
421.5000000000001
 21
122.1735965668796
 31
0.0
  0
LINE
  5
229
  8
0
  6
CONTINUOUS
 62
   253
 10
493.2766170781271
 20
279.628819921902
 30
0.0
 11
493.289575729052
 21
280.1842116183178
 31
0.0
  0
ARC
  5
22A
  8
0
  6
CONTINUOUS
 62
     7
 10
-23175.232781983
 20
224.503979307113
 30
0.0
 40
23666.932781983
 50
0.0
 51
0.0856964744060633
  0
LINE
  5
22B
  8
0
  6
CONTINUOUS
 62
     7
 10
367.5372641640944
 20
281.388961648056
 30
0.0
 11
492.4627358359057
 21
281.388961648056
 31
0.0
  0
LINE
  5
22C
  8
0
  6
CONTINUOUS
 62
     7
 10
366.1999999999999
 20
115.038886778272
 30
0.0
 11
366.1999999999999
 21
121.003979307109
 31
0.0
  0
ARC
  5
22D
  8
0
  6
CONTINUOUS
 62
     7
 10
490.7017396915308
 20
125.4515620903543
 30
0.0
 40
0.9795001786867541
 50
269.9846530700211
 51
272.833400921892
  0
LINE
  5
22E
  8
0
  6
CONTINUOUS
 62
   253
 10
367.686497241068
 20
281.2397285710824
 30
0.0
 11
492.3135027589321
 21
281.2397285710824
 31
0.0
  0
ARC
  5
22F
  8
0
  6
CONTINUOUS
 62
     7
 10
369.5726754663104
 20
131.0037818440614
 30
0.0
 40
1.002657780811544
 50
200.2006362103334
 51
222.3487144169354
  0
LINE
  5
230
  8
0
  6
CONTINUOUS
 62
     7
 10
367.8023302246115
 20
122.1735965668796
 30
0.0
 11
421.5000000000001
 21
122.1735965668796
 31
0.0
  0
ARC
  5
231
  8
0
  6
CONTINUOUS
 62
     7
 10
24224.27681990486
 20
224.503979307111
 30
0.0
 40
23731.07247551016
 50
179.9145351446441
 51
180.0
  0
ARC
  5
232
  8
0
  6
CONTINUOUS
 62
     7
 10
369.557961866029
 20
130.9903706124668
 30
0.0
 40
0.9827492106437297
 50
222.3487144169337
 51
245.1938901153764
  0
ARC
  5
233
  8
0
  6
CONTINUOUS
 62
     7
 10
369.5741201976498
 20
131.0253306547534
 30
0.0
 40
1.021262795746269
 50
245.1938901153805
 51
267.1665990781081
  0
ARC
  5
234
  8
0
  6
CONTINUOUS
 62
     7
 10
369.5741201976498
 20
131.025330654753
 30
0.0
 40
1.021262795745881
 50
267.166599078107
 51
269.8987984421755
  0
ARC
  5
235
  8
0
  6
CONTINUOUS
 62
     7
 10
492.1772503230538
 20
123.69728348403
 30
0.0
 40
1.52724448924213
 50
290.2006362103359
 51
312.2610761330426
  0
LINE
  5
236
  8
0
  6
CONTINUOUS
 62
   253
 10
493.7043253562346
 20
123.786438698719
 30
0.0
 11
493.9626787205019
 21
129.0064866895177
 31
0.0
  0
LINE
  5
237
  8
0
  6
CONTINUOUS
 62
     7
 10
493.9626787205019
 20
279.8890187634598
 30
0.0
 11
493.9626787205019
 21
273.7888972784008
 31
0.0
  0
ARC
  5
238
  8
0
  6
CONTINUOUS
 62
     7
 10
369.5369433979412
 20
130.9906345522568
 30
0.0
 40
0.9645837477740282
 50
180.1039898229106
 51
200.2006362103442
  0
LINE
  5
239
  8
0
  6
CONTINUOUS
 62
     7
 10
438.5
 20
122.1735965668796
 30
0.0
 11
438.5
 21
124.4720554453235
 31
0.0
  0
ARC
  5
23A
  8
0
  6
CONTINUOUS
 62
     7
 10
493.288122725226
 20
279.6830584815636
 30
0.0
 40
0.5079198284534403
 50
23.48921153150616
 51
44.44198323151318
  0
LINE
  5
23B
  8
0
  6
CONTINUOUS
 62
     7
 10
421.5000000000001
 20
124.4720554453235
 30
0.0
 11
421.5000000000001
 21
124.6353962652293
 31
0.0
  0
LINE
  5
23C
  8
0
  6
CONTINUOUS
 62
   253
 10
493.9626787205019
 20
279.8890187634598
 30
0.0
 11
493.789556690584
 21
279.715896733542
 31
0.0
  0
ARC
  5
23D
  8
0
  6
CONTINUOUS
 62
     7
 10
369.2982603084691
 20
125.4515620903546
 30
0.0
 40
0.9795001786871427
 50
267.166599078109
 51
270.0153469299821
  0
ARC
  5
23E
  8
0
  6
CONTINUOUS
 62
     7
 10
369.3151285264918
 20
125.4863511176192
 30
0.0
 40
1.018162992827698
 50
221.9844837392772
 51
244.1325619458871
  0
LINE
  5
23F
  8
0
  6
CONTINUOUS
 62
     7
 10
421.5000000000001
 20
124.4720554453235
 30
0.0
 11
369.2985226736972
 21
124.4720554453235
 31
0.0
  0
ARC
  5
240
  8
0
  6
CONTINUOUS
 62
     7
 10
493.2877110801051
 20
279.6359801937848
 30
0.0
 40
0.5482375313109467
 50
88.66339140561361
 51
89.80512590452769
  0
ARC
  5
241
  8
0
  6
CONTINUOUS
 62
     7
 10
366.6819941385555
 20
279.7123651365713
 30
0.0
 40
0.466064340665151
 50
111.6336094595863
 51
135.5580167684932
  0
ARC
  5
242
  8
0
  6
CONTINUOUS
 62
     7
 10
493.2747524291804
 20
279.0805884973698
 30
0.0
 40
0.5482375313101695
 50
68.36639054043678
 51
88.66339140561166
  0
ARC
  5
243
  8
0
  6
CONTINUOUS
 62
     7
 10
366.7118772747728
 20
279.6830584815648
 30
0.0
 40
0.5079198284519415
 50
135.5580167684886
 51
156.5107884685538
  0
LINE
  5
244
  8
0
  6
CONTINUOUS
 62
   253
 10
366.7233829218728
 20
279.628819921902
 30
0.0
 11
366.7233829218728
 21
279.308625703061
 31
0.0
  0
ARC
  5
245
  8
0
  6
CONTINUOUS
 62
     7
 10
492.30628612394
 20
279.7559352640554
 30
0.0
 40
1.483810856476864
 50
358.4537670118836
 51
89.72133620962207
  0
ARC
  5
246
  8
0
  6
CONTINUOUS
 62
     7
 10
367.8227496769462
 20
123.6972834840301
 30
0.0
 40
1.527244489242185
 50
227.7389238669556
 51
249.7993637896631
  0
ARC
  5
247
  8
0
  6
CONTINUOUS
 62
     7
 10
366.6400916229254
 20
279.7142557003032
 30
0.0
 40
0.4296482099164223
 50
156.5107884685328
 51
179.7811609671231
  0
ARC
  5
248
  8
0
  6
CONTINUOUS
 62
     7
 10
367.8027237724534
 20
123.6428565344261
 30
0.0
 40
1.469250268030575
 50
249.7993637896597
 51
269.9846530700189
  0
ARC
  5
249
  8
0
  6
CONTINUOUS
 62
     7
 10
366.6530502738504
 20
279.1588640038872
 30
0.0
 40
0.4296482099165333
 50
156.5107884685649
 51
179.7811609671157
  0
ARC
  5
24A
  8
0
  6
CONTINUOUS
 62
     7
 10
366.7248359256977
 20
279.127666785149
 30
0.0
 40
0.507919828451886
 50
135.5580167685107
 51
156.5107884685792
  0
LINE
  5
24B
  8
0
  6
CONTINUOUS
 62
   253
 10
366.2234019603409
 20
279.160505037126
 30
0.0
 11
366.2104433094158
 21
279.715896733542
 31
0.0
  0
ARC
  5
24C
  8
0
  6
CONTINUOUS
 62
     7
 10
493.3180058614449
 20
279.7123651365715
 30
0.0
 40
0.4660643406647624
 50
44.44198323150637
 51
68.3663905404303
  0
ARC
  5
24D
  8
0
  6
CONTINUOUS
 62
     7
 10
367.537297620983
 20
279.8888298925452
 30
0.0
 40
1.500131754610001
 50
90.00127784676982
 51
112.4973664853063
  0
LINE
  5
24E
  8
0
  6
CONTINUOUS
 62
   253
 10
493.2766170781271
 20
279.308625703061
 30
0.0
 11
493.2766170781271
 21
279.628819921902
 31
0.0
  0
ARC
  5
24F
  8
0
  6
CONTINUOUS
 62
     7
 10
367.69371387606
 20
279.7559352640554
 30
0.0
 40
1.483810856476864
 50
90.27866379037789
 51
181.5462329881165
  0
ARC
  5
250
  8
0
  6
CONTINUOUS
 62
     7
 10
366.6949527894798
 20
279.1569734401558
 30
0.0
 40
0.4660643406645959
 50
111.6336094595836
 51
135.5580167685131
  0
LINE
  5
251
  8
0
  6
CONTINUOUS
 62
   253
 10
421.5000000000001
 20
123.3829828575446
 30
0.0
 11
438.5
 21
123.3829828575446
 31
0.0
  0
ARC
  5
252
  8
0
  6
CONTINUOUS
 62
     7
 10
366.7252475708198
 20
279.0805884973702
 30
0.0
 40
0.5482375313096699
 50
91.33660859442439
 51
111.6336094596213
  0
ARC
  5
253
  8
0
  6
CONTINUOUS
 62
     7
 10
366.7252475708198
 20
279.0805884973698
 30
0.0
 40
0.5482375313101695
 50
90.19487409547253
 51
91.33660859442314
  0
ARC
  5
254
  8
0
  6
CONTINUOUS
 62
     7
 10
493.3599083770731
 20
279.7142557003032
 30
0.0
 40
0.4296482099178656
 50
0.2188390328687433
 51
23.4892115313778
  0
LINE
  5
255
  8
0
  6
CONTINUOUS
 62
   253
 10
492.3135027589321
 20
281.2080624943262
 30
0.0
 11
492.3135027589321
 21
281.2397285710824
 31
0.0
  0
ARC
  5
256
  8
0
  6
CONTINUOUS
 62
     7
 10
-23236.67242412372
 20
224.503979307112
 30
0.0
 40
23602.9680987675
 50
0.0
 51
0.0856964744061202
  0
LINE
  5
257
  8
0
  6
CONTINUOUS
 62
   253
 10
421.5000000000001
 20
124.6353962652293
 30
0.0
 11
438.5
 21
124.6353962652293
 31
0.0
  0
ARC
  5
258
  8
0
  6
CONTINUOUS
 62
     7
 10
367.537453035009
 20
279.8889853065712
 30
0.0
 40
1.500131754610001
 50
157.5026335146937
 51
179.9987221532324
  0
LINE
  5
259
  8
0
  6
CONTINUOUS
 62
   253
 10
367.686497241068
 20
281.2080624943262
 30
0.0
 11
367.686497241068
 21
281.2397285710824
 31
0.0
  0
ARC
  5
25A
  8
0
  6
CONTINUOUS
 62
     7
 10
369.3370484952068
 20
125.4856503181687
 30
0.0
 40
1.037055717793389
 50
179.9838112253444
 51
199.1393080408399
  0
ARC
  5
25B
  8
0
  6
CONTINUOUS
 62
     7
 10
493.3050472105204
 20
279.156973440156
 30
0.0
 40
0.4660643406645404
 50
44.44198323151091
 51
68.36639054046339
  0
ARC
  5
25C
  8
0
  6
CONTINUOUS
 62
     7
 10
493.2747524291804
 20
279.0805884973698
 30
0.0
 40
0.5482375313100585
 50
88.66339140561138
 51
89.80512590453901
  0
LINE
  5
25D
  8
0
  6
CONTINUOUS
 62
   253
 10
367.5372641640944
 20
281.388961648056
 30
0.0
 11
367.686497241068
 21
281.2397285710824
 31
0.0
  0
ARC
  5
25E
  8
0
  6
CONTINUOUS
 62
     7
 10
-14005.03380485819
 20
238.3116188805042
 30
0.0
 40
14371.31915355595
 50
0.0856964744061594
 51
0.1628571834640644
  0
LINE
  5
25F
  8
0
  6
CONTINUOUS
 62
     7
 10
438.5
 20
122.1735965668796
 30
0.0
 11
492.1976697753884
 21
122.1735965668796
 31
0.0
  0
LINE
  5
260
  8
0
  6
CONTINUOUS
 62
     7
 10
493.9626787205019
 20
154.7039793071092
 30
0.0
 11
493.9626787205019
 21
129.0041786040336
 31
0.0
  0
ARC
  5
261
  8
0
  6
CONTINUOUS
 62
     7
 10
367.9494085050504
 20
123.7495264843142
 30
0.0
 40
1.652138451696317
 50
181.6370660628508
 51
225.7060978296137
  0
LINE
  5
262
  8
0
  6
CONTINUOUS
 62
   253
 10
493.789556690584
 20
279.715896733542
 30
0.0
 11
493.7765980396593
 21
279.160505037126
 31
0.0
  0
LINE
  5
263
  8
0
  6
CONTINUOUS
 62
   253
 10
366.2956746437654
 20
224.5039793071092
 30
0.0
 11
366.7956556052974
 21
224.5039793071092
 31
0.0
  0
LINE
  5
264
  8
0
  6
CONTINUOUS
 62
     7
 10
366.2956746437654
 20
123.7864386987189
 30
0.0
 11
366.2956746437654
 21
224.5039793071092
 31
0.0
  0
LINE
  5
265
  8
0
  6
CONTINUOUS
 62
     7
 10
366.2979443857804
 20
123.7023276883855
 30
0.0
 11
366.2956746437654
 21
123.7864386987189
 31
0.0
  0
LINE
  5
266
  8
0
  6
CONTINUOUS
 62
   253
 10
368.3
 20
125.4859433335528
 30
0.0
 11
368.5723544303932
 21
130.9888838553134
 31
0.0
  0
LINE
  5
267
  8
0
  6
CONTINUOUS
 62
     7
 10
366.037321279498
 20
129.0041786040323
 30
0.0
 11
366.037321279498
 21
154.703979307109
 31
0.0
  0
LINE
  5
268
  8
0
  6
CONTINUOUS
 62
   253
 10
366.710424270948
 20
280.1842116183178
 30
0.0
 11
366.7233829218728
 21
279.628819921902
 31
0.0
  0
ARC
  5
269
  8
0
  6
CONTINUOUS
 62
     7
 10
492.3062363842914
 20
280.2239474584954
 30
0.0
 40
0.9841418616992614
 50
357.6859891131121
 51
89.57695491033253
  0
LINE
  5
26A
  8
0
  6
CONTINUOUS
 62
     7
 10
438.5
 20
124.6353962652293
 30
0.0
 11
438.5
 21
124.4720554453235
 31
0.0
  0
ARC
  5
26B
  8
0
  6
CONTINUOUS
 62
     7
 10
493.2751640743033
 20
279.1276667851498
 30
0.0
 40
0.5079198284506647
 50
23.4892115313935
 51
44.44198323150562
  0
LINE
  5
26C
  8
0
  6
CONTINUOUS
 62
     7
 10
366.037321279498
 20
273.7888972784008
 30
0.0
 11
366.037321279498
 21
279.8890187634598
 31
0.0
  0
LINE
  5
26D
  8
0
  6
CONTINUOUS
 62
   253
 10
366.2104433094158
 20
279.715896733542
 30
0.0
 11
366.037321279498
 21
279.8890187634598
 31
0.0
  0
LINE
  5
26E
  8
0
  6
CONTINUOUS
 62
   253
 10
433.8
 20
283.9697319688146
 30
0.0
 11
426.2
 21
283.9697319688146
 31
0.0
  0
ARC
  5
26F
  8
0
  6
CONTINUOUS
 62
     7
 10
493.3469497261505
 20
279.1588640038872
 30
0.0
 40
0.4296482099157561
 50
0.2188390328772698
 51
23.48921153151531
  0
ARC
  5
270
  8
0
  6
CONTINUOUS
 62
     7
 10
367.5371877510578
 20
279.8890951764964
 30
0.0
 40
1.49984461879682
 50
112.4973664853095
 51
135.0
  0
LINE
  5
271
  8
0
  6
CONTINUOUS
 62
   253
 10
492.3135027589321
 20
281.2080624943262
 30
0.0
 11
367.686497241068
 21
281.2080624943262
 31
0.0
  0
ARC
  5
272
  8
0
  6
CONTINUOUS
 62
     7
 10
493.2877110801051
 20
279.6359801937854
 30
0.0
 40
0.5482375313103915
 50
68.36639054044315
 51
88.66339140561206
  0
ARC
  5
273
  8
0
  6
CONTINUOUS
 62
     7
 10
366.7122889198948
 20
279.6359801937856
 30
0.0
 40
0.5482375313101695
 50
90.19487409547837
 51
91.33660859439993
  0
LINE
  5
274
  8
0
  6
CONTINUOUS
 62
     7
 10
368.3
 20
125.4859433335528
 30
0.0
 11
368.3
 21
224.5039793071092
 31
0.0
  0
ARC
  5
275
  8
0
  6
CONTINUOUS
 62
     7
 10
369.2982603084691
 20
125.4515620903542
 30
0.0
 40
0.9795001786867541
 50
244.132561945867
 51
267.166599078108
  0
ARC
  5
276
  8
0
  6
CONTINUOUS
 62
     7
 10
369.3001011220022
 20
125.4728277489254
 30
0.0
 40
0.9979465543055177
 50
199.1393080408418
 51
221.9844837392775
  0
ARC
  5
277
  8
0
  6
CONTINUOUS
 62
     7
 10
366.7122889198948
 20
279.635980193785
 30
0.0
 40
0.5482375313108356
 50
91.33660859439831
 51
111.6336094595484
  0
ARC
  5
278
  8
0
  6
CONTINUOUS
 62
     7
 10
367.6937636157086
 20
280.2239474584952
 30
0.0
 40
0.9841418616993169
 50
90.4230450896739
 51
182.3140108868844
  0
ARC
  5
279
  8
0
  6
CONTINUOUS
 62
     7
 10
367.5371877510578
 20
279.8890951764964
 30
0.0
 40
1.49984461879682
 50
135.0
 51
157.5026335146905
  0
LINE
  5
27A
  8
0
  6
CONTINUOUS
 62
     7
 10
421.5000000000001
 20
122.3829828575446
 30
0.0
 11
438.5
 21
122.3829828575446
 31
0.0
  0
LINE
  5
27B
  8
0
  6
CONTINUOUS
 62
     7
 10
493.7020555580804
 20
123.7023265540711
 30
0.0
 11
493.960902071442
 21
128.9323386571884
 31
0.0
  0
ARC
  5
27C
  8
0
  6
CONTINUOUS
 62
     7
 10
433.5839602038076
 20
279.8946816448184
 30
0.0
 40
0.4568099722528363
 50
103.165499333967
 51
128.1121373546504
  0
ARC
  5
27D
  8
0
  6
CONTINUOUS
 62
     7
 10
433.5839602038079
 20
279.8946816448179
 30
0.0
 40
0.4568099722532803
 50
89.67094326207359
 51
103.1654993339679
  0
LINE
  5
27E
  8
0
  6
CONTINUOUS
 62
     7
 10
370.1999999999999
 20
121.003979307109
 30
0.0
 11
370.1999999999999
 21
115.003979307109
 31
0.0
  0
LINE
  5
27F
  8
0
  6
CENTER
 62
     1
 10
453.0
 20
155.4016074639706
 30
0.0
 11
453.0
 21
168.5063511502474
 31
0.0
  0
LINE
  5
281
  8
0
  6
CONTINUOUS
 62
     7
 10
436.9912724675358
 20
131.2127068395732
 30
0.0
 11
423.008727532464
 21
131.2127068395732
 31
0.0
  0
LINE
  5
282
  8
0
  6
CONTINUOUS
 62
     7
 10
423.0000000000001
 20
147.7039793071092
 30
0.0
 11
423.008727532464
 21
147.695251774645
 31
0.0
  0
LINE
  5
283
  8
0
  6
CONTINUOUS
 62
     7
 10
366.1999999999999
 20
115.038886778272
 30
0.0
 11
370.1999999999999
 21
115.003979307109
 31
0.0
  0
LINE
  5
284
  8
0
  6
CENTER
 62
    10
 10
230.0
 20
102.3914620217782
 30
0.0
 11
230.0
 21
290.206574253356
 31
0.0
  0
LINE
  5
285
  8
0
  6
CONTINUOUS
 62
   253
 10
426.2
 20
283.9697319688146
 30
0.0
 11
426.2
 21
284.696020692891
 31
0.0
  0
LINE
  5
286
  8
0
  6
CONTINUOUS
 62
     7
 10
366.0390979285578
 20
128.9323386571884
 30
0.0
 11
366.2979444186592
 21
123.7023270240483
 31
0.0
  0
LINE
  5
287
  8
0
  6
CONTINUOUS
 62
   253
 10
366.7233829218728
 20
279.628819921902
 30
0.0
 11
426.2443065665496
 21
279.628819921902
 31
0.0
  0
ARC
  5
288
  8
0
  6
CONTINUOUS
 62
     7
 10
433.2072094673824
 20
279.6230382193069
 30
0.0
 40
0.4146995445434287
 50
284.6501403142634
 51
297.6143272976522
  0
LINE
  5
289
  8
0
  6
CONTINUOUS
 62
     7
 10
433.5
 20
284.2697319688146
 30
0.0
 11
433.5
 21
284.696020692891
 31
0.0
  0
ARC
  5
28A
  8
0
  6
CONTINUOUS
 62
     7
 10
426.7927905326176
 20
279.6230382193069
 30
0.0
 40
0.4146995445434287
 50
242.3856727023478
 51
255.3498596857366
  0
ARC
  5
28B
  8
0
  6
CONTINUOUS
 62
     7
 10
2061.253360212888
 20
233.6459074746802
 30
0.0
 40
1635.162354252234
 50
178.4049537128498
 51
178.4060997060138
  0
LINE
  5
28C
  8
0
  6
CONTINUOUS
 62
     7
 10
423.008727532464
 20
147.695251774645
 30
0.0
 11
436.9912724675358
 21
147.695251774645
 31
0.0
  0
LINE
  5
28D
  8
0
  6
CENTER
 62
     1
 10
446.5
 20
245.4539793071092
 30
0.0
 11
459.5000000000001
 21
245.4539793071092
 31
0.0
  0
LINE
  5
28E
  8
0
  6
CONTINUOUS
 62
     7
 10
436.9912724675358
 20
147.695251774645
 30
0.0
 11
436.9912724675358
 21
131.2127068395732
 31
0.0
  0
ARC
  5
28F
  8
0
  6
CONTINUOUS
 62
     7
 10
433.597862359118
 20
279.8497834790874
 30
0.0
 40
0.4976272523736225
 50
148.9836155672209
 51
172.9765884136852
  0
LINE
  5
290
  8
0
  6
CONTINUOUS
 62
     7
 10
437.0
 20
131.203979307109
 30
0.0
 11
423.0000000000001
 21
131.203979307109
 31
0.0
  0
LINE
  5
291
  8
0
  6
CONTINUOUS
 62
     7
 10
437.0
 20
147.7039793071092
 30
0.0
 11
437.0
 21
131.203979307109
 31
0.0
  0
LINE
  5
292
  8
0
  6
CONTINUOUS
 62
   253
 10
433.2575960844046
 20
279.160505037126
 30
0.0
 11
433.1
 21
279.834243945283
 31
0.0
  0
ARC
  5
293
  8
0
  6
CONTINUOUS
 62
     7
 10
494.8935785301018
 20
283.497557837211
 30
0.0
 40
1.493395237935236
 50
359.9568022668511
 51
90.04319773314681
  0
ARC
  5
294
  8
0
  6
CONTINUOUS
 62
     7
 10
433.331134367352
 20
279.1489842874039
 30
0.0
 40
0.0752846502884985
 50
104.6501403143068
 51
171.0962265918546
  0
LINE
  5
295
  8
0
  6
CENTER
 62
     1
 10
377.9472854818372
 20
203.703979307109
 30
0.0
 11
482.0527145181628
 21
203.703979307109
 31
0.0
  0
ARC
  5
296
  8
0
  6
CONTINUOUS
 62
     7
 10
434.0429110949918
 20
268.5760495898812
 30
0.0
 40
10.73642261299956
 50
91.5329435189492
 51
91.55438533906545
  0
LINE
  5
297
  8
0
  6
CONTINUOUS
 62
     7
 10
496.392041385782
 20
283.4964319029204
 30
0.0
 11
496.3869733532943
 21
283.4964319029204
 31
0.0
  0
ARC
  5
298
  8
0
  6
CONTINUOUS
 62
     7
 10
433.6896694649545
 20
279.8384729032114
 30
0.0
 40
0.590128462142514
 50
172.9765884136719
 51
180.410903567848
  0
LINE
  5
299
  8
0
  6
CONTINUOUS
 62
     7
 10
423.0000000000001
 20
131.203979307109
 30
0.0
 11
423.0000000000001
 21
147.7039793071092
 31
0.0
  0
LINE
  5
29A
  8
0
  6
CENTER
 62
     1
 10
400.5
 20
161.953979307109
 30
0.0
 11
413.5
 21
161.953979307109
 31
0.0
  0
LINE
  5
29B
  8
0
  6
CONTINUOUS
 62
     7
 10
423.008727532464
 20
131.2127068395732
 30
0.0
 11
423.008727532464
 21
147.695251774645
 31
0.0
  0
LINE
  5
29C
  8
0
  6
CONTINUOUS
 62
     7
 10
496.392041385782
 20
155.0119379213272
 30
0.0
 11
496.392041385782
 21
283.4964319029204
 31
0.0
  0
ARC
  5
29D
  8
0
  6
CONTINUOUS
 62
     7
 10
433.638210039514
 20
279.8255244406802
 30
0.0
 40
0.544706295033559
 50
128.1121373545871
 51
148.983615567223
  0
ARC
  5
29E
  8
0
  6
CONTINUOUS
 62
     7
 10
365.1076251533662
 20
283.4963541537428
 30
0.0
 40
1.499563738656451
 50
90.00297066381644
 51
179.9970293361857
  0
LINE
  5
29F
  8
0
  6
CONTINUOUS
 62
     7
 10
363.607958614218
 20
283.4964319029204
 30
0.0
 11
363.607958614218
 21
155.0119379213272
 31
0.0
  0
LINE
  5
2A0
  8
0
  6
CONTINUOUS
 62
   253
 10
433.8
 20
284.696020692891
 30
0.0
 11
433.5
 21
284.696020692891
 31
0.0
  0
LINE
  5
2A1
  8
0
  6
CONTINUOUS
 62
     7
 10
426.2
 20
284.996020692891
 30
0.0
 11
365.1075474041888
 21
284.996020692891
 31
0.0
  0
LINE
  5
2A2
  8
0
  6
CENTER
 62
     1
 10
252.5000000000002
 20
59.38985646769284
 30
0.0
 11
252.5000000000002
 21
78.80001500000003
 31
0.0
  0
ARC
  5
2A3
  8
0
  6
CONTINUOUS
 62
     7
 10
425.957088905008
 20
268.5760495898812
 30
0.0
 40
10.73642261299956
 50
88.44561466093454
 51
88.46705648105079
  0
LINE
  5
2A4
  8
0
  6
CONTINUOUS
 62
     7
 10
437.0
 20
147.7039793071092
 30
0.0
 11
436.9912724675358
 21
147.695251774645
 31
0.0
  0
LINE
  5
2A5
  8
0
  6
CONTINUOUS
 62
     7
 10
494.8924525958112
 20
284.996020692891
 30
0.0
 11
494.8924525958112
 21
284.9909526603918
 31
0.0
  0
LINE
  5
2A6
  8
0
  6
CENTER
 62
     1
 10
430.0
 20
287.4964319029204
 30
0.0
 11
430.0
 21
111.0119379213271
 31
0.0
  0
ARC
  5
2A7
  8
0
  6
CONTINUOUS
 62
     7
 10
425.9570889050161
 20
268.576049590176
 30
0.0
 40
10.7364226127048
 50
87.48897181177826
 51
88.44561466093454
  0
LINE
  5
2A8
  8
0
  6
CONTINUOUS
 62
     7
 10
426.5000000000001
 20
284.696020692891
 30
0.0
 11
426.5000000000001
 21
284.2697319688146
 31
0.0
  0
ARC
  5
2A9
  8
0
  6
CONTINUOUS
 62
     7
 10
426.4094002742004
 20
278.8901267283528
 30
0.0
 40
0.4124324544880764
 50
62.38567270234438
 51
87.4889718118041
  0
ARC
  5
2AA
  8
0
  6
CONTINUOUS
 62
     7
 10
426.668865632648
 20
279.1489842874039
 30
0.0
 40
0.0752846502884985
 50
8.903773408145412
 51
75.34985968569322
  0
LINE
  5
2AB
  8
0
  6
CONTINUOUS
 62
     7
 10
426.2
 20
283.9697319688146
 30
0.0
 11
426.5000000000001
 21
284.2697319688146
 31
0.0
  0
LINE
  5
2AC
  8
0
  6
CENTER
 62
     1
 10
453.0
 20
238.9016074639707
 30
0.0
 11
453.0
 21
252.0063511502474
 31
0.0
  0
LINE
  5
2AD
  8
0
  6
CENTER
 62
     1
 10
446.5
 20
161.953979307109
 30
0.0
 11
459.5000000000001
 21
161.953979307109
 31
0.0
  0
LINE
  5
2AE
  8
0
  6
CENTER
 62
     1
 10
407.0
 20
155.4016074639706
 30
0.0
 11
407.0
 21
168.5063511502474
 31
0.0
  0
LINE
  5
2AF
  8
0
  6
CONTINUOUS
 62
     7
 10
437.0
 20
131.203979307109
 30
0.0
 11
436.9912724675358
 21
131.2127068395732
 31
0.0
  0
LINE
  5
2B0
  8
0
  6
CONTINUOUS
 62
     7
 10
423.0000000000001
 20
147.7039793071092
 30
0.0
 11
437.0
 21
147.7039793071092
 31
0.0
  0
ARC
  5
2B1
  8
0
  6
CONTINUOUS
 62
     7
 10
433.5905997257997
 20
278.8901267283528
 30
0.0
 40
0.4124324544880764
 50
92.51102818819597
 51
117.6143272976557
  0
ARC
  5
2B2
  8
0
  6
CONTINUOUS
 62
     7
 10
434.042911094984
 20
268.576049590176
 30
0.0
 40
10.7364226127048
 50
91.55438533906549
 51
92.5110281882218
  0
LINE
  5
2B3
  8
0
  6
CONTINUOUS
 62
     7
 10
370.1999999999999
 20
122.1735965668796
 30
0.0
 11
370.1999999999999
 21
121.003979307109
 31
0.0
  0
LINE
  5
2B4
  8
0
  6
CONTINUOUS
 62
     7
 10
366.1999999999999
 20
124.1664657019315
 30
0.0
 11
366.1999999999999
 21
121.003979307109
 31
0.0
  0
LINE
  5
2B5
  8
0
  6
CENTER
 62
     1
 10
407.0
 20
238.9016074639707
 30
0.0
 11
407.0
 21
252.0063511502474
 31
0.0
  0
LINE
  5
2B6
  8
0
  6
CONTINUOUS
 62
   253
 10
433.8
 20
284.696020692891
 30
0.0
 11
433.8
 21
283.9697319688146
 31
0.0
  0
LINE
  5
2B7
  8
0
  6
CONTINUOUS
 62
   253
 10
426.2
 20
284.696020692891
 30
0.0
 11
426.2
 21
284.996020692891
 31
0.0
  0
LINE
  5
2B8
  8
0
  6
CENTER
 62
     1
 10
207.4999999999998
 20
59.38985646769773
 30
0.0
 11
207.4999999999998
 21
78.80001500000012
 31
0.0
  0
LINE
  5
2B9
  8
0
  6
CENTER
 62
     1
 10
400.5
 20
245.4539793071092
 30
0.0
 11
413.5
 21
245.4539793071092
 31
0.0
  0
LINE
  5
2BA
  8
0
  6
CONTINUOUS
 62
     7
 10
423.0000000000001
 20
131.203979307109
 30
0.0
 11
423.008727532464
 21
131.2127068395732
 31
0.0
  0
LINE
  5
2BB
  8
0
  6
CONTINUOUS
 62
   253
 10
433.7556934334504
 20
279.628819921902
 30
0.0
 11
493.2766170781271
 21
279.628819921902
 31
0.0
  0
ARC
  5
2BC
  8
0
  6
CONTINUOUS
 62
     7
 10
433.774856405776
 20
279.0785814277898
 30
0.0
 40
0.5508854101201055
 50
103.1654993339693
 51
123.354410254262
  0
LINE
  5
2BD
  8
0
  6
CONTINUOUS
 62
   253
 10
426.2443065665496
 20
279.308625703061
 30
0.0
 11
426.2443065665496
 21
279.628819921902
 31
0.0
  0
ARC
  5
2BE
  8
0
  6
CONTINUOUS
 62
     7
 10
433.684059554096
 20
279.1437489632816
 30
0.0
 40
0.4264324889502458
 50
168.2188613133103
 51
177.7499626428794
  0
LINE
  5
2BF
  8
0
  6
CONTINUOUS
 62
     7
 10
293.962678720502
 20
45.70001499999348
 30
0.0
 11
293.9268985625598
 21
41.60001499999583
 31
0.0
  0
ARC
  5
2C0
  8
0
  6
CONTINUOUS
 62
     7
 10
296.0920413857821
 20
45.40001500000002
 30
0.0
 40
0.3000000000000225
 50
358.5
 51
90.0
  0
ARC
  5
2C1
  8
0
  6
CONTINUOUS
 62
     7
 10
296.0658554642128
 20
44.40001500000001
 30
0.0
 40
0.3000000000000225
 50
270.0
 51
358.5
  0
ARC
  5
2C2
  8
0
  6
CONTINUOUS
 62
     7
 10
-1201.253360212856
 20
233.6459074746812
 30
0.0
 40
1635.162354252201
 50
1.593900293986236
 51
1.595046287150185
  0
LINE
  5
2C3
  8
0
  6
CONTINUOUS
 62
   253
 10
426.5000000000001
 20
284.696020692891
 30
0.0
 11
426.2
 21
284.696020692891
 31
0.0
  0
LINE
  5
2C4
  8
0
  6
CONTINUOUS
 62
   253
 10
433.7556934334504
 20
279.628819921902
 30
0.0
 11
433.7556934334504
 21
279.308625703061
 31
0.0
  0
LINE
  5
2C5
  8
0
  6
CONTINUOUS
 62
     7
 10
270.5000000000002
 20
63.80001500000002
 30
0.0
 11
261.4028104836614
 21
63.80001500000002
 31
0.0
  0
LINE
  5
2C6
  8
0
  6
CONTINUOUS
 62
     7
 10
494.8924525958112
 20
284.996020692891
 30
0.0
 11
433.8
 21
284.996020692891
 31
0.0
  0
ARC
  5
2C7
  8
0
  6
CONTINUOUS
 62
     7
 10
426.2000988531324
 20
284.6960167502514
 30
0.0
 40
0.2998814876487566
 50
45.00406699694642
 51
67.51185041444836
  0
LINE
  5
2C8
  8
0
  6
CONTINUOUS
 62
     7
 10
164.0408240545774
 20
49.20688417414909
 30
0.0
 11
164.7997621953582
 21
49.41024103607648
 31
0.0
  0
LINE
  5
2C9
  8
0
  6
CONTINUOUS
 62
     7
 10
163.6342473382946
 20
44.39216191550764
 30
0.0
 11
163.6080614167254
 21
45.39216191550764
 31
0.0
  0
ARC
  5
2CA
  8
0
  6
CONTINUOUS
 62
     7
 10
164.5409431502556
 20
50.37616686236557
 30
0.0
 40
1.000000000000001
 50
355.5000000000003
 51
357.4999999999994
  0
LINE
  5
2CB
  8
0
  6
CONTINUOUS
 62
     7
 10
163.907958614218
 20
45.70001499999998
 30
0.0
 11
166.0373212794982
 21
45.70001499999998
 31
0.0
  0
ARC
  5
2CC
  8
0
  6
CONTINUOUS
 62
     7
 10
433.7273797936431
 20
279.1507083037965
 30
0.0
 40
0.4645354538830859
 50
123.3544102542284
 51
147.3473831007074
  0
ARC
  5
2CD
  8
0
  6
CONTINUOUS
 62
     7
 10
433.7999011468682
 20
284.6960167502508
 30
0.0
 40
0.2998814876497002
 50
112.4881495856165
 51
134.9959330030536
  0
LINE
  5
2CE
  8
0
  6
CONTINUOUS
 62
     7
 10
433.7604652412954
 20
279.1319880336136
 30
0.0
 11
433.258482946592
 21
279.1278119513332
 31
0.0
  0
LINE
  5
2CF
  8
0
  6
CONTINUOUS
 62
     7
 10
426.5000000000001
 20
284.2697319688146
 30
0.0
 11
433.5
 21
284.2697319688146
 31
0.0
  0
ARC
  5
2D0
  8
0
  6
CONTINUOUS
 62
     7
 10
426.2002425728263
 20
284.696020692891
 30
0.0
 40
0.2997574271738634
 50
0.0
 51
22.51185377956637
  0
ARC
  5
2D1
  8
0
  6
CONTINUOUS
 62
     7
 10
2069.611276180722
 20
233.6710425544954
 30
0.0
 40
1644.018364980754
 50
178.4092603428131
 51
178.4154186638608
  0
LINE
  5
2D2
  8
0
  6
CONTINUOUS
 62
     7
 10
433.1
 20
279.1120035063728
 30
0.0
 11
433.258482946592
 21
279.1278119513332
 31
0.0
  0
ARC
  5
2D3
  8
0
  6
CONTINUOUS
 62
     7
 10
426.2
 20
284.6957779579976
 30
0.0
 40
0.3001399323862008
 50
67.51185041438612
 51
90.0
  0
ARC
  5
2D4
  8
0
  6
CONTINUOUS
 62
     7
 10
163.907958614218
 20
45.40001500000002
 30
0.0
 40
0.3000000000000225
 50
90.0
 51
181.5
  0
ARC
  5
2D5
  8
0
  6
CONTINUOUS
 62
     7
 10
-1209.611276180756
 20
233.6710425544944
 30
0.0
 40
1644.018364980787
 50
1.584581336139195
 51
1.590739657187044
  0
LINE
  5
2D6
  8
0
  6
CONTINUOUS
 62
     7
 10
433.5
 20
284.2697319688146
 30
0.0
 11
433.8
 21
283.9697319688146
 31
0.0
  0
LINE
  5
2D7
  8
0
  6
CONTINUOUS
 62
     7
 10
293.9268985625598
 20
41.60001500000001
 30
0.0
 11
292.4291145520142
 21
41.60001500000001
 31
0.0
  0
ARC
  5
2D8
  8
0
  6
CONTINUOUS
 62
     7
 10
433.774856405776
 20
279.0785814277898
 30
0.0
 40
0.55088541012005
 50
91.99461482379498
 51
103.1654993339706
  0
ARC
  5
2D9
  8
0
  6
CONTINUOUS
 62
     7
 10
433.8
 20
284.6957779579972
 30
0.0
 40
0.3001399323866449
 50
90.0
 51
112.4881495855774
  0
LINE
  5
2DA
  8
0
  6
CONTINUOUS
 62
     7
 10
296.3919385832746
 20
45.39216191550764
 30
0.0
 11
296.3657526617055
 21
44.39216191550764
 31
0.0
  0
LINE
  5
2DB
  8
0
  6
CONTINUOUS
 62
     7
 10
166.0635018828736
 20
48.70001500036668
 30
0.0
 11
165.4633147462484
 21
48.70001500036247
 31
0.0
  0
ARC
  5
2DC
  8
0
  6
CONTINUOUS
 62
     7
 10
433.7999961172848
 20
284.6959217663505
 30
0.0
 40
0.3000158056354896
 50
134.9959330030527
 51
157.4881462204965
  0
LINE
  5
2DD
  8
0
  6
CONTINUOUS
 62
     7
 10
167.570885447986
 20
41.60001500000001
 30
0.0
 11
166.0731014374404
 21
41.60001500000001
 31
0.0
  0
LINE
  5
2DE
  8
0
  6
CONTINUOUS
 62
     7
 10
165.2411403383868
 20
59.78851115979308
 30
0.0
 11
164.5530509969328
 21
59.97288414315613
 31
0.0
  0
ARC
  5
2DF
  8
0
  6
CONTINUOUS
 62
     7
 10
163.9341445357872
 20
44.40001500000001
 30
0.0
 40
0.3000000000000225
 50
181.5
 51
270.0
  0
ARC
  5
2E0
  8
0
  6
CONTINUOUS
 62
     7
 10
426.2356175943066
 20
279.1269962390792
 30
0.0
 40
0.5084837793541408
 50
11.78113868665548
 51
32.65261689929224
  0
LINE
  5
2E1
  8
0
  6
CONTINUOUS
 62
     7
 10
293.9364981171264
 20
48.70001500036668
 30
0.0
 11
294.5366852537517
 21
48.70001500036247
 31
0.0
  0
ARC
  5
2E2
  8
0
  6
CONTINUOUS
 62
     7
 10
164.5409431502556
 20
50.37616686236557
 30
0.0
 40
1.000000000000001
 50
285.0000000000003
 51
355.5000000000003
  0
LINE
  5
2E3
  8
0
  6
CONTINUOUS
 62
     7
 10
293.962678720502
 20
45.70001499999998
 30
0.0
 11
296.0920413857821
 21
45.70001499999998
 31
0.0
  0
LINE
  5
2E4
  8
0
  6
CONTINUOUS
 62
     7
 10
164.4803379398076
 20
67.28927169237367
 30
0.0
 11
164.774772910929
 21
67.57513759579308
 31
0.0
  0
LINE
  5
2E5
  8
0
  6
CONTINUOUS
 62
     7
 10
166.0512842679634
 20
44.10001500000001
 30
0.0
 11
163.9341445357872
 21
44.10001500000001
 31
0.0
  0
LINE
  5
2E6
  8
0
  6
CONTINUOUS
 62
     7
 10
295.225227089071
 20
67.57513759579308
 30
0.0
 11
295.5196620601924
 21
67.28927169237367
 31
0.0
  0
LINE
  5
2E7
  8
0
  6
CONTINUOUS
 62
     7
 10
164.774776014057
 20
67.57513762278813
 30
0.0
 11
164.8463137690022
 21
67.57638631894552
 31
0.0
  0
LINE
  5
2E8
  8
0
  6
CONTINUOUS
 62
     7
 10
490.6280468034403
 20
279.1319880336136
 30
0.0
 11
433.7604652412954
 21
279.1319880336136
 31
0.0
  0
LINE
  5
2E9
  8
0
  6
CONTINUOUS
 62
     7
 10
166.0731014374404
 20
41.60001499999999
 30
0.0
 11
166.0373212794982
 21
45.70001500000762
 31
0.0
  0
LINE
  5
2EA
  8
0
  6
CONTINUOUS
 62
     7
 10
295.1536862309978
 20
67.57638631894552
 30
0.0
 11
295.225223985943
 21
67.57513762278813
 31
0.0
  0
ARC
  5
2EB
  8
0
  6
CONTINUOUS
 62
     7
 10
426.2000038827144
 20
284.6959217663498
 30
0.0
 40
0.3000158056364888
 50
22.51185377958376
 51
45.00406699694731
  0
ARC
  5
2EC
  8
0
  6
CONTINUOUS
 62
     7
 10
426.2251435942239
 20
279.0785814277894
 30
0.0
 40
0.5508854101204386
 50
56.64558974574738
 51
76.83450066603297
  0
ARC
  5
2ED
  8
0
  6
CONTINUOUS
 62
     7
 10
426.315940445904
 20
279.1437489632816
 30
0.0
 40
0.4264324889502458
 50
2.250037357128122
 51
11.78113868668964
  0
LINE
  5
2EE
  8
0
  6
CONTINUOUS
 62
     7
 10
294.8613167396866
 20
67.8385140096224
 30
0.0
 11
295.1536896676166
 21
67.57638736775179
 31
0.0
  0
ARC
  5
2EF
  8
0
  6
CONTINUOUS
 62
     7
 10
163.6902098608224
 20
42.31468773024793
 30
0.0
 40
0.3000000000000225
 50
92.99999999999939
 51
108.0022026681573
  0
LINE
  5
2F0
  8
0
  6
CONTINUOUS
 62
     7
 10
426.2395347587046
 20
279.1319880336136
 30
0.0
 11
369.3719531965596
 21
279.1319880336136
 31
0.0
  0
LINE
  5
2F1
  8
0
  6
CONTINUOUS
 62
   253
 10
433.8
 20
284.996020692891
 30
0.0
 11
433.8
 21
284.696020692891
 31
0.0
  0
ARC
  5
2F2
  8
0
  6
CONTINUOUS
 62
     7
 10
426.2726202063566
 20
279.1507083037964
 30
0.0
 40
0.46453545388353
 50
32.65261689928974
 51
56.64558974574095
  0
LINE
  5
2F3
  8
0
  6
CONTINUOUS
 62
     7
 10
260.6407226776998
 20
63.27664716353284
 30
0.0
 11
260.719177843091
 21
63.30001500000002
 31
0.0
  0
LINE
  5
2F4
  8
0
  6
CONTINUOUS
 62
     7
 10
164.7997621953582
 20
49.41024103607648
 30
0.0
 11
164.8045309115068
 21
49.41151880971744
 31
0.0
  0
LINE
  5
2F5
  8
0
  6
CONTINUOUS
 62
     7
 10
426.741517053408
 20
279.1278119513332
 30
0.0
 11
426.2395347587046
 21
279.1319880336136
 31
0.0
  0
ARC
  5
2F6
  8
0
  6
CONTINUOUS
 62
     7
 10
433.7643824056934
 20
279.1269962390792
 30
0.0
 40
0.5084837793541408
 50
147.3473831007078
 51
168.2188613133445
  0
ARC
  5
2F7
  8
0
  6
CONTINUOUS
 62
     7
 10
433.799757427173
 20
284.696020692891
 30
0.0
 40
0.2997574271729753
 50
157.4881462203744
 51
180.0
  0
ARC
  5
2F8
  8
0
  6
CONTINUOUS
 62
     7
 10
426.2251435942239
 20
279.0785814277898
 30
0.0
 40
0.55088541012005
 50
76.83450066602938
 51
88.0053851762051
  0
LINE
  5
2F9
  8
0
  6
CONTINUOUS
 62
     7
 10
426.9
 20
279.1120035063728
 30
0.0
 11
433.1
 21
279.1120035063728
 31
0.0
  0
LINE
  5
2FA
  8
0
  6
CONTINUOUS
 62
     7
 10
426.741517053408
 20
279.1278119513332
 30
0.0
 11
426.9
 21
279.1120035063728
 31
0.0
  0
ARC
  5
2FB
  8
0
  6
CONTINUOUS
 62
     7
 10
164.1702335771288
 20
48.7239212610046
 30
0.0
 40
0.5000000000000004
 50
105.0000000000003
 51
177.5000000000001
  0
LINE
  5
2FC
  8
0
  6
CONTINUOUS
 62
     7
 10
165.351850414432
 20
46.1470620774265
 30
0.0
 11
165.4787296952292
 21
49.0530753777578
 31
0.0
  0
LINE
  5
2FD
  8
0
  6
CONTINUOUS
 62
     7
 10
294.5212703047708
 20
49.0530753777578
 30
0.0
 11
294.648149585568
 21
46.1470620774265
 31
0.0
  0
LINE
  5
2FE
  8
0
  6
CONTINUOUS
 62
     7
 10
260.719177843091
 20
63.30001500000002
 30
0.0
 11
270.5000000000002
 21
63.30001500000002
 31
0.0
  0
LINE
  5
2FF
  8
0
  6
CONTINUOUS
 62
     7
 10
164.8463103323834
 20
67.57638736775179
 30
0.0
 11
165.1386832603136
 21
67.8385140096224
 31
0.0
  0
LINE
  5
300
  8
0
  6
CONTINUOUS
 62
     7
 10
164.5924780289582
 20
46.12717721169867
 30
0.0
 11
164.576659451766
 21
45.70001500000002
 31
0.0
  0
LINE
  5
301
  8
0
  6
CONTINUOUS
 62
   253
 10
296.1659635837288
 20
280.6593874714911
 30
0.0
 11
296.2038327014565
 21
282.554042830285
 31
0.0
  0
ARC
  5
302
  8
0
  6
CONTINUOUS
 62
     7
 10
162.6986415180812
 20
286.2071098442316
 30
0.0
 40
1.498949530969462
 50
161.5778012781014
 51
180.0204766083462
  0
ARC
  5
303
  8
0
  6
CONTINUOUS
 62
     7
 10
162.7075093472372
 20
286.2041560936494
 30
0.0
 40
1.508296350559046
 50
139.1861914809183
 51
161.5778012781012
  0
ENDSEC
  0
EOF
