  0
SECTION
  2
HEADER
  9
$ACADVER
  1
AC1006
  9
$DWGCODEPAGE
  3
ansi_932
  9
$INSBASE
 10
0.0
 20
0.0
 30
0.0
  9
$EXTMIN
 10
406.600015000002
 20
171.6000149999958
  9
$EXTMAX
 10
861.392041385782
 20
420.206574253356
  9
$LIMMIN
 10
0.0
 20
0.0
  9
$LIMMAX
 10
12.0
 20
9.0
  9
$ORTHOMODE
 70
     0
  9
$REGENMODE
 70
     1
  9
$FILLMODE
 70
     1
  9
$QTEXTMODE
 70
     0
  9
$MIRRTEXT
 70
     1
  9
$DRAGMODE
 70
     2
  9
$LTSCALE
 40
1.0
  9
$OSMODE
 70
    37
  9
$ATTMODE
 70
     1
  9
$TEXTSIZE
 40
0.2
  9
$TRACEWID
 40
0.05
  9
$TEXTSTYLE
  7
STANDARD
  9
$CLAYER
  8
0
  9
$CELTYPE
  6
BYLAYER
  9
$CECOLOR
 62
   256
  9
$DIMSCALE
 40
1.0
  9
$DIMASZ
 40
3.0
  9
$DIMEXO
 40
0.0625
  9
$DIMDLI
 40
0.38
  9
$DIMRND
 40
0.0
  9
$DIMDLE
 40
0.0
  9
$DIMEXE
 40
1.5
  9
$DIMTP
 40
0.0
  9
$DIMTM
 40
0.0
  9
$DIMTXT
 40
3.0
  9
$DIMCEN
 40
0.09
  9
$DIMTSZ
 40
0.0
  9
$DIMTOL
 70
     0
  9
$DIMLIM
 70
     0
  9
$DIMTIH
 70
     1
  9
$DIMTOH
 70
     1
  9
$DIMSE1
 70
     0
  9
$DIMSE2
 70
     0
  9
$DIMTAD
 70
     1
  9
$DIMZIN
 70
     0
  9
$DIMBLK
  1

  9
$DIMASO
 70
     1
  9
$DIMSHO
 70
     1
  9
$DIMPOST
  1

  9
$DIMAPOST
  1

  9
$DIMALT
 70
     0
  9
$DIMALTD
 70
     2
  9
$DIMALTF
 40
25.4
  9
$DIMLFAC
 40
1.0
  9
$DIMTOFL
 70
     0
  9
$DIMTVP
 40
0.0
  9
$DIMTIX
 70
     0
  9
$DIMSOXD
 70
     0
  9
$DIMSAH
 70
     0
  9
$DIMBLK1
  1

  9
$DIMBLK2
  1

  9
$LUNITS
 70
     2
  9
$LUPREC
 70
     4
  9
$SKETCHINC
 40
0.1
  9
$FILLETRAD
 40
0.5
  9
$AUNITS
 70
     0
  9
$AUPREC
 70
     0
  9
$MENU
  1
.
  9
$ELEVATION
 40
0.0
  9
$THICKNESS
 40
0.0
  9
$LIMCHECK
 70
     0
  9
$CHAMFERA
 40
0.0
  9
$CHAMFERB
 40
0.0
  9
$SKPOLY
 70
     0
  9
$TDCREATE
 40
2458900.480057037
  9
$TDUPDATE
 40
2458900.480057755
  9
$TDINDWG
 40
0.0000000116
  9
$TDUSRTIMER
 40
0.0000000116
  9
$USRTIMER
 70
     1
  9
$ANGBASE
 50
0.0
  9
$ANGDIR
 70
     0
  9
$PDMODE
 70
     0
  9
$PDSIZE
 40
0.0
  9
$PLINEWID
 40
0.0
  9
$COORDS
 70
     1
  9
$SPLFRAME
 70
     0
  9
$SPLINETYPE
 70
     6
  9
$SPLINESEGS
 70
     8
  9
$ATTDIA
 70
     0
  9
$ATTREQ
 70
     1
  9
$HANDLING
 70
     1
  9
$HANDSEED
  5
71B
  9
$SURFTAB1
 70
     6
  9
$SURFTAB2
 70
     6
  9
$SURFTYPE
 70
     6
  9
$SURFU
 70
     6
  9
$SURFV
 70
     6
  9
$UCSNAME
  2

  9
$UCSORG
 10
0.0
 20
0.0
 30
0.0
  9
$UCSXDIR
 10
1.0
 20
0.0
 30
0.0
  9
$UCSYDIR
 10
0.0
 20
1.0
 30
0.0
  9
$USERI1
 70
     0
  9
$USERI2
 70
     0
  9
$USERI3
 70
     0
  9
$USERI4
 70
     0
  9
$USERI5
 70
     0
  9
$USERR1
 40
0.0
  9
$USERR2
 40
0.0
  9
$USERR3
 40
0.0
  9
$USERR4
 40
0.0
  9
$USERR5
 40
0.0
  9
$WORLDVIEW
 70
     1
  0
ENDSEC
  0
SECTION
  2
TABLES
  0
TABLE
  2
VPORT
 70
     1
  0
VPORT
  2
*ACTIVE
 70
     0
 10
0.0
 20
0.0
 11
1.0
 21
1.0
 12
633.996028192892
 22
295.9032946266759
 13
0.0
 23
0.0
 14
0.5
 24
0.5
 15
0.5
 25
0.5
 16
0.0
 26
0.0
 36
1.0
 17
0.0
 27
0.0
 37
0.0
 40
248.6065592533602
 41
1.6
 42
50.0
 43
0.0
 44
0.0
 50
0.0
 51
0.0
 71
     0
 72
   100
 73
     1
 74
     3
 75
     0
 76
     0
 77
     0
 78
     0
  0
ENDTAB
  0
TABLE
  2
LTYPE
 70
     2
  0
LTYPE
  2
CONTINUOUS
 70
     0
  3
Solid line
 72
    65
 73
     0
 40
0.0
  0
LTYPE
  2
CENTER
 70
     0
  3

 72
    65
 73
     0
 40
0.0
  0
ENDTAB
  0
TABLE
  2
LAYER
 70
     1
  0
LAYER
  2
0
 70
     0
 62
     7
  6
CONTINUOUS
  0
ENDTAB
  0
TABLE
  2
STYLE
 70
     2
  0
STYLE
  2
STANDARD
 70
     0
 40
0.0
 41
1.0
 50
0.0
 71
     0
 42
0.2
  3
txt
  4

  0
STYLE
  2
ＭＳ_ゴシック
 70
     0
 40
0.0
 41
1.0
 50
0.0
 71
     0
 42
0.2
  3
ＭＳ ゴシック.shx
  4

  0
ENDTAB
  0
TABLE
  2
VIEW
 70
     0
  0
ENDTAB
  0
TABLE
  2
UCS
 70
     0
  0
ENDTAB
  0
ENDSEC
  0
SECTION
  2
BLOCKS
  0
ENDSEC
  0
SECTION
  2
ENTITIES
  0
TEXT
  5
6F
  8
0
  6
CONTINUOUS
 62
     7
 10
725.7780917844191
 20
184.7030886582469
 30
0.0
 40
8.0
  1
WBKS-R
 41
1.5
  0
ARC
  5
70
  8
0
  6
CONTINUOUS
 62
     7
 10
518.8942555490428
 20
412.6855015374356
 30
0.0
 40
8.136382421327525
 50
8.493631741199746
 51
13.9087289293223
  0
ARC
  5
71
  8
0
  6
CONTINUOUS
 62
     7
 10
662.2924906527631
 20
416.2041560936495
 30
0.0
 40
1.508296350558824
 50
18.42219872189577
 51
40.81380851908312
  0
ARC
  5
72
  8
0
  6
CONTINUOUS
 62
     7
 10
662.3060757295465
 20
416.2158881320358
 30
0.0
 40
1.490346558473465
 50
40.81380851907215
 51
63.47865414946444
  0
LINE
  5
73
  8
0
  6
CONTINUOUS
 62
     7
 10
535.0043253562346
 20
417.6632171115154
 30
0.0
 11
535.0061468851144
 21
417.6449559058822
 31
0.0
  0
ARC
  5
74
  8
0
  6
CONTINUOUS
 62
     7
 10
656.3870772209248
 20
417.4003853185044
 30
0.0
 40
5.475884218676397
 50
346.3967229871101
 51
351.5129086597219
  0
LINE
  5
75
  8
0
  6
CONTINUOUS
 62
     7
 10
526.7235216665424
 20
254.3065643314061
 30
0.0
 11
526.5929484861766
 21
251.3065797068144
 31
0.0
  0
ARC
  5
76
  8
0
  6
CONTINUOUS
 62
     7
 10
527.6939242704537
 20
416.2158881320356
 30
0.0
 40
1.490346558473798
 50
93.85650022014613
 51
116.5213458505356
  0
LINE
  5
77
  8
0
  6
CONTINUOUS
 62
     7
 10
769.5
 20
294.453979307109
 30
0.0
 11
774.5000000000001
 21
294.453979307109
 31
0.0
  0
LINE
  5
78
  8
0
  6
CONTINUOUS
 62
     7
 10
527.6957210748826
 20
417.7065797068144
 30
0.0
 11
534.5043443947026
 21
417.7065797068144
 31
0.0
  0
ARC
  5
79
  8
0
  6
CONTINUOUS
 62
     7
 10
662.3060757295463
 20
416.2158881320354
 30
0.0
 40
1.49034655847391
 50
63.47865414946546
 51
86.14349977985216
  0
ARC
  5
7A
  8
0
  6
CONTINUOUS
 62
     7
 10
5181.173028785195
 20
354.7065797068149
 30
0.0
 40
4518.873455822326
 50
179.5426635818756
 51
180.0
  0
ARC
  5
7B
  8
0
  6
CONTINUOUS
 62
     7
 10
384.7710704140614
 20
455.7041777913506
 30
0.0
 40
279.7165220223816
 50
351.5420628184241
 51
351.7031276115977
  0
ARC
  5
7C
  8
0
  6
CONTINUOUS
 62
     7
 10
662.0023646588282
 20
415.6225643065533
 30
0.0
 40
1.491835117161999
 50
85.81445694531952
 51
89.76067258416879
  0
LINE
  5
7D
  8
0
  6
CONTINUOUS
 62
   253
 10
660.8010006304929
 20
242.2934202931856
 30
0.0
 11
660.8010006304929
 21
354.7065797068144
 31
0.0
  0
ARC
  5
7E
  8
0
  6
CONTINUOUS
 62
     7
 10
527.6951315342469
 20
416.19797898493
 30
0.0
 40
1.508296350559379
 50
89.9776095900894
 51
93.85650022014522
  0
ARC
  5
7F
  8
0
  6
CONTINUOUS
 62
     7
 10
662.7828448351964
 20
411.6121988848142
 30
0.0
 40
1.22767126934864
 50
243.2739134532466
 51
256.3888162671106
  0
LINE
  5
80
  8
0
  6
CONTINUOUS
 62
   253
 10
527.6957210748826
 20
417.7065797068144
 30
0.0
 11
527.9914051585625
 21
417.1140820742905
 31
0.0
  0
ARC
  5
81
  8
0
  6
CONTINUOUS
 62
     7
 10
528.8266568911998
 20
410.8803666284882
 30
0.0
 40
1.674170669522357
 50
96.11451630227621
 51
116.0165558147165
  0
ARC
  5
82
  8
0
  6
CONTINUOUS
 62
     7
 10
689.3932969191987
 20
410.4066846994232
 30
0.0
 40
28.25517109463271
 50
171.5420628184244
 51
173.7365498140997
  0
ARC
  5
83
  8
0
  6
CONTINUOUS
 62
     7
 10
669.9643344397857
 20
414.114879099509
 30
0.0
 40
8.493241190674405
 50
166.3967229871108
 51
171.7031276115936
  0
LINE
  5
84
  8
0
  6
CONTINUOUS
 62
     7
 10
535.0043253562346
 20
417.6632171115154
 30
0.0
 11
534.5043443947026
 21
417.7065797068144
 31
0.0
  0
LINE
  5
85
  8
0
  6
CONTINUOUS
 62
   253
 10
662.2995729628658
 20
354.7065797068144
 30
0.0
 11
662.2995729628658
 21
242.4822851376319
 31
0.0
  0
ARC
  5
86
  8
0
  6
CONTINUOUS
 62
     7
 10
527.9976353411718
 20
415.6225643065536
 30
0.0
 40
1.491835117161999
 50
90.23932741583864
 51
94.18554305468098
  0
ARC
  5
87
  8
0
  6
CONTINUOUS
 62
     7
 10
798.1317813068064
 20
454.3861002489892
 30
0.0
 40
274.1977028822712
 50
188.4936317412023
 51
188.6542564264516
  0
LINE
  5
88
  8
0
  6
CONTINUOUS
 62
   253
 10
662.0085948414371
 20
417.1140820742905
 30
0.0
 11
662.3042789251174
 21
417.7065797068144
 31
0.0
  0
ARC
  5
89
  8
0
  6
CONTINUOUS
 62
     7
 10
528.698329713868
 20
411.1432834894588
 30
0.0
 40
1.381607616105396
 50
116.0165558147177
 51
140.1908142845646
  0
ARC
  5
8A
  8
0
  6
CONTINUOUS
 62
     7
 10
662.3013584819186
 20
416.2071098442316
 30
0.0
 40
1.498949530969629
 50
359.9795233916538
 51
18.42219872189616
  0
ARC
  5
8B
  8
0
  6
CONTINUOUS
 62
     7
 10
662.0145574319487
 20
415.6164795414
 30
0.0
 40
1.491835117162776
 50
18.53510957703435
 51
41.14285135360291
  0
ARC
  5
8C
  8
0
  6
CONTINUOUS
 62
     7
 10
1759.955593332001
 20
292.9067093477614
 30
0.0
 40
1105.246292092525
 50
173.7365498141021
 51
173.785327798259
  0
ARC
  5
8D
  8
0
  6
CONTINUOUS
 62
     7
 10
527.9989438665514
 20
415.6046838145356
 30
0.0
 40
1.509763425321831
 50
116.5213458505348
 51
138.8571486463968
  0
ARC
  5
8E
  8
0
  6
CONTINUOUS
 62
     7
 10
527.6939242704535
 20
416.2158881320356
 30
0.0
 40
1.490346558473687
 50
116.5213458505356
 51
139.186191480926
  0
ARC
  5
8F
  8
0
  6
CONTINUOUS
 62
     7
 10
528.8124865297555
 20
411.0481406058274
 30
0.0
 40
1.530214301416866
 50
140.1908142845631
 51
160.8439772881047
  0
ARC
  5
90
  8
0
  6
CONTINUOUS
 62
     7
 10
660.7264899137119
 20
377.5534102261174
 30
0.0
 40
33.10889700212738
 50
88.29865128552261
 51
89.22917343811537
  0
ARC
  5
91
  8
0
  6
CONTINUOUS
 62
     7
 10
4004.658626055735
 20
364.0977480412838
 30
0.0
 40
3342.321572617619
 50
179.2093617737548
 51
179.5426635818757
  0
LINE
  5
92
  8
0
  6
CONTINUOUS
 62
   253
 10
662.7024050338292
 20
411.164982458009
 30
0.0
 11
662.6645359161016
 21
410.217654778612
 31
0.0
  0
ARC
  5
93
  8
0
  6
CONTINUOUS
 62
     7
 10
662.0010561334484
 20
415.6046838145352
 30
0.0
 40
1.509763425322275
 50
41.14285135360905
 51
63.47865414946529
  0
ARC
  5
94
  8
0
  6
CONTINUOUS
 62
     7
 10
481.2904393093996
 20
251.2520471476714
 30
0.0
 40
45.56445461806685
 50
356.5837237127508
 51
3.691440367618725
  0
ARC
  5
95
  8
0
  6
CONTINUOUS
 62
     7
 10
662.9152273621198
 20
416.4262503263512
 30
0.0
 40
1.124546316441877
 50
146.4080020989827
 51
171.5129086597402
  0
LINE
  5
96
  8
0
  6
CONTINUOUS
 62
     7
 10
526.7603589777774
 20
254.1856336886029
 30
0.0
 11
526.7235216665424
 21
254.3065643314061
 31
0.0
  0
LINE
  5
97
  8
0
  6
CONTINUOUS
 62
   253
 10
527.7004270371341
 20
354.7065797068144
 30
0.0
 11
529.198999369507
 21
354.7065797068144
 31
0.0
  0
ARC
  5
98
  8
0
  6
CONTINUOUS
 62
     7
 10
662.304868465753
 20
416.1979789849298
 30
0.0
 40
1.50829635055949
 50
86.14349977985621
 51
90.02239040991265
  0
ARC
  5
99
  8
0
  6
CONTINUOUS
 62
     7
 10
500.3548599055902
 20
409.0631032244348
 30
0.0
 40
27.00865325662893
 50
6.410705432727343
 51
8.654256426451717
  0
LINE
  5
9A
  8
0
  6
CONTINUOUS
 62
     7
 10
660.1227160074396
 20
172.600015
 30
0.0
 11
658.9356254303507
 21
172.600015
 31
0.0
  0
LINE
  5
9B
  8
0
  6
CONTINUOUS
 62
     7
 10
654.9938531148857
 20
417.6449559058822
 30
0.0
 11
654.9956746437654
 21
417.6632171115154
 31
0.0
  0
ARC
  5
9C
  8
0
  6
CONTINUOUS
 62
     7
 10
662.0010561334486
 20
415.6046838145354
 30
0.0
 40
1.509763425322053
 50
63.47865414946529
 51
85.81445694532502
  0
ARC
  5
9D
  8
0
  6
CONTINUOUS
 62
     7
 10
527.2980104006531
 20
416.0808559554308
 30
0.0
 40
0.9362474897525175
 50
209.7965910514532
 51
214.1223414329414
  0
ARC
  5
9E
  8
0
  6
CONTINUOUS
 62
     7
 10
661.6726420070369
 20
409.4073077253222
 30
0.0
 40
1.240950885793568
 50
63.27391345324594
 51
88.29865128553024
  0
ARC
  5
9F
  8
0
  6
CONTINUOUS
 62
     7
 10
531.9888379312205
 20
415.928200257294
 30
0.0
 40
5.353731838804388
 50
188.7868020695186
 51
193.9087289293218
  0
LINE
  5
A0
  8
0
  6
CONTINUOUS
 62
     7
 10
586.5
 20
205.800015
 30
0.0
 11
586.5
 21
204.5263668223331
 31
0.0
  0
LINE
  5
A1
  8
0
  6
CONTINUOUS
 62
   253
 10
527.7004270371341
 20
242.4822851376319
 30
0.0
 11
527.7004270371341
 21
354.7065797068144
 31
0.0
  0
LINE
  5
A2
  8
0
  6
CONTINUOUS
 62
     7
 10
528.8363242581282
 20
179.0960832777185
 30
0.0
 11
530.3323109691368
 21
179.0569094870355
 31
0.0
  0
LINE
  5
A3
  8
0
  6
CONTINUOUS
 62
     7
 10
659.6437088882385
 20
205.900015
 30
0.0
 11
660.1655185819209
 21
205.4004908892091
 31
0.0
  0
LINE
  5
A4
  8
0
  6
CONTINUOUS
 62
     7
 10
661.3138221581864
 20
179.100015
 30
0.0
 11
661.167403432094
 21
179.0961808907223
 31
0.0
  0
LINE
  5
A5
  8
0
  6
CONTINUOUS
 62
     7
 10
655.4956556052973
 20
417.7065797068144
 30
0.0
 11
654.9956746437654
 21
417.6632171115154
 31
0.0
  0
LINE
  5
A6
  8
0
  6
CONTINUOUS
 62
     7
 10
660.1227160074396
 20
172.600015
 30
0.0
 11
661.259746047403
 21
172.600015
 31
0.0
  0
LINE
  5
A7
  8
0
  6
CONTINUOUS
 62
     7
 10
661.5976182870917
 20
172.600015
 30
0.0
 11
661.4078080556822
 21
176.9473840388997
 31
0.0
  0
ARC
  5
A8
  8
0
  6
CONTINUOUS
 62
     7
 10
527.985442568051
 20
415.6164795414
 30
0.0
 40
1.491835117162332
 50
138.8571486463933
 51
161.4648904229642
  0
ARC
  5
A9
  8
0
  6
CONTINUOUS
 62
     7
 10
660.7264899137102
 20
377.5534102259776
 30
0.0
 40
33.10889700226716
 50
89.22917343811537
 51
89.23945735223981
  0
LINE
  5
AA
  8
0
  6
CONTINUOUS
 62
     7
 10
660.8010006304929
 20
242.2934202931856
 30
0.0
 11
529.198999369507
 21
242.2934202931856
 31
0.0
  0
LINE
  5
AB
  8
0
  6
CONTINUOUS
 62
     7
 10
659.5212703047708
 20
179.0530753777578
 30
0.0
 11
659.6676890308635
 21
179.0569094870355
 31
0.0
  0
LINE
  5
AC
  8
0
  6
CONTINUOUS
 62
     7
 10
655.4956556052973
 20
417.7065797068144
 30
0.0
 11
662.3042789251173
 21
417.7065797068144
 31
0.0
  0
LINE
  5
AD
  8
0
  6
CONTINUOUS
 62
     7
 10
528.592191944318
 20
176.9473840388997
 30
0.0
 11
528.8673463197256
 21
183.2494553428637
 31
0.0
  0
ARC
  5
AE
  8
0
  6
CONTINUOUS
 62
     7
 10
525.6199066915705
 20
414.9437397810824
 30
0.0
 40
1.090835451915351
 50
8.786802069508935
 51
34.12234143294214
  0
LINE
  5
AF
  8
0
  6
CONTINUOUS
 62
     7
 10
535.2
 20
178.600015
 30
0.0
 11
531.2
 21
178.634922471163
 31
0.0
  0
LINE
  5
B0
  8
0
  6
CONTINUOUS
 62
     7
 10
654.9938531148857
 20
417.6449559058822
 30
0.0
 11
654.4938721533538
 21
417.6015933105832
 31
0.0
  0
LINE
  5
B1
  8
0
  6
CONTINUOUS
 62
     7
 10
532.8023302246116
 20
205.800015
 30
0.0
 11
586.5
 21
205.800015
 31
0.0
  0
LINE
  5
B2
  8
0
  6
CONTINUOUS
 62
   253
 10
603.5
 20
204.5263668223331
 30
0.0
 11
586.5
 21
204.5263668223331
 31
0.0
  0
ARC
  5
B3
  8
0
  6
CONTINUOUS
 62
     7
 10
529.198999369507
 20
206.900015
 30
0.0
 40
1.500000000000057
 50
90.0
 51
177.500000000001
  0
LINE
  5
B4
  8
0
  6
CONTINUOUS
 62
     7
 10
528.555195013088
 20
176.100015
 30
0.0
 11
528.7019489240506
 21
176.1038578864025
 31
0.0
  0
LINE
  5
B5
  8
0
  6
CONTINUOUS
 62
     7
 10
529.8344814180792
 20
205.4004908892091
 30
0.0
 11
530.3562911117618
 21
205.900015
 31
0.0
  0
LINE
  5
B6
  8
0
  6
CONTINUOUS
 62
   253
 10
527.3354640838984
 20
410.217654778612
 30
0.0
 11
527.2975949661708
 21
411.164982458009
 31
0.0
  0
LINE
  5
B7
  8
0
  6
CONTINUOUS
 62
     7
 10
658.7043253562346
 20
205.3043782677492
 30
0.0
 11
658.9626787205019
 21
175.700015
 31
0.0
  0
ARC
  5
B8
  8
0
  6
CONTINUOUS
 62
     7
 10
661.2188509809121
 20
417.552978627168
 30
0.0
 40
0.9119235435319784
 50
326.408002098983
 51
330.9370827310823
  0
ARC
  5
B9
  8
0
  6
CONTINUOUS
 62
     7
 10
-509.6828636327406
 20
295.5781210831991
 30
0.0
 40
1043.401807573447
 50
6.360211005522199
 51
6.410705432726793
  0
ARC
  5
BA
  8
0
  6
CONTINUOUS
 62
     7
 10
527.9989438665513
 20
415.6046838145362
 30
0.0
 40
1.509763425321164
 50
94.18554305466262
 51
116.5213458505347
  0
LINE
  5
BB
  8
0
  6
CONTINUOUS
 62
   253
 10
528.7961672985437
 20
412.554042830285
 30
0.0
 11
528.8340364162713
 21
410.6593874714911
 31
0.0
  0
LINE
  5
BC
  8
0
  6
CONTINUOUS
 62
     7
 10
527.7004270371341
 20
206.965444081048
 30
0.0
 11
526.3898102314095
 21
176.9473840388997
 31
0.0
  0
LINE
  5
BD
  8
0
  6
CONTINUOUS
 62
     7
 10
528.5921919443177
 20
176.9473840388997
 30
0.0
 11
528.4023817129082
 21
172.600015
 31
0.0
  0
LINE
  5
BE
  8
0
  6
CONTINUOUS
 62
     7
 10
535.5061278466465
 20
417.6015933105832
 30
0.0
 11
535.0061468851144
 21
417.6449559058822
 31
0.0
  0
ARC
  5
BF
  8
0
  6
CONTINUOUS
 62
     7
 10
527.9942624977643
 20
415.6135224232368
 30
0.0
 40
1.501137574256295
 50
161.464890422965
 51
179.7608245174829
  0
ARC
  5
C0
  8
0
  6
CONTINUOUS
 62
     7
 10
-4061.88799056274
 20
354.7065797068136
 30
0.0
 40
4591.086989932248
 50
0.0000000000000568
 51
0.4537246137626881
  0
ARC
  5
C1
  8
0
  6
CONTINUOUS
 62
     7
 10
660.8010006304929
 20
206.900015
 30
0.0
 40
1.500000000000057
 50
2.499999999999095
 51
89.9999999999979
  0
ARC
  5
C2
  8
0
  6
CONTINUOUS
 62
     7
 10
510.2823217081682
 20
183.8626310871561
 30
0.0
 40
20.26370114237863
 50
337.3980824182001
 51
337.509793860695
  0
LINE
  5
C3
  8
0
  6
CONTINUOUS
 62
     7
 10
531.2
 20
178.634922471163
 30
0.0
 11
531.2
 21
190.565107528837
 31
0.0
  0
LINE
  5
C4
  8
0
  6
CONTINUOUS
 62
     7
 10
528.8673463197256
 20
183.2494553428637
 30
0.0
 11
528.9212090744111
 21
184.4831152479728
 31
0.0
  0
ARC
  5
C5
  8
0
  6
CONTINUOUS
 62
     7
 10
662.4410271700563
 20
410.2004997247768
 30
0.0
 40
0.2248210145041618
 50
4.389040045246645
 51
76.38881626713612
  0
ARC
  5
C6
  8
0
  6
CONTINUOUS
 62
     7
 10
-2866.53714482243
 20
364.1727470735976
 30
0.0
 40
3395.698662761244
 50
0.4537246137626312
 51
0.7843978619305291
  0
LINE
  5
C7
  8
0
  6
CONTINUOUS
 62
     7
 10
526.7235194864687
 20
248.3065952462818
 30
0.0
 11
526.7739231668286
 21
248.5368637592317
 31
0.0
  0
LINE
  5
C8
  8
0
  6
CONTINUOUS
 62
     7
 10
601.0303061543301
 20
204.700015
 30
0.0
 11
601.0
 21
204.700015
 31
0.0
  0
LINE
  5
C9
  8
0
  6
CONTINUOUS
 62
     7
 10
663.6101897685904
 20
176.9473840388997
 30
0.0
 11
663.8000000000001
 21
172.600015
 31
0.0
  0
ARC
  5
CA
  8
0
  6
CONTINUOUS
 62
     7
 10
662.0057375022358
 20
415.613522423237
 30
0.0
 40
1.501137574255851
 50
0.2391754825129055
 51
18.5351095770344
  0
ARC
  5
CB
  8
0
  6
CONTINUOUS
 62
     7
 10
528.551563388155
 20
411.1387791593294
 30
0.0
 40
1.253996573521654
 50
160.8439772880935
 51
178.802904497345
  0
LINE
  5
CC
  8
0
  6
CONTINUOUS
 62
     7
 10
659.6437088882385
 20
205.900015
 30
0.0
 11
530.3562911117618
 21
205.900015
 31
0.0
  0
LINE
  5
CD
  8
0
  6
CONTINUOUS
 62
     7
 10
535.5061278466465
 20
417.6015933105832
 30
0.0
 11
654.4938721533537
 21
417.6015933105832
 31
0.0
  0
LINE
  5
CE
  8
0
  6
CONTINUOUS
 62
     7
 10
843.0003426750243
 20
296.203979307109
 30
0.0
 11
746.9996573249755
 21
296.203979307109
 31
0.0
  0
ARC
  5
CF
  8
0
  6
CONTINUOUS
 62
     7
 10
528.8266568911998
 20
410.8803666284886
 30
0.0
 40
1.674170669521913
 50
91.04364976188651
 51
96.11451630227748
  0
LINE
  5
D0
  8
0
  6
CONTINUOUS
 62
     7
 10
660.8010006304929
 20
208.400015
 30
0.0
 11
529.198999369507
 21
208.400015
 31
0.0
  0
LINE
  5
D1
  8
0
  6
CONTINUOUS
 62
     7
 10
661.167403432094
 20
179.0961808907223
 30
0.0
 11
659.6676890308635
 21
179.0569094870355
 31
0.0
  0
LINE
  5
D2
  8
0
  6
CONTINUOUS
 62
     7
 10
531.2
 20
190.565107528837
 30
0.0
 11
535.2
 21
190.600015
 31
0.0
  0
LINE
  5
D3
  8
0
  6
CONTINUOUS
 62
     7
 10
530.3323109691368
 20
179.0569094870355
 30
0.0
 11
530.4787296952292
 21
179.0530753777578
 31
0.0
  0
ARC
  5
D4
  8
0
  6
CONTINUOUS
 62
     7
 10
656.9089747804529
 20
174.3673885269931
 30
0.0
 40
4.442504295654737
 50
17.4481145880332
 51
22.60191758180031
  0
LINE
  5
D5
  8
0
  6
CONTINUOUS
 62
     7
 10
663.8
 20
172.600015
 30
0.0
 11
661.5976182870917
 21
172.600015
 31
0.0
  0
LINE
  5
D6
  8
0
  6
CONTINUOUS
 62
     7
 10
661.2980510759494
 20
176.1038578864025
 30
0.0
 11
659.7949034965305
 21
176.143219191024
 31
0.0
  0
LINE
  5
D7
  8
0
  6
CONTINUOUS
 62
     7
 10
531.0643745696495
 20
172.600015
 30
0.0
 11
529.8772839925604
 21
172.600015
 31
0.0
  0
LINE
  5
D8
  8
0
  6
CONTINUOUS
 62
     7
 10
659.7949034965305
 20
176.143219191024
 30
0.0
 11
659.6481495855679
 21
176.1470620774265
 31
0.0
  0
LINE
  5
D9
  8
0
  6
CONTINUOUS
 62
     7
 10
530.5400045620794
 20
180.33284958121
 30
0.0
 11
530.540028180103
 21
180.3333905228838
 31
0.0
  0
LINE
  5
DA
  8
0
  6
CONTINUOUS
 62
     7
 10
549.4663115651256
 20
205.300015
 30
0.0
 11
550.0336884348745
 21
205.300015
 31
0.0
  0
LINE
  5
DB
  8
0
  6
CONTINUOUS
 62
     7
 10
602.4445197167032
 20
205.700015
 30
0.0
 11
603.5
 21
205.700015
 31
0.0
  0
LINE
  5
DC
  8
0
  6
CONTINUOUS
 62
     7
 10
531.7956556052974
 20
205.800015
 30
0.0
 11
532.8023302246116
 21
205.800015
 31
0.0
  0
LINE
  5
DD
  8
0
  6
CONTINUOUS
 62
     7
 10
535.2
 20
190.600015
 30
0.0
 11
535.2
 21
178.600015
 31
0.0
  0
LINE
  5
DE
  8
0
  6
CONTINUOUS
 62
     7
 10
530.909601197068
 20
188.7980042564789
 30
0.0
 11
530.5400045620794
 21
180.33284958121
 31
0.0
  0
LINE
  5
DF
  8
0
  6
CONTINUOUS
 62
     7
 10
532.570885447986
 20
171.600015
 30
0.0
 11
657.4291145520141
 21
171.600015
 31
0.0
  0
LINE
  5
E0
  8
0
  6
CONTINUOUS
 62
     7
 10
608.0
 20
198.3000150000001
 30
0.0
 11
608.0
 21
205.3000150000001
 31
0.0
  0
LINE
  5
E1
  8
0
  6
CONTINUOUS
 62
     7
 10
528.7481852421444
 20
172.600015
 30
0.0
 11
529.8772839925604
 21
172.600015
 31
0.0
  0
LINE
  5
E2
  8
0
  6
CONTINUOUS
 62
     7
 10
626.116022172506
 20
204.800015
 30
0.0
 11
626.0829742032453
 21
204.800015
 31
0.0
  0
LINE
  5
E3
  8
0
  6
CONTINUOUS
 62
     7
 10
526.2
 20
172.600015
 30
0.0
 11
526.3898102314096
 21
176.9473840388997
 31
0.0
  0
LINE
  5
E4
  8
0
  6
CONTINUOUS
 62
   253
 10
581.0829742032454
 20
205.300015
 30
0.0
 11
581.0829742032454
 21
204.800015
 31
0.0
  0
LINE
  5
E5
  8
0
  6
CONTINUOUS
 62
     7
 10
609.520094057812
 20
204.800015
 30
0.0
 11
608.9170257967548
 21
204.800015
 31
0.0
  0
LINE
  5
E6
  8
0
  6
CONTINUOUS
 62
     7
 10
530.351850414432
 20
176.1470620774265
 30
0.0
 11
530.2050965034695
 21
176.143219191024
 31
0.0
  0
LINE
  5
E7
  8
0
  6
CONTINUOUS
 62
     7
 10
662.2995729628658
 20
206.965444081048
 30
0.0
 11
663.6101897685904
 21
176.9473840388997
 31
0.0
  0
LINE
  5
E8
  8
0
  6
CONTINUOUS
 62
     7
 10
608.9170257967547
 20
204.800015
 30
0.0
 11
608.8839778274944
 21
204.800015
 31
0.0
  0
LINE
  5
E9
  8
0
  6
CONTINUOUS
 62
     7
 10
661.2980510759494
 20
176.1038578864025
 30
0.0
 11
661.4448049869119
 21
176.100015
 31
0.0
  0
LINE
  5
EA
  8
0
  6
CONTINUOUS
 62
     7
 10
562.5
 20
198.300015
 30
0.0
 11
562.5
 21
205.300015
 31
0.0
  0
LINE
  5
EB
  8
0
  6
CONTINUOUS
 62
     7
 10
626.0829742032454
 20
204.800015
 30
0.0
 11
625.4799059421882
 21
204.800015
 31
0.0
  0
LINE
  5
EC
  8
0
  6
CONTINUOUS
 62
     7
 10
627.5336884348745
 20
205.300015
 30
0.0
 11
625.8798946261641
 21
205.300015
 31
0.0
  0
LINE
  5
ED
  8
0
  6
CONTINUOUS
 62
   253
 10
563.9170257967546
 20
204.800015
 30
0.0
 11
563.9170257967546
 21
205.300015
 31
0.0
  0
LINE
  5
EE
  8
0
  6
CONTINUOUS
 62
   253
 10
627.5249832770684
 20
198.3000918938668
 30
0.0
 11
627.5249832770684
 21
205.300015
 31
0.0
  0
LINE
  5
EF
  8
0
  6
CONTINUOUS
 62
     7
 10
564.1201053738358
 20
205.300015
 30
0.0
 11
564.5200940578119
 21
205.300015
 31
0.0
  0
LINE
  5
F0
  8
0
  6
CONTINUOUS
 62
   253
 10
582.5249832770686
 20
198.3000918938668
 30
0.0
 11
582.5
 21
198.300015
 31
0.0
  0
LINE
  5
F1
  8
0
  6
CONTINUOUS
 62
     7
 10
657.1976697753885
 20
205.800015
 30
0.0
 11
658.2043443947025
 21
205.800015
 31
0.0
  0
LINE
  5
F2
  8
0
  6
CONTINUOUS
 62
     7
 10
608.8839778274944
 20
198.3898564676929
 30
0.0
 11
608.8839778274944
 21
204.800015
 31
0.0
  0
LINE
  5
F3
  8
0
  6
CONTINUOUS
 62
     7
 10
582.0
 20
198.3000150000001
 30
0.0
 11
582.0
 21
205.3000150000001
 31
0.0
  0
LINE
  5
F4
  8
0
  6
CONTINUOUS
 62
     7
 10
564.5200940578118
 20
204.800015
 30
0.0
 11
580.4799059421879
 21
204.800015
 31
0.0
  0
LINE
  5
F5
  8
0
  6
CONTINUOUS
 62
     7
 10
564.5200940578118
 20
204.800015
 30
0.0
 11
563.9170257967545
 21
204.800015
 31
0.0
  0
LINE
  5
F6
  8
0
  6
CONTINUOUS
 62
     7
 10
531.1670578512084
 20
190.5663536246899
 30
0.0
 11
531.2956746437654
 21
205.3043782677492
 31
0.0
  0
LINE
  5
F7
  8
0
  6
CONTINUOUS
 62
     7
 10
562.4663115651256
 20
205.300015
 30
0.0
 11
564.1201053738358
 21
205.300015
 31
0.0
  0
LINE
  5
F8
  8
0
  6
CONTINUOUS
 62
     7
 10
586.5
 20
205.700015
 30
0.0
 11
587.5554802832968
 21
205.700015
 31
0.0
  0
ARC
  5
F9
  8
0
  6
CONTINUOUS
 62
     7
 10
622.5024454179614
 20
198.3926470462435
 30
0.0
 40
3.613577406688884
 50
269.9612261968507
 51
359.9655776250637
  0
LINE
  5
FA
  8
0
  6
CONTINUOUS
 62
     7
 10
581.0829742032454
 20
204.800015
 30
0.0
 11
580.4799059421881
 21
204.800015
 31
0.0
  0
LINE
  5
FB
  8
0
  6
CONTINUOUS
 62
   253
 10
609.520094057812
 20
205.300015
 30
0.0
 11
609.520094057812
 21
204.800015
 31
0.0
  0
LINE
  5
FC
  8
0
  6
CONTINUOUS
 62
     7
 10
607.4999999999999
 20
205.300015
 30
0.0
 11
607.4999999999999
 21
198.300015
 31
0.0
  0
LINE
  5
FD
  8
0
  6
CONTINUOUS
 62
     7
 10
625.4799059421882
 20
205.300015
 30
0.0
 11
625.8798946261642
 21
205.300015
 31
0.0
  0
LINE
  5
FE
  8
0
  6
CONTINUOUS
 62
     7
 10
603.5
 20
205.800015
 30
0.0
 11
657.1976697753886
 21
205.800015
 31
0.0
  0
LINE
  5
FF
  8
0
  6
CONTINUOUS
 62
   253
 10
625.4799059421882
 20
204.800015
 30
0.0
 11
625.4799059421882
 21
205.300015
 31
0.0
  0
ARC
  5
100
  8
0
  6
CONTINUOUS
 62
     7
 10
577.502285362282
 20
198.3928077597213
 30
0.0
 40
3.613738015364465
 50
269.9637656018247
 51
359.9532072897546
  0
LINE
  5
101
  8
0
  6
CONTINUOUS
 62
     7
 10
528.4023817129084
 20
172.600015
 30
0.0
 11
526.2
 21
172.600015
 31
0.0
  0
LINE
  5
102
  8
0
  6
CONTINUOUS
 62
     7
 10
640.0
 20
205.300015
 30
0.0
 11
640.0
 21
198.300015
 31
0.0
  0
LINE
  5
103
  8
0
  6
CONTINUOUS
 62
     7
 10
661.407808055682
 20
176.9473840388997
 30
0.0
 11
660.1655185819209
 21
205.4004908892091
 31
0.0
  0
ARC
  5
104
  8
0
  6
CONTINUOUS
 62
     7
 10
612.4977144575032
 20
198.3928075792459
 30
0.0
 40
3.613737835002295
 50
180.0467898512221
 51
270.0362372385774
  0
LINE
  5
105
  8
0
  6
CONTINUOUS
 62
     7
 10
640.5336884348745
 20
205.300015
 30
0.0
 11
639.9663115651255
 21
205.300015
 31
0.0
  0
LINE
  5
106
  8
0
  6
CONTINUOUS
 62
   253
 10
627.5249832770687
 20
198.3000918938668
 30
0.0
 11
627.5000000000001
 21
198.300015
 31
0.0
  0
LINE
  5
107
  8
0
  6
CONTINUOUS
 62
   253
 10
608.9170257967547
 20
204.800015
 30
0.0
 11
608.9170257967547
 21
205.300015
 31
0.0
  0
LINE
  5
108
  8
0
  6
CONTINUOUS
 62
     7
 10
625.4799059421882
 20
204.800015
 30
0.0
 11
609.520094057812
 21
204.800015
 31
0.0
  0
LINE
  5
109
  8
0
  6
CONTINUOUS
 62
     7
 10
528.7019489240506
 20
176.1038578864025
 30
0.0
 11
530.2050965034693
 21
176.143219191024
 31
0.0
  0
ARC
  5
10A
  8
0
  6
CONTINUOUS
 62
     7
 10
531.7956556052974
 20
205.300015
 30
0.0
 40
0.4999999999999449
 50
90.0
 51
179.4999999999994
  0
LINE
  5
10B
  8
0
  6
CONTINUOUS
 62
     7
 10
580.8798946261642
 20
205.300015
 30
0.0
 11
582.5336884348745
 21
205.300015
 31
0.0
  0
LINE
  5
10C
  8
0
  6
CONTINUOUS
 62
   253
 10
580.4799059421881
 20
204.800015
 30
0.0
 11
580.4799059421881
 21
205.300015
 31
0.0
  0
LINE
  5
10D
  8
0
  6
CONTINUOUS
 62
     7
 10
550.0
 20
205.300015
 30
0.0
 11
550.0
 21
198.300015
 31
0.0
  0
ARC
  5
10E
  8
0
  6
CONTINUOUS
 62
     7
 10
658.2043443947025
 20
205.300015
 30
0.0
 40
0.500000000000056
 50
0.4999999999972982
 51
90.0
  0
ARC
  5
10F
  8
0
  6
CONTINUOUS
 62
     7
 10
679.7176782919494
 20
183.8626310872052
 30
0.0
 40
20.26370114250631
 50
202.4902061393061
 51
202.6019175818002
  0
LINE
  5
110
  8
0
  6
CONTINUOUS
 62
     7
 10
549.5
 20
198.300015
 30
0.0
 11
549.5
 21
205.300015
 31
0.0
  0
LINE
  5
111
  8
0
  6
CONTINUOUS
 62
     7
 10
622.5
 20
194.7790704669993
 30
0.0
 11
612.49999999882
 21
194.7790704669993
 31
0.0
  0
LINE
  5
112
  8
0
  6
CONTINUOUS
 62
     7
 10
531.0373212794982
 20
175.700015
 30
0.0
 11
531.1670578512084
 21
190.5663536246899
 31
0.0
  0
ARC
  5
113
  8
0
  6
CONTINUOUS
 62
     7
 10
533.0910252195472
 20
174.367388526993
 30
0.0
 40
4.442504295654848
 50
157.3980824181999
 51
162.5518854120064
  0
LINE
  5
114
  8
0
  6
CONTINUOUS
 62
   253
 10
564.5200940578118
 20
205.300015
 30
0.0
 11
564.5200940578118
 21
204.800015
 31
0.0
  0
LINE
  5
115
  8
0
  6
CONTINUOUS
 62
     7
 10
640.5
 20
198.300015
 30
0.0
 11
640.5
 21
205.300015
 31
0.0
  0
LINE
  5
116
  8
0
  6
CONTINUOUS
 62
     7
 10
528.9212090744112
 20
184.4831152479728
 30
0.0
 11
529.8344814180792
 21
205.4004908892091
 31
0.0
  0
LINE
  5
117
  8
0
  6
CONTINUOUS
 62
     7
 10
582.5
 20
205.300015
 30
0.0
 11
582.5
 21
198.300015
 31
0.0
  0
LINE
  5
118
  8
0
  6
CONTINUOUS
 62
     7
 10
603.5
 20
204.5263668223331
 30
0.0
 11
603.5
 21
205.800015
 31
0.0
  0
ARC
  5
119
  8
0
  6
CONTINUOUS
 62
     7
 10
567.497554582034
 20
198.3926470462409
 30
0.0
 40
3.613577406683555
 50
180.0344223568648
 51
270.0387737411239
  0
LINE
  5
11A
  8
0
  6
CONTINUOUS
 62
   253
 10
622.5
 20
193.800015
 30
0.0
 11
622.5
 21
194.7790704669993
 31
0.0
  0
LINE
  5
11B
  8
0
  6
CONTINUOUS
 62
     7
 10
567.5
 20
193.800015
 30
0.0
 11
577.5
 21
193.800015
 31
0.0
  0
LINE
  5
11C
  8
0
  6
CONTINUOUS
 62
     7
 10
660.423340548234
 20
175.700015
 30
0.0
 11
660.4075219710417
 21
176.1271772116987
 31
0.0
  0
LINE
  5
11D
  8
0
  6
CONTINUOUS
 62
     7
 10
626.116022172506
 20
204.800015
 30
0.0
 11
626.116022172506
 21
198.3904760676841
 31
0.0
  0
LINE
  5
11E
  8
0
  6
CONTINUOUS
 62
   253
 10
577.5
 20
193.800015
 30
0.0
 11
577.5
 21
194.7790704669993
 31
0.0
  0
ARC
  5
11F
  8
0
  6
CONTINUOUS
 62
     7
 10
577.5
 20
198.300015
 30
0.0
 40
5.000000000000004
 50
270.0
 51
0.0
  0
LINE
  5
120
  8
0
  6
CONTINUOUS
 62
   253
 10
581.1160221725075
 20
198.3898564677121
 30
0.0
 11
581.999999874547
 21
198.2992491128795
 31
0.0
  0
LINE
  5
121
  8
0
  6
CONTINUOUS
 62
     7
 10
627.0000000000002
 20
205.3000150000001
 30
0.0
 11
627.0000000000002
 21
198.3000150000001
 31
0.0
  0
LINE
  5
122
  8
0
  6
CONTINUOUS
 62
     7
 10
580.4799059421881
 20
205.300015
 30
0.0
 11
580.8798946261642
 21
205.300015
 31
0.0
  0
LINE
  5
123
  8
0
  6
CONTINUOUS
 62
     7
 10
564.2807690259226
 20
193.300015
 30
0.0
 11
554.5
 21
193.300015
 31
0.0
  0
LINE
  5
124
  8
0
  6
CONTINUOUS
 62
     7
 10
554.5
 20
193.800015
 30
0.0
 11
563.5971895136786
 21
193.800015
 31
0.0
  0
LINE
  5
125
  8
0
  6
CONTINUOUS
 62
     7
 10
858.9364981171263
 20
400.703979307109
 30
0.0
 11
860.2243937681056
 21
401.991924002811
 31
0.0
  0
LINE
  5
126
  8
0
  6
CONTINUOUS
 62
   253
 10
528.9876967567941
 20
179.1544045721411
 30
0.0
 11
528.9849804351796
 21
179.0921905787255
 31
0.0
  0
LINE
  5
127
  8
0
  6
CONTINUOUS
 62
   253
 10
626.0829742032454
 20
205.300015
 30
0.0
 11
626.0829742032454
 21
204.800015
 31
0.0
  0
LINE
  5
128
  8
0
  6
CONTINUOUS
 62
     7
 10
609.1201053738359
 20
205.300015
 30
0.0
 11
609.520094057812
 21
205.300015
 31
0.0
  0
ARC
  5
129
  8
0
  6
CONTINUOUS
 62
     7
 10
612.5001246574027
 20
198.3001397096613
 30
0.0
 40
4.500124711387832
 50
180.0210903421381
 51
269.9984128566412
  0
ARC
  5
12A
  8
0
  6
CONTINUOUS
 62
     7
 10
622.5003520405485
 20
198.2996629594516
 30
0.0
 40
4.999647971845711
 50
269.995965628425
 51
0.0040343715743347
  0
LINE
  5
12B
  8
0
  6
CONTINUOUS
 62
     7
 10
612.5
 20
193.300015
 30
0.0
 11
622.5
 21
193.300015
 31
0.0
  0
LINE
  5
12C
  8
0
  6
CONTINUOUS
 62
     7
 10
858.9626787205019
 20
400.6190613357748
 30
0.0
 11
858.9364981171265
 21
400.703979307109
 31
0.0
  0
LINE
  5
12D
  8
0
  6
CONTINUOUS
 62
     7
 10
731.0373212794981
 20
285.0119379213272
 30
0.0
 11
731.0373212794981
 21
400.6190613357747
 31
0.0
  0
ARC
  5
12E
  8
0
  6
CONTINUOUS
 62
     7
 10
612.5
 20
198.300015
 30
0.0
 40
4.999999999999893
 50
180.0
 51
270.0
  0
LINE
  5
12F
  8
0
  6
CONTINUOUS
 62
     7
 10
860.2243937681058
 20
402.4160346114072
 30
0.0
 11
858.9364981171265
 21
403.7039793071092
 31
0.0
  0
ARC
  5
130
  8
0
  6
CONTINUOUS
 62
     7
 10
729.8768573776892
 20
402.2037813541528
 30
0.0
 40
0.3002373437759331
 50
135.0125804640359
 51
157.4762981126128
  0
LINE
  5
131
  8
0
  6
CONTINUOUS
 62
     7
 10
858.9626787205019
 20
284.7039793071092
 30
0.0
 11
858.9626787205019
 21
285.0119379213406
 31
0.0
  0
LINE
  5
132
  8
0
  6
CONTINUOUS
 62
     7
 10
535.2
 20
178.600015
 30
0.0
 11
535.2151910811384
 21
178.5998824294433
 31
0.0
  0
LINE
  5
133
  8
0
  6
CONTINUOUS
 62
   253
 10
860.2243937681058
 20
402.4160346114072
 30
0.0
 11
860.3354891091321
 21
402.4160346113862
 31
0.0
  0
ARC
  5
134
  8
0
  6
CONTINUOUS
 62
     7
 10
860.123142622311
 20
402.203781354153
 30
0.0
 40
0.3002373437757111
 50
22.52370188738792
 51
44.98741953597163
  0
LINE
  5
135
  8
0
  6
CONTINUOUS
 62
     7
 10
729.6645108908679
 20
402.4160346113862
 30
0.0
 11
731.037321279498
 21
403.7888972784008
 31
0.0
  0
LINE
  5
136
  8
0
  6
CONTINUOUS
 62
   253
 10
661.1635021769175
 20
175.6913796432399
 30
0.0
 11
661.1453183682773
 21
176.1078573331067
 31
0.0
  0
LINE
  5
137
  8
0
  6
CONTINUOUS
 62
   253
 10
608.0000000773473
 20
198.2992491079241
 30
0.0
 11
608.8839778274955
 21
198.3898564676799
 31
0.0
  0
ARC
  5
138
  8
0
  6
CONTINUOUS
 62
     7
 10
567.5004482339738
 20
198.3004632339738
 30
0.0
 40
4.500448256295253
 50
180.0057065237754
 51
269.9942934762247
  0
LINE
  5
139
  8
0
  6
CONTINUOUS
 62
   253
 10
567.5
 20
193.800015
 30
0.0
 11
567.4999999960836
 21
194.7790704669993
 31
0.0
  0
ARC
  5
13A
  8
0
  6
CONTINUOUS
 62
     7
 10
554.4996479594514
 20
198.2996629594515
 30
0.0
 40
4.9996479718456
 50
179.9959656284243
 51
270.0040343715752
  0
LINE
  5
13B
  8
0
  6
CONTINUOUS
 62
     7
 10
858.9364981171263
 20
403.7039793071092
 30
0.0
 11
858.9626787205018
 21
403.7888972784008
 31
0.0
  0
LINE
  5
13C
  8
0
  6
CONTINUOUS
 62
     7
 10
731.0373212794981
 20
400.6190613357748
 30
0.0
 11
729.664510890868
 21
401.99192400279
 31
0.0
  0
LINE
  5
13D
  8
0
  6
CONTINUOUS
 62
     7
 10
860.335489109132
 20
402.4160346113862
 30
0.0
 11
858.9626787205019
 21
403.7888972784008
 31
0.0
  0
ARC
  5
13E
  8
0
  6
CONTINUOUS
 62
     7
 10
635.5011531934811
 20
198.2988618065188
 30
0.0
 40
4.498846954318458
 50
269.985313321208
 51
0.0146866787930549
  0
LINE
  5
13F
  8
0
  6
CONTINUOUS
 62
     7
 10
627.5000000000001
 20
198.300015
 30
0.0
 11
627.5000000000001
 21
205.300015
 31
0.0
  0
LINE
  5
140
  8
0
  6
CONTINUOUS
 62
     7
 10
567.4999999960836
 20
194.7790704669993
 30
0.0
 11
577.4999999999999
 21
194.7790704669993
 31
0.0
  0
LINE
  5
141
  8
0
  6
CONTINUOUS
 62
     7
 10
563.8839778274942
 20
204.8000150000001
 30
0.0
 11
563.8839778274942
 21
198.3904760688212
 31
0.0
  0
LINE
  5
142
  8
0
  6
CONTINUOUS
 62
     7
 10
581.1160221725056
 20
198.3898564676977
 30
0.0
 11
581.1160221725056
 21
204.800015
 31
0.0
  0
LINE
  5
143
  8
0
  6
CONTINUOUS
 62
     7
 10
661.593776785463
 20
172.600015
 30
0.0
 11
661.4024634855931
 21
172.600015
 31
0.0
  0
LINE
  5
144
  8
0
  6
CONTINUOUS
 62
     7
 10
858.9600606629983
 20
284.7119379213272
 30
0.0
 11
861.0920413857818
 21
284.7119379213272
 31
0.0
  0
ARC
  5
145
  8
0
  6
CONTINUOUS
 62
     7
 10
622.4995517660261
 20
198.3004632339739
 30
0.0
 40
4.500448256295364
 50
270.0057065237752
 51
359.994293476224
  0
LINE
  5
146
  8
0
  6
CONTINUOUS
 62
   253
 10
627.0000000000002
 20
198.3000150000001
 30
0.0
 11
626.116022172506
 21
198.3904760676841
 31
0.0
  0
LINE
  5
147
  8
0
  6
CONTINUOUS
 62
     7
 10
562.9999999999999
 20
205.3000150000001
 30
0.0
 11
562.9999999999999
 21
198.3000150000001
 31
0.0
  0
LINE
  5
148
  8
0
  6
CONTINUOUS
 62
     7
 10
563.8839778274942
 20
204.8000150000001
 30
0.0
 11
563.9170257967546
 21
204.800015
 31
0.0
  0
LINE
  5
149
  8
0
  6
CONTINUOUS
 62
   253
 10
612.5
 20
193.800015
 30
0.0
 11
612.49999999882
 21
194.7790704669993
 31
0.0
  0
ARC
  5
14A
  8
0
  6
CONTINUOUS
 62
     7
 10
567.4996479594514
 20
198.2996629594515
 30
0.0
 40
4.9996479718456
 50
179.9959656284243
 51
270.0040343715758
  0
ARC
  5
14B
  8
0
  6
CONTINUOUS
 62
     7
 10
635.5003520405487
 20
198.2996629594516
 30
0.0
 40
4.999647971845711
 50
269.9959656284256
 51
0.0040343715743916
  0
LINE
  5
14C
  8
0
  6
CONTINUOUS
 62
     7
 10
622.5
 20
193.800015
 30
0.0
 11
612.5
 21
193.800015
 31
0.0
  0
LINE
  5
14D
  8
0
  6
CONTINUOUS
 62
     7
 10
535.2
 20
190.600015
 30
0.0
 11
535.2
 21
190.6152066595902
 31
0.0
  0
ARC
  5
14E
  8
0
  6
CONTINUOUS
 62
     7
 10
577.4998753425974
 20
198.3001397096614
 30
0.0
 40
4.500124711387943
 50
270.0015871433595
 51
359.9789096578613
  0
LINE
  5
14F
  8
0
  6
CONTINUOUS
 62
     7
 10
609.1201053738359
 20
205.300015
 30
0.0
 11
607.4663115651257
 21
205.300015
 31
0.0
  0
ARC
  5
150
  8
0
  6
CONTINUOUS
 62
     7
 10
860.0120472812844
 20
402.204177260045
 30
0.0
 40
0.3002373437768213
 50
315.0125804640433
 51
337.4762981017118
  0
ARC
  5
151
  8
0
  6
CONTINUOUS
 62
     7
 10
408.7071706504146
 20
352.3614266983272
 30
0.0
 40
65.00000000000011
 50
67.82574192609648
 51
85.00000000000001
  0
LINE
  5
152
  8
0
  6
CONTINUOUS
 62
     7
 10
731.0373212794981
 20
403.7888972784008
 30
0.0
 11
731.0635018828735
 21
403.703979307109
 31
0.0
  0
LINE
  5
153
  8
0
  6
CONTINUOUS
 62
     7
 10
577.5
 20
193.300015
 30
0.0
 11
567.5
 21
193.300015
 31
0.0
  0
LINE
  5
154
  8
0
  6
CONTINUOUS
 62
     7
 10
581.0829742032454
 20
204.800015
 30
0.0
 11
581.1160221725056
 21
204.800015
 31
0.0
  0
ARC
  5
155
  8
0
  6
CONTINUOUS
 62
     7
 10
554.4988468065188
 20
198.2988618065189
 30
0.0
 40
4.498846954318347
 50
179.9853133212077
 51
270.0146866787923
  0
ARC
  5
156
  8
0
  6
CONTINUOUS
 62
     7
 10
729.9879527187147
 20
402.203781354174
 30
0.0
 40
0.3002373437757111
 50
135.0125804640358
 51
157.4762981017937
  0
ARC
  5
157
  8
0
  6
CONTINUOUS
 62
     7
 10
529.6824605194839
 20
190.4558470563007
 30
0.0
 40
0.500000000000056
 50
177.5
 51
254.9999999999997
  0
LINE
  5
158
  8
0
  6
CONTINUOUS
 62
     7
 10
406.600015000002
 20
258.8065797068143
 30
0.0
 11
406.600015000002
 21
260.3274115391584
 31
0.0
  0
ARC
  5
159
  8
0
  6
CONTINUOUS
 62
     7
 10
729.987475376665
 20
402.203979307109
 30
0.0
 40
0.2997205838729533
 50
180.0
 51
202.523701898249
  0
LINE
  5
15A
  8
0
  6
CONTINUOUS
 62
     7
 10
443.400015000002
 20
242.2934202931856
 30
0.0
 11
441.96544408105
 21
242.4822851376319
 31
0.0
  0
ARC
  5
15B
  8
0
  6
CONTINUOUS
 62
     7
 10
529.9104399827261
 20
188.841724400693
 30
0.0
 40
1.000117284749802
 50
357.4945155878738
 51
74.99460750612639
  0
ARC
  5
15C
  8
0
  6
CONTINUOUS
 62
     7
 10
729.9879527187147
 20
402.2041772600442
 30
0.0
 40
0.3002373437757111
 50
202.5237018982063
 51
224.9874195359642
  0
ARC
  5
15D
  8
0
  6
CONTINUOUS
 62
     7
 10
530.5
 20
173.2106326892089
 30
0.0
 40
0.500000000000056
 50
272.9999999999994
 51
0.0000000000001705
  0
LINE
  5
15E
  8
0
  6
CONTINUOUS
 62
     7
 10
731.0635018828737
 20
400.703979307109
 30
0.0
 11
731.0635018828735
 21
403.703979307109
 31
0.0
  0
LINE
  5
15F
  8
0
  6
CONTINUOUS
 62
     7
 10
406.600015000002
 20
411.7847625373374
 30
0.0
 11
407.600015000002
 21
411.7934894051281
 31
0.0
  0
ARC
  5
160
  8
0
  6
CONTINUOUS
 62
     7
 10
529.7490738653374
 20
196.5666606373309
 30
0.0
 40
17.42889406991577
 50
267.2728544785937
 51
267.4962507049243
  0
ARC
  5
161
  8
0
  6
CONTINUOUS
 62
     7
 10
860.123619964362
 20
402.203979307088
 30
0.0
 40
0.2997205838717321
 50
359.9999999891655
 51
22.52370188749154
  0
ARC
  5
162
  8
0
  6
CONTINUOUS
 62
     7
 10
601.0303061543301
 20
206.200015
 30
0.0
 40
1.499999999999946
 50
270.0
 51
348.4630409671844
  0
ARC
  5
163
  8
0
  6
CONTINUOUS
 62
     7
 10
253.400015000002
 20
354.7065797068144
 30
0.0
 40
190.0000000000001
 50
0.0
 51
17.1268658521438
  0
LINE
  5
164
  8
0
  6
CONTINUOUS
 62
     7
 10
731.0635018828737
 20
400.703979307109
 30
0.0
 11
729.7756062318941
 21
401.991924002811
 31
0.0
  0
LINE
  5
165
  8
0
  6
CONTINUOUS
 62
     7
 10
589.0
 20
204.700015
 30
0.0
 11
588.96969384567
 21
204.700015
 31
0.0
  0
LINE
  5
166
  8
0
  6
CONTINUOUS
 62
     7
 10
858.9626787205019
 20
400.6190613357748
 30
0.0
 11
858.9626787205019
 21
285.0119379213272
 31
0.0
  0
LINE
  5
167
  8
0
  6
CONTINUOUS
 62
     7
 10
406.600015000002
 20
410.284819652741
 30
0.0
 11
406.600015000002
 21
260.3274115391584
 31
0.0
  0
LINE
  5
168
  8
0
  6
CONTINUOUS
 62
     7
 10
406.600015000002
 20
410.284819652741
 30
0.0
 11
406.600015000002
 21
411.7847625373374
 31
0.0
  0
ARC
  5
169
  8
0
  6
CONTINUOUS
 62
     7
 10
843.0008005214364
 20
297.2031787856726
 30
0.0
 40
0.9990685774935448
 50
314.9999999999978
 51
337.5237028004942
  0
ARC
  5
16A
  8
0
  6
CONTINUOUS
 62
     7
 10
747.0007912246974
 20
297.2038373371701
 30
0.0
 40
1.000791176062554
 50
180.0114904626226
 51
202.4762971995343
  0
LINE
  5
16B
  8
0
  6
CONTINUOUS
 62
     7
 10
798.5865853687316
 20
410.351773688899
 30
0.0
 11
791.4134146312683
 21
410.351773688899
 31
0.0
  0
LINE
  5
16C
  8
0
  6
CONTINUOUS
 62
     7
 10
528.764858923181
 20
174.0844506339577
 30
0.0
 11
529.7849870232241
 21
174.0309879856503
 31
0.0
  0
LINE
  5
16D
  8
0
  6
CONTINUOUS
 62
     7
 10
728.9079586142179
 20
284.7119379213272
 30
0.0
 11
731.0399393369955
 21
284.7119379213272
 31
0.0
  0
ARC
  5
16E
  8
0
  6
CONTINUOUS
 62
     7
 10
659.5000000000001
 20
173.4928295703799
 30
0.0
 40
0.500000000000056
 50
92.99999999999939
 51
179.9999999999998
  0
ARC
  5
16F
  8
0
  6
CONTINUOUS
 62
     7
 10
860.012524623335
 20
402.203979307109
 30
0.0
 40
0.2997205838730643
 50
337.476298101751
 51
0.0
  0
LINE
  5
170
  8
0
  6
CONTINUOUS
 62
     7
 10
531.4630929388978
 20
205.900015
 30
0.0
 11
531.1656594804857
 21
205.639172857666
 31
0.0
  0
LINE
  5
171
  8
0
  6
CONTINUOUS
 62
     7
 10
443.400015000002
 20
354.7065797068144
 30
0.0
 11
443.400015000002
 21
242.2934202931856
 31
0.0
  0
LINE
  5
172
  8
0
  6
CONTINUOUS
 62
     7
 10
661.3254909260506
 20
172.6142765906743
 30
0.0
 11
660.215012976776
 21
172.6724742739386
 31
0.0
  0
LINE
  5
173
  8
0
  6
CONTINUOUS
 62
     7
 10
531.2
 20
178.6247158547307
 30
0.0
 11
531.2
 21
178.634922471163
 31
0.0
  0
ARC
  5
174
  8
0
  6
CONTINUOUS
 62
     7
 10
791.4021376408824
 20
409.8497834790875
 30
0.0
 40
0.4976272523733449
 50
7.023411586306849
 51
31.01638443278802
  0
LINE
  5
175
  8
0
  6
CONTINUOUS
 62
     7
 10
529.784987023224
 20
172.6724742739386
 30
0.0
 11
528.6745090739495
 21
172.6142765906743
 31
0.0
  0
LINE
  5
176
  8
0
  6
CONTINUOUS
 62
     7
 10
601.0
 20
204.700015
 30
0.0
 11
589.0
 21
204.700015
 31
0.0
  0
LINE
  5
177
  8
0
  6
CONTINUOUS
 62
     7
 10
661.3255025015894
 20
172.6142760336284
 30
0.0
 11
661.4028145121612
 21
172.6000045472924
 31
0.0
  0
LINE
  5
178
  8
0
  6
CONTINUOUS
 62
   253
 10
729.7756062318941
 20
401.991924002811
 30
0.0
 11
729.6645108908679
 21
401.99192400279
 31
0.0
  0
LINE
  5
179
  8
0
  6
CONTINUOUS
 62
     7
 10
731.0373212794981
 20
284.7039793071092
 30
0.0
 11
731.0373212794981
 21
285.0119379213272
 31
0.0
  0
LINE
  5
17A
  8
0
  6
CONTINUOUS
 62
     7
 10
528.5975365144068
 20
172.600015
 30
0.0
 11
528.4083925086436
 21
172.600015
 31
0.0
  0
LINE
  5
17B
  8
0
  6
CONTINUOUS
 62
     7
 10
528.4083925086436
 20
172.600015
 30
0.0
 11
528.4023817129082
 21
172.600015
 31
0.0
  0
LINE
  5
17C
  8
0
  6
CONTINUOUS
 62
     7
 10
731.0635018828737
 20
400.703979307109
 30
0.0
 11
731.0373212794981
 21
400.6190613357748
 31
0.0
  0
LINE
  5
17D
  8
0
  6
CONTINUOUS
 62
   253
 10
729.6645108908679
 20
402.4160346113862
 30
0.0
 11
729.775606231894
 21
402.4160346114072
 31
0.0
  0
LINE
  5
17E
  8
0
  6
CONTINUOUS
 62
     7
 10
858.9364981171263
 20
403.7039793071092
 30
0.0
 11
858.9364981171263
 21
400.703979307109
 31
0.0
  0
LINE
  5
17F
  8
0
  6
CONTINUOUS
 62
     7
 10
661.5976182870917
 20
172.600015
 30
0.0
 11
661.593776785463
 21
172.600015
 31
0.0
  0
LINE
  5
180
  8
0
  6
CONTINUOUS
 62
     7
 10
661.0658554642127
 20
174.100015
 30
0.0
 11
658.9487157320366
 21
174.100015
 31
0.0
  0
LINE
  5
181
  8
0
  6
CONTINUOUS
 62
     7
 10
528.6224938437825
 20
174.83092800287
 30
0.0
 11
528.5069219037232
 21
174.2590323238817
 31
0.0
  0
ARC
  5
182
  8
0
  6
CONTINUOUS
 62
     7
 10
729.876857377689
 20
402.2041772600234
 30
0.0
 40
0.3002373437760442
 50
202.5237019090631
 51
224.9874195359491
  0
LINE
  5
183
  8
0
  6
CONTINUOUS
 62
     7
 10
658.8343405195144
 20
205.639172857666
 30
0.0
 11
658.5369070611022
 21
205.900015
 31
0.0
  0
ARC
  5
184
  8
0
  6
CONTINUOUS
 62
     7
 10
860.012524623335
 20
402.203979307109
 30
0.0
 40
0.2997205838730643
 50
0.0
 51
22.52370189824896
  0
ARC
  5
185
  8
0
  6
CONTINUOUS
 62
     7
 10
860.123619964361
 20
402.203979307088
 30
0.0
 40
0.2997205838728423
 50
337.4762980909336
 51
359.9999999891655
  0
ARC
  5
186
  8
0
  6
CONTINUOUS
 62
     7
 10
729.8763800356388
 20
402.203979307088
 30
0.0
 40
0.2997205838727313
 50
180.0000000108452
 51
202.5237019090942
  0
ARC
  5
187
  8
0
  6
CONTINUOUS
 62
     7
 10
860.0120472812844
 20
402.2037813541732
 30
0.0
 40
0.3002373437768213
 50
22.52370189828817
 51
44.98741953594928
  0
LINE
  5
188
  8
0
  6
CONTINUOUS
 62
     7
 10
531.2
 20
190.565107528837
 30
0.0
 11
531.2
 21
190.5911799836282
 31
0.0
  0
ARC
  5
189
  8
0
  6
CONTINUOUS
 62
     7
 10
661.3097901391776
 20
172.3146877302479
 30
0.0
 40
0.300000000000078
 50
72.00055234972967
 51
87.00000000000063
  0
ARC
  5
18A
  8
0
  6
CONTINUOUS
 62
     7
 10
860.1231426223104
 20
402.2041772600238
 30
0.0
 40
0.3002373437765993
 50
315.0125804640508
 51
337.4762980909049
  0
LINE
  5
18B
  8
0
  6
CONTINUOUS
 62
     7
 10
529.0362642252734
 20
179.2056623715694
 30
0.0
 11
529.0408240545775
 21
179.2068841741491
 31
0.0
  0
LINE
  5
18C
  8
0
  6
CONTINUOUS
 62
   253
 10
860.335489109132
 20
401.99192400279
 30
0.0
 11
860.2243937681058
 21
401.991924002811
 31
0.0
  0
LINE
  5
18D
  8
0
  6
CONTINUOUS
 62
     7
 10
661.4930790789974
 20
174.2590259859407
 30
0.0
 11
661.3775638661616
 21
174.8306905723345
 31
0.0
  0
LINE
  5
18E
  8
0
  6
CONTINUOUS
 62
     7
 10
858.9626787205019
 20
400.6190613357748
 30
0.0
 11
860.335489109132
 21
401.99192400279
 31
0.0
  0
LINE
  5
18F
  8
0
  6
CONTINUOUS
 62
     7
 10
729.7756062318941
 20
402.4160346114072
 30
0.0
 11
731.0635018828735
 21
403.703979307109
 31
0.0
  0
LINE
  5
190
  8
0
  6
CONTINUOUS
 62
     7
 10
531.2
 20
190.5911799836282
 30
0.0
 11
531.2
 21
191.5789735067075
 31
0.0
  0
LINE
  5
191
  8
0
  6
CONTINUOUS
 62
     7
 10
407.600015000002
 20
417.7065797068144
 30
0.0
 11
414.3722939290124
 21
417.1140820742905
 31
0.0
  0
LINE
  5
192
  8
0
  6
CONTINUOUS
 62
     7
 10
531.1656594804857
 20
205.639172857666
 30
0.0
 11
530.1824162468583
 21
198.1706990220319
 31
0.0
  0
LINE
  5
193
  8
0
  6
CONTINUOUS
 62
     7
 10
530.5261679781214
 20
172.7113179218317
 30
0.0
 11
529.7849870232241
 21
172.6724742739386
 31
0.0
  0
LINE
  5
194
  8
0
  6
CONTINUOUS
 62
     7
 10
820.5000000000001
 20
372.9539793071091
 30
0.0
 11
815.5000000000001
 21
372.9539793071091
 31
0.0
  0
ARC
  5
195
  8
0
  6
CONTINUOUS
 62
     7
 10
729.987475376665
 20
402.203979307109
 30
0.0
 40
0.2997205838729533
 50
157.476298101751
 51
180.0
  0
LINE
  5
196
  8
0
  6
CONTINUOUS
 62
     7
 10
531.0
 20
173.4928295703799
 30
0.0
 11
531.0
 21
173.2106326892089
 31
0.0
  0
LINE
  5
197
  8
0
  6
CONTINUOUS
 62
     7
 10
844.0000000000001
 20
370.2043219821336
 30
0.0
 11
844.0000000000001
 21
297.2036366320846
 31
0.0
  0
ARC
  5
198
  8
0
  6
CONTINUOUS
 62
     7
 10
729.8763800356394
 20
402.203979307088
 30
0.0
 40
0.2997205838733974
 50
157.4762981126304
 51
180.0000000108452
  0
POLYLINE
  5
199
  8
0
  6
CONTINUOUS
 62
     9
 66
     1
 10
0.0
 20
0.0
 30
0.0
  0
VERTEX
  5
68F
  8
0
  6
CONTINUOUS
 62
     9
 10
590.2456556052975
 20
414.1833778531476
 30
0.0
  0
VERTEX
  5
690
  8
0
  6
CONTINUOUS
 62
     9
 10
590.0293476032092
 20
414.15400944928
 30
0.0
  0
VERTEX
  5
691
  8
0
  6
CONTINUOUS
 62
     9
 10
589.8476960766557
 20
414.0646050014085
 30
0.0
  0
VERTEX
  5
692
  8
0
  6
CONTINUOUS
 62
     9
 10
589.7456746437654
 20
413.8797683880392
 30
0.0
  0
SEQEND
  5
6FF
  8
0
  6
CONTINUOUS
 62
     9
  0
LINE
  5
19A
  8
0
  6
CONTINUOUS
 62
     7
 10
592.2940124860874
 20
409.734588433319
 30
0.0
 11
589.7059875139128
 21
409.734588433319
 31
0.0
  0
ARC
  5
19B
  8
0
  6
CONTINUOUS
 62
     7
 10
598.1415987657552
 20
373.2062618586735
 30
0.0
 40
0.4996821681939241
 50
179.9167654036513
 51
269.9853497097592
  0
ARC
  5
19C
  8
0
  6
CONTINUOUS
 62
     7
 10
599.8584178335058
 20
373.2062452877469
 30
0.0
 40
0.4996655932989619
 50
270.0127473679414
 51
0.0851375186206837
  0
ARC
  5
19D
  8
0
  6
CONTINUOUS
 62
     7
 10
-14004.6435662087
 20
368.7387337448365
 30
0.0
 40
14604.99913979001
 50
0.0856964744061202
 51
0.1615678247497954
  0
ARC
  5
19E
  8
0
  6
CONTINUOUS
 62
     7
 10
-23386.39013049843
 20
354.7065797068126
 30
0.0
 40
23986.75619792731
 50
0.0441908624233065
 51
0.085696474406177
  0
ARC
  5
19F
  8
0
  6
CONTINUOUS
 62
     7
 10
597.2003892117308
 20
411.9966346988981
 30
0.0
 40
0.5574146471097212
 50
88.77336844665115
 51
89.792259054262
  0
ARC
  5
1A0
  8
0
  6
CONTINUOUS
 62
     7
 10
597.2003892117308
 20
411.9966346988979
 30
0.0
 40
0.557414647109916
 50
68.84598132581085
 51
88.77336844664644
  0
ARC
  5
1A1
  8
0
  6
CONTINUOUS
 62
     7
 10
597.2352241434436
 20
412.0866587332686
 30
0.0
 40
0.4608858988956048
 50
44.68769999714789
 51
68.84598132578446
  0
ARC
  5
1A2
  8
0
  6
CONTINUOUS
 62
     7
 10
597.200359260201
 20
412.0521718668066
 30
0.0
 40
0.5099257198770691
 50
24.01509595183904
 51
44.68769999714573
  0
ARC
  5
1A3
  8
0
  6
CONTINUOUS
 62
     7
 10
597.2836534406804
 20
412.0892831245131
 30
0.0
 40
0.418738188107138
 50
0.2380251359671774
 51
24.0150959518441
  0
LINE
  5
1A4
  8
0
  6
CONTINUOUS
 62
     9
 10
605.7023912121736
 20
412.091022706193
 30
0.0
 11
605.689775864537
 21
410.5121432405315
 31
0.0
  0
ARC
  5
1A5
  8
0
  6
CONTINUOUS
 62
     7
 10
597.160523486693
 20
399.6273995129313
 30
0.0
 40
11.03202683080494
 50
89.84591970062915
 51
89.84797620468561
  0
ARC
  5
1A6
  8
0
  6
CONTINUOUS
 62
     7
 10
597.1605234866944
 20
399.6273995134506
 30
0.0
 40
11.03202683028574
 50
88.9150354357879
 51
89.84591970062854
  0
ARC
  5
1A7
  8
0
  6
CONTINUOUS
 62
     7
 10
597.3615835372875
 20
410.2438894349156
 30
0.0
 40
0.41363319487581
 50
63.88919823590799
 51
88.91503543583666
  0
ARC
  5
1A8
  8
0
  6
CONTINUOUS
 62
     7
 10
597.7237630579666
 20
410.9828371685533
 30
0.0
 40
0.4092992192674235
 50
243.8891982359195
 51
257.0019991948497
  0
ARC
  5
1A9
  8
0
  6
CONTINUOUS
 62
     7
 10
597.6148482470323
 20
410.5110001806947
 30
0.0
 40
0.0749451190084698
 50
0.8740091645594248
 51
77.00199919478268
  0
LINE
  5
1AA
  8
0
  6
CONTINUOUS
 62
     9
 10
600.7975897493585
 20
412.554042830285
 30
0.0
 11
605.2024102506415
 21
412.554042830285
 31
0.0
  0
LINE
  5
1AB
  8
0
  6
CONTINUOUS
 62
     9
 10
600.310224135463
 20
410.5121432405315
 30
0.0
 11
600.2976087878264
 21
412.0910227061931
 31
0.0
  0
POLYLINE
  5
1AC
  8
0
  6
CONTINUOUS
 62
     9
 66
     1
 10
0.0
 20
0.0
 30
0.0
  0
VERTEX
  5
693
  8
0
  6
CONTINUOUS
 62
     9
 10
600.2543253562346
 20
413.8797683880392
 30
0.0
  0
VERTEX
  5
694
  8
0
  6
CONTINUOUS
 62
     9
 10
600.1473541931164
 20
414.0685004453236
 30
0.0
  0
VERTEX
  5
695
  8
0
  6
CONTINUOUS
 62
     9
 10
599.961105570068
 20
414.1566755317635
 30
0.0
  0
VERTEX
  5
696
  8
0
  6
CONTINUOUS
 62
     9
 10
599.7543443947026
 20
414.1833778531476
 30
0.0
  0
SEQEND
  5
700
  8
0
  6
CONTINUOUS
 62
     9
  0
POLYLINE
  5
1AD
  8
0
  6
CONTINUOUS
 62
     9
 66
     1
 10
0.0
 20
0.0
 30
0.0
  0
VERTEX
  5
697
  8
0
  6
CONTINUOUS
 62
     9
 10
598.2456556052975
 20
414.1833778531476
 30
0.0
  0
VERTEX
  5
698
  8
0
  6
CONTINUOUS
 62
     9
 10
598.0293476032092
 20
414.15400944928
 30
0.0
  0
VERTEX
  5
699
  8
0
  6
CONTINUOUS
 62
     9
 10
597.8476960766557
 20
414.0646050014085
 30
0.0
  0
VERTEX
  5
69A
  8
0
  6
CONTINUOUS
 62
     9
 10
597.7456746437654
 20
413.8797683880392
 30
0.0
  0
SEQEND
  5
701
  8
0
  6
CONTINUOUS
 62
     9
  0
LINE
  5
1AE
  8
0
  6
CONTINUOUS
 62
     7
 10
600.2940124860874
 20
409.734588433319
 30
0.0
 11
597.7059875139128
 21
409.734588433319
 31
0.0
  0
LINE
  5
1AF
  8
0
  6
CONTINUOUS
 62
     7
 10
605.7456746437655
 20
411.7780673733865
 30
0.0
 11
605.7456746437655
 21
413.8797683880392
 31
0.0
  0
LINE
  5
1B0
  8
0
  6
CONTINUOUS
 62
     7
 10
608.2543253562346
 20
413.8797683880392
 30
0.0
 11
608.2543253562346
 21
411.7780673733865
 31
0.0
  0
ARC
  5
1B1
  8
0
  6
CONTINUOUS
 62
     7
 10
605.2003892117308
 20
411.9966346988981
 30
0.0
 40
0.5574146471097212
 50
88.77336844665115
 51
89.792259054262
  0
ARC
  5
1B2
  8
0
  6
CONTINUOUS
 62
     7
 10
605.2003892117308
 20
411.9966346988979
 30
0.0
 40
0.557414647109916
 50
68.84598132581085
 51
88.77336844664644
  0
ARC
  5
1B3
  8
0
  6
CONTINUOUS
 62
     7
 10
605.2352241434437
 20
412.0866587332686
 30
0.0
 40
0.4608858988956048
 50
44.68769999714789
 51
68.84598132578446
  0
ARC
  5
1B4
  8
0
  6
CONTINUOUS
 62
     7
 10
605.200359260201
 20
412.0521718668066
 30
0.0
 40
0.5099257198770691
 50
24.01509595183904
 51
44.68769999714573
  0
ARC
  5
1B5
  8
0
  6
CONTINUOUS
 62
     7
 10
605.2836534406804
 20
412.0892831245131
 30
0.0
 40
0.418738188107138
 50
0.2380251359671774
 51
24.0150959518441
  0
LINE
  5
1B6
  8
0
  6
CONTINUOUS
 62
     7
 10
597.7456746437655
 20
411.7780673733865
 30
0.0
 11
597.7456746437655
 21
413.8797683880392
 31
0.0
  0
LINE
  5
1B7
  8
0
  6
CONTINUOUS
 62
     7
 10
600.2543253562346
 20
413.8797683880392
 30
0.0
 11
600.2543253562346
 21
411.7780673733865
 31
0.0
  0
LINE
  5
1B8
  8
0
  6
CONTINUOUS
 62
     7
 10
597.7064936924846
 20
409.9231663166928
 30
0.0
 11
597.7090167620121
 21
410.2389422098252
 31
0.0
  0
ARC
  5
1B9
  8
0
  6
CONTINUOUS
 62
     7
 10
-13996.6435662087
 20
368.7387337448365
 30
0.0
 40
14604.99913979001
 50
0.0856964744061202
 51
0.1615678247497954
  0
ARC
  5
1BA
  8
0
  6
CONTINUOUS
 62
     7
 10
-23378.39013049843
 20
354.7065797068126
 30
0.0
 40
23986.75619792731
 50
0.0441908624233065
 51
0.085696474406177
  0
LINE
  5
1BB
  8
0
  6
CONTINUOUS
 62
     9
 10
608.7975897493585
 20
412.554042830285
 30
0.0
 11
613.2024102506415
 21
412.554042830285
 31
0.0
  0
POLYLINE
  5
1BC
  8
0
  6
CONTINUOUS
 62
     9
 66
     1
 10
0.0
 20
0.0
 30
0.0
  0
VERTEX
  5
69B
  8
0
  6
CONTINUOUS
 62
     9
 10
608.2543253562346
 20
413.8797683880392
 30
0.0
  0
VERTEX
  5
69C
  8
0
  6
CONTINUOUS
 62
     9
 10
608.1473541931164
 20
414.0685004453236
 30
0.0
  0
VERTEX
  5
69D
  8
0
  6
CONTINUOUS
 62
     9
 10
607.961105570068
 20
414.1566755317635
 30
0.0
  0
VERTEX
  5
69E
  8
0
  6
CONTINUOUS
 62
     9
 10
607.7543443947026
 20
414.1833778531476
 30
0.0
  0
SEQEND
  5
702
  8
0
  6
CONTINUOUS
 62
     9
  0
LINE
  5
1BD
  8
0
  6
CONTINUOUS
 62
     7
 10
608.290983237988
 20
410.2389422098252
 30
0.0
 11
608.2935063075154
 21
409.9231663166928
 31
0.0
  0
LINE
  5
1BE
  8
0
  6
CONTINUOUS
 62
     7
 10
608.2940124860874
 20
409.734588433319
 30
0.0
 11
605.7059875139128
 21
409.734588433319
 31
0.0
  0
LINE
  5
1BF
  8
0
  6
CONTINUOUS
 62
     9
 10
597.7023912121736
 20
412.091022706193
 30
0.0
 11
597.689775864537
 21
410.5121432405315
 31
0.0
  0
ARC
  5
1C0
  8
0
  6
CONTINUOUS
 62
     7
 10
607.8584178335058
 20
373.2062452877469
 30
0.0
 40
0.4996655932989619
 50
270.0127473679414
 51
0.0851375186206837
  0
LINE
  5
1C1
  8
0
  6
CONTINUOUS
 62
     9
 10
613.1897949030048
 20
410.6593874714912
 30
0.0
 11
608.8102050969952
 21
410.6593874714912
 31
0.0
  0
ARC
  5
1C2
  8
0
  6
CONTINUOUS
 62
     7
 10
606.1415987657552
 20
373.2062618586735
 30
0.0
 40
0.4996821681939241
 50
179.9167654036513
 51
269.9853497097592
  0
ARC
  5
1C3
  8
0
  6
CONTINUOUS
 62
     7
 10
600.7163465593198
 20
412.089283124513
 30
0.0
 40
0.4187381881072789
 50
155.9849040481567
 51
179.7619748640305
  0
ARC
  5
1C4
  8
0
  6
CONTINUOUS
 62
     7
 10
600.7996407397992
 20
412.0521718668064
 30
0.0
 40
0.5099257198772121
 50
135.312300002846
 51
155.9849040481436
  0
ARC
  5
1C5
  8
0
  6
CONTINUOUS
 62
     7
 10
600.764775856557
 20
412.086658733268
 30
0.0
 40
0.4608858988963937
 50
111.1540186742656
 51
135.3123000028637
  0
ARC
  5
1C6
  8
0
  6
CONTINUOUS
 62
     7
 10
600.7996107882693
 20
411.9966346988975
 30
0.0
 40
0.5574146471102852
 50
91.22663155336362
 51
111.154018674181
  0
ARC
  5
1C7
  8
0
  6
CONTINUOUS
 62
     7
 10
600.7996107882693
 20
411.9966346988977
 30
0.0
 40
0.5574146471101403
 50
90.20774094577445
 51
91.22663155336448
  0
LINE
  5
1C8
  8
0
  6
CONTINUOUS
 62
     7
 10
607.8585290008757
 20
372.7065797068144
 30
0.0
 11
606.1414709991243
 21
372.7065797068144
 31
0.0
  0
LINE
  5
1C9
  8
0
  6
CONTINUOUS
 62
     7
 10
605.7064936924846
 20
409.9231663166928
 30
0.0
 11
605.7090167620121
 21
410.2389422098252
 31
0.0
  0
ARC
  5
1CA
  8
0
  6
CONTINUOUS
 62
     7
 10
354.1885456630857
 20
416.5177944773109
 30
0.0
 40
251.5993692940318
 50
358.5699890295892
 51
358.9205862250254
  0
LINE
  5
1CB
  8
0
  6
CONTINUOUS
 62
     9
 10
608.310224135463
 20
410.5121432405315
 30
0.0
 11
608.2976087878264
 21
412.0910227061931
 31
0.0
  0
ARC
  5
1CC
  8
0
  6
CONTINUOUS
 62
     7
 10
600.3851517529675
 20
410.5110001806949
 30
0.0
 40
0.0749451190083349
 50
102.9980008051538
 51
179.1259908355227
  0
ARC
  5
1CD
  8
0
  6
CONTINUOUS
 62
     7
 10
600.2762369420323
 20
410.9828371685559
 30
0.0
 40
0.4092992192702213
 50
282.9980008052448
 51
296.1108017640834
  0
ARC
  5
1CE
  8
0
  6
CONTINUOUS
 62
     7
 10
600.6384164627126
 20
410.2438894349153
 30
0.0
 40
0.4136331948761581
 50
91.08496456418094
 51
116.1108017640926
  0
ARC
  5
1CF
  8
0
  6
CONTINUOUS
 62
     7
 10
600.8394765133056
 20
399.6273995134555
 30
0.0
 40
11.0320268302808
 50
90.15408029937106
 51
91.08496456421199
  0
ARC
  5
1D0
  8
0
  6
CONTINUOUS
 62
     7
 10
600.8394765133071
 20
399.6273995129332
 30
0.0
 40
11.03202683080322
 50
90.15202379531489
 51
90.15408029937112
  0
ARC
  5
1D1
  8
0
  6
CONTINUOUS
 62
     7
 10
608.7163465593198
 20
412.089283124513
 30
0.0
 40
0.4187381881072789
 50
155.9849040481567
 51
179.7619748640305
  0
ARC
  5
1D2
  8
0
  6
CONTINUOUS
 62
     7
 10
608.7996407397992
 20
412.0521718668064
 30
0.0
 40
0.5099257198772121
 50
135.312300002846
 51
155.9849040481436
  0
ARC
  5
1D3
  8
0
  6
CONTINUOUS
 62
     7
 10
608.764775856557
 20
412.086658733268
 30
0.0
 40
0.4608858988963937
 50
111.1540186742656
 51
135.3123000028637
  0
ARC
  5
1D4
  8
0
  6
CONTINUOUS
 62
     7
 10
608.7996107882693
 20
411.9966346988975
 30
0.0
 40
0.5574146471102852
 50
91.22663155336362
 51
111.154018674181
  0
ARC
  5
1D5
  8
0
  6
CONTINUOUS
 62
     7
 10
608.7996107882693
 20
411.9966346988977
 30
0.0
 40
0.5574146471101403
 50
90.20774094577445
 51
91.22663155336448
  0
POLYLINE
  5
1D6
  8
0
  6
CONTINUOUS
 62
     9
 66
     1
 10
0.0
 20
0.0
 30
0.0
  0
VERTEX
  5
69F
  8
0
  6
CONTINUOUS
 62
     9
 10
606.2456556052975
 20
414.1833778531476
 30
0.0
  0
VERTEX
  5
6A0
  8
0
  6
CONTINUOUS
 62
     9
 10
606.0293476032092
 20
414.15400944928
 30
0.0
  0
VERTEX
  5
6A1
  8
0
  6
CONTINUOUS
 62
     9
 10
605.8476960766557
 20
414.0646050014085
 30
0.0
  0
VERTEX
  5
6A2
  8
0
  6
CONTINUOUS
 62
     9
 10
605.7456746437654
 20
413.8797683880392
 30
0.0
  0
SEQEND
  5
703
  8
0
  6
CONTINUOUS
 62
     9
  0
LINE
  5
1D7
  8
0
  6
CONTINUOUS
 62
     9
 10
607.7543443947026
 20
414.1833778531476
 30
0.0
 11
606.2456556052975
 21
414.1833778531476
 31
0.0
  0
ARC
  5
1D8
  8
0
  6
CONTINUOUS
 62
     7
 10
605.160523486693
 20
399.6273995129313
 30
0.0
 40
11.03202683080494
 50
89.84591970062915
 51
89.84797620468561
  0
ARC
  5
1D9
  8
0
  6
CONTINUOUS
 62
     7
 10
605.1605234866944
 20
399.6273995134506
 30
0.0
 40
11.03202683028574
 50
88.9150354357879
 51
89.84591970062854
  0
ARC
  5
1DA
  8
0
  6
CONTINUOUS
 62
     7
 10
605.3615835372875
 20
410.2438894349156
 30
0.0
 40
0.41363319487581
 50
63.88919823590799
 51
88.91503543583666
  0
ARC
  5
1DB
  8
0
  6
CONTINUOUS
 62
     7
 10
605.7237630579666
 20
410.9828371685533
 30
0.0
 40
0.4092992192674235
 50
243.8891982359195
 51
257.0019991948497
  0
ARC
  5
1DC
  8
0
  6
CONTINUOUS
 62
     7
 10
605.6148482470323
 20
410.5110001806947
 30
0.0
 40
0.0749451190084698
 50
0.8740091645594248
 51
77.00199919478268
  0
ARC
  5
1DD
  8
0
  6
CONTINUOUS
 62
     7
 10
851.8114543369302
 20
416.5177944773113
 30
0.0
 40
251.5993692940474
 50
181.0794137749746
 51
181.4300109704108
  0
ARC
  5
1DE
  8
0
  6
CONTINUOUS
 62
     7
 10
24592.39013049841
 20
354.7065797068126
 30
0.0
 40
23986.75619792731
 50
179.9143035255938
 51
179.9558091375768
  0
ARC
  5
1DF
  8
0
  6
CONTINUOUS
 62
     7
 10
15210.6435662087
 20
368.7387337448365
 30
0.0
 40
14604.99913979001
 50
179.8384321752502
 51
179.9143035255939
  0
LINE
  5
1E0
  8
0
  6
CONTINUOUS
 62
     9
 10
591.7543443947026
 20
414.1833778531476
 30
0.0
 11
590.2456556052975
 21
414.1833778531476
 31
0.0
  0
LINE
  5
1E1
  8
0
  6
CONTINUOUS
 62
     9
 10
621.1897949030049
 20
410.6593874714912
 30
0.0
 11
616.8102050969952
 21
410.6593874714912
 31
0.0
  0
LINE
  5
1E2
  8
0
  6
CONTINUOUS
 62
     7
 10
600.290983237988
 20
410.2389422098252
 30
0.0
 11
600.2935063075154
 21
409.9231663166928
 31
0.0
  0
ARC
  5
1E3
  8
0
  6
CONTINUOUS
 62
     7
 10
24584.39013049842
 20
354.7065797068126
 30
0.0
 40
23986.75619792731
 50
179.9143035255938
 51
179.9558091375768
  0
ARC
  5
1E4
  8
0
  6
CONTINUOUS
 62
     7
 10
15202.6435662087
 20
368.7387337448365
 30
0.0
 40
14604.99913979001
 50
179.8384321752502
 51
179.9143035255939
  0
ARC
  5
1E5
  8
0
  6
CONTINUOUS
 62
     7
 10
859.8114543369302
 20
416.5177944773113
 30
0.0
 40
251.5993692940474
 50
181.0794137749746
 51
181.4300109704108
  0
ARC
  5
1E6
  8
0
  6
CONTINUOUS
 62
     7
 10
616.3851517529675
 20
410.5110001806949
 30
0.0
 40
0.0749451190083349
 50
102.9980008051538
 51
179.1259908355227
  0
ARC
  5
1E7
  8
0
  6
CONTINUOUS
 62
     7
 10
616.2762369420323
 20
410.9828371685559
 30
0.0
 40
0.4092992192702213
 50
282.9980008052448
 51
296.1108017640834
  0
ARC
  5
1E8
  8
0
  6
CONTINUOUS
 62
     7
 10
616.6384164627127
 20
410.2438894349153
 30
0.0
 40
0.4136331948761581
 50
91.08496456418094
 51
116.1108017640926
  0
ARC
  5
1E9
  8
0
  6
CONTINUOUS
 62
     7
 10
616.8394765133056
 20
399.6273995134555
 30
0.0
 40
11.0320268302808
 50
90.15408029937106
 51
91.08496456421199
  0
ARC
  5
1EA
  8
0
  6
CONTINUOUS
 62
     7
 10
616.8394765133071
 20
399.6273995129332
 30
0.0
 40
11.03202683080322
 50
90.15202379531489
 51
90.15408029937112
  0
ARC
  5
1EB
  8
0
  6
CONTINUOUS
 62
     7
 10
613.160523486693
 20
399.6273995129313
 30
0.0
 40
11.03202683080494
 50
89.84591970062915
 51
89.84797620468561
  0
ARC
  5
1EC
  8
0
  6
CONTINUOUS
 62
     7
 10
613.1605234866944
 20
399.6273995134506
 30
0.0
 40
11.03202683028574
 50
88.9150354357879
 51
89.84591970062854
  0
ARC
  5
1ED
  8
0
  6
CONTINUOUS
 62
     7
 10
613.3615835372875
 20
410.2438894349156
 30
0.0
 40
0.41363319487581
 50
63.88919823590799
 51
88.91503543583666
  0
ARC
  5
1EE
  8
0
  6
CONTINUOUS
 62
     7
 10
613.7237630579666
 20
410.9828371685533
 30
0.0
 40
0.4092992192674235
 50
243.8891982359195
 51
257.0019991948497
  0
ARC
  5
1EF
  8
0
  6
CONTINUOUS
 62
     7
 10
613.6148482470323
 20
410.5110001806947
 30
0.0
 40
0.0749451190084698
 50
0.8740091645594248
 51
77.00199919478268
  0
ARC
  5
1F0
  8
0
  6
CONTINUOUS
 62
     7
 10
614.1415987657552
 20
373.2062618586735
 30
0.0
 40
0.4996821681939241
 50
179.9167654036513
 51
269.9853497097592
  0
LINE
  5
1F1
  8
0
  6
CONTINUOUS
 62
     9
 10
599.7543443947026
 20
414.1833778531476
 30
0.0
 11
598.2456556052975
 21
414.1833778531476
 31
0.0
  0
ARC
  5
1F2
  8
0
  6
CONTINUOUS
 62
     7
 10
608.3851517529675
 20
410.5110001806949
 30
0.0
 40
0.0749451190083349
 50
102.9980008051538
 51
179.1259908355227
  0
ARC
  5
1F3
  8
0
  6
CONTINUOUS
 62
     7
 10
608.2762369420323
 20
410.9828371685559
 30
0.0
 40
0.4092992192702213
 50
282.9980008052448
 51
296.1108017640834
  0
ARC
  5
1F4
  8
0
  6
CONTINUOUS
 62
     7
 10
608.6384164627126
 20
410.2438894349153
 30
0.0
 40
0.4136331948761581
 50
91.08496456418094
 51
116.1108017640926
  0
ARC
  5
1F5
  8
0
  6
CONTINUOUS
 62
     7
 10
608.8394765133056
 20
399.6273995134555
 30
0.0
 40
11.0320268302808
 50
90.15408029937106
 51
91.08496456421199
  0
ARC
  5
1F6
  8
0
  6
CONTINUOUS
 62
     7
 10
608.8394765133071
 20
399.6273995129332
 30
0.0
 40
11.03202683080322
 50
90.15202379531489
 51
90.15408029937112
  0
ARC
  5
1F7
  8
0
  6
CONTINUOUS
 62
     7
 10
615.8584178335058
 20
373.2062452877469
 30
0.0
 40
0.4996655932989619
 50
270.0127473679414
 51
0.0851375186206837
  0
ARC
  5
1F8
  8
0
  6
CONTINUOUS
 62
     7
 10
346.1885456630857
 20
416.5177944773109
 30
0.0
 40
251.5993692940318
 50
358.5699890295892
 51
358.9205862250254
  0
LINE
  5
1F9
  8
0
  6
CONTINUOUS
 62
     9
 10
605.1897949030048
 20
410.6593874714912
 30
0.0
 11
600.8102050969952
 21
410.6593874714912
 31
0.0
  0
POLYLINE
  5
1FA
  8
0
  6
CONTINUOUS
 62
     9
 66
     1
 10
0.0
 20
0.0
 30
0.0
  0
VERTEX
  5
6A3
  8
0
  6
CONTINUOUS
 62
     9
 10
592.2543253562346
 20
413.8797683880392
 30
0.0
  0
VERTEX
  5
6A4
  8
0
  6
CONTINUOUS
 62
     9
 10
592.1473541931164
 20
414.0685004453236
 30
0.0
  0
VERTEX
  5
6A5
  8
0
  6
CONTINUOUS
 62
     9
 10
591.961105570068
 20
414.1566755317635
 30
0.0
  0
VERTEX
  5
6A6
  8
0
  6
CONTINUOUS
 62
     9
 10
591.7543443947026
 20
414.1833778531476
 30
0.0
  0
SEQEND
  5
704
  8
0
  6
CONTINUOUS
 62
     9
  0
LINE
  5
1FB
  8
0
  6
CONTINUOUS
 62
     7
 10
599.8585290008757
 20
372.7065797068144
 30
0.0
 11
598.1414709991243
 21
372.7065797068144
 31
0.0
  0
ARC
  5
1FC
  8
0
  6
CONTINUOUS
 62
     7
 10
867.8114543369302
 20
416.5177944773113
 30
0.0
 40
251.5993692940474
 50
181.0794137749746
 51
181.4300109704108
  0
LINE
  5
1FD
  8
0
  6
CONTINUOUS
 62
     7
 10
623.8585290008757
 20
372.7065797068144
 30
0.0
 11
622.1414709991243
 21
372.7065797068144
 31
0.0
  0
LINE
  5
1FE
  8
0
  6
CONTINUOUS
 62
     9
 10
616.310224135463
 20
410.5121432405315
 30
0.0
 11
616.2976087878264
 21
412.0910227061931
 31
0.0
  0
ARC
  5
1FF
  8
0
  6
CONTINUOUS
 62
     7
 10
613.2003892117308
 20
411.9966346988981
 30
0.0
 40
0.5574146471097212
 50
88.77336844665115
 51
89.792259054262
  0
ARC
  5
200
  8
0
  6
CONTINUOUS
 62
     7
 10
613.2003892117308
 20
411.9966346988979
 30
0.0
 40
0.557414647109916
 50
68.84598132581085
 51
88.77336844664644
  0
ARC
  5
201
  8
0
  6
CONTINUOUS
 62
     7
 10
613.2352241434437
 20
412.0866587332686
 30
0.0
 40
0.4608858988956048
 50
44.68769999714789
 51
68.84598132578446
  0
ARC
  5
202
  8
0
  6
CONTINUOUS
 62
     7
 10
613.200359260201
 20
412.0521718668066
 30
0.0
 40
0.5099257198770691
 50
24.01509595183904
 51
44.68769999714573
  0
ARC
  5
203
  8
0
  6
CONTINUOUS
 62
     7
 10
613.2836534406804
 20
412.0892831245131
 30
0.0
 40
0.418738188107138
 50
0.2380251359671774
 51
24.0150959518441
  0
LINE
  5
204
  8
0
  6
CONTINUOUS
 62
     9
 10
629.1897949030049
 20
410.6593874714912
 30
0.0
 11
624.8102050969952
 21
410.6593874714912
 31
0.0
  0
LINE
  5
205
  8
0
  6
CONTINUOUS
 62
     9
 10
615.7543443947026
 20
414.1833778531476
 30
0.0
 11
614.2456556052975
 21
414.1833778531476
 31
0.0
  0
ARC
  5
206
  8
0
  6
CONTINUOUS
 62
     7
 10
623.8584178335058
 20
373.2062452877469
 30
0.0
 40
0.4996655932989619
 50
270.0127473679414
 51
0.0851375186206837
  0
LINE
  5
207
  8
0
  6
CONTINUOUS
 62
     7
 10
621.7064936924846
 20
409.9231663166928
 30
0.0
 11
621.7090167620121
 21
410.2389422098252
 31
0.0
  0
ARC
  5
208
  8
0
  6
CONTINUOUS
 62
     7
 10
621.160523486693
 20
399.6273995129313
 30
0.0
 40
11.03202683080494
 50
89.84591970062915
 51
89.84797620468561
  0
ARC
  5
209
  8
0
  6
CONTINUOUS
 62
     7
 10
621.1605234866944
 20
399.6273995134506
 30
0.0
 40
11.03202683028574
 50
88.9150354357879
 51
89.84591970062854
  0
ARC
  5
20A
  8
0
  6
CONTINUOUS
 62
     7
 10
621.3615835372875
 20
410.2438894349156
 30
0.0
 40
0.41363319487581
 50
63.88919823590799
 51
88.91503543583666
  0
ARC
  5
20B
  8
0
  6
CONTINUOUS
 62
     7
 10
621.7237630579666
 20
410.9828371685533
 30
0.0
 40
0.4092992192674235
 50
243.8891982359195
 51
257.0019991948497
  0
ARC
  5
20C
  8
0
  6
CONTINUOUS
 62
     7
 10
621.6148482470323
 20
410.5110001806947
 30
0.0
 40
0.0749451190084698
 50
0.8740091645594248
 51
77.00199919478268
  0
ARC
  5
20D
  8
0
  6
CONTINUOUS
 62
     7
 10
24608.39013049841
 20
354.7065797068126
 30
0.0
 40
23986.75619792731
 50
179.9143035255938
 51
179.9558091375768
  0
ARC
  5
20E
  8
0
  6
CONTINUOUS
 62
     7
 10
15226.64356620869
 20
368.7387337448365
 30
0.0
 40
14604.99913979001
 50
179.8384321752502
 51
179.9143035255939
  0
LINE
  5
20F
  8
0
  6
CONTINUOUS
 62
     9
 10
621.7023912121737
 20
412.091022706193
 30
0.0
 11
621.689775864537
 21
410.5121432405315
 31
0.0
  0
LINE
  5
210
  8
0
  6
CONTINUOUS
 62
     7
 10
613.7456746437655
 20
411.7780673733865
 30
0.0
 11
613.7456746437655
 21
413.8797683880392
 31
0.0
  0
LINE
  5
211
  8
0
  6
CONTINUOUS
 62
     7
 10
621.7456746437655
 20
411.7780673733865
 30
0.0
 11
621.7456746437655
 21
413.8797683880392
 31
0.0
  0
ARC
  5
212
  8
0
  6
CONTINUOUS
 62
     7
 10
-13980.6435662087
 20
368.7387337448365
 30
0.0
 40
14604.99913979001
 50
0.0856964744061202
 51
0.1615678247497954
  0
ARC
  5
213
  8
0
  6
CONTINUOUS
 62
     7
 10
-23362.39013049843
 20
354.7065797068126
 30
0.0
 40
23986.75619792731
 50
0.0441908624233065
 51
0.085696474406177
  0
ARC
  5
214
  8
0
  6
CONTINUOUS
 62
     7
 10
875.8114543369302
 20
416.5177944773113
 30
0.0
 40
251.5993692940474
 50
181.0794137749746
 51
181.4300109704108
  0
LINE
  5
215
  8
0
  6
CONTINUOUS
 62
     7
 10
624.2543253562347
 20
413.8797683880392
 30
0.0
 11
624.2543253562347
 21
411.7780673733865
 31
0.0
  0
LINE
  5
216
  8
0
  6
CONTINUOUS
 62
     7
 10
615.8585290008757
 20
372.7065797068144
 30
0.0
 11
614.1414709991243
 21
372.7065797068144
 31
0.0
  0
LINE
  5
217
  8
0
  6
CONTINUOUS
 62
     9
 10
624.310224135463
 20
410.5121432405315
 30
0.0
 11
624.2976087878264
 21
412.0910227061931
 31
0.0
  0
ARC
  5
218
  8
0
  6
CONTINUOUS
 62
     7
 10
624.7163465593198
 20
412.089283124513
 30
0.0
 40
0.4187381881072789
 50
155.9849040481567
 51
179.7619748640305
  0
ARC
  5
219
  8
0
  6
CONTINUOUS
 62
     7
 10
624.7996407397992
 20
412.0521718668064
 30
0.0
 40
0.5099257198772121
 50
135.312300002846
 51
155.9849040481436
  0
ARC
  5
21A
  8
0
  6
CONTINUOUS
 62
     7
 10
624.764775856557
 20
412.086658733268
 30
0.0
 40
0.4608858988963937
 50
111.1540186742656
 51
135.3123000028637
  0
ARC
  5
21B
  8
0
  6
CONTINUOUS
 62
     7
 10
624.7996107882694
 20
411.9966346988975
 30
0.0
 40
0.5574146471102852
 50
91.22663155336362
 51
111.154018674181
  0
ARC
  5
21C
  8
0
  6
CONTINUOUS
 62
     7
 10
624.7996107882694
 20
411.9966346988977
 30
0.0
 40
0.5574146471101403
 50
90.20774094577445
 51
91.22663155336448
  0
ARC
  5
21D
  8
0
  6
CONTINUOUS
 62
     7
 10
-13988.6435662087
 20
368.7387337448365
 30
0.0
 40
14604.99913979001
 50
0.0856964744061202
 51
0.1615678247497954
  0
ARC
  5
21E
  8
0
  6
CONTINUOUS
 62
     7
 10
-23370.39013049843
 20
354.7065797068126
 30
0.0
 40
23986.75619792731
 50
0.0441908624233065
 51
0.085696474406177
  0
LINE
  5
21F
  8
0
  6
CONTINUOUS
 62
     9
 10
613.7023912121737
 20
412.091022706193
 30
0.0
 11
613.689775864537
 21
410.5121432405315
 31
0.0
  0
ARC
  5
220
  8
0
  6
CONTINUOUS
 62
     7
 10
621.2003892117308
 20
411.9966346988981
 30
0.0
 40
0.5574146471097212
 50
88.77336844665115
 51
89.792259054262
  0
ARC
  5
221
  8
0
  6
CONTINUOUS
 62
     7
 10
621.2003892117308
 20
411.9966346988979
 30
0.0
 40
0.557414647109916
 50
68.84598132581085
 51
88.77336844664644
  0
ARC
  5
222
  8
0
  6
CONTINUOUS
 62
     7
 10
621.2352241434437
 20
412.0866587332686
 30
0.0
 40
0.4608858988956048
 50
44.68769999714789
 51
68.84598132578446
  0
ARC
  5
223
  8
0
  6
CONTINUOUS
 62
     7
 10
621.200359260201
 20
412.0521718668066
 30
0.0
 40
0.5099257198770691
 50
24.01509595183904
 51
44.68769999714573
  0
ARC
  5
224
  8
0
  6
CONTINUOUS
 62
     7
 10
621.2836534406804
 20
412.0892831245131
 30
0.0
 40
0.418738188107138
 50
0.2380251359671774
 51
24.0150959518441
  0
LINE
  5
225
  8
0
  6
CONTINUOUS
 62
     9
 10
624.7975897493585
 20
412.554042830285
 30
0.0
 11
629.2024102506415
 21
412.554042830285
 31
0.0
  0
POLYLINE
  5
226
  8
0
  6
CONTINUOUS
 62
     9
 66
     1
 10
0.0
 20
0.0
 30
0.0
  0
VERTEX
  5
6A7
  8
0
  6
CONTINUOUS
 62
     9
 10
624.2543253562347
 20
413.8797683880392
 30
0.0
  0
VERTEX
  5
6A8
  8
0
  6
CONTINUOUS
 62
     9
 10
624.1473541931164
 20
414.0685004453236
 30
0.0
  0
VERTEX
  5
6A9
  8
0
  6
CONTINUOUS
 62
     9
 10
623.961105570068
 20
414.1566755317635
 30
0.0
  0
VERTEX
  5
6AA
  8
0
  6
CONTINUOUS
 62
     9
 10
623.7543443947026
 20
414.1833778531476
 30
0.0
  0
SEQEND
  5
705
  8
0
  6
CONTINUOUS
 62
     9
  0
ARC
  5
227
  8
0
  6
CONTINUOUS
 62
     7
 10
24600.39013049841
 20
354.7065797068126
 30
0.0
 40
23986.75619792731
 50
179.9143035255938
 51
179.9558091375768
  0
ARC
  5
228
  8
0
  6
CONTINUOUS
 62
     7
 10
15218.64356620869
 20
368.7387337448365
 30
0.0
 40
14604.99913979001
 50
179.8384321752502
 51
179.9143035255939
  0
LINE
  5
229
  8
0
  6
CONTINUOUS
 62
     7
 10
616.290983237988
 20
410.2389422098252
 30
0.0
 11
616.2935063075155
 21
409.9231663166928
 31
0.0
  0
ARC
  5
22A
  8
0
  6
CONTINUOUS
 62
     7
 10
370.1885456630857
 20
416.5177944773109
 30
0.0
 40
251.5993692940318
 50
358.5699890295892
 51
358.9205862250254
  0
LINE
  5
22B
  8
0
  6
CONTINUOUS
 62
     7
 10
616.2543253562346
 20
413.8797683880392
 30
0.0
 11
616.2543253562346
 21
411.7780673733865
 31
0.0
  0
LINE
  5
22C
  8
0
  6
CONTINUOUS
 62
     7
 10
624.290983237988
 20
410.2389422098252
 30
0.0
 11
624.2935063075155
 21
409.9231663166928
 31
0.0
  0
LINE
  5
22D
  8
0
  6
CONTINUOUS
 62
     7
 10
613.7064936924846
 20
409.9231663166928
 30
0.0
 11
613.7090167620121
 21
410.2389422098252
 31
0.0
  0
LINE
  5
22E
  8
0
  6
CONTINUOUS
 62
     9
 10
616.7975897493585
 20
412.554042830285
 30
0.0
 11
621.2024102506415
 21
412.554042830285
 31
0.0
  0
POLYLINE
  5
22F
  8
0
  6
CONTINUOUS
 62
     9
 66
     1
 10
0.0
 20
0.0
 30
0.0
  0
VERTEX
  5
6AB
  8
0
  6
CONTINUOUS
 62
     9
 10
616.2543253562346
 20
413.8797683880392
 30
0.0
  0
VERTEX
  5
6AC
  8
0
  6
CONTINUOUS
 62
     9
 10
616.1473541931164
 20
414.0685004453236
 30
0.0
  0
VERTEX
  5
6AD
  8
0
  6
CONTINUOUS
 62
     9
 10
615.961105570068
 20
414.1566755317635
 30
0.0
  0
VERTEX
  5
6AE
  8
0
  6
CONTINUOUS
 62
     9
 10
615.7543443947026
 20
414.1833778531476
 30
0.0
  0
SEQEND
  5
706
  8
0
  6
CONTINUOUS
 62
     9
  0
ARC
  5
230
  8
0
  6
CONTINUOUS
 62
     7
 10
362.1885456630857
 20
416.5177944773109
 30
0.0
 40
251.5993692940318
 50
358.5699890295892
 51
358.9205862250254
  0
LINE
  5
231
  8
0
  6
CONTINUOUS
 62
     7
 10
616.2940124860874
 20
409.734588433319
 30
0.0
 11
613.7059875139128
 21
409.734588433319
 31
0.0
  0
ARC
  5
232
  8
0
  6
CONTINUOUS
 62
     7
 10
616.7163465593198
 20
412.089283124513
 30
0.0
 40
0.4187381881072789
 50
155.9849040481567
 51
179.7619748640305
  0
ARC
  5
233
  8
0
  6
CONTINUOUS
 62
     7
 10
616.7996407397992
 20
412.0521718668064
 30
0.0
 40
0.5099257198772121
 50
135.312300002846
 51
155.9849040481436
  0
ARC
  5
234
  8
0
  6
CONTINUOUS
 62
     7
 10
616.764775856557
 20
412.086658733268
 30
0.0
 40
0.4608858988963937
 50
111.1540186742656
 51
135.3123000028637
  0
ARC
  5
235
  8
0
  6
CONTINUOUS
 62
     7
 10
616.7996107882694
 20
411.9966346988975
 30
0.0
 40
0.5574146471102852
 50
91.22663155336362
 51
111.154018674181
  0
ARC
  5
236
  8
0
  6
CONTINUOUS
 62
     7
 10
616.7996107882694
 20
411.9966346988977
 30
0.0
 40
0.5574146471101403
 50
90.20774094577445
 51
91.22663155336448
  0
ARC
  5
237
  8
0
  6
CONTINUOUS
 62
     7
 10
624.3851517529675
 20
410.5110001806949
 30
0.0
 40
0.0749451190083349
 50
102.9980008051538
 51
179.1259908355227
  0
ARC
  5
238
  8
0
  6
CONTINUOUS
 62
     7
 10
624.2762369420323
 20
410.9828371685559
 30
0.0
 40
0.4092992192702213
 50
282.9980008052448
 51
296.1108017640834
  0
ARC
  5
239
  8
0
  6
CONTINUOUS
 62
     7
 10
624.6384164627127
 20
410.2438894349153
 30
0.0
 40
0.4136331948761581
 50
91.08496456418094
 51
116.1108017640926
  0
ARC
  5
23A
  8
0
  6
CONTINUOUS
 62
     7
 10
624.8394765133056
 20
399.6273995134555
 30
0.0
 40
11.0320268302808
 50
90.15408029937106
 51
91.08496456421199
  0
ARC
  5
23B
  8
0
  6
CONTINUOUS
 62
     7
 10
624.8394765133071
 20
399.6273995129332
 30
0.0
 40
11.03202683080322
 50
90.15202379531489
 51
90.15408029937112
  0
ARC
  5
23C
  8
0
  6
CONTINUOUS
 62
     7
 10
622.1415987657552
 20
373.2062618586735
 30
0.0
 40
0.4996821681939241
 50
179.9167654036513
 51
269.9853497097592
  0
POLYLINE
  5
23D
  8
0
  6
CONTINUOUS
 62
     9
 66
     1
 10
0.0
 20
0.0
 30
0.0
  0
VERTEX
  5
6AF
  8
0
  6
CONTINUOUS
 62
     9
 10
614.2456556052975
 20
414.1833778531476
 30
0.0
  0
VERTEX
  5
6B0
  8
0
  6
CONTINUOUS
 62
     9
 10
614.0293476032092
 20
414.15400944928
 30
0.0
  0
VERTEX
  5
6B1
  8
0
  6
CONTINUOUS
 62
     9
 10
613.8476960766557
 20
414.0646050014085
 30
0.0
  0
VERTEX
  5
6B2
  8
0
  6
CONTINUOUS
 62
     9
 10
613.7456746437654
 20
413.8797683880392
 30
0.0
  0
SEQEND
  5
707
  8
0
  6
CONTINUOUS
 62
     9
  0
ARC
  5
23E
  8
0
  6
CONTINUOUS
 62
     7
 10
630.1415987657552
 20
373.2062618586735
 30
0.0
 40
0.4996821681939241
 50
179.9167654036513
 51
269.9853497097592
  0
ARC
  5
23F
  8
0
  6
CONTINUOUS
 62
     7
 10
631.8584178335058
 20
373.2062452877469
 30
0.0
 40
0.4996655932989619
 50
270.0127473679414
 51
0.0851375186206837
  0
LINE
  5
240
  8
0
  6
CONTINUOUS
 62
     9
 10
623.7543443947026
 20
414.1833778531476
 30
0.0
 11
622.2456556052975
 21
414.1833778531476
 31
0.0
  0
LINE
  5
241
  8
0
  6
CONTINUOUS
 62
     7
 10
629.7064936924846
 20
409.9231663166928
 30
0.0
 11
629.7090167620121
 21
410.2389422098252
 31
0.0
  0
LINE
  5
242
  8
0
  6
CONTINUOUS
 62
     7
 10
624.2940124860874
 20
409.734588433319
 30
0.0
 11
621.7059875139128
 21
409.734588433319
 31
0.0
  0
LINE
  5
243
  8
0
  6
CONTINUOUS
 62
     7
 10
629.7456746437655
 20
411.7780673733865
 30
0.0
 11
629.7456746437655
 21
413.8797683880392
 31
0.0
  0
ARC
  5
244
  8
0
  6
CONTINUOUS
 62
     7
 10
883.8114543369302
 20
416.5177944773113
 30
0.0
 40
251.5993692940474
 50
181.0794137749746
 51
181.4300109704108
  0
ARC
  5
245
  8
0
  6
CONTINUOUS
 62
     7
 10
632.7163465593198
 20
412.089283124513
 30
0.0
 40
0.4187381881072789
 50
155.9849040481567
 51
179.7619748640305
  0
ARC
  5
246
  8
0
  6
CONTINUOUS
 62
     7
 10
632.7996407397992
 20
412.0521718668064
 30
0.0
 40
0.5099257198772121
 50
135.312300002846
 51
155.9849040481436
  0
ARC
  5
247
  8
0
  6
CONTINUOUS
 62
     7
 10
632.764775856557
 20
412.086658733268
 30
0.0
 40
0.4608858988963937
 50
111.1540186742656
 51
135.3123000028637
  0
ARC
  5
248
  8
0
  6
CONTINUOUS
 62
     7
 10
632.7996107882694
 20
411.9966346988975
 30
0.0
 40
0.5574146471102852
 50
91.22663155336362
 51
111.154018674181
  0
ARC
  5
249
  8
0
  6
CONTINUOUS
 62
     7
 10
632.7996107882694
 20
411.9966346988977
 30
0.0
 40
0.5574146471101403
 50
90.20774094577445
 51
91.22663155336448
  0
POLYLINE
  5
24A
  8
0
  6
CONTINUOUS
 62
     9
 66
     1
 10
0.0
 20
0.0
 30
0.0
  0
VERTEX
  5
6B3
  8
0
  6
CONTINUOUS
 62
     9
 10
622.2456556052975
 20
414.1833778531476
 30
0.0
  0
VERTEX
  5
6B4
  8
0
  6
CONTINUOUS
 62
     9
 10
622.0293476032092
 20
414.15400944928
 30
0.0
  0
VERTEX
  5
6B5
  8
0
  6
CONTINUOUS
 62
     9
 10
621.8476960766557
 20
414.0646050014085
 30
0.0
  0
VERTEX
  5
6B6
  8
0
  6
CONTINUOUS
 62
     9
 10
621.7456746437654
 20
413.8797683880392
 30
0.0
  0
SEQEND
  5
708
  8
0
  6
CONTINUOUS
 62
     9
  0
ARC
  5
24B
  8
0
  6
CONTINUOUS
 62
     7
 10
378.1885456630857
 20
416.5177944773109
 30
0.0
 40
251.5993692940318
 50
358.5699890295892
 51
358.9205862250254
  0
LINE
  5
24C
  8
0
  6
CONTINUOUS
 62
     9
 10
632.7975897493585
 20
412.554042830285
 30
0.0
 11
637.2024102506415
 21
412.554042830285
 31
0.0
  0
ARC
  5
24D
  8
0
  6
CONTINUOUS
 62
     7
 10
629.160523486693
 20
399.6273995129313
 30
0.0
 40
11.03202683080494
 50
89.84591970062915
 51
89.84797620468561
  0
ARC
  5
24E
  8
0
  6
CONTINUOUS
 62
     7
 10
629.1605234866944
 20
399.6273995134506
 30
0.0
 40
11.03202683028574
 50
88.9150354357879
 51
89.84591970062854
  0
ARC
  5
24F
  8
0
  6
CONTINUOUS
 62
     7
 10
629.3615835372875
 20
410.2438894349156
 30
0.0
 40
0.41363319487581
 50
63.88919823590799
 51
88.91503543583666
  0
ARC
  5
250
  8
0
  6
CONTINUOUS
 62
     7
 10
629.7237630579666
 20
410.9828371685533
 30
0.0
 40
0.4092992192674235
 50
243.8891982359195
 51
257.0019991948497
  0
ARC
  5
251
  8
0
  6
CONTINUOUS
 62
     7
 10
629.6148482470323
 20
410.5110001806947
 30
0.0
 40
0.0749451190084698
 50
0.8740091645594248
 51
77.00199919478268
  0
LINE
  5
252
  8
0
  6
CONTINUOUS
 62
     9
 10
631.7543443947026
 20
414.1833778531476
 30
0.0
 11
630.2456556052975
 21
414.1833778531476
 31
0.0
  0
LINE
  5
253
  8
0
  6
CONTINUOUS
 62
     7
 10
632.2940124860874
 20
409.734588433319
 30
0.0
 11
629.7059875139128
 21
409.734588433319
 31
0.0
  0
LINE
  5
254
  8
0
  6
CONTINUOUS
 62
     7
 10
632.290983237988
 20
410.2389422098252
 30
0.0
 11
632.2935063075155
 21
409.9231663166928
 31
0.0
  0
LINE
  5
255
  8
0
  6
CONTINUOUS
 62
     9
 10
645.1897949030049
 20
410.6593874714912
 30
0.0
 11
640.8102050969952
 21
410.6593874714912
 31
0.0
  0
ARC
  5
256
  8
0
  6
CONTINUOUS
 62
     7
 10
640.3851517529677
 20
410.5110001806949
 30
0.0
 40
0.0749451190083349
 50
102.9980008051538
 51
179.1259908355227
  0
ARC
  5
257
  8
0
  6
CONTINUOUS
 62
     7
 10
640.2762369420323
 20
410.9828371685559
 30
0.0
 40
0.4092992192702213
 50
282.9980008052448
 51
296.1108017640834
  0
ARC
  5
258
  8
0
  6
CONTINUOUS
 62
     7
 10
640.6384164627127
 20
410.2438894349153
 30
0.0
 40
0.4136331948761581
 50
91.08496456418094
 51
116.1108017640926
  0
ARC
  5
259
  8
0
  6
CONTINUOUS
 62
     7
 10
640.8394765133056
 20
399.6273995134555
 30
0.0
 40
11.0320268302808
 50
90.15408029937106
 51
91.08496456421199
  0
ARC
  5
25A
  8
0
  6
CONTINUOUS
 62
     7
 10
640.8394765133071
 20
399.6273995129332
 30
0.0
 40
11.03202683080322
 50
90.15202379531489
 51
90.15408029937112
  0
LINE
  5
25B
  8
0
  6
CONTINUOUS
 62
     9
 10
632.3102241354632
 20
410.5121432405315
 30
0.0
 11
632.2976087878264
 21
412.0910227061931
 31
0.0
  0
POLYLINE
  5
25C
  8
0
  6
CONTINUOUS
 62
     9
 66
     1
 10
0.0
 20
0.0
 30
0.0
  0
VERTEX
  5
6B7
  8
0
  6
CONTINUOUS
 62
     9
 10
630.2456556052975
 20
414.1833778531476
 30
0.0
  0
VERTEX
  5
6B8
  8
0
  6
CONTINUOUS
 62
     9
 10
630.0293476032093
 20
414.15400944928
 30
0.0
  0
VERTEX
  5
6B9
  8
0
  6
CONTINUOUS
 62
     9
 10
629.8476960766557
 20
414.0646050014085
 30
0.0
  0
VERTEX
  5
6BA
  8
0
  6
CONTINUOUS
 62
     9
 10
629.7456746437654
 20
413.8797683880392
 30
0.0
  0
SEQEND
  5
709
  8
0
  6
CONTINUOUS
 62
     9
  0
LINE
  5
25D
  8
0
  6
CONTINUOUS
 62
     7
 10
631.8585290008757
 20
372.7065797068144
 30
0.0
 11
630.1414709991243
 21
372.7065797068144
 31
0.0
  0
ARC
  5
25E
  8
0
  6
CONTINUOUS
 62
     7
 10
24616.39013049841
 20
354.7065797068126
 30
0.0
 40
23986.75619792731
 50
179.9143035255938
 51
179.9558091375768
  0
ARC
  5
25F
  8
0
  6
CONTINUOUS
 62
     7
 10
15234.64356620869
 20
368.7387337448365
 30
0.0
 40
14604.99913979001
 50
179.8384321752502
 51
179.9143035255939
  0
LINE
  5
260
  8
0
  6
CONTINUOUS
 62
     9
 10
637.1897949030049
 20
410.6593874714912
 30
0.0
 11
632.8102050969952
 21
410.6593874714912
 31
0.0
  0
POLYLINE
  5
261
  8
0
  6
CONTINUOUS
 62
     9
 66
     1
 10
0.0
 20
0.0
 30
0.0
  0
VERTEX
  5
6BB
  8
0
  6
CONTINUOUS
 62
     9
 10
632.2543253562347
 20
413.8797683880392
 30
0.0
  0
VERTEX
  5
6BC
  8
0
  6
CONTINUOUS
 62
     9
 10
632.1473541931164
 20
414.0685004453236
 30
0.0
  0
VERTEX
  5
6BD
  8
0
  6
CONTINUOUS
 62
     9
 10
631.961105570068
 20
414.1566755317635
 30
0.0
  0
VERTEX
  5
6BE
  8
0
  6
CONTINUOUS
 62
     9
 10
631.7543443947026
 20
414.1833778531476
 30
0.0
  0
SEQEND
  5
70A
  8
0
  6
CONTINUOUS
 62
     9
  0
ARC
  5
262
  8
0
  6
CONTINUOUS
 62
     7
 10
637.160523486693
 20
399.6273995129313
 30
0.0
 40
11.03202683080494
 50
89.84591970062915
 51
89.84797620468561
  0
ARC
  5
263
  8
0
  6
CONTINUOUS
 62
     7
 10
637.1605234866944
 20
399.6273995134506
 30
0.0
 40
11.03202683028574
 50
88.9150354357879
 51
89.84591970062854
  0
ARC
  5
264
  8
0
  6
CONTINUOUS
 62
     7
 10
637.3615835372875
 20
410.2438894349156
 30
0.0
 40
0.41363319487581
 50
63.88919823590799
 51
88.91503543583666
  0
ARC
  5
265
  8
0
  6
CONTINUOUS
 62
     7
 10
637.7237630579666
 20
410.9828371685533
 30
0.0
 40
0.4092992192674235
 50
243.8891982359195
 51
257.0019991948497
  0
ARC
  5
266
  8
0
  6
CONTINUOUS
 62
     7
 10
637.6148482470323
 20
410.5110001806947
 30
0.0
 40
0.0749451190084698
 50
0.8740091645594248
 51
77.00199919478268
  0
ARC
  5
267
  8
0
  6
CONTINUOUS
 62
     7
 10
629.2003892117308
 20
411.9966346988981
 30
0.0
 40
0.5574146471097212
 50
88.77336844665115
 51
89.792259054262
  0
ARC
  5
268
  8
0
  6
CONTINUOUS
 62
     7
 10
629.2003892117308
 20
411.9966346988979
 30
0.0
 40
0.557414647109916
 50
68.84598132581085
 51
88.77336844664644
  0
ARC
  5
269
  8
0
  6
CONTINUOUS
 62
     7
 10
629.2352241434437
 20
412.0866587332686
 30
0.0
 40
0.4608858988956048
 50
44.68769999714789
 51
68.84598132578446
  0
ARC
  5
26A
  8
0
  6
CONTINUOUS
 62
     7
 10
629.200359260201
 20
412.0521718668066
 30
0.0
 40
0.5099257198770691
 50
24.01509595183904
 51
44.68769999714573
  0
ARC
  5
26B
  8
0
  6
CONTINUOUS
 62
     7
 10
629.2836534406804
 20
412.0892831245131
 30
0.0
 40
0.418738188107138
 50
0.2380251359671774
 51
24.0150959518441
  0
ARC
  5
26C
  8
0
  6
CONTINUOUS
 62
     7
 10
638.1415987657552
 20
373.2062618586735
 30
0.0
 40
0.4996821681939241
 50
179.9167654036513
 51
269.9853497097592
  0
LINE
  5
26D
  8
0
  6
CONTINUOUS
 62
     9
 10
629.7023912121737
 20
412.091022706193
 30
0.0
 11
629.689775864537
 21
410.5121432405315
 31
0.0
  0
ARC
  5
26E
  8
0
  6
CONTINUOUS
 62
     7
 10
-13972.64356620871
 20
368.7387337448365
 30
0.0
 40
14604.99913979001
 50
0.0856964744061202
 51
0.1615678247497954
  0
ARC
  5
26F
  8
0
  6
CONTINUOUS
 62
     7
 10
-23354.39013049843
 20
354.7065797068126
 30
0.0
 40
23986.75619792731
 50
0.0441908624233065
 51
0.085696474406177
  0
LINE
  5
270
  8
0
  6
CONTINUOUS
 62
     7
 10
632.2543253562347
 20
413.8797683880392
 30
0.0
 11
632.2543253562347
 21
411.7780673733865
 31
0.0
  0
ARC
  5
271
  8
0
  6
CONTINUOUS
 62
     7
 10
632.3851517529675
 20
410.5110001806949
 30
0.0
 40
0.0749451190083349
 50
102.9980008051538
 51
179.1259908355227
  0
ARC
  5
272
  8
0
  6
CONTINUOUS
 62
     7
 10
632.2762369420323
 20
410.9828371685559
 30
0.0
 40
0.4092992192702213
 50
282.9980008052448
 51
296.1108017640834
  0
ARC
  5
273
  8
0
  6
CONTINUOUS
 62
     7
 10
632.6384164627127
 20
410.2438894349153
 30
0.0
 40
0.4136331948761581
 50
91.08496456418094
 51
116.1108017640926
  0
ARC
  5
274
  8
0
  6
CONTINUOUS
 62
     7
 10
632.8394765133056
 20
399.6273995134555
 30
0.0
 40
11.0320268302808
 50
90.15408029937106
 51
91.08496456421199
  0
ARC
  5
275
  8
0
  6
CONTINUOUS
 62
     7
 10
632.8394765133071
 20
399.6273995129332
 30
0.0
 40
11.03202683080322
 50
90.15202379531489
 51
90.15408029937112
  0
LINE
  5
276
  8
0
  6
CONTINUOUS
 62
     9
 10
639.7543443947026
 20
414.1833778531476
 30
0.0
 11
638.2456556052975
 21
414.1833778531476
 31
0.0
  0
ARC
  5
277
  8
0
  6
CONTINUOUS
 62
     7
 10
891.8114543369302
 20
416.5177944773113
 30
0.0
 40
251.5993692940474
 50
181.0794137749746
 51
181.4300109704108
  0
ARC
  5
278
  8
0
  6
CONTINUOUS
 62
     7
 10
-13964.64356620871
 20
368.7387337448365
 30
0.0
 40
14604.99913979001
 50
0.0856964744061202
 51
0.1615678247497954
  0
ARC
  5
279
  8
0
  6
CONTINUOUS
 62
     7
 10
-23346.39013049844
 20
354.7065797068126
 30
0.0
 40
23986.75619792731
 50
0.0441908624233065
 51
0.085696474406177
  0
ARC
  5
27A
  8
0
  6
CONTINUOUS
 62
     7
 10
639.8584178335058
 20
373.2062452877469
 30
0.0
 40
0.4996655932989619
 50
270.0127473679414
 51
0.0851375186206837
  0
LINE
  5
27B
  8
0
  6
CONTINUOUS
 62
     7
 10
637.7064936924846
 20
409.9231663166928
 30
0.0
 11
637.7090167620121
 21
410.2389422098252
 31
0.0
  0
LINE
  5
27C
  8
0
  6
CONTINUOUS
 62
     7
 10
637.7456746437655
 20
411.7780673733865
 30
0.0
 11
637.7456746437655
 21
413.8797683880392
 31
0.0
  0
LINE
  5
27D
  8
0
  6
CONTINUOUS
 62
     7
 10
640.2543253562347
 20
413.8797683880392
 30
0.0
 11
640.2543253562347
 21
411.7780673733865
 31
0.0
  0
LINE
  5
27E
  8
0
  6
CONTINUOUS
 62
     9
 10
640.7975897493585
 20
412.554042830285
 30
0.0
 11
645.2024102506415
 21
412.554042830285
 31
0.0
  0
ARC
  5
27F
  8
0
  6
CONTINUOUS
 62
     7
 10
646.1415987657552
 20
373.2062618586735
 30
0.0
 40
0.4996821681939241
 50
179.9167654036513
 51
269.9853497097592
  0
ARC
  5
280
  8
0
  6
CONTINUOUS
 62
     7
 10
648.3851517529677
 20
410.5110001806949
 30
0.0
 40
0.0749451190083349
 50
102.9980008051538
 51
179.1259908355227
  0
ARC
  5
281
  8
0
  6
CONTINUOUS
 62
     7
 10
648.2762369420323
 20
410.9828371685559
 30
0.0
 40
0.4092992192702213
 50
282.9980008052448
 51
296.1108017640834
  0
ARC
  5
282
  8
0
  6
CONTINUOUS
 62
     7
 10
648.6384164627127
 20
410.2438894349153
 30
0.0
 40
0.4136331948761581
 50
91.08496456418094
 51
116.1108017640926
  0
ARC
  5
283
  8
0
  6
CONTINUOUS
 62
     7
 10
648.8394765133056
 20
399.6273995134555
 30
0.0
 40
11.0320268302808
 50
90.15408029937106
 51
91.08496456421199
  0
ARC
  5
284
  8
0
  6
CONTINUOUS
 62
     7
 10
648.8394765133071
 20
399.6273995129332
 30
0.0
 40
11.03202683080322
 50
90.15202379531489
 51
90.15408029937112
  0
POLYLINE
  5
285
  8
0
  6
CONTINUOUS
 62
     9
 66
     1
 10
0.0
 20
0.0
 30
0.0
  0
VERTEX
  5
6BF
  8
0
  6
CONTINUOUS
 62
     9
 10
638.2456556052975
 20
414.1833778531476
 30
0.0
  0
VERTEX
  5
6C0
  8
0
  6
CONTINUOUS
 62
     9
 10
638.0293476032093
 20
414.15400944928
 30
0.0
  0
VERTEX
  5
6C1
  8
0
  6
CONTINUOUS
 62
     9
 10
637.8476960766557
 20
414.0646050014085
 30
0.0
  0
VERTEX
  5
6C2
  8
0
  6
CONTINUOUS
 62
     9
 10
637.7456746437654
 20
413.8797683880392
 30
0.0
  0
SEQEND
  5
70B
  8
0
  6
CONTINUOUS
 62
     9
  0
POLYLINE
  5
286
  8
0
  6
CONTINUOUS
 62
     9
 66
     1
 10
0.0
 20
0.0
 30
0.0
  0
VERTEX
  5
6C3
  8
0
  6
CONTINUOUS
 62
     9
 10
640.2543253562347
 20
413.8797683880392
 30
0.0
  0
VERTEX
  5
6C4
  8
0
  6
CONTINUOUS
 62
     9
 10
640.1473541931164
 20
414.0685004453236
 30
0.0
  0
VERTEX
  5
6C5
  8
0
  6
CONTINUOUS
 62
     9
 10
639.961105570068
 20
414.1566755317635
 30
0.0
  0
VERTEX
  5
6C6
  8
0
  6
CONTINUOUS
 62
     9
 10
639.7543443947026
 20
414.1833778531476
 30
0.0
  0
SEQEND
  5
70C
  8
0
  6
CONTINUOUS
 62
     9
  0
LINE
  5
287
  8
0
  6
CONTINUOUS
 62
     7
 10
645.7064936924846
 20
409.9231663166928
 30
0.0
 11
645.7090167620121
 21
410.2389422098252
 31
0.0
  0
ARC
  5
288
  8
0
  6
CONTINUOUS
 62
     7
 10
24632.39013049841
 20
354.7065797068126
 30
0.0
 40
23986.75619792731
 50
179.9143035255938
 51
179.9558091375768
  0
ARC
  5
289
  8
0
  6
CONTINUOUS
 62
     7
 10
15250.64356620869
 20
368.7387337448365
 30
0.0
 40
14604.99913979001
 50
179.8384321752502
 51
179.9143035255939
  0
ARC
  5
28A
  8
0
  6
CONTINUOUS
 62
     7
 10
647.8584178335059
 20
373.2062452877469
 30
0.0
 40
0.4996655932989619
 50
270.0127473679414
 51
0.0851375186206837
  0
ARC
  5
28B
  8
0
  6
CONTINUOUS
 62
     7
 10
-13956.64356620871
 20
368.7387337448365
 30
0.0
 40
14604.99913979001
 50
0.0856964744061202
 51
0.1615678247497954
  0
ARC
  5
28C
  8
0
  6
CONTINUOUS
 62
     7
 10
-23338.39013049844
 20
354.7065797068126
 30
0.0
 40
23986.75619792731
 50
0.0441908624233065
 51
0.085696474406177
  0
ARC
  5
28D
  8
0
  6
CONTINUOUS
 62
     7
 10
386.1885456630857
 20
416.5177944773109
 30
0.0
 40
251.5993692940318
 50
358.5699890295892
 51
358.9205862250254
  0
LINE
  5
28E
  8
0
  6
CONTINUOUS
 62
     7
 10
640.290983237988
 20
410.2389422098252
 30
0.0
 11
640.2935063075155
 21
409.9231663166928
 31
0.0
  0
LINE
  5
28F
  8
0
  6
CONTINUOUS
 62
     7
 10
639.8585290008757
 20
372.7065797068144
 30
0.0
 11
638.1414709991243
 21
372.7065797068144
 31
0.0
  0
ARC
  5
290
  8
0
  6
CONTINUOUS
 62
     7
 10
640.7163465593198
 20
412.089283124513
 30
0.0
 40
0.4187381881072789
 50
155.9849040481567
 51
179.7619748640305
  0
ARC
  5
291
  8
0
  6
CONTINUOUS
 62
     7
 10
640.7996407397992
 20
412.0521718668064
 30
0.0
 40
0.5099257198772121
 50
135.312300002846
 51
155.9849040481436
  0
ARC
  5
292
  8
0
  6
CONTINUOUS
 62
     7
 10
640.764775856557
 20
412.086658733268
 30
0.0
 40
0.4608858988963937
 50
111.1540186742656
 51
135.3123000028637
  0
ARC
  5
293
  8
0
  6
CONTINUOUS
 62
     7
 10
640.7996107882694
 20
411.9966346988975
 30
0.0
 40
0.5574146471102852
 50
91.22663155336362
 51
111.154018674181
  0
ARC
  5
294
  8
0
  6
CONTINUOUS
 62
     7
 10
640.7996107882694
 20
411.9966346988977
 30
0.0
 40
0.5574146471101403
 50
90.20774094577445
 51
91.22663155336448
  0
ARC
  5
295
  8
0
  6
CONTINUOUS
 62
     7
 10
637.2003892117308
 20
411.9966346988981
 30
0.0
 40
0.5574146471097212
 50
88.77336844665115
 51
89.792259054262
  0
ARC
  5
296
  8
0
  6
CONTINUOUS
 62
     7
 10
637.2003892117308
 20
411.9966346988979
 30
0.0
 40
0.557414647109916
 50
68.84598132581085
 51
88.77336844664644
  0
ARC
  5
297
  8
0
  6
CONTINUOUS
 62
     7
 10
637.2352241434437
 20
412.0866587332686
 30
0.0
 40
0.4608858988956048
 50
44.68769999714789
 51
68.84598132578446
  0
ARC
  5
298
  8
0
  6
CONTINUOUS
 62
     7
 10
637.200359260201
 20
412.0521718668066
 30
0.0
 40
0.5099257198770691
 50
24.01509595183904
 51
44.68769999714573
  0
ARC
  5
299
  8
0
  6
CONTINUOUS
 62
     7
 10
637.2836534406804
 20
412.0892831245131
 30
0.0
 40
0.418738188107138
 50
0.2380251359671774
 51
24.0150959518441
  0
LINE
  5
29A
  8
0
  6
CONTINUOUS
 62
     7
 10
640.2940124860874
 20
409.734588433319
 30
0.0
 11
637.7059875139129
 21
409.734588433319
 31
0.0
  0
ARC
  5
29B
  8
0
  6
CONTINUOUS
 62
     7
 10
24624.39013049841
 20
354.7065797068126
 30
0.0
 40
23986.75619792731
 50
179.9143035255938
 51
179.9558091375768
  0
ARC
  5
29C
  8
0
  6
CONTINUOUS
 62
     7
 10
15242.64356620869
 20
368.7387337448365
 30
0.0
 40
14604.99913979001
 50
179.8384321752502
 51
179.9143035255939
  0
LINE
  5
29D
  8
0
  6
CONTINUOUS
 62
     9
 10
640.3102241354632
 20
410.5121432405315
 30
0.0
 11
640.2976087878264
 21
412.0910227061931
 31
0.0
  0
LINE
  5
29E
  8
0
  6
CONTINUOUS
 62
     7
 10
647.8585290008757
 20
372.7065797068144
 30
0.0
 11
646.1414709991243
 21
372.7065797068144
 31
0.0
  0
ARC
  5
29F
  8
0
  6
CONTINUOUS
 62
     7
 10
394.1885456630857
 20
416.5177944773109
 30
0.0
 40
251.5993692940318
 50
358.5699890295892
 51
358.9205862250254
  0
LINE
  5
2A0
  8
0
  6
CONTINUOUS
 62
     7
 10
645.7456746437655
 20
411.7780673733865
 30
0.0
 11
645.7456746437655
 21
413.8797683880392
 31
0.0
  0
LINE
  5
2A1
  8
0
  6
CONTINUOUS
 62
     7
 10
648.290983237988
 20
410.2389422098252
 30
0.0
 11
648.2935063075155
 21
409.9231663166928
 31
0.0
  0
LINE
  5
2A2
  8
0
  6
CONTINUOUS
 62
     9
 10
645.7023912121737
 20
412.091022706193
 30
0.0
 11
645.689775864537
 21
410.5121432405315
 31
0.0
  0
LINE
  5
2A3
  8
0
  6
CONTINUOUS
 62
     9
 10
637.7023912121737
 20
412.091022706193
 30
0.0
 11
637.689775864537
 21
410.5121432405315
 31
0.0
  0
ARC
  5
2A4
  8
0
  6
CONTINUOUS
 62
     7
 10
899.8114543369302
 20
416.5177944773113
 30
0.0
 40
251.5993692940474
 50
181.0794137749746
 51
181.4300109704108
  0
ARC
  5
2A5
  8
0
  6
CONTINUOUS
 62
     7
 10
645.160523486693
 20
399.6273995129313
 30
0.0
 40
11.03202683080494
 50
89.84591970062915
 51
89.84797620468561
  0
ARC
  5
2A6
  8
0
  6
CONTINUOUS
 62
     7
 10
645.1605234866944
 20
399.6273995134506
 30
0.0
 40
11.03202683028574
 50
88.9150354357879
 51
89.84591970062854
  0
ARC
  5
2A7
  8
0
  6
CONTINUOUS
 62
     7
 10
645.3615835372875
 20
410.2438894349156
 30
0.0
 40
0.41363319487581
 50
63.88919823590799
 51
88.91503543583666
  0
ARC
  5
2A8
  8
0
  6
CONTINUOUS
 62
     7
 10
645.7237630579666
 20
410.9828371685533
 30
0.0
 40
0.4092992192674235
 50
243.8891982359195
 51
257.0019991948497
  0
ARC
  5
2A9
  8
0
  6
CONTINUOUS
 62
     7
 10
645.6148482470325
 20
410.5110001806947
 30
0.0
 40
0.0749451190084698
 50
0.8740091645594248
 51
77.00199919478268
  0
LINE
  5
2AA
  8
0
  6
CONTINUOUS
 62
     9
 10
661.1659635837289
 20
410.6593874714912
 30
0.0
 11
648.810205096995
 21
410.6593874714912
 31
0.0
  0
LINE
  5
2AB
  8
0
  6
CONTINUOUS
 62
     9
 10
648.3102241354632
 20
410.5121432405315
 30
0.0
 11
648.2976087878264
 21
412.0910227061931
 31
0.0
  0
ARC
  5
2AC
  8
0
  6
CONTINUOUS
 62
     7
 10
645.2003892117308
 20
411.9966346988981
 30
0.0
 40
0.5574146471097212
 50
88.77336844665115
 51
89.792259054262
  0
ARC
  5
2AD
  8
0
  6
CONTINUOUS
 62
     7
 10
645.2003892117308
 20
411.9966346988979
 30
0.0
 40
0.557414647109916
 50
68.84598132581085
 51
88.77336844664644
  0
ARC
  5
2AE
  8
0
  6
CONTINUOUS
 62
     7
 10
645.2352241434437
 20
412.0866587332686
 30
0.0
 40
0.4608858988956048
 50
44.68769999714789
 51
68.84598132578446
  0
ARC
  5
2AF
  8
0
  6
CONTINUOUS
 62
     7
 10
645.200359260201
 20
412.0521718668066
 30
0.0
 40
0.5099257198770691
 50
24.01509595183904
 51
44.68769999714573
  0
ARC
  5
2B0
  8
0
  6
CONTINUOUS
 62
     7
 10
645.2836534406804
 20
412.0892831245131
 30
0.0
 40
0.418738188107138
 50
0.2380251359671774
 51
24.0150959518441
  0
LINE
  5
2B1
  8
0
  6
CONTINUOUS
 62
     7
 10
648.2940124860874
 20
409.734588433319
 30
0.0
 11
645.7059875139129
 21
409.734588433319
 31
0.0
  0
LINE
  5
2B2
  8
0
  6
CONTINUOUS
 62
     9
 10
541.1897949030048
 20
410.6593874714912
 30
0.0
 11
528.834036416271
 21
410.6593874714912
 31
0.0
  0
POLYLINE
  5
2B3
  8
0
  6
CONTINUOUS
 62
     9
 66
     1
 10
0.0
 20
0.0
 30
0.0
  0
VERTEX
  5
6C7
  8
0
  6
CONTINUOUS
 62
     9
 10
646.2456556052975
 20
414.1833778531476
 30
0.0
  0
VERTEX
  5
6C8
  8
0
  6
CONTINUOUS
 62
     9
 10
646.0293476032093
 20
414.15400944928
 30
0.0
  0
VERTEX
  5
6C9
  8
0
  6
CONTINUOUS
 62
     9
 10
645.8476960766557
 20
414.0646050014085
 30
0.0
  0
VERTEX
  5
6CA
  8
0
  6
CONTINUOUS
 62
     9
 10
645.7456746437654
 20
413.8797683880392
 30
0.0
  0
SEQEND
  5
70D
  8
0
  6
CONTINUOUS
 62
     9
  0
LINE
  5
2B4
  8
0
  6
CONTINUOUS
 62
     9
 10
648.7975897493583
 20
412.554042830285
 30
0.0
 11
661.2038327014562
 21
412.554042830285
 31
0.0
  0
ARC
  5
2B5
  8
0
  6
CONTINUOUS
 62
     7
 10
648.7163465593198
 20
412.089283124513
 30
0.0
 40
0.4187381881072789
 50
155.9849040481567
 51
179.7619748640305
  0
ARC
  5
2B6
  8
0
  6
CONTINUOUS
 62
     7
 10
648.7996407397992
 20
412.0521718668064
 30
0.0
 40
0.5099257198772121
 50
135.312300002846
 51
155.9849040481436
  0
ARC
  5
2B7
  8
0
  6
CONTINUOUS
 62
     7
 10
648.764775856557
 20
412.086658733268
 30
0.0
 40
0.4608858988963937
 50
111.1540186742656
 51
135.3123000028637
  0
ARC
  5
2B8
  8
0
  6
CONTINUOUS
 62
     7
 10
648.7996107882694
 20
411.9966346988975
 30
0.0
 40
0.5574146471102852
 50
91.22663155336362
 51
111.154018674181
  0
ARC
  5
2B9
  8
0
  6
CONTINUOUS
 62
     7
 10
648.7996107882694
 20
411.9966346988977
 30
0.0
 40
0.5574146471101403
 50
90.20774094577445
 51
91.22663155336448
  0
LINE
  5
2BA
  8
0
  6
CONTINUOUS
 62
     7
 10
648.2543253562347
 20
413.8797683880392
 30
0.0
 11
648.2543253562347
 21
411.7780673733865
 31
0.0
  0
POLYLINE
  5
2BB
  8
0
  6
CONTINUOUS
 62
     9
 66
     1
 10
0.0
 20
0.0
 30
0.0
  0
VERTEX
  5
6CB
  8
0
  6
CONTINUOUS
 62
     9
 10
648.2543253562347
 20
413.8797683880392
 30
0.0
  0
VERTEX
  5
6CC
  8
0
  6
CONTINUOUS
 62
     9
 10
648.1473541931164
 20
414.0685004453236
 30
0.0
  0
VERTEX
  5
6CD
  8
0
  6
CONTINUOUS
 62
     9
 10
647.9611055700681
 20
414.1566755317635
 30
0.0
  0
VERTEX
  5
6CE
  8
0
  6
CONTINUOUS
 62
     9
 10
647.7543443947026
 20
414.1833778531476
 30
0.0
  0
SEQEND
  5
70E
  8
0
  6
CONTINUOUS
 62
     9
  0
LINE
  5
2BC
  8
0
  6
CONTINUOUS
 62
     9
 10
647.7543443947026
 20
414.1833778531476
 30
0.0
 11
646.2456556052975
 21
414.1833778531476
 31
0.0
  0
LINE
  5
2BD
  8
0
  6
CONTINUOUS
 62
     9
 10
528.7961672985435
 20
412.554042830285
 30
0.0
 11
541.2024102506414
 21
412.554042830285
 31
0.0
  0
LINE
  5
2BE
  8
0
  6
CONTINUOUS
 62
     7
 10
602.4999809615321
 20
256.4565797068144
 30
0.0
 11
650.2811983849837
 21
256.4565797068144
 31
0.0
  0
ARC
  5
2BF
  8
0
  6
CONTINUOUS
 62
     7
 10
649.8619251139525
 20
264.956573253892
 30
0.0
 40
0.4999938454675806
 50
270.0012647366277
 51
271.4990464478648
  0
ARC
  5
2C0
  8
0
  6
CONTINUOUS
 62
     7
 10
649.8619237405803
 20
264.9566257342319
 30
0.0
 40
0.5000463437744735
 50
271.4990464478742
 51
293.997221052951
  0
ARC
  5
2C1
  8
0
  6
CONTINUOUS
 62
     7
 10
649.8619648154406
 20
264.9565334665415
 30
0.0
 40
0.4999453463941501
 50
293.9972210529496
 51
316.4999999999973
  0
ARC
  5
2C2
  8
0
  6
CONTINUOUS
 62
     7
 10
649.8619648154408
 20
264.9565334665414
 30
0.0
 40
0.4999453463938072
 50
316.4999999999906
 51
339.0027789470508
  0
ARC
  5
2C3
  8
0
  6
CONTINUOUS
 62
     7
 10
649.861870524508
 20
264.9565696561923
 30
0.0
 40
0.5000463437743045
 50
339.0027789470502
 51
1.500953552141937
  0
ARC
  5
2C4
  8
0
  6
CONTINUOUS
 62
     7
 10
649.8619230048021
 20
264.9565710313112
 30
0.0
 40
0.4999938454674734
 50
1.500953552136459
 51
2.998735263364698
  0
ARC
  5
2C5
  8
0
  6
CONTINUOUS
 62
     7
 10
648.5254753456069
 20
290.4565856262943
 30
0.0
 40
0.5000417339064097
 50
3.001138707843984
 51
23.99749745267487
  0
ARC
  5
2C6
  8
0
  6
CONTINUOUS
 62
     7
 10
648.525558436178
 20
290.4566226162515
 30
0.0
 40
0.4999507817215403
 50
23.99749745267132
 51
46.49999999999819
  0
ARC
  5
2C7
  8
0
  6
CONTINUOUS
 62
     7
 10
648.525558436178
 20
290.4566226162516
 30
0.0
 40
0.4999507817214628
 50
46.49999999999913
 51
69.00250254732909
  0
ARC
  5
2C8
  8
0
  6
CONTINUOUS
 62
     7
 10
648.5255258455387
 20
290.4565377036485
 30
0.0
 40
0.5000417339063364
 50
69.00250254732242
 51
89.99886129215835
  0
ARC
  5
2C9
  8
0
  6
CONTINUOUS
 62
     7
 10
540.6359496859326
 20
274.4565377036483
 30
0.0
 40
0.500041733906591
 50
90.0011387078386
 51
110.9974974526727
  0
ARC
  5
2CA
  8
0
  6
CONTINUOUS
 62
     7
 10
540.6359170952933
 20
274.4566226162517
 30
0.0
 40
0.4999507817213866
 50
110.9974974526743
 51
133.5000000000088
  0
ARC
  5
2CB
  8
0
  6
CONTINUOUS
 62
     7
 10
540.6359170952934
 20
274.4566226162515
 30
0.0
 40
0.499950781721656
 50
133.5000000000149
 51
156.0025025473398
  0
ARC
  5
2CC
  8
0
  6
CONTINUOUS
 62
     7
 10
540.6360001858645
 20
274.4565856262944
 30
0.0
 40
0.5000417339065434
 50
156.0025025473326
 51
176.9988612921597
  0
LINE
  5
2CD
  8
0
  6
CONTINUOUS
 62
     7
 10
540.5573260835451
 20
272.4565797068144
 30
0.0
 11
587.5000190384679
 21
272.4565797068144
 31
0.0
  0
LINE
  5
2CE
  8
0
  6
CONTINUOUS
 62
     7
 10
602.4999809615321
 20
288.4565797068144
 30
0.0
 11
648.6041494479261
 21
288.4565797068144
 31
0.0
  0
ARC
  5
2CF
  8
0
  6
CONTINUOUS
 62
     7
 10
539.7188147609339
 20
256.9565710313112
 30
0.0
 40
0.4999938454679339
 50
177.0012647366394
 51
178.499046447873
  0
ARC
  5
2D0
  8
0
  6
CONTINUOUS
 62
     7
 10
539.7188672412279
 20
256.9565696561924
 30
0.0
 40
0.5000463437746531
 50
178.4990464478672
 51
200.9972210529379
  0
ARC
  5
2D1
  8
0
  6
CONTINUOUS
 62
     7
 10
539.7187729502951
 20
256.9565334665416
 30
0.0
 40
0.499945346394298
 50
200.9972210529598
 51
223.5000000000014
  0
ARC
  5
2D2
  8
0
  6
CONTINUOUS
 62
     7
 10
539.718772950295
 20
256.9565334665415
 30
0.0
 40
0.4999453463942016
 50
223.5000000000016
 51
246.0027789470485
  0
ARC
  5
2D3
  8
0
  6
CONTINUOUS
 62
     7
 10
539.7188140251552
 20
256.956625734232
 30
0.0
 40
0.5000463437745458
 50
246.0027789470734
 51
268.5009535521444
  0
ARC
  5
2D4
  8
0
  6
CONTINUOUS
 62
     7
 10
539.7188126517832
 20
256.9565732538922
 30
0.0
 40
0.4999938454677374
 50
268.5009535521293
 51
269.9987352633595
  0
ARC
  5
2D5
  8
0
  6
CONTINUOUS
 62
     7
 10
539.7974252174039
 20
258.4565377036483
 30
0.0
 40
0.500041733906591
 50
90.0011387078386
 51
110.9974974526727
  0
ARC
  5
2D6
  8
0
  6
CONTINUOUS
 62
     7
 10
539.7973926267645
 20
258.4566226162517
 30
0.0
 40
0.4999507817213468
 50
110.9974974526624
 51
133.4999999999969
  0
ARC
  5
2D7
  8
0
  6
CONTINUOUS
 62
     7
 10
539.7973926267647
 20
258.4566226162515
 30
0.0
 40
0.4999507817215796
 50
133.5000000000057
 51
156.0025025473306
  0
ARC
  5
2D8
  8
0
  6
CONTINUOUS
 62
     7
 10
539.7974757173358
 20
258.4565856262944
 30
0.0
 40
0.5000417339064419
 50
156.0025025473275
 51
176.9988612921515
  0
LINE
  5
2D9
  8
0
  6
CONTINUOUS
 62
     7
 10
602.4999809615321
 20
264.4565797068144
 30
0.0
 11
649.8619361507192
 21
264.4565797068144
 31
0.0
  0
LINE
  5
2DA
  8
0
  6
CONTINUOUS
 62
     7
 10
648.9447980177383
 20
282.9565797068144
 30
0.0
 11
602.4999809615321
 21
282.9565797068144
 31
0.0
  0
LINE
  5
2DB
  8
0
  6
CONTINUOUS
 62
     7
 10
539.717381758732
 20
266.4827657270073
 30
0.0
 11
539.63876809428
 21
264.9827276500716
 31
0.0
  0
LINE
  5
2DC
  8
0
  6
CONTINUOUS
 62
     7
 10
540.9751684615251
 20
290.4827657270073
 30
0.0
 11
540.8965547970728
 21
288.9827276500715
 31
0.0
  0
ARC
  5
2DD
  8
0
  6
CONTINUOUS
 62
     7
 10
648.9447375798716
 20
282.4565856262943
 30
0.0
 40
0.5000417339060768
 50
3.001138707852486
 51
23.99749745268853
  0
ARC
  5
2DE
  8
0
  6
CONTINUOUS
 62
     7
 10
648.9448206704423
 20
282.4566226162515
 30
0.0
 40
0.4999507817215403
 50
23.99749745267132
 51
46.49999999999908
  0
ARC
  5
2DF
  8
0
  6
CONTINUOUS
 62
     7
 10
648.9448206704423
 20
282.4566226162514
 30
0.0
 40
0.4999507817217004
 50
46.50000000000741
 51
69.00250254732828
  0
ARC
  5
2E0
  8
0
  6
CONTINUOUS
 62
     7
 10
648.944788079803
 20
282.4565377036482
 30
0.0
 40
0.5000417339066353
 50
69.00250254732194
 51
89.99886129215128
  0
LINE
  5
2E1
  8
0
  6
CONTINUOUS
 62
     7
 10
539.2981195244677
 20
258.4827657270073
 30
0.0
 11
539.2195058600155
 21
256.9827276500716
 31
0.0
  0
LINE
  5
2E2
  8
0
  6
CONTINUOUS
 62
     7
 10
587.5000190384678
 20
290.9565797068144
 30
0.0
 11
541.4744642165259
 21
290.9565797068144
 31
0.0
  0
LINE
  5
2E3
  8
0
  6
CONTINUOUS
 62
     7
 10
539.7188016150164
 20
256.4565797068144
 30
0.0
 11
587.5000190384679
 21
256.4565797068144
 31
0.0
  0
LINE
  5
2E4
  8
0
  6
CONTINUOUS
 62
     7
 10
649.3640602520027
 20
274.9565797068144
 30
0.0
 11
602.4999809615321
 21
274.9565797068144
 31
0.0
  0
LINE
  5
2E5
  8
0
  6
CONTINUOUS
 62
     7
 10
540.5559062272607
 20
282.4827657270073
 30
0.0
 11
540.4772925628085
 21
280.9827276500715
 31
0.0
  0
ARC
  5
2E6
  8
0
  6
CONTINUOUS
 62
     7
 10
650.2025242826645
 20
258.4565856262944
 30
0.0
 40
0.5000417339060752
 50
3.001138707839818
 51
23.99749745268217
  0
ARC
  5
2E7
  8
0
  6
CONTINUOUS
 62
     7
 10
650.2026073732352
 20
258.4566226162515
 30
0.0
 40
0.4999507817215403
 50
23.99749745267132
 51
46.49999999999908
  0
ARC
  5
2E8
  8
0
  6
CONTINUOUS
 62
     7
 10
650.2026073732352
 20
258.4566226162515
 30
0.0
 40
0.4999507817216198
 50
46.49999999999866
 51
69.00250254731951
  0
ARC
  5
2E9
  8
0
  6
CONTINUOUS
 62
     7
 10
650.2025747825959
 20
258.4565377036482
 30
0.0
 40
0.5000417339066872
 50
69.00250254732423
 51
89.99886129215356
  0
ARC
  5
2EA
  8
0
  6
CONTINUOUS
 62
     7
 10
648.6041384111594
 20
288.9565732538922
 30
0.0
 40
0.4999938454677481
 50
270.0012647366384
 51
271.4990464478748
  0
ARC
  5
2EB
  8
0
  6
CONTINUOUS
 62
     7
 10
648.6041370377873
 20
288.9566257342322
 30
0.0
 40
0.500046343774751
 50
271.4990464478734
 51
293.9972210529381
  0
ARC
  5
2EC
  8
0
  6
CONTINUOUS
 62
     7
 10
648.6041781126474
 20
288.9565334665417
 30
0.0
 40
0.4999453463943475
 50
293.9972210529535
 51
316.4999999999908
  0
ARC
  5
2ED
  8
0
  6
CONTINUOUS
 62
     7
 10
648.6041781126479
 20
288.9565334665413
 30
0.0
 40
0.4999453463937308
 50
316.4999999999998
 51
339.0027789470601
  0
ARC
  5
2EE
  8
0
  6
CONTINUOUS
 62
     7
 10
648.6040838217151
 20
288.9565696561923
 30
0.0
 40
0.5000463437742008
 50
339.0027789470457
 51
1.500953552137389
  0
ARC
  5
2EF
  8
0
  6
CONTINUOUS
 62
     7
 10
648.604136302009
 20
288.9565710313112
 30
0.0
 40
0.4999938454675844
 50
1.500953552136125
 51
2.998735263370464
  0
ARC
  5
2F0
  8
0
  6
CONTINUOUS
 62
     7
 10
649.0234006454239
 20
280.9565732538922
 30
0.0
 40
0.4999938454678277
 50
270.0012647366146
 51
271.499046447851
  0
ARC
  5
2F1
  8
0
  6
CONTINUOUS
 62
     7
 10
649.0233992720517
 20
280.9566257342322
 30
0.0
 40
0.5000463437747481
 50
271.4990464478607
 51
293.9972210529253
  0
ARC
  5
2F2
  8
0
  6
CONTINUOUS
 62
     7
 10
649.0234403469118
 20
280.9565334665417
 30
0.0
 40
0.4999453463943925
 50
293.9972210529651
 51
316.5000000000024
  0
ARC
  5
2F3
  8
0
  6
CONTINUOUS
 62
     7
 10
649.0234403469121
 20
280.9565334665413
 30
0.0
 40
0.4999453463938112
 50
316.5000000000085
 51
339.0027789470689
  0
ARC
  5
2F4
  8
0
  6
CONTINUOUS
 62
     7
 10
649.0233460559795
 20
280.9565696561923
 30
0.0
 40
0.5000463437742008
 50
339.0027789470457
 51
1.500953552137389
  0
ARC
  5
2F5
  8
0
  6
CONTINUOUS
 62
     7
 10
649.0233985362732
 20
280.9565710313112
 30
0.0
 40
0.4999938454676953
 50
1.500953552135792
 51
2.998735263370131
  0
LINE
  5
2F6
  8
0
  6
CONTINUOUS
 62
     7
 10
541.3958505520737
 20
288.4565797068144
 30
0.0
 11
587.5000190384678
 21
288.4565797068144
 31
0.0
  0
LINE
  5
2F7
  8
0
  6
CONTINUOUS
 62
     7
 10
649.783322486267
 20
266.9565797068144
 30
0.0
 11
602.4999809615321
 21
266.9565797068144
 31
0.0
  0
LINE
  5
2F8
  8
0
  6
CONTINUOUS
 62
     7
 10
649.9419696714558
 20
272.9827276500715
 30
0.0
 11
649.8633560070036
 21
274.4827657270073
 31
0.0
  0
ARC
  5
2F9
  8
0
  6
CONTINUOUS
 62
     7
 10
540.2166874516682
 20
266.4565377036484
 30
0.0
 40
0.5000417339064801
 50
90.00113870783844
 51
110.9974974526717
  0
ARC
  5
2FA
  8
0
  6
CONTINUOUS
 62
     7
 10
540.2166548610289
 20
266.4566226162515
 30
0.0
 40
0.4999507817215421
 50
110.9974974526675
 51
133.499999999993
  0
ARC
  5
2FB
  8
0
  6
CONTINUOUS
 62
     7
 10
540.2166548610289
 20
266.4566226162517
 30
0.0
 40
0.4999507817214226
 50
133.5000000000053
 51
156.002502547339
  0
ARC
  5
2FC
  8
0
  6
CONTINUOUS
 62
     7
 10
540.2167379516
 20
266.4565856262943
 30
0.0
 40
0.5000417339063631
 50
156.0025025473165
 51
176.9988612921503
  0
LINE
  5
2FD
  8
0
  6
CONTINUOUS
 62
     7
 10
587.5000190384678
 20
282.9565797068144
 30
0.0
 11
541.0552019822617
 21
282.9565797068144
 31
0.0
  0
LINE
  5
2FE
  8
0
  6
CONTINUOUS
 62
     7
 10
649.1034452029272
 20
288.9827276500715
 30
0.0
 11
649.024831538475
 21
290.4827657270074
 31
0.0
  0
LINE
  5
2FF
  8
0
  6
CONTINUOUS
 62
     7
 10
648.5255357834741
 20
290.9565797068144
 30
0.0
 11
602.4999809615321
 21
290.9565797068144
 31
0.0
  0
LINE
  5
300
  8
0
  6
CONTINUOUS
 62
     7
 10
540.1366439929964
 20
274.4827657270073
 30
0.0
 11
540.0580303285443
 21
272.9827276500716
 31
0.0
  0
ARC
  5
301
  8
0
  6
CONTINUOUS
 62
     7
 10
602.4999921138283
 20
274.4565357883104
 30
0.0
 40
0.5000439182037048
 50
90.00127784677194
 51
112.4973664853022
  0
ARC
  5
302
  8
0
  6
CONTINUOUS
 62
     7
 10
602.4999554905204
 20
274.4566242162941
 30
0.0
 40
0.4999482062662874
 50
112.4973664853617
 51
135.000000000014
  0
ARC
  5
303
  8
0
  6
CONTINUOUS
 62
     7
 10
602.4999554905202
 20
274.4566242162941
 30
0.0
 40
0.4999482062661213
 50
134.999999999991
 51
157.5026335146592
  0
ARC
  5
304
  8
0
  6
CONTINUOUS
 62
     7
 10
602.5000439185037
 20
274.4565875929861
 30
0.0
 40
0.50004391820354
 50
157.5026335147034
 51
179.9987221532288
  0
LINE
  5
305
  8
0
  6
CONTINUOUS
 62
     7
 10
587.5000190384678
 20
274.9565797068144
 30
0.0
 11
540.6359397479973
 21
274.9565797068144
 31
0.0
  0
ARC
  5
306
  8
0
  6
CONTINUOUS
 62
     7
 10
649.4426628796881
 20
272.956573253892
 30
0.0
 40
0.4999938454675806
 50
270.0012647366277
 51
271.4990464478648
  0
ARC
  5
307
  8
0
  6
CONTINUOUS
 62
     7
 10
649.442661506316
 20
272.956625734232
 30
0.0
 40
0.5000463437744707
 50
271.4990464478615
 51
293.9972210529384
  0
ARC
  5
308
  8
0
  6
CONTINUOUS
 62
     7
 10
649.4427025811763
 20
272.9565334665416
 30
0.0
 40
0.4999453463941501
 50
293.9972210529496
 51
316.4999999999973
  0
ARC
  5
309
  8
0
  6
CONTINUOUS
 62
     7
 10
649.4427025811765
 20
272.9565334665414
 30
0.0
 40
0.4999453463938877
 50
316.4999999999994
 51
339.0027789470597
  0
ARC
  5
30A
  8
0
  6
CONTINUOUS
 62
     7
 10
649.4426082902438
 20
272.9565696561923
 30
0.0
 40
0.5000463437740972
 50
339.0027789470411
 51
1.500953552132785
  0
ARC
  5
30B
  8
0
  6
CONTINUOUS
 62
     7
 10
649.4426607705377
 20
272.9565710313112
 30
0.0
 40
0.4999938454675844
 50
1.500953552136125
 51
2.998735263364706
  0
LINE
  5
30C
  8
0
  6
CONTINUOUS
 62
     7
 10
587.5000190384678
 20
258.9565797068144
 30
0.0
 11
539.7974152794686
 21
258.9565797068144
 31
0.0
  0
LINE
  5
30D
  8
0
  6
CONTINUOUS
 62
     9
 10
602.0
 20
274.4565987452824
 30
0.0
 11
601.9912350545484
 21
274.4653636907339
 31
0.0
  0
LINE
  5
30E
  8
0
  6
CONTINUOUS
 62
     7
 10
650.2025847205313
 20
258.9565797068144
 30
0.0
 11
602.499980961532
 21
258.9565797068144
 31
0.0
  0
LINE
  5
30F
  8
0
  6
CONTINUOUS
 62
     9
 10
601.9912534349683
 20
274.4696893749052
 30
0.0
 11
601.9912350545484
 21
274.4653636907339
 31
0.0
  0
LINE
  5
310
  8
0
  6
CONTINUOUS
 62
     7
 10
650.3612319057202
 20
264.9827276500715
 30
0.0
 11
650.282618241268
 21
266.4827657270073
 31
0.0
  0
ARC
  5
311
  8
0
  6
CONTINUOUS
 62
     7
 10
541.055211920197
 20
282.4565377036485
 30
0.0
 40
0.5000417339063661
 50
90.00113870785435
 51
110.9974974526889
  0
ARC
  5
312
  8
0
  6
CONTINUOUS
 62
     7
 10
541.0551793295577
 20
282.4566226162515
 30
0.0
 40
0.4999507817215819
 50
110.9974974526794
 51
133.5000000000032
  0
ARC
  5
313
  8
0
  6
CONTINUOUS
 62
     7
 10
541.0551793295576
 20
282.4566226162516
 30
0.0
 40
0.4999507817214628
 50
133.5000000000009
 51
156.0025025473347
  0
ARC
  5
314
  8
0
  6
CONTINUOUS
 62
     7
 10
541.0552624201284
 20
282.4565856262943
 30
0.0
 40
0.5000417339061377
 50
156.0025025473119
 51
176.9988612921517
  0
LINE
  5
315
  8
0
  6
CONTINUOUS
 62
     7
 10
540.1380638492808
 20
264.4565797068144
 30
0.0
 11
587.5000190384678
 21
264.4565797068144
 31
0.0
  0
LINE
  5
316
  8
0
  6
CONTINUOUS
 62
     7
 10
602.4999809615321
 20
272.4565797068144
 30
0.0
 11
649.442673916455
 21
272.4565797068144
 31
0.0
  0
LINE
  5
317
  8
0
  6
CONTINUOUS
 62
     7
 10
587.5000190384678
 20
266.9565797068144
 30
0.0
 11
540.2166775137329
 21
266.9565797068144
 31
0.0
  0
ARC
  5
318
  8
0
  6
CONTINUOUS
 62
     7
 10
541.3958636979911
 20
288.9565710313112
 30
0.0
 40
0.4999938454676296
 50
177.0012647366324
 51
178.4990464478633
  0
ARC
  5
319
  8
0
  6
CONTINUOUS
 62
     7
 10
541.3959161782851
 20
288.9565696561923
 30
0.0
 40
0.5000463437744311
 50
178.4990464478664
 51
200.9972210529473
  0
ARC
  5
31A
  8
0
  6
CONTINUOUS
 62
     7
 10
541.3958218873522
 20
288.9565334665414
 30
0.0
 40
0.4999453463940111
 50
200.9972210529452
 51
223.5000000000011
  0
ARC
  5
31B
  8
0
  6
CONTINUOUS
 62
     7
 10
541.3958218873522
 20
288.9565334665415
 30
0.0
 40
0.4999453463940446
 50
223.5000000000011
 51
246.0027789470544
  0
ARC
  5
31C
  8
0
  6
CONTINUOUS
 62
     7
 10
541.3958629622126
 20
288.9566257342317
 30
0.0
 40
0.5000463437743373
 50
246.0027789470488
 51
268.5009535521363
  0
ARC
  5
31D
  8
0
  6
CONTINUOUS
 62
     7
 10
541.3958615888406
 20
288.9565732538922
 30
0.0
 40
0.49999384546779
 50
268.5009535521423
 51
269.9987352633723
  0
ARC
  5
31E
  8
0
  6
CONTINUOUS
 62
     7
 10
540.9766014637268
 20
280.9565710313112
 30
0.0
 40
0.4999938454676521
 50
177.0012647366281
 51
178.4990464478623
  0
ARC
  5
31F
  8
0
  6
CONTINUOUS
 62
     7
 10
540.9766539440209
 20
280.9565696561923
 30
0.0
 40
0.5000463437745422
 50
178.4990464478668
 51
200.9972210529414
  0
ARC
  5
320
  8
0
  6
CONTINUOUS
 62
     7
 10
540.9765596530877
 20
280.9565334665414
 30
0.0
 40
0.4999453463938875
 50
200.9972210529438
 51
223.5000000000007
  0
ARC
  5
321
  8
0
  6
CONTINUOUS
 62
     7
 10
540.9765596530877
 20
280.9565334665414
 30
0.0
 40
0.4999453463938877
 50
223.5000000000007
 51
246.0027789470599
  0
ARC
  5
322
  8
0
  6
CONTINUOUS
 62
     7
 10
540.9766007279483
 20
280.956625734232
 30
0.0
 40
0.5000463437745909
 50
246.0027789470617
 51
268.5009535521328
  0
ARC
  5
323
  8
0
  6
CONTINUOUS
 62
     7
 10
540.9765993545761
 20
280.9565732538921
 30
0.0
 40
0.4999938454676819
 50
268.5009535521292
 51
269.9987352633596
  0
ARC
  5
324
  8
0
  6
CONTINUOUS
 62
     7
 10
540.5573392294627
 20
272.9565710313112
 30
0.0
 40
0.4999938454679339
 50
177.0012647366333
 51
178.4990464478664
  0
ARC
  5
325
  8
0
  6
CONTINUOUS
 62
     7
 10
540.5573917097569
 20
272.9565696561923
 30
0.0
 40
0.5000463437748764
 50
178.4990464478614
 51
200.9972210529202
  0
ARC
  5
326
  8
0
  6
CONTINUOUS
 62
     7
 10
540.5572974188237
 20
272.9565334665416
 30
0.0
 40
0.4999453463942781
 50
200.9972210529538
 51
223.4999999999971
  0
ARC
  5
327
  8
0
  6
CONTINUOUS
 62
     7
 10
540.5572974188236
 20
272.9565334665416
 30
0.0
 40
0.4999453463942016
 50
223.5000000000016
 51
246.0027789470485
  0
ARC
  5
328
  8
0
  6
CONTINUOUS
 62
     7
 10
540.5573384936839
 20
272.9566257342322
 30
0.0
 40
0.5000463437746924
 50
246.0027789470669
 51
268.5009535521372
  0
ARC
  5
329
  8
0
  6
CONTINUOUS
 62
     7
 10
540.5573371203118
 20
272.9565732538922
 30
0.0
 40
0.4999938454677345
 50
268.5009535521421
 51
269.9987352633723
  0
ARC
  5
32A
  8
0
  6
CONTINUOUS
 62
     7
 10
540.1380769951979
 20
264.9565710313112
 30
0.0
 40
0.4999938454674268
 50
177.0012647366295
 51
178.4990464478641
  0
ARC
  5
32B
  8
0
  6
CONTINUOUS
 62
     7
 10
540.1381294754923
 20
264.9565696561924
 30
0.0
 40
0.5000463437746531
 50
178.4990464478672
 51
200.9972210529355
  0
ARC
  5
32C
  8
0
  6
CONTINUOUS
 62
     7
 10
540.1380351845594
 20
264.9565334665415
 30
0.0
 40
0.4999453463941744
 50
200.9972210529585
 51
223.5000000000028
  0
ARC
  5
32D
  8
0
  6
CONTINUOUS
 62
     7
 10
540.1380351845594
 20
264.9565334665415
 30
0.0
 40
0.4999453463942016
 50
223.5000000000016
 51
246.0027789470485
  0
ARC
  5
32E
  8
0
  6
CONTINUOUS
 62
     7
 10
540.1380762594196
 20
264.956625734232
 30
0.0
 40
0.5000463437745458
 50
246.0027789470734
 51
268.5009535521444
  0
ARC
  5
32F
  8
0
  6
CONTINUOUS
 62
     7
 10
540.1380748860475
 20
264.9565732538922
 30
0.0
 40
0.4999938454677374
 50
268.5009535521293
 51
269.9987352633597
  0
ARC
  5
330
  8
0
  6
CONTINUOUS
 62
     7
 10
650.2811873482168
 20
256.9565732538923
 30
0.0
 40
0.4999938454678795
 50
270.0012647366169
 51
271.4990464478533
  0
ARC
  5
331
  8
0
  6
CONTINUOUS
 62
     7
 10
650.2811859748447
 20
256.9566257342321
 30
0.0
 40
0.5000463437746926
 50
271.4990464478608
 51
293.9972210529255
  0
ARC
  5
332
  8
0
  6
CONTINUOUS
 62
     7
 10
650.2812270497049
 20
256.9565334665417
 30
0.0
 40
0.4999453463943419
 50
293.9972210529677
 51
316.500000000005
  0
ARC
  5
333
  8
0
  6
CONTINUOUS
 62
     7
 10
650.2812270497051
 20
256.9565334665413
 30
0.0
 40
0.4999453463938877
 50
316.4999999999994
 51
339.0027789470597
  0
ARC
  5
334
  8
0
  6
CONTINUOUS
 62
     7
 10
650.2811327587724
 20
256.9565696561923
 30
0.0
 40
0.5000463437742008
 50
339.0027789470457
 51
1.500953552137389
  0
ARC
  5
335
  8
0
  6
CONTINUOUS
 62
     7
 10
650.2811852390662
 20
256.9565710313112
 30
0.0
 40
0.4999938454676953
 50
1.500953552135792
 51
2.998735263366948
  0
ARC
  5
336
  8
0
  6
CONTINUOUS
 62
     7
 10
649.7832620484002
 20
266.4565856262943
 30
0.0
 40
0.5000417339061877
 50
3.001138707846184
 51
23.99749745268793
  0
ARC
  5
337
  8
0
  6
CONTINUOUS
 62
     7
 10
649.783345138971
 20
266.4566226162516
 30
0.0
 40
0.4999507817214952
 50
23.99749745265968
 51
46.49999999999072
  0
ARC
  5
338
  8
0
  6
CONTINUOUS
 62
     7
 10
649.783345138971
 20
266.4566226162516
 30
0.0
 40
0.4999507817214628
 50
46.49999999999913
 51
69.00250254732909
  0
ARC
  5
339
  8
0
  6
CONTINUOUS
 62
     7
 10
649.7833125483317
 20
266.4565377036485
 30
0.0
 40
0.5000417339063364
 50
69.00250254732242
 51
89.99886129216479
  0
LINE
  5
33A
  8
0
  6
CONTINUOUS
 62
     7
 10
649.5227074371915
 20
280.9827276500715
 30
0.0
 11
649.4440937727393
 21
282.4827657270074
 31
0.0
  0
LINE
  5
33B
  8
0
  6
CONTINUOUS
 62
     7
 10
650.7804941399844
 20
256.9827276500716
 30
0.0
 11
650.7018804755322
 21
258.4827657270073
 31
0.0
  0
ARC
  5
33C
  8
0
  6
CONTINUOUS
 62
     7
 10
541.4744741544613
 20
290.4565377036483
 30
0.0
 40
0.5000417339065355
 50
90.00113870783856
 51
110.9974974526706
  0
ARC
  5
33D
  8
0
  6
CONTINUOUS
 62
     7
 10
541.4744415638221
 20
290.4566226162515
 30
0.0
 40
0.4999507817215819
 50
110.9974974526794
 51
133.5000000000032
  0
ARC
  5
33E
  8
0
  6
CONTINUOUS
 62
     7
 10
541.474441563822
 20
290.4566226162516
 30
0.0
 40
0.4999507817214628
 50
133.5000000000009
 51
156.0025025473347
  0
ARC
  5
33F
  8
0
  6
CONTINUOUS
 62
     7
 10
541.4745246543929
 20
290.4565856262943
 30
0.0
 40
0.5000417339063631
 50
156.0025025473165
 51
176.9988612921535
  0
ARC
  5
340
  8
0
  6
CONTINUOUS
 62
     7
 10
649.3639998141356
 20
274.4565856262943
 30
0.0
 40
0.5000417339062987
 50
3.001138707848183
 51
23.99749745268005
  0
ARC
  5
341
  8
0
  6
CONTINUOUS
 62
     7
 10
649.3640829047067
 20
274.4566226162515
 30
0.0
 40
0.4999507817214163
 50
23.99749745267068
 51
46.50000000000173
  0
ARC
  5
342
  8
0
  6
CONTINUOUS
 62
     7
 10
649.3640829047066
 20
274.4566226162515
 30
0.0
 40
0.4999507817215796
 50
46.49999999999428
 51
69.00250254732191
  0
ARC
  5
343
  8
0
  6
CONTINUOUS
 62
     7
 10
649.3640503140674
 20
274.4565377036484
 30
0.0
 40
0.5000417339063883
 50
69.00250254732468
 51
89.99886129215949
  0
LINE
  5
344
  8
0
  6
CONTINUOUS
 62
     7
 10
602.4999809615321
 20
280.4565797068144
 30
0.0
 11
649.0234116821907
 21
280.4565797068144
 31
0.0
  0
LINE
  5
345
  8
0
  6
CONTINUOUS
 62
     7
 10
540.9765883178095
 20
280.4565797068144
 30
0.0
 11
587.5000190384679
 21
280.4565797068144
 31
0.0
  0
ARC
  5
346
  8
0
  6
CONTINUOUS
 62
     7
 10
587.6274997103675
 20
265.9355110223304
 30
0.0
 40
1.044300740554096
 50
32.61708392506938
 51
96.04997639025434
  0
LINE
  5
347
  8
0
  6
CONTINUOUS
 62
     7
 10
588.5071055709303
 20
266.4984120498524
 30
0.0
 11
588.5087084902704
 21
266.474014403203
 31
0.0
  0
ARC
  5
348
  8
0
  6
CONTINUOUS
 62
     7
 10
602.500043918503
 20
256.9565718206427
 30
0.0
 40
0.5000439182029277
 50
180.0012778467624
 51
202.4973664853253
  0
ARC
  5
349
  8
0
  6
CONTINUOUS
 62
     7
 10
602.4999554905195
 20
256.9565351973339
 30
0.0
 40
0.499948206265187
 50
202.49736648529
 51
224.9999999999972
  0
ARC
  5
34A
  8
0
  6
CONTINUOUS
 62
     7
 10
602.4999554905199
 20
256.9565351973343
 30
0.0
 40
0.4999482062658073
 50
224.999999999991
 51
247.5026335146781
  0
ARC
  5
34B
  8
0
  6
CONTINUOUS
 62
     7
 10
602.4999921138283
 20
256.9566236253184
 30
0.0
 40
0.5000439182037364
 50
247.5026335146989
 51
269.9987221532274
  0
LINE
  5
34C
  8
0
  6
CONTINUOUS
 62
     9
 10
601.9912350545484
 20
256.947795722895
 30
0.0
 11
602.0
 21
256.9565606683465
 31
0.0
  0
LINE
  5
34D
  8
0
  6
CONTINUOUS
 62
     9
 10
602.0
 20
258.4565987452823
 30
0.0
 11
601.9912350545484
 21
258.4653636907339
 31
0.0
  0
LINE
  5
34E
  8
0
  6
CONTINUOUS
 62
     9
 10
588.0087465650316
 20
256.9434700387237
 30
0.0
 11
588.5087084902705
 21
256.9391450104257
 31
0.0
  0
LINE
  5
34F
  8
0
  6
CONTINUOUS
 62
     9
 10
601.4912915097295
 20
290.4740144032031
 30
0.0
 11
588.5087084902704
 21
290.4740144032031
 31
0.0
  0
ARC
  5
350
  8
0
  6
CONTINUOUS
 62
     7
 10
587.4999560814966
 20
266.4565875929861
 30
0.0
 40
0.5000439182030386
 50
0.001277846768744
 51
22.49736648532655
  0
ARC
  5
351
  8
0
  6
CONTINUOUS
 62
     7
 10
587.5000445094804
 20
266.4566242162948
 30
0.0
 40
0.4999482062650845
 50
22.49736648529489
 51
45.00000000000469
  0
ARC
  5
352
  8
0
  6
CONTINUOUS
 62
     7
 10
587.50004450948
 20
266.4566242162945
 30
0.0
 40
0.4999482062656502
 50
45.000000000009
 51
67.50263351469971
  0
ARC
  5
353
  8
0
  6
CONTINUOUS
 62
     7
 10
587.5000078861716
 20
266.4565357883109
 30
0.0
 40
0.5000439182031811
 50
67.5026335146864
 51
89.99872215322735
  0
ARC
  5
354
  8
0
  6
CONTINUOUS
 62
     7
 10
587.6589132388461
 20
257.4042245937021
 30
0.0
 40
0.9687368002319396
 50
264.4846759490356
 51
331.308805214813
  0
LINE
  5
355
  8
0
  6
CONTINUOUS
 62
     7
 10
587.565806033733
 20
256.4399725330459
 30
0.0
 11
587.5174346963886
 21
256.4391640488936
 31
0.0
  0
ARC
  5
356
  8
0
  6
CONTINUOUS
 62
     7
 10
587.6589132388461
 20
281.4042245937019
 30
0.0
 40
0.9687368002319396
 50
264.4846759490305
 51
331.308805214813
  0
LINE
  5
357
  8
0
  6
CONTINUOUS
 62
     7
 10
587.565806033733
 20
280.4399725330459
 30
0.0
 11
587.5174346963886
 21
280.4391640488936
 31
0.0
  0
LINE
  5
358
  8
0
  6
CONTINUOUS
 62
     9
 10
588.5087084902704
 20
280.9391450104257
 30
0.0
 11
601.4912915097295
 21
280.9391450104257
 31
0.0
  0
LINE
  5
359
  8
0
  6
CONTINUOUS
 62
     9
 10
601.9912350545484
 20
280.947795722895
 30
0.0
 11
602.0
 21
280.9565606683465
 31
0.0
  0
LINE
  5
35A
  8
0
  6
CONTINUOUS
 62
     9
 10
601.4912915097295
 20
274.4740144032031
 30
0.0
 11
588.5087084902704
 21
274.4740144032031
 31
0.0
  0
ARC
  5
35B
  8
0
  6
CONTINUOUS
 62
     7
 10
587.5000078861716
 20
288.956623625318
 30
0.0
 40
0.5000439182033163
 50
270.0012778467719
 51
292.4973664853114
  0
ARC
  5
35C
  8
0
  6
CONTINUOUS
 62
     7
 10
587.5000445094802
 20
288.9565351973341
 30
0.0
 40
0.4999482062653834
 50
292.4973664852944
 51
314.9999999999974
  0
ARC
  5
35D
  8
0
  6
CONTINUOUS
 62
     7
 10
587.5000445094802
 20
288.9565351973341
 30
0.0
 40
0.4999482062654148
 50
315.0
 51
337.5026335146997
  0
ARC
  5
35E
  8
0
  6
CONTINUOUS
 62
     7
 10
587.499956081496
 20
288.9565718206426
 30
0.0
 40
0.5000439182036426
 50
337.5026335147083
 51
359.9987221532321
  0
ARC
  5
35F
  8
0
  6
CONTINUOUS
 62
     7
 10
602.5000439185037
 20
264.9565718206427
 30
0.0
 40
0.5000439182034828
 50
180.0012778467624
 51
202.497366485291
  0
ARC
  5
360
  8
0
  6
CONTINUOUS
 62
     7
 10
602.4999554905196
 20
264.9565351973341
 30
0.0
 40
0.4999482062653321
 50
202.4973664852969
 51
225.0000000000007
  0
ARC
  5
361
  8
0
  6
CONTINUOUS
 62
     7
 10
602.4999554905198
 20
264.9565351973343
 30
0.0
 40
0.4999482062656896
 50
224.9999999999955
 51
247.5026335146871
  0
ARC
  5
362
  8
0
  6
CONTINUOUS
 62
     7
 10
602.4999921138282
 20
264.9566236253182
 30
0.0
 40
0.50004391820354
 50
247.5026335147034
 51
269.998722153232
  0
ARC
  5
363
  8
0
  6
CONTINUOUS
 62
     7
 10
587.4999560814966
 20
290.4565875929861
 30
0.0
 40
0.5000439182030386
 50
0.001277846768744
 51
22.49736648532655
  0
ARC
  5
364
  8
0
  6
CONTINUOUS
 62
     7
 10
587.5000445094804
 20
290.4566242162949
 30
0.0
 40
0.4999482062650845
 50
22.49736648529489
 51
45.00000000000469
  0
ARC
  5
365
  8
0
  6
CONTINUOUS
 62
     7
 10
587.50004450948
 20
290.4566242162945
 30
0.0
 40
0.4999482062656502
 50
45.000000000009
 51
67.50263351469971
  0
ARC
  5
366
  8
0
  6
CONTINUOUS
 62
     7
 10
587.5000078861716
 20
290.4565357883109
 30
0.0
 40
0.5000439182031811
 50
67.5026335146864
 51
89.99872215322735
  0
ARC
  5
367
  8
0
  6
CONTINUOUS
 62
     7
 10
602.4999921138283
 20
258.4565357883108
 30
0.0
 40
0.5000439182033717
 50
90.00127784677831
 51
112.4973664853149
  0
ARC
  5
368
  8
0
  6
CONTINUOUS
 62
     7
 10
602.4999554905199
 20
258.4566242162945
 30
0.0
 40
0.499948206265716
 50
112.49736648532
 51
135.0000000000009
  0
ARC
  5
369
  8
0
  6
CONTINUOUS
 62
     7
 10
602.4999554905199
 20
258.4566242162945
 30
0.0
 40
0.4999482062656502
 50
135.000000000009
 51
157.5026335146968
  0
ARC
  5
36A
  8
0
  6
CONTINUOUS
 62
     7
 10
602.5000439185039
 20
258.4565875929861
 30
0.0
 40
0.5000439182036426
 50
157.5026335147083
 51
179.9987221532288
  0
ARC
  5
36B
  8
0
  6
CONTINUOUS
 62
     7
 10
587.6274997103674
 20
273.9355110223303
 30
0.0
 40
1.044300740554305
 50
32.61708392507205
 51
96.04997639024701
  0
LINE
  5
36C
  8
0
  6
CONTINUOUS
 62
     7
 10
588.5071055709303
 20
274.4984120498526
 30
0.0
 11
588.5087084902704
 21
274.4740144032031
 31
0.0
  0
ARC
  5
36D
  8
0
  6
CONTINUOUS
 62
     7
 10
587.6274997103675
 20
289.9355110223304
 30
0.0
 40
1.044300740554151
 50
32.61708392507319
 51
96.04997639025403
  0
LINE
  5
36E
  8
0
  6
CONTINUOUS
 62
     7
 10
588.5071055709303
 20
290.4984120498526
 30
0.0
 11
588.5087084902704
 21
290.474014403203
 31
0.0
  0
LINE
  5
36F
  8
0
  6
CONTINUOUS
 62
     9
 10
601.9912534349683
 20
274.4696893749052
 30
0.0
 11
601.4912915097294
 21
274.4740144032031
 31
0.0
  0
ARC
  5
370
  8
0
  6
CONTINUOUS
 62
     7
 10
602.3725002896324
 20
257.4776483912984
 30
0.0
 40
1.044300740554151
 50
212.617083925069
 51
276.049976390254
  0
LINE
  5
371
  8
0
  6
CONTINUOUS
 62
     7
 10
601.4928944290696
 20
256.9147473637763
 30
0.0
 11
601.4912915097295
 21
256.9391450104258
 31
0.0
  0
LINE
  5
372
  8
0
  6
CONTINUOUS
 62
     9
 10
601.9912534349683
 20
258.4696893749051
 30
0.0
 11
601.4912915097294
 21
258.474014403203
 31
0.0
  0
ARC
  5
373
  8
0
  6
CONTINUOUS
 62
     7
 10
602.3410867611539
 20
258.0089348199268
 30
0.0
 40
0.9687368002319663
 50
84.48467594903263
 51
151.3088052148101
  0
LINE
  5
374
  8
0
  6
CONTINUOUS
 62
     7
 10
602.434193966267
 20
258.9731868805829
 30
0.0
 11
602.4825653036113
 21
258.9739953647351
 31
0.0
  0
LINE
  5
375
  8
0
  6
CONTINUOUS
 62
     9
 10
588.5087084902704
 20
266.4740144032031
 30
0.0
 11
588.0087465650316
 21
266.4696893749052
 31
0.0
  0
ARC
  5
376
  8
0
  6
CONTINUOUS
 62
     7
 10
602.5000439185037
 20
288.9565718206426
 30
0.0
 40
0.5000439182034828
 50
180.0012778467688
 51
202.4973664852973
  0
ARC
  5
377
  8
0
  6
CONTINUOUS
 62
     7
 10
602.4999554905196
 20
288.956535197334
 30
0.0
 40
0.4999482062653108
 50
202.497366485291
 51
224.9999999999948
  0
ARC
  5
378
  8
0
  6
CONTINUOUS
 62
     7
 10
602.4999554905198
 20
288.9565351973342
 30
0.0
 40
0.4999482062656502
 50
224.999999999991
 51
247.5026335146827
  0
ARC
  5
379
  8
0
  6
CONTINUOUS
 62
     7
 10
602.4999921138282
 20
288.9566236253183
 30
0.0
 40
0.5000439182036426
 50
247.5026335147083
 51
269.9987221532368
  0
LINE
  5
37A
  8
0
  6
CONTINUOUS
 62
     9
 10
588.0087465650316
 20
272.9434700387237
 30
0.0
 11
588.5087084902705
 21
272.9391450104257
 31
0.0
  0
LINE
  5
37B
  8
0
  6
CONTINUOUS
 62
     9
 10
601.4912915097295
 20
272.9391450104258
 30
0.0
 11
601.9912534349683
 21
272.9434700387237
 31
0.0
  0
ARC
  5
37C
  8
0
  6
CONTINUOUS
 62
     7
 10
602.5000439185033
 20
272.9565718206427
 30
0.0
 40
0.5000439182031498
 50
180.0012778467688
 51
202.4973664853246
  0
ARC
  5
37D
  8
0
  6
CONTINUOUS
 62
     7
 10
602.4999554905196
 20
272.956535197334
 30
0.0
 40
0.4999482062653321
 50
202.4973664852969
 51
224.9999999999978
  0
ARC
  5
37E
  8
0
  6
CONTINUOUS
 62
     7
 10
602.4999554905197
 20
272.9565351973341
 30
0.0
 40
0.4999482062654934
 50
224.999999999991
 51
247.5026335146907
  0
ARC
  5
37F
  8
0
  6
CONTINUOUS
 62
     7
 10
602.4999921138282
 20
272.9566236253177
 30
0.0
 40
0.5000439182030785
 50
247.5026335146815
 51
269.9987221532396
  0
LINE
  5
380
  8
0
  6
CONTINUOUS
 62
     9
 10
602.0
 20
282.4565987452823
 30
0.0
 11
601.9912350545484
 21
282.4653636907338
 31
0.0
  0
ARC
  5
381
  8
0
  6
CONTINUOUS
 62
     7
 10
587.5000078861716
 20
280.956623625318
 30
0.0
 40
0.5000439182033163
 50
270.0012778467719
 51
292.4973664853114
  0
ARC
  5
382
  8
0
  6
CONTINUOUS
 62
     7
 10
587.5000445094802
 20
280.9565351973341
 30
0.0
 40
0.4999482062653834
 50
292.4973664852944
 51
314.9999999999974
  0
ARC
  5
383
  8
0
  6
CONTINUOUS
 62
     7
 10
587.5000445094802
 20
280.9565351973341
 30
0.0
 40
0.4999482062654148
 50
315.0
 51
337.5026335146997
  0
ARC
  5
384
  8
0
  6
CONTINUOUS
 62
     7
 10
587.499956081496
 20
280.9565718206426
 30
0.0
 40
0.5000439182036426
 50
337.5026335147083
 51
359.9987221532321
  0
ARC
  5
385
  8
0
  6
CONTINUOUS
 62
     7
 10
587.6274997103675
 20
281.9355110223304
 30
0.0
 40
1.044300740554151
 50
32.61708392507319
 51
96.04997639025403
  0
LINE
  5
386
  8
0
  6
CONTINUOUS
 62
     7
 10
588.5071055709303
 20
282.4984120498526
 30
0.0
 11
588.5087084902704
 21
282.474014403203
 31
0.0
  0
ARC
  5
387
  8
0
  6
CONTINUOUS
 62
     7
 10
587.658913238846
 20
273.4042245937023
 30
0.0
 40
0.9687368002321703
 50
264.484675949037
 51
331.3088052148016
  0
LINE
  5
388
  8
0
  6
CONTINUOUS
 62
     7
 10
587.565806033733
 20
272.4399725330459
 30
0.0
 11
587.5174346963887
 21
272.4391640488936
 31
0.0
  0
LINE
  5
389
  8
0
  6
CONTINUOUS
 62
     9
 10
588.5087084902704
 20
274.4740144032031
 30
0.0
 11
588.0087465650316
 21
274.4696893749052
 31
0.0
  0
LINE
  5
38A
  8
0
  6
CONTINUOUS
 62
     9
 10
601.9912534349683
 20
266.4696893749051
 30
0.0
 11
601.4912915097294
 21
266.4740144032031
 31
0.0
  0
LINE
  5
38B
  8
0
  6
CONTINUOUS
 62
     9
 10
601.4912915097295
 20
258.4740144032031
 30
0.0
 11
588.5087084902704
 21
258.4740144032031
 31
0.0
  0
ARC
  5
38C
  8
0
  6
CONTINUOUS
 62
     7
 10
602.3410867611539
 20
266.0089348199267
 30
0.0
 40
0.9687368002319929
 50
84.48467594902979
 51
151.3088052148072
  0
LINE
  5
38D
  8
0
  6
CONTINUOUS
 62
     7
 10
602.434193966267
 20
266.9731868805829
 30
0.0
 11
602.4825653036113
 21
266.9739953647351
 31
0.0
  0
ARC
  5
38E
  8
0
  6
CONTINUOUS
 62
     7
 10
587.6274997103674
 20
257.9355110223303
 30
0.0
 40
1.044300740554305
 50
32.61708392507205
 51
96.04997639024701
  0
LINE
  5
38F
  8
0
  6
CONTINUOUS
 62
     7
 10
588.5071055709303
 20
258.4984120498526
 30
0.0
 11
588.5087084902704
 21
258.4740144032031
 31
0.0
  0
LINE
  5
390
  8
0
  6
CONTINUOUS
 62
     9
 10
588.5087084902704
 20
256.9391450104258
 30
0.0
 11
601.4912915097295
 21
256.9391450104258
 31
0.0
  0
ARC
  5
391
  8
0
  6
CONTINUOUS
 62
     7
 10
602.3725002896324
 20
265.4776483912985
 30
0.0
 40
1.044300740554261
 50
212.6170839250767
 51
276.0499763902534
  0
LINE
  5
392
  8
0
  6
CONTINUOUS
 62
     7
 10
601.4928944290696
 20
264.9147473637763
 30
0.0
 11
601.4912915097295
 21
264.9391450104258
 31
0.0
  0
LINE
  5
393
  8
0
  6
CONTINUOUS
 62
     9
 10
601.4912915097295
 20
256.9391450104258
 30
0.0
 11
601.9912534349683
 21
256.9434700387237
 31
0.0
  0
ARC
  5
394
  8
0
  6
CONTINUOUS
 62
     7
 10
587.5000078861716
 20
256.9566236253182
 30
0.0
 40
0.5000439182035938
 50
270.0012778467719
 51
292.4973664853005
  0
ARC
  5
395
  8
0
  6
CONTINUOUS
 62
     7
 10
587.5000445094802
 20
256.9565351973341
 30
0.0
 40
0.4999482062653321
 50
292.4973664852968
 51
315.0000000000081
  0
ARC
  5
396
  8
0
  6
CONTINUOUS
 62
     7
 10
587.5000445094798
 20
256.9565351973345
 30
0.0
 40
0.4999482062660036
 50
315.0000000000045
 51
337.5026335146825
  0
ARC
  5
397
  8
0
  6
CONTINUOUS
 62
     7
 10
587.4999560814962
 20
256.9565718206427
 30
0.0
 40
0.50004391820354
 50
337.5026335147034
 51
359.998722153234
  0
LINE
  5
398
  8
0
  6
CONTINUOUS
 62
     9
 10
601.9912350545484
 20
280.947795722895
 30
0.0
 11
601.9912534349683
 21
280.9434700387237
 31
0.0
  0
LINE
  5
399
  8
0
  6
CONTINUOUS
 62
     9
 10
601.4912915097295
 20
282.4740144032031
 30
0.0
 11
588.5087084902704
 21
282.4740144032031
 31
0.0
  0
ARC
  5
39A
  8
0
  6
CONTINUOUS
 62
     7
 10
587.5000078861716
 20
272.9566236253183
 30
0.0
 40
0.5000439182036494
 50
270.0012778467719
 51
292.4973664852988
  0
ARC
  5
39B
  8
0
  6
CONTINUOUS
 62
     7
 10
587.5000445094802
 20
272.9565351973341
 30
0.0
 40
0.4999482062653321
 50
292.4973664852968
 51
314.9999999999998
  0
ARC
  5
39C
  8
0
  6
CONTINUOUS
 62
     7
 10
587.5000445094802
 20
272.9565351973341
 30
0.0
 40
0.4999482062654148
 50
315.0
 51
337.5026335146997
  0
ARC
  5
39D
  8
0
  6
CONTINUOUS
 62
     7
 10
587.4999560814961
 20
272.9565718206427
 30
0.0
 40
0.50004391820354
 50
337.5026335147034
 51
359.998722153229
  0
ARC
  5
39E
  8
0
  6
CONTINUOUS
 62
     7
 10
587.4999560814966
 20
282.4565875929861
 30
0.0
 40
0.5000439182030386
 50
0.001277846768744
 51
22.49736648532655
  0
ARC
  5
39F
  8
0
  6
CONTINUOUS
 62
     7
 10
587.5000445094804
 20
282.4566242162949
 30
0.0
 40
0.4999482062650845
 50
22.49736648529489
 51
45.00000000000469
  0
ARC
  5
3A0
  8
0
  6
CONTINUOUS
 62
     7
 10
587.50004450948
 20
282.4566242162945
 30
0.0
 40
0.4999482062656502
 50
45.000000000009
 51
67.50263351469971
  0
ARC
  5
3A1
  8
0
  6
CONTINUOUS
 62
     7
 10
587.5000078861716
 20
282.4565357883109
 30
0.0
 40
0.5000439182031811
 50
67.5026335146864
 51
89.99872215322735
  0
ARC
  5
3A2
  8
0
  6
CONTINUOUS
 62
     7
 10
602.3410867611539
 20
290.0089348199268
 30
0.0
 40
0.9687368002319396
 50
84.48467594903049
 51
151.3088052148129
  0
LINE
  5
3A3
  8
0
  6
CONTINUOUS
 62
     7
 10
602.434193966267
 20
290.9731868805829
 30
0.0
 11
602.4825653036113
 21
290.9739953647352
 31
0.0
  0
LINE
  5
3A4
  8
0
  6
CONTINUOUS
 62
     9
 10
601.9912534349683
 20
258.4696893749051
 30
0.0
 11
601.9912350545484
 21
258.4653636907338
 31
0.0
  0
ARC
  5
3A5
  8
0
  6
CONTINUOUS
 62
     7
 10
602.3725002896324
 20
281.4776483912984
 30
0.0
 40
1.044300740554151
 50
212.6170839250732
 51
276.049976390254
  0
LINE
  5
3A6
  8
0
  6
CONTINUOUS
 62
     7
 10
601.4928944290696
 20
280.9147473637763
 30
0.0
 11
601.4912915097295
 21
280.9391450104258
 31
0.0
  0
ARC
  5
3A7
  8
0
  6
CONTINUOUS
 62
     7
 10
602.4999921138282
 20
266.4565357883105
 30
0.0
 40
0.5000439182035938
 50
90.00127784675921
 51
112.4973664852878
  0
ARC
  5
3A8
  8
0
  6
CONTINUOUS
 62
     7
 10
602.4999554905199
 20
266.4566242162944
 30
0.0
 40
0.4999482062657672
 50
112.4973664853176
 51
134.9999999999955
  0
ARC
  5
3A9
  8
0
  6
CONTINUOUS
 62
     7
 10
602.4999554905199
 20
266.4566242162944
 30
0.0
 40
0.4999482062658073
 50
134.999999999991
 51
157.5026335146715
  0
ARC
  5
3AA
  8
0
  6
CONTINUOUS
 62
     7
 10
602.5000439185037
 20
266.4565875929861
 30
0.0
 40
0.50004391820354
 50
157.5026335147034
 51
179.998722153232
  0
ARC
  5
3AB
  8
0
  6
CONTINUOUS
 62
     7
 10
602.4999921138282
 20
290.4565357883105
 30
0.0
 40
0.5000439182035938
 50
90.00127784675921
 51
112.4973664852878
  0
ARC
  5
3AC
  8
0
  6
CONTINUOUS
 62
     7
 10
602.4999554905199
 20
290.4566242162944
 30
0.0
 40
0.4999482062657672
 50
112.4973664853176
 51
134.9999999999955
  0
ARC
  5
3AD
  8
0
  6
CONTINUOUS
 62
     7
 10
602.4999554905199
 20
290.4566242162944
 30
0.0
 40
0.4999482062658073
 50
134.999999999991
 51
157.5026335146715
  0
ARC
  5
3AE
  8
0
  6
CONTINUOUS
 62
     7
 10
602.5000439185037
 20
290.4565875929861
 30
0.0
 40
0.50004391820354
 50
157.5026335147034
 51
179.998722153232
  0
ARC
  5
3AF
  8
0
  6
CONTINUOUS
 62
     7
 10
602.3410867611539
 20
274.0089348199268
 30
0.0
 40
0.9687368002319663
 50
84.48467594903263
 51
151.3088052148101
  0
LINE
  5
3B0
  8
0
  6
CONTINUOUS
 62
     7
 10
602.434193966267
 20
274.9731868805829
 30
0.0
 11
602.4825653036113
 21
274.9739953647352
 31
0.0
  0
ARC
  5
3B1
  8
0
  6
CONTINUOUS
 62
     7
 10
602.500043918503
 20
280.9565718206426
 30
0.0
 40
0.5000439182029277
 50
180.0012778467688
 51
202.4973664853266
  0
ARC
  5
3B2
  8
0
  6
CONTINUOUS
 62
     7
 10
602.4999554905195
 20
280.956535197334
 30
0.0
 40
0.4999482062652083
 50
202.4973664852959
 51
225.0000000000031
  0
ARC
  5
3B3
  8
0
  6
CONTINUOUS
 62
     7
 10
602.4999554905199
 20
280.9565351973343
 30
0.0
 40
0.4999482062658073
 50
224.999999999991
 51
247.5026335146781
  0
ARC
  5
3B4
  8
0
  6
CONTINUOUS
 62
     7
 10
602.4999921138282
 20
280.9566236253181
 30
0.0
 40
0.5000439182034887
 50
247.502633514701
 51
269.9987221532421
  0
ARC
  5
3B5
  8
0
  6
CONTINUOUS
 62
     7
 10
602.3725002896324
 20
273.4776483912985
 30
0.0
 40
1.044300740554261
 50
212.6170839250767
 51
276.0499763902534
  0
LINE
  5
3B6
  8
0
  6
CONTINUOUS
 62
     7
 10
601.4928944290696
 20
272.9147473637763
 30
0.0
 11
601.4912915097295
 21
272.9391450104258
 31
0.0
  0
ARC
  5
3B7
  8
0
  6
CONTINUOUS
 62
     7
 10
602.4999921138283
 20
282.4565357883106
 30
0.0
 40
0.5000439182034828
 50
90.00127784677194
 51
112.4973664853049
  0
ARC
  5
3B8
  8
0
  6
CONTINUOUS
 62
     7
 10
602.4999554905198
 20
282.4566242162946
 30
0.0
 40
0.4999482062655196
 50
112.4973664853155
 51
135.0000000000024
  0
ARC
  5
3B9
  8
0
  6
CONTINUOUS
 62
     7
 10
602.4999554905202
 20
282.4566242162942
 30
0.0
 40
0.4999482062660428
 50
135.0
 51
157.5026335146716
  0
ARC
  5
3BA
  8
0
  6
CONTINUOUS
 62
     7
 10
602.5000439185039
 20
282.4565875929861
 30
0.0
 40
0.5000439182037664
 50
157.5026335147073
 51
179.9987221532339
  0
LINE
  5
3BB
  8
0
  6
CONTINUOUS
 62
     9
 10
601.9912534349683
 20
282.4696893749051
 30
0.0
 11
601.9912350545484
 21
282.4653636907338
 31
0.0
  0
ARC
  5
3BC
  8
0
  6
CONTINUOUS
 62
     7
 10
602.3410867611539
 20
282.0089348199267
 30
0.0
 40
0.9687368002319929
 50
84.48467594902979
 51
151.3088052148072
  0
LINE
  5
3BD
  8
0
  6
CONTINUOUS
 62
     7
 10
602.434193966267
 20
282.9731868805829
 30
0.0
 11
602.4825653036113
 21
282.9739953647351
 31
0.0
  0
ARC
  5
3BE
  8
0
  6
CONTINUOUS
 62
     7
 10
587.4999560814962
 20
274.4565875929862
 30
0.0
 40
0.5000439182034828
 50
0.0012778467623775
 51
22.49736648529534
  0
ARC
  5
3BF
  8
0
  6
CONTINUOUS
 62
     7
 10
587.5000445094802
 20
274.4566242162947
 30
0.0
 40
0.4999482062653532
 50
22.49736648530275
 51
45.00000000000023
  0
ARC
  5
3C0
  8
0
  6
CONTINUOUS
 62
     7
 10
587.5000445094802
 20
274.4566242162948
 30
0.0
 40
0.499948206265297
 50
45.0000000000045
 51
67.50263351470863
  0
ARC
  5
3C1
  8
0
  6
CONTINUOUS
 62
     7
 10
587.5000078861716
 20
274.4565357883109
 30
0.0
 40
0.5000439182032324
 50
67.50263351468884
 51
89.9987221532281
  0
LINE
  5
3C2
  8
0
  6
CONTINUOUS
 62
     9
 10
601.4912915097295
 20
266.4740144032031
 30
0.0
 11
588.5087084902704
 21
266.4740144032031
 31
0.0
  0
LINE
  5
3C3
  8
0
  6
CONTINUOUS
 62
     9
 10
601.9912350545484
 20
256.947795722895
 30
0.0
 11
601.9912534349683
 21
256.9434700387237
 31
0.0
  0
LINE
  5
3C4
  8
0
  6
CONTINUOUS
 62
     9
 10
601.4912540930164
 20
280.947795722895
 30
0.0
 11
601.4912540930164
 21
282.4653636907339
 31
0.0
  0
ARC
  5
3C5
  8
0
  6
CONTINUOUS
 62
     7
 10
602.4913419300242
 20
272.9478180274874
 30
0.0
 40
1.000087836407285
 50
180.0012778467657
 51
180.4968897619384
  0
LINE
  5
3C6
  8
0
  6
CONTINUOUS
 62
     9
 10
601.4912540930164
 20
288.947795722895
 30
0.0
 11
601.4912540930164
 21
290.4653636907339
 31
0.0
  0
ARC
  5
3C7
  8
0
  6
CONTINUOUS
 62
     7
 10
587.499956081496
 20
258.4565875929861
 30
0.0
 40
0.5000439182037048
 50
0.0012778467719272
 51
22.49736648529733
  0
ARC
  5
3C8
  8
0
  6
CONTINUOUS
 62
     7
 10
587.50004450948
 20
258.4566242162946
 30
0.0
 40
0.4999482062655797
 50
22.49736648529893
 51
44.99999999999085
  0
ARC
  5
3C9
  8
0
  6
CONTINUOUS
 62
     7
 10
587.50004450948
 20
258.4566242162945
 30
0.0
 40
0.4999482062656502
 50
45.000000000009
 51
67.50263351469124
  0
ARC
  5
3CA
  8
0
  6
CONTINUOUS
 62
     7
 10
587.5000078861716
 20
258.4565357883108
 30
0.0
 40
0.5000439182033862
 50
67.50263351469613
 51
89.99872215323275
  0
LINE
  5
3CB
  8
0
  6
CONTINUOUS
 62
     9
 10
588.5087459069836
 20
266.4653636907338
 30
0.0
 11
588.5087459069836
 21
264.947795722895
 31
0.0
  0
LINE
  5
3CC
  8
0
  6
CONTINUOUS
 62
     9
 10
601.4912915097295
 20
264.9391450104258
 30
0.0
 11
601.9912534349683
 21
264.9434700387237
 31
0.0
  0
LINE
  5
3CD
  8
0
  6
CONTINUOUS
 62
     9
 10
588.5087084902704
 20
290.4740144032031
 30
0.0
 11
588.0087465650316
 21
290.4696893749052
 31
0.0
  0
LINE
  5
3CE
  8
0
  6
CONTINUOUS
 62
     9
 10
601.9912350545484
 20
258.4653636907339
 30
0.0
 11
601.4912540930164
 21
258.4653636907338
 31
0.0
  0
LINE
  5
3CF
  8
0
  6
CONTINUOUS
 62
     9
 10
588.5087459069836
 20
282.4653636907338
 30
0.0
 11
588.5087459069836
 21
280.9477957228949
 31
0.0
  0
LINE
  5
3D0
  8
0
  6
CONTINUOUS
 62
     9
 10
601.4912540930164
 20
264.947795722895
 30
0.0
 11
601.4912540930164
 21
266.4653636907338
 31
0.0
  0
LINE
  5
3D1
  8
0
  6
CONTINUOUS
 62
     9
 10
588.5087459069836
 20
290.4653636907339
 30
0.0
 11
588.5087459069836
 21
288.9477957228949
 31
0.0
  0
ARC
  5
3D2
  8
0
  6
CONTINUOUS
 62
     7
 10
587.5086580699764
 20
256.9478180274874
 30
0.0
 40
1.000087836406633
 50
359.5031102380614
 51
359.9987221532344
  0
LINE
  5
3D3
  8
0
  6
CONTINUOUS
 62
     9
 10
601.9912350545484
 20
258.4653636907339
 30
0.0
 11
601.9912350545484
 21
256.947795722895
 31
0.0
  0
ARC
  5
3D4
  8
0
  6
CONTINUOUS
 62
     7
 10
587.5086580699758
 20
258.4653413861414
 30
0.0
 40
1.000087836407306
 50
0.0012778467686303
 51
0.4968897619414178
  0
LINE
  5
3D5
  8
0
  6
CONTINUOUS
 62
     7
 10
602.0
 20
288.9565606683465
 30
0.0
 11
602.0
 21
290.4565987452823
 31
0.0
  0
LINE
  5
3D6
  8
0
  6
CONTINUOUS
 62
     7
 10
588.0
 20
290.4565987452823
 30
0.0
 11
588.0
 21
288.9565606683465
 31
0.0
  0
LINE
  5
3D7
  8
0
  6
CONTINUOUS
 62
     7
 10
602.0
 20
280.9565606683465
 30
0.0
 11
602.0
 21
282.4565987452823
 31
0.0
  0
LINE
  5
3D8
  8
0
  6
CONTINUOUS
 62
     9
 10
588.5087084902704
 20
282.4740144032031
 30
0.0
 11
588.0087465650316
 21
282.4696893749052
 31
0.0
  0
LINE
  5
3D9
  8
0
  6
CONTINUOUS
 62
     7
 10
588.0
 20
258.4565987452823
 30
0.0
 11
588.0
 21
256.9565606683465
 31
0.0
  0
LINE
  5
3DA
  8
0
  6
CONTINUOUS
 62
     9
 10
601.4912915097295
 20
288.9391450104257
 30
0.0
 11
601.9912534349683
 21
288.9434700387236
 31
0.0
  0
ARC
  5
3DB
  8
0
  6
CONTINUOUS
 62
     7
 10
602.4913419300234
 20
266.4653413861414
 30
0.0
 40
1.000087836406522
 50
179.5031102380581
 51
179.9987221532312
  0
LINE
  5
3DC
  8
0
  6
CONTINUOUS
 62
     7
 10
602.0
 20
256.9565606683465
 30
0.0
 11
602.0
 21
258.4565987452823
 31
0.0
  0
LINE
  5
3DD
  8
0
  6
CONTINUOUS
 62
     7
 10
620.5
 20
290.004207863676
 30
0.0
 11
615.5
 21
290.004207863676
 31
0.0
  0
LINE
  5
3DE
  8
0
  6
CONTINUOUS
 62
     9
 10
588.0087465650316
 20
264.9434700387237
 30
0.0
 11
588.5087084902705
 21
264.9391450104258
 31
0.0
  0
ARC
  5
3DF
  8
0
  6
CONTINUOUS
 62
     7
 10
587.6589132388459
 20
265.4042245937023
 30
0.0
 40
0.9687368002322944
 50
264.4846759490424
 51
331.308805214802
  0
LINE
  5
3E0
  8
0
  6
CONTINUOUS
 62
     7
 10
587.565806033733
 20
264.4399725330459
 30
0.0
 11
587.5174346963887
 21
264.4391640488936
 31
0.0
  0
ARC
  5
3E1
  8
0
  6
CONTINUOUS
 62
     7
 10
587.6589132388461
 20
289.4042245937019
 30
0.0
 40
0.9687368002319396
 50
264.4846759490305
 51
331.308805214813
  0
LINE
  5
3E2
  8
0
  6
CONTINUOUS
 62
     7
 10
587.565806033733
 20
288.4399725330459
 30
0.0
 11
587.5174346963886
 21
288.4391640488936
 31
0.0
  0
ARC
  5
3E3
  8
0
  6
CONTINUOUS
 62
     7
 10
602.4913419300234
 20
274.4653413861415
 30
0.0
 40
1.000087836406522
 50
179.5031102380613
 51
179.9987221532344
  0
LINE
  5
3E4
  8
0
  6
CONTINUOUS
 62
     7
 10
588.0
 20
282.4565987452823
 30
0.0
 11
588.0
 21
280.9565606683465
 31
0.0
  0
ARC
  5
3E5
  8
0
  6
CONTINUOUS
 62
     7
 10
615.4999999999999
 20
292.5565797068144
 30
0.0
 40
2.55237184313839
 50
218.8194187068075
 51
270.0
  0
LINE
  5
3E6
  8
0
  6
CONTINUOUS
 62
     9
 10
588.5087084902704
 20
272.9391450104258
 30
0.0
 11
601.4912915097295
 21
272.9391450104258
 31
0.0
  0
LINE
  5
3E7
  8
0
  6
CONTINUOUS
 62
     9
 10
601.4912540930164
 20
272.947795722895
 30
0.0
 11
601.4912540930164
 21
274.4653636907339
 31
0.0
  0
LINE
  5
3E8
  8
0
  6
CONTINUOUS
 62
     9
 10
601.9912534349683
 20
282.4696893749051
 30
0.0
 11
601.4912915097294
 21
282.474014403203
 31
0.0
  0
ARC
  5
3E9
  8
0
  6
CONTINUOUS
 62
     7
 10
602.4913419300235
 20
282.4653413861414
 30
0.0
 40
1.000087836406633
 50
179.5031102380582
 51
179.9987221532312
  0
ARC
  5
3EA
  8
0
  6
CONTINUOUS
 62
     7
 10
602.4913419300242
 20
280.9478180274874
 30
0.0
 40
1.000087836407285
 50
180.0012778467658
 51
180.4968897619385
  0
LINE
  5
3EB
  8
0
  6
CONTINUOUS
 62
     7
 10
588.0
 20
274.4565987452824
 30
0.0
 11
588.0
 21
272.9565606683465
 31
0.0
  0
ARC
  5
3EC
  8
0
  6
CONTINUOUS
 62
     7
 10
587.5086580699758
 20
266.4653413861414
 30
0.0
 40
1.000087836407306
 50
0.0012778467670387
 51
0.496889761941361
  0
LINE
  5
3ED
  8
0
  6
CONTINUOUS
 62
     7
 10
602.0
 20
264.9565606683465
 30
0.0
 11
602.0
 21
266.4565987452822
 31
0.0
  0
LINE
  5
3EE
  8
0
  6
CONTINUOUS
 62
     7
 10
602.0
 20
272.9565606683465
 30
0.0
 11
602.0
 21
274.4565987452823
 31
0.0
  0
LINE
  5
3EF
  8
0
  6
CONTINUOUS
 62
     9
 10
601.4912915097295
 20
280.9391450104257
 30
0.0
 11
601.9912534349683
 21
280.9434700387236
 31
0.0
  0
ARC
  5
3F0
  8
0
  6
CONTINUOUS
 62
     7
 10
602.4913419300242
 20
264.9478180274874
 30
0.0
 40
1.000087836407285
 50
180.0012778467657
 51
180.49688976194
  0
LINE
  5
3F1
  8
0
  6
CONTINUOUS
 62
     7
 10
588.0
 20
266.4565987452822
 30
0.0
 11
588.0
 21
264.9565606683465
 31
0.0
  0
ARC
  5
3F2
  8
0
  6
CONTINUOUS
 62
     7
 10
620.5
 20
292.5565797068144
 30
0.0
 40
2.552371843138288
 50
270.0000000000002
 51
321.1805812931921
  0
ARC
  5
3F3
  8
0
  6
CONTINUOUS
 62
     7
 10
569.4999999999999
 20
292.5565797068144
 30
0.0
 40
2.55237184313839
 50
218.8194187068075
 51
270.0
  0
LINE
  5
3F4
  8
0
  6
CONTINUOUS
 62
     9
 10
588.5087084902704
 20
264.9391450104258
 30
0.0
 11
601.4912915097295
 21
264.9391450104258
 31
0.0
  0
LINE
  5
3F5
  8
0
  6
CONTINUOUS
 62
     9
 10
601.9912534349683
 20
290.4696893749052
 30
0.0
 11
601.4912915097294
 21
290.474014403203
 31
0.0
  0
ARC
  5
3F6
  8
0
  6
CONTINUOUS
 62
     7
 10
587.5086580699765
 20
264.9478180274874
 30
0.0
 40
1.000087836406522
 50
359.5031102380597
 51
359.9987221532344
  0
ARC
  5
3F7
  8
0
  6
CONTINUOUS
 62
     7
 10
602.4913419300235
 20
258.4653413861414
 30
0.0
 40
1.000087836406633
 50
179.5031102380566
 51
179.9987221532312
  0
LINE
  5
3F8
  8
0
  6
CONTINUOUS
 62
     9
 10
588.5087459069836
 20
274.4653636907339
 30
0.0
 11
588.5087459069836
 21
272.947795722895
 31
0.0
  0
ARC
  5
3F9
  8
0
  6
CONTINUOUS
 62
     7
 10
602.3725002896324
 20
289.4776483912984
 30
0.0
 40
1.044300740554151
 50
212.6170839250732
 51
276.049976390254
  0
LINE
  5
3FA
  8
0
  6
CONTINUOUS
 62
     7
 10
601.4928944290696
 20
288.9147473637763
 30
0.0
 11
601.4912915097295
 21
288.9391450104258
 31
0.0
  0
LINE
  5
3FB
  8
0
  6
CONTINUOUS
 62
     9
 10
588.0087465650316
 20
288.9434700387237
 30
0.0
 11
588.5087084902705
 21
288.9391450104258
 31
0.0
  0
LINE
  5
3FC
  8
0
  6
CONTINUOUS
 62
     9
 10
588.0087465650316
 20
280.9434700387237
 30
0.0
 11
588.5087084902705
 21
280.9391450104258
 31
0.0
  0
LINE
  5
3FD
  8
0
  6
CONTINUOUS
 62
     9
 10
588.5087084902704
 20
288.9391450104257
 30
0.0
 11
601.4912915097295
 21
288.9391450104257
 31
0.0
  0
ARC
  5
3FE
  8
0
  6
CONTINUOUS
 62
     7
 10
587.5000078861716
 20
264.956623625318
 30
0.0
 40
0.5000439182033717
 50
270.0012778467719
 51
292.4973664853114
  0
ARC
  5
3FF
  8
0
  6
CONTINUOUS
 62
     7
 10
587.5000445094802
 20
264.9565351973341
 30
0.0
 40
0.4999482062653321
 50
292.4973664852968
 51
314.9999999999998
  0
ARC
  5
400
  8
0
  6
CONTINUOUS
 62
     7
 10
587.5000445094802
 20
264.9565351973341
 30
0.0
 40
0.4999482062654148
 50
315.0
 51
337.5026335146997
  0
ARC
  5
401
  8
0
  6
CONTINUOUS
 62
     7
 10
587.499956081496
 20
264.9565718206427
 30
0.0
 40
0.5000439182036426
 50
337.5026335147083
 51
359.9987221532321
  0
LINE
  5
402
  8
0
  6
CONTINUOUS
 62
     9
 10
588.5087084902704
 20
258.4740144032031
 30
0.0
 11
588.0087465650316
 21
258.4696893749051
 31
0.0
  0
ARC
  5
403
  8
0
  6
CONTINUOUS
 62
     7
 10
558.1415987657551
 20
373.2062618586735
 30
0.0
 40
0.4996821681939241
 50
179.9167654036513
 51
269.9853497097592
  0
LINE
  5
404
  8
0
  6
CONTINUOUS
 62
     7
 10
544.2543253562346
 20
413.8797683880392
 30
0.0
 11
544.2543253562346
 21
411.7780673733865
 31
0.0
  0
LINE
  5
405
  8
0
  6
CONTINUOUS
 62
     9
 10
565.1897949030048
 20
410.6593874714912
 30
0.0
 11
560.8102050969952
 21
410.6593874714912
 31
0.0
  0
LINE
  5
406
  8
0
  6
CONTINUOUS
 62
     7
 10
560.2909832379879
 20
410.2389422098252
 30
0.0
 11
560.2935063075154
 21
409.9231663166928
 31
0.0
  0
LINE
  5
407
  8
0
  6
CONTINUOUS
 62
     9
 10
557.1897949030048
 20
410.6593874714912
 30
0.0
 11
552.8102050969951
 21
410.6593874714912
 31
0.0
  0
ARC
  5
408
  8
0
  6
CONTINUOUS
 62
     7
 10
557.160523486693
 20
399.6273995129313
 30
0.0
 40
11.03202683080494
 50
89.84591970062915
 51
89.84797620468561
  0
ARC
  5
409
  8
0
  6
CONTINUOUS
 62
     7
 10
557.1605234866943
 20
399.6273995134506
 30
0.0
 40
11.03202683028574
 50
88.9150354357879
 51
89.84591970062854
  0
ARC
  5
40A
  8
0
  6
CONTINUOUS
 62
     7
 10
557.3615835372875
 20
410.2438894349156
 30
0.0
 40
0.41363319487581
 50
63.88919823590799
 51
88.91503543583666
  0
ARC
  5
40B
  8
0
  6
CONTINUOUS
 62
     7
 10
557.7237630579665
 20
410.9828371685533
 30
0.0
 40
0.4092992192674235
 50
243.8891982359195
 51
257.0019991948497
  0
ARC
  5
40C
  8
0
  6
CONTINUOUS
 62
     7
 10
557.6148482470323
 20
410.5110001806947
 30
0.0
 40
0.0749451190084698
 50
0.8740091645594248
 51
77.00199919478268
  0
LINE
  5
40D
  8
0
  6
CONTINUOUS
 62
     7
 10
560.2543253562346
 20
413.8797683880392
 30
0.0
 11
560.2543253562346
 21
411.7780673733865
 31
0.0
  0
ARC
  5
40E
  8
0
  6
CONTINUOUS
 62
     7
 10
-14052.6435662087
 20
368.7387337448365
 30
0.0
 40
14604.99913979001
 50
0.0856964744061202
 51
0.1615678247497954
  0
ARC
  5
40F
  8
0
  6
CONTINUOUS
 62
     7
 10
-23434.39013049842
 20
354.7065797068126
 30
0.0
 40
23986.75619792731
 50
0.0441908624233065
 51
0.085696474406177
  0
ARC
  5
410
  8
0
  6
CONTINUOUS
 62
     7
 10
544.3851517529675
 20
410.5110001806949
 30
0.0
 40
0.0749451190083349
 50
102.9980008051538
 51
179.1259908355227
  0
ARC
  5
411
  8
0
  6
CONTINUOUS
 62
     7
 10
544.2762369420321
 20
410.9828371685559
 30
0.0
 40
0.4092992192702213
 50
282.9980008052448
 51
296.1108017640834
  0
ARC
  5
412
  8
0
  6
CONTINUOUS
 62
     7
 10
544.6384164627126
 20
410.2438894349153
 30
0.0
 40
0.4136331948761581
 50
91.08496456418094
 51
116.1108017640926
  0
ARC
  5
413
  8
0
  6
CONTINUOUS
 62
     7
 10
544.8394765133055
 20
399.6273995134555
 30
0.0
 40
11.0320268302808
 50
90.15408029937106
 51
91.08496456421199
  0
ARC
  5
414
  8
0
  6
CONTINUOUS
 62
     7
 10
544.839476513307
 20
399.6273995129332
 30
0.0
 40
11.03202683080322
 50
90.15202379531489
 51
90.15408029937112
  0
LINE
  5
415
  8
0
  6
CONTINUOUS
 62
     7
 10
557.7456746437655
 20
411.7780673733865
 30
0.0
 11
557.7456746437655
 21
413.8797683880392
 31
0.0
  0
LINE
  5
416
  8
0
  6
CONTINUOUS
 62
     7
 10
541.7064936924845
 20
409.9231663166928
 30
0.0
 11
541.709016762012
 21
410.2389422098252
 31
0.0
  0
LINE
  5
417
  8
0
  6
CONTINUOUS
 62
     7
 10
552.290983237988
 20
410.2389422098252
 30
0.0
 11
552.2935063075154
 21
409.9231663166928
 31
0.0
  0
ARC
  5
418
  8
0
  6
CONTINUOUS
 62
     7
 10
560.7163465593197
 20
412.089283124513
 30
0.0
 40
0.4187381881072789
 50
155.9849040481567
 51
179.7619748640305
  0
ARC
  5
419
  8
0
  6
CONTINUOUS
 62
     7
 10
560.7996407397991
 20
412.0521718668064
 30
0.0
 40
0.5099257198772121
 50
135.312300002846
 51
155.9849040481436
  0
ARC
  5
41A
  8
0
  6
CONTINUOUS
 62
     7
 10
560.7647758565569
 20
412.086658733268
 30
0.0
 40
0.4608858988963937
 50
111.1540186742656
 51
135.3123000028637
  0
ARC
  5
41B
  8
0
  6
CONTINUOUS
 62
     7
 10
560.7996107882693
 20
411.9966346988975
 30
0.0
 40
0.5574146471102852
 50
91.22663155336362
 51
111.154018674181
  0
ARC
  5
41C
  8
0
  6
CONTINUOUS
 62
     7
 10
560.7996107882693
 20
411.9966346988977
 30
0.0
 40
0.5574146471101403
 50
90.20774094577445
 51
91.22663155336448
  0
LINE
  5
41D
  8
0
  6
CONTINUOUS
 62
     9
 10
549.1897949030048
 20
410.6593874714912
 30
0.0
 11
544.8102050969951
 21
410.6593874714912
 31
0.0
  0
ARC
  5
41E
  8
0
  6
CONTINUOUS
 62
     7
 10
552.7163465593197
 20
412.089283124513
 30
0.0
 40
0.4187381881072789
 50
155.9849040481567
 51
179.7619748640305
  0
ARC
  5
41F
  8
0
  6
CONTINUOUS
 62
     7
 10
552.7996407397991
 20
412.0521718668064
 30
0.0
 40
0.5099257198772121
 50
135.312300002846
 51
155.9849040481436
  0
ARC
  5
420
  8
0
  6
CONTINUOUS
 62
     7
 10
552.7647758565569
 20
412.086658733268
 30
0.0
 40
0.4608858988963937
 50
111.1540186742656
 51
135.3123000028637
  0
ARC
  5
421
  8
0
  6
CONTINUOUS
 62
     7
 10
552.7996107882693
 20
411.9966346988975
 30
0.0
 40
0.5574146471102852
 50
91.22663155336362
 51
111.154018674181
  0
ARC
  5
422
  8
0
  6
CONTINUOUS
 62
     7
 10
552.7996107882693
 20
411.9966346988977
 30
0.0
 40
0.5574146471101403
 50
90.20774094577445
 51
91.22663155336448
  0
ARC
  5
423
  8
0
  6
CONTINUOUS
 62
     7
 10
544.7163465593197
 20
412.089283124513
 30
0.0
 40
0.4187381881072789
 50
155.9849040481567
 51
179.7619748640305
  0
ARC
  5
424
  8
0
  6
CONTINUOUS
 62
     7
 10
544.7996407397991
 20
412.0521718668064
 30
0.0
 40
0.5099257198772121
 50
135.312300002846
 51
155.9849040481436
  0
ARC
  5
425
  8
0
  6
CONTINUOUS
 62
     7
 10
544.7647758565569
 20
412.086658733268
 30
0.0
 40
0.4608858988963937
 50
111.1540186742656
 51
135.3123000028637
  0
ARC
  5
426
  8
0
  6
CONTINUOUS
 62
     7
 10
544.7996107882693
 20
411.9966346988975
 30
0.0
 40
0.5574146471102852
 50
91.22663155336362
 51
111.154018674181
  0
ARC
  5
427
  8
0
  6
CONTINUOUS
 62
     7
 10
544.7996107882693
 20
411.9966346988977
 30
0.0
 40
0.5574146471101403
 50
90.20774094577445
 51
91.22663155336448
  0
ARC
  5
428
  8
0
  6
CONTINUOUS
 62
     7
 10
557.2003892117308
 20
411.9966346988981
 30
0.0
 40
0.5574146471097212
 50
88.77336844665115
 51
89.792259054262
  0
ARC
  5
429
  8
0
  6
CONTINUOUS
 62
     7
 10
557.2003892117308
 20
411.9966346988979
 30
0.0
 40
0.557414647109916
 50
68.84598132581085
 51
88.77336844664644
  0
ARC
  5
42A
  8
0
  6
CONTINUOUS
 62
     7
 10
557.2352241434436
 20
412.0866587332686
 30
0.0
 40
0.4608858988956048
 50
44.68769999714789
 51
68.84598132578446
  0
ARC
  5
42B
  8
0
  6
CONTINUOUS
 62
     7
 10
557.2003592602009
 20
412.0521718668066
 30
0.0
 40
0.5099257198770691
 50
24.01509595183904
 51
44.68769999714573
  0
ARC
  5
42C
  8
0
  6
CONTINUOUS
 62
     7
 10
557.2836534406803
 20
412.0892831245131
 30
0.0
 40
0.418738188107138
 50
0.2380251359671774
 51
24.0150959518441
  0
ARC
  5
42D
  8
0
  6
CONTINUOUS
 62
     7
 10
803.8114543369301
 20
416.5177944773113
 30
0.0
 40
251.5993692940476
 50
181.0794137749746
 51
181.4300109704108
  0
LINE
  5
42E
  8
0
  6
CONTINUOUS
 62
     9
 10
557.7023912121736
 20
412.091022706193
 30
0.0
 11
557.689775864537
 21
410.5121432405315
 31
0.0
  0
ARC
  5
42F
  8
0
  6
CONTINUOUS
 62
     7
 10
559.8584178335058
 20
373.2062452877469
 30
0.0
 40
0.4996655932989619
 50
270.0127473679414
 51
0.0851375186206837
  0
LINE
  5
430
  8
0
  6
CONTINUOUS
 62
     7
 10
543.8585290008757
 20
372.7065797068144
 30
0.0
 11
542.1414709991243
 21
372.7065797068144
 31
0.0
  0
LINE
  5
431
  8
0
  6
CONTINUOUS
 62
     9
 10
560.310224135463
 20
410.5121432405315
 30
0.0
 11
560.2976087878264
 21
412.0910227061931
 31
0.0
  0
LINE
  5
432
  8
0
  6
CONTINUOUS
 62
     7
 10
552.2543253562346
 20
413.8797683880392
 30
0.0
 11
552.2543253562346
 21
411.7780673733865
 31
0.0
  0
LINE
  5
433
  8
0
  6
CONTINUOUS
 62
     7
 10
551.8585290008756
 20
372.7065797068144
 30
0.0
 11
550.1414709991243
 21
372.7065797068144
 31
0.0
  0
ARC
  5
434
  8
0
  6
CONTINUOUS
 62
     7
 10
549.1605234866929
 20
399.6273995129313
 30
0.0
 40
11.03202683080494
 50
89.84591970062915
 51
89.84797620468561
  0
ARC
  5
435
  8
0
  6
CONTINUOUS
 62
     7
 10
549.1605234866943
 20
399.6273995134506
 30
0.0
 40
11.03202683028574
 50
88.9150354357879
 51
89.84591970062854
  0
ARC
  5
436
  8
0
  6
CONTINUOUS
 62
     7
 10
549.3615835372875
 20
410.2438894349156
 30
0.0
 40
0.41363319487581
 50
63.88919823590799
 51
88.91503543583666
  0
ARC
  5
437
  8
0
  6
CONTINUOUS
 62
     7
 10
549.7237630579665
 20
410.9828371685533
 30
0.0
 40
0.4092992192674235
 50
243.8891982359195
 51
257.0019991948497
  0
ARC
  5
438
  8
0
  6
CONTINUOUS
 62
     7
 10
549.6148482470323
 20
410.5110001806947
 30
0.0
 40
0.0749451190084698
 50
0.8740091645594248
 51
77.00199919478268
  0
LINE
  5
439
  8
0
  6
CONTINUOUS
 62
     7
 10
574.5
 20
290.004207863676
 30
0.0
 11
569.4999999999999
 21
290.004207863676
 31
0.0
  0
ARC
  5
43A
  8
0
  6
CONTINUOUS
 62
     7
 10
24536.39013049842
 20
354.7065797068126
 30
0.0
 40
23986.75619792731
 50
179.9143035255938
 51
179.9558091375768
  0
ARC
  5
43B
  8
0
  6
CONTINUOUS
 62
     7
 10
15154.6435662087
 20
368.7387337448365
 30
0.0
 40
14604.99913979001
 50
179.8384321752502
 51
179.9143035255939
  0
LINE
  5
43C
  8
0
  6
CONTINUOUS
 62
     9
 10
549.7023912121734
 20
412.091022706193
 30
0.0
 11
549.6897758645368
 21
410.5121432405315
 31
0.0
  0
LINE
  5
43D
  8
0
  6
CONTINUOUS
 62
     7
 10
549.7456746437654
 20
411.7780673733865
 30
0.0
 11
549.7456746437655
 21
413.8797683880392
 31
0.0
  0
LINE
  5
43E
  8
0
  6
CONTINUOUS
 62
     9
 10
552.310224135463
 20
410.5121432405315
 30
0.0
 11
552.2976087878264
 21
412.0910227061931
 31
0.0
  0
ARC
  5
43F
  8
0
  6
CONTINUOUS
 62
     7
 10
306.1885456630856
 20
416.5177944773109
 30
0.0
 40
251.5993692940318
 50
358.5699890295892
 51
358.9205862250254
  0
ARC
  5
440
  8
0
  6
CONTINUOUS
 62
     7
 10
290.1885456630856
 20
416.5177944773109
 30
0.0
 40
251.5993692940318
 50
358.5699890295892
 51
358.9205862250254
  0
LINE
  5
441
  8
0
  6
CONTINUOUS
 62
     7
 10
559.8585290008756
 20
372.7065797068144
 30
0.0
 11
558.1414709991243
 21
372.7065797068144
 31
0.0
  0
ARC
  5
442
  8
0
  6
CONTINUOUS
 62
     7
 10
795.8114543369301
 20
416.5177944773113
 30
0.0
 40
251.5993692940474
 50
181.0794137749746
 51
181.4300109704108
  0
ARC
  5
443
  8
0
  6
CONTINUOUS
 62
     7
 10
298.1885456630857
 20
416.5177944773109
 30
0.0
 40
251.5993692940315
 50
358.5699890295892
 51
358.9205862250254
  0
LINE
  5
444
  8
0
  6
CONTINUOUS
 62
     9
 10
541.7023912121736
 20
412.091022706193
 30
0.0
 11
541.689775864537
 21
410.5121432405315
 31
0.0
  0
ARC
  5
445
  8
0
  6
CONTINUOUS
 62
     7
 10
542.1415987657551
 20
373.2062618586735
 30
0.0
 40
0.4996821681939241
 50
179.9167654036513
 51
269.9853497097592
  0
LINE
  5
446
  8
0
  6
CONTINUOUS
 62
     7
 10
544.290983237988
 20
410.2389422098252
 30
0.0
 11
544.2935063075154
 21
409.9231663166928
 31
0.0
  0
ARC
  5
447
  8
0
  6
CONTINUOUS
 62
     7
 10
811.8114543369301
 20
416.5177944773113
 30
0.0
 40
251.5993692940474
 50
181.0794137749746
 51
181.4300109704108
  0
LINE
  5
448
  8
0
  6
CONTINUOUS
 62
     7
 10
541.7456746437655
 20
411.7780673733865
 30
0.0
 11
541.7456746437655
 21
413.8797683880392
 31
0.0
  0
ARC
  5
449
  8
0
  6
CONTINUOUS
 62
     7
 10
24544.39013049842
 20
354.7065797068126
 30
0.0
 40
23986.75619792731
 50
179.9143035255938
 51
179.9558091375768
  0
ARC
  5
44A
  8
0
  6
CONTINUOUS
 62
     7
 10
15162.6435662087
 20
368.7387337448365
 30
0.0
 40
14604.99913979001
 50
179.8384321752502
 51
179.9143035255939
  0
ARC
  5
44B
  8
0
  6
CONTINUOUS
 62
     7
 10
560.3851517529675
 20
410.5110001806949
 30
0.0
 40
0.0749451190083349
 50
102.9980008051538
 51
179.1259908355227
  0
ARC
  5
44C
  8
0
  6
CONTINUOUS
 62
     7
 10
560.2762369420323
 20
410.9828371685559
 30
0.0
 40
0.4092992192702213
 50
282.9980008052448
 51
296.1108017640834
  0
ARC
  5
44D
  8
0
  6
CONTINUOUS
 62
     7
 10
560.6384164627126
 20
410.2438894349153
 30
0.0
 40
0.4136331948761581
 50
91.08496456418094
 51
116.1108017640926
  0
ARC
  5
44E
  8
0
  6
CONTINUOUS
 62
     7
 10
560.8394765133056
 20
399.6273995134555
 30
0.0
 40
11.0320268302808
 50
90.15408029937106
 51
91.08496456421199
  0
ARC
  5
44F
  8
0
  6
CONTINUOUS
 62
     7
 10
560.839476513307
 20
399.6273995129332
 30
0.0
 40
11.03202683080322
 50
90.15202379531489
 51
90.15408029937112
  0
ARC
  5
450
  8
0
  6
CONTINUOUS
 62
     7
 10
550.1415987657551
 20
373.2062618586737
 30
0.0
 40
0.499682168193924
 50
179.916765403664
 51
269.9853497097624
  0
ARC
  5
451
  8
0
  6
CONTINUOUS
 62
     7
 10
552.3851517529675
 20
410.5110001806949
 30
0.0
 40
0.0749451190083349
 50
102.9980008051538
 51
179.1259908355227
  0
ARC
  5
452
  8
0
  6
CONTINUOUS
 62
     7
 10
552.2762369420321
 20
410.9828371685559
 30
0.0
 40
0.4092992192702213
 50
282.9980008052448
 51
296.1108017640834
  0
ARC
  5
453
  8
0
  6
CONTINUOUS
 62
     7
 10
552.6384164627126
 20
410.2438894349153
 30
0.0
 40
0.4136331948761581
 50
91.08496456418094
 51
116.1108017640926
  0
ARC
  5
454
  8
0
  6
CONTINUOUS
 62
     7
 10
552.8394765133055
 20
399.6273995134555
 30
0.0
 40
11.0320268302808
 50
90.15408029937106
 51
91.08496456421199
  0
ARC
  5
455
  8
0
  6
CONTINUOUS
 62
     7
 10
552.839476513307
 20
399.6273995129332
 30
0.0
 40
11.03202683080322
 50
90.15202379531489
 51
90.15408029937112
  0
ARC
  5
456
  8
0
  6
CONTINUOUS
 62
     7
 10
551.8584178335058
 20
373.2062452877469
 30
0.0
 40
0.4996655932989619
 50
270.0127473679414
 51
0.0851375186206837
  0
ARC
  5
457
  8
0
  6
CONTINUOUS
 62
     7
 10
541.1605234866929
 20
399.6273995129366
 30
0.0
 40
11.03202683079972
 50
89.84591970062866
 51
89.84797620468511
  0
ARC
  5
458
  8
0
  6
CONTINUOUS
 62
     7
 10
541.1605234866943
 20
399.6273995134521
 30
0.0
 40
11.03202683028418
 50
88.9150354357879
 51
89.84591970062854
  0
ARC
  5
459
  8
0
  6
CONTINUOUS
 62
     7
 10
541.3615835372874
 20
410.2438894349154
 30
0.0
 40
0.4136331948760342
 50
63.88919823590368
 51
88.91503543582184
  0
ARC
  5
45A
  8
0
  6
CONTINUOUS
 62
     7
 10
541.7237630579675
 20
410.9828371685552
 30
0.0
 40
0.409299219269558
 50
243.8891982359102
 51
257.0019991947713
  0
ARC
  5
45B
  8
0
  6
CONTINUOUS
 62
     7
 10
541.6148482470325
 20
410.5110001806947
 30
0.0
 40
0.0749451190083367
 50
0.8740091645101415
 51
77.00199919484629
  0
ARC
  5
45C
  8
0
  6
CONTINUOUS
 62
     7
 10
-14044.6435662087
 20
368.7387337448365
 30
0.0
 40
14604.99913979001
 50
0.0856964744061202
 51
0.1615678247497954
  0
ARC
  5
45D
  8
0
  6
CONTINUOUS
 62
     7
 10
-23426.39013049842
 20
354.7065797068126
 30
0.0
 40
23986.75619792731
 50
0.0441908624233065
 51
0.085696474406177
  0
ARC
  5
45E
  8
0
  6
CONTINUOUS
 62
     7
 10
-14060.6435662087
 20
368.7387337448365
 30
0.0
 40
14604.99913979001
 50
0.0856964744061202
 51
0.1615678247497954
  0
ARC
  5
45F
  8
0
  6
CONTINUOUS
 62
     7
 10
-23442.39013049842
 20
354.7065797068126
 30
0.0
 40
23986.75619792731
 50
0.0441908624233065
 51
0.085696474406177
  0
ARC
  5
460
  8
0
  6
CONTINUOUS
 62
     7
 10
24528.39013049842
 20
354.7065797068126
 30
0.0
 40
23986.75619792731
 50
179.9143035255938
 51
179.9558091375768
  0
ARC
  5
461
  8
0
  6
CONTINUOUS
 62
     7
 10
15146.6435662087
 20
368.7387337448365
 30
0.0
 40
14604.99913979001
 50
179.8384321752502
 51
179.9143035255939
  0
ARC
  5
462
  8
0
  6
CONTINUOUS
 62
     7
 10
574.5
 20
292.5565797068144
 30
0.0
 40
2.552371843138375
 50
270.0000000000015
 51
321.1805812931937
  0
LINE
  5
463
  8
0
  6
CONTINUOUS
 62
     7
 10
549.7064936924846
 20
409.9231663166928
 30
0.0
 11
549.7090167620119
 21
410.2389422098252
 31
0.0
  0
LINE
  5
464
  8
0
  6
CONTINUOUS
 62
     7
 10
557.7064936924846
 20
409.9231663166928
 30
0.0
 11
557.709016762012
 21
410.2389422098252
 31
0.0
  0
ARC
  5
465
  8
0
  6
CONTINUOUS
 62
     7
 10
543.8584178335058
 20
373.2062452877468
 30
0.0
 40
0.4996655932988509
 50
270.012747367954
 51
0.0851375186429664
  0
ARC
  5
466
  8
0
  6
CONTINUOUS
 62
     7
 10
565.160523486693
 20
399.6273995129313
 30
0.0
 40
11.03202683080494
 50
89.84591970062915
 51
89.84797620468561
  0
ARC
  5
467
  8
0
  6
CONTINUOUS
 62
     7
 10
565.1605234866943
 20
399.6273995134506
 30
0.0
 40
11.03202683028574
 50
88.9150354357879
 51
89.84591970062854
  0
ARC
  5
468
  8
0
  6
CONTINUOUS
 62
     7
 10
565.3615835372875
 20
410.2438894349156
 30
0.0
 40
0.41363319487581
 50
63.88919823590799
 51
88.91503543583666
  0
ARC
  5
469
  8
0
  6
CONTINUOUS
 62
     7
 10
565.7237630579666
 20
410.9828371685533
 30
0.0
 40
0.4092992192674235
 50
243.8891982359195
 51
257.0019991948497
  0
ARC
  5
46A
  8
0
  6
CONTINUOUS
 62
     7
 10
565.6148482470323
 20
410.5110001806947
 30
0.0
 40
0.0749451190084698
 50
0.8740091645594248
 51
77.00199919478268
  0
ARC
  5
46B
  8
0
  6
CONTINUOUS
 62
     7
 10
314.1885456630856
 20
416.5177944773109
 30
0.0
 40
251.5993692940318
 50
358.5699890295892
 51
358.9205862250254
  0
LINE
  5
46C
  8
0
  6
CONTINUOUS
 62
     7
 10
565.7456746437655
 20
411.7780673733865
 30
0.0
 11
565.7456746437655
 21
413.8797683880392
 31
0.0
  0
ARC
  5
46D
  8
0
  6
CONTINUOUS
 62
     7
 10
541.2003892117307
 20
411.9966346988983
 30
0.0
 40
0.5574146471094754
 50
88.77336844664256
 51
89.79225905425102
  0
ARC
  5
46E
  8
0
  6
CONTINUOUS
 62
     7
 10
541.2003892117307
 20
411.9966346988979
 30
0.0
 40
0.557414647109916
 50
68.8459813258101
 51
88.77336844664644
  0
ARC
  5
46F
  8
0
  6
CONTINUOUS
 62
     7
 10
541.2352241434435
 20
412.0866587332685
 30
0.0
 40
0.4608858988957885
 50
44.68769999713919
 51
68.84598132576373
  0
ARC
  5
470
  8
0
  6
CONTINUOUS
 62
     7
 10
541.2003592602007
 20
412.0521718668063
 30
0.0
 40
0.5099257198774613
 50
24.01509595186462
 51
44.68769999715477
  0
ARC
  5
471
  8
0
  6
CONTINUOUS
 62
     7
 10
541.28365344068
 20
412.0892831245131
 30
0.0
 40
0.4187381881073408
 50
0.2380251359716681
 51
24.01509595183177
  0
POLYLINE
  5
472
  8
0
  6
CONTINUOUS
 62
     9
 66
     1
 10
0.0
 20
0.0
 30
0.0
  0
VERTEX
  5
6CF
  8
0
  6
CONTINUOUS
 62
     9
 10
542.2456556052974
 20
414.1833778531476
 30
0.0
  0
VERTEX
  5
6D0
  8
0
  6
CONTINUOUS
 62
     9
 10
542.0293476032092
 20
414.15400944928
 30
0.0
  0
VERTEX
  5
6D1
  8
0
  6
CONTINUOUS
 62
     9
 10
541.8476960766556
 20
414.0646050014085
 30
0.0
  0
VERTEX
  5
6D2
  8
0
  6
CONTINUOUS
 62
     9
 10
541.7456746437655
 20
413.8797683880392
 30
0.0
  0
SEQEND
  5
70F
  8
0
  6
CONTINUOUS
 62
     9
  0
ARC
  5
473
  8
0
  6
CONTINUOUS
 62
     7
 10
566.1415987657552
 20
373.2062618586735
 30
0.0
 40
0.4996821681939241
 50
179.9167654036513
 51
269.9853497097592
  0
POLYLINE
  5
474
  8
0
  6
CONTINUOUS
 62
     9
 66
     1
 10
0.0
 20
0.0
 30
0.0
  0
VERTEX
  5
6D3
  8
0
  6
CONTINUOUS
 62
     9
 10
544.2543253562346
 20
413.8797683880392
 30
0.0
  0
VERTEX
  5
6D4
  8
0
  6
CONTINUOUS
 62
     9
 10
544.1473541931164
 20
414.0685004453236
 30
0.0
  0
VERTEX
  5
6D5
  8
0
  6
CONTINUOUS
 62
     9
 10
543.961105570068
 20
414.1566755317635
 30
0.0
  0
VERTEX
  5
6D6
  8
0
  6
CONTINUOUS
 62
     9
 10
543.7543443947025
 20
414.1833778531476
 30
0.0
  0
SEQEND
  5
710
  8
0
  6
CONTINUOUS
 62
     9
  0
POLYLINE
  5
475
  8
0
  6
CONTINUOUS
 62
     9
 66
     1
 10
0.0
 20
0.0
 30
0.0
  0
VERTEX
  5
6D7
  8
0
  6
CONTINUOUS
 62
     9
 10
560.2543253562346
 20
413.8797683880392
 30
0.0
  0
VERTEX
  5
6D8
  8
0
  6
CONTINUOUS
 62
     9
 10
560.1473541931164
 20
414.0685004453236
 30
0.0
  0
VERTEX
  5
6D9
  8
0
  6
CONTINUOUS
 62
     9
 10
559.961105570068
 20
414.1566755317635
 30
0.0
  0
VERTEX
  5
6DA
  8
0
  6
CONTINUOUS
 62
     9
 10
559.7543443947025
 20
414.1833778531476
 30
0.0
  0
SEQEND
  5
711
  8
0
  6
CONTINUOUS
 62
     9
  0
LINE
  5
476
  8
0
  6
CONTINUOUS
 62
     9
 10
544.7975897493584
 20
412.554042830285
 30
0.0
 11
549.2024102506414
 21
412.554042830285
 31
0.0
  0
POLYLINE
  5
477
  8
0
  6
CONTINUOUS
 62
     9
 66
     1
 10
0.0
 20
0.0
 30
0.0
  0
VERTEX
  5
6DB
  8
0
  6
CONTINUOUS
 62
     9
 10
552.2543253562346
 20
413.8797683880392
 30
0.0
  0
VERTEX
  5
6DC
  8
0
  6
CONTINUOUS
 62
     9
 10
552.1473541931164
 20
414.0685004453236
 30
0.0
  0
VERTEX
  5
6DD
  8
0
  6
CONTINUOUS
 62
     9
 10
551.961105570068
 20
414.1566755317635
 30
0.0
  0
VERTEX
  5
6DE
  8
0
  6
CONTINUOUS
 62
     9
 10
551.7543443947025
 20
414.1833778531476
 30
0.0
  0
SEQEND
  5
712
  8
0
  6
CONTINUOUS
 62
     9
  0
LINE
  5
478
  8
0
  6
CONTINUOUS
 62
     9
 10
560.7975897493584
 20
412.554042830285
 30
0.0
 11
565.2024102506414
 21
412.554042830285
 31
0.0
  0
POLYLINE
  5
479
  8
0
  6
CONTINUOUS
 62
     9
 66
     1
 10
0.0
 20
0.0
 30
0.0
  0
VERTEX
  5
6DF
  8
0
  6
CONTINUOUS
 62
     9
 10
550.2456556052974
 20
414.1833778531476
 30
0.0
  0
VERTEX
  5
6E0
  8
0
  6
CONTINUOUS
 62
     9
 10
550.0293476032092
 20
414.15400944928
 30
0.0
  0
VERTEX
  5
6E1
  8
0
  6
CONTINUOUS
 62
     9
 10
549.8476960766557
 20
414.0646050014085
 30
0.0
  0
VERTEX
  5
6E2
  8
0
  6
CONTINUOUS
 62
     9
 10
549.7456746437655
 20
413.8797683880392
 30
0.0
  0
SEQEND
  5
713
  8
0
  6
CONTINUOUS
 62
     9
  0
LINE
  5
47A
  8
0
  6
CONTINUOUS
 62
     9
 10
543.7543443947025
 20
414.1833778531476
 30
0.0
 11
542.2456556052974
 21
414.1833778531476
 31
0.0
  0
LINE
  5
47B
  8
0
  6
CONTINUOUS
 62
     9
 10
559.7543443947025
 20
414.1833778531476
 30
0.0
 11
558.2456556052974
 21
414.1833778531476
 31
0.0
  0
LINE
  5
47C
  8
0
  6
CONTINUOUS
 62
     9
 10
552.7975897493584
 20
412.554042830285
 30
0.0
 11
557.2024102506414
 21
412.554042830285
 31
0.0
  0
LINE
  5
47D
  8
0
  6
CONTINUOUS
 62
     7
 10
552.2940124860874
 20
409.734588433319
 30
0.0
 11
549.7059875139128
 21
409.734588433319
 31
0.0
  0
LINE
  5
47E
  8
0
  6
CONTINUOUS
 62
     7
 10
544.2940124860874
 20
409.734588433319
 30
0.0
 11
541.7059875139128
 21
409.734588433319
 31
0.0
  0
ARC
  5
47F
  8
0
  6
CONTINUOUS
 62
     7
 10
568.3851517529675
 20
410.5110001806949
 30
0.0
 40
0.0749451190083349
 50
102.9980008051538
 51
179.1259908355227
  0
ARC
  5
480
  8
0
  6
CONTINUOUS
 62
     7
 10
568.2762369420323
 20
410.9828371685559
 30
0.0
 40
0.4092992192702213
 50
282.9980008052448
 51
296.1108017640834
  0
ARC
  5
481
  8
0
  6
CONTINUOUS
 62
     7
 10
568.6384164627126
 20
410.2438894349153
 30
0.0
 40
0.4136331948761581
 50
91.08496456418094
 51
116.1108017640926
  0
ARC
  5
482
  8
0
  6
CONTINUOUS
 62
     7
 10
568.8394765133056
 20
399.6273995134555
 30
0.0
 40
11.0320268302808
 50
90.15408029937106
 51
91.08496456421199
  0
ARC
  5
483
  8
0
  6
CONTINUOUS
 62
     7
 10
568.839476513307
 20
399.6273995129332
 30
0.0
 40
11.03202683080322
 50
90.15202379531489
 51
90.15408029937112
  0
ARC
  5
484
  8
0
  6
CONTINUOUS
 62
     7
 10
567.8584178335058
 20
373.2062452877469
 30
0.0
 40
0.4996655932989619
 50
270.0127473679414
 51
0.0851375186206837
  0
LINE
  5
485
  8
0
  6
CONTINUOUS
 62
     7
 10
567.8585290008756
 20
372.7065797068144
 30
0.0
 11
566.1414709991243
 21
372.7065797068144
 31
0.0
  0
ARC
  5
486
  8
0
  6
CONTINUOUS
 62
     7
 10
24552.39013049842
 20
354.7065797068126
 30
0.0
 40
23986.75619792731
 50
179.9143035255938
 51
179.9558091375768
  0
ARC
  5
487
  8
0
  6
CONTINUOUS
 62
     7
 10
15170.6435662087
 20
368.7387337448365
 30
0.0
 40
14604.99913979001
 50
179.8384321752502
 51
179.9143035255939
  0
LINE
  5
488
  8
0
  6
CONTINUOUS
 62
     7
 10
565.7064936924846
 20
409.9231663166928
 30
0.0
 11
565.709016762012
 21
410.2389422098252
 31
0.0
  0
POLYLINE
  5
489
  8
0
  6
CONTINUOUS
 62
     9
 66
     1
 10
0.0
 20
0.0
 30
0.0
  0
VERTEX
  5
6E3
  8
0
  6
CONTINUOUS
 62
     9
 10
558.2456556052974
 20
414.1833778531476
 30
0.0
  0
VERTEX
  5
6E4
  8
0
  6
CONTINUOUS
 62
     9
 10
558.0293476032092
 20
414.15400944928
 30
0.0
  0
VERTEX
  5
6E5
  8
0
  6
CONTINUOUS
 62
     9
 10
557.8476960766557
 20
414.0646050014085
 30
0.0
  0
VERTEX
  5
6E6
  8
0
  6
CONTINUOUS
 62
     9
 10
557.7456746437654
 20
413.8797683880392
 30
0.0
  0
SEQEND
  5
714
  8
0
  6
CONTINUOUS
 62
     9
  0
LINE
  5
48A
  8
0
  6
CONTINUOUS
 62
     7
 10
560.2940124860874
 20
409.734588433319
 30
0.0
 11
557.7059875139128
 21
409.734588433319
 31
0.0
  0
LINE
  5
48B
  8
0
  6
CONTINUOUS
 62
     9
 10
551.7543443947025
 20
414.1833778531476
 30
0.0
 11
550.2456556052974
 21
414.1833778531476
 31
0.0
  0
LINE
  5
48C
  8
0
  6
CONTINUOUS
 62
     9
 10
565.7023912121736
 20
412.091022706193
 30
0.0
 11
565.689775864537
 21
410.5121432405315
 31
0.0
  0
ARC
  5
48D
  8
0
  6
CONTINUOUS
 62
     7
 10
-14036.6435662087
 20
368.7387337448365
 30
0.0
 40
14604.99913979001
 50
0.0856964744061202
 51
0.1615678247497954
  0
ARC
  5
48E
  8
0
  6
CONTINUOUS
 62
     7
 10
-23418.39013049842
 20
354.7065797068126
 30
0.0
 40
23986.75619792731
 50
0.0441908624233065
 51
0.085696474406177
  0
ARC
  5
48F
  8
0
  6
CONTINUOUS
 62
     7
 10
549.2003892117308
 20
411.9966346988981
 30
0.0
 40
0.5574146471097212
 50
88.77336844665115
 51
89.79225905425916
  0
ARC
  5
490
  8
0
  6
CONTINUOUS
 62
     7
 10
549.2003892117308
 20
411.9966346988979
 30
0.0
 40
0.557414647109916
 50
68.84598132581085
 51
88.77336844664644
  0
ARC
  5
491
  8
0
  6
CONTINUOUS
 62
     7
 10
549.2352241434436
 20
412.0866587332686
 30
0.0
 40
0.4608858988956048
 50
44.68769999714789
 51
68.84598132578446
  0
ARC
  5
492
  8
0
  6
CONTINUOUS
 62
     7
 10
549.2003592602009
 20
412.0521718668066
 30
0.0
 40
0.5099257198770691
 50
24.01509595183904
 51
44.68769999714573
  0
ARC
  5
493
  8
0
  6
CONTINUOUS
 62
     7
 10
549.2836534406803
 20
412.0892831245131
 30
0.0
 40
0.418738188107138
 50
0.2380251359671774
 51
24.0150959518441
  0
LINE
  5
494
  8
0
  6
CONTINUOUS
 62
     9
 10
573.1897949030048
 20
410.6593874714912
 30
0.0
 11
568.8102050969952
 21
410.6593874714912
 31
0.0
  0
LINE
  5
495
  8
0
  6
CONTINUOUS
 62
     9
 10
584.310224135463
 20
410.5121432405315
 30
0.0
 11
584.2976087878264
 21
412.0910227061931
 31
0.0
  0
LINE
  5
496
  8
0
  6
CONTINUOUS
 62
     9
 10
568.310224135463
 20
410.5121432405315
 30
0.0
 11
568.2976087878264
 21
412.0910227061931
 31
0.0
  0
ARC
  5
497
  8
0
  6
CONTINUOUS
 62
     7
 10
835.8114543369302
 20
416.5177944773113
 30
0.0
 40
251.5993692940474
 50
181.0794137749746
 51
181.4300109704108
  0
POLYLINE
  5
498
  8
0
  6
CONTINUOUS
 62
     9
 66
     1
 10
0.0
 20
0.0
 30
0.0
  0
VERTEX
  5
6E7
  8
0
  6
CONTINUOUS
 62
     9
 10
568.2543253562346
 20
413.8797683880392
 30
0.0
  0
VERTEX
  5
6E8
  8
0
  6
CONTINUOUS
 62
     9
 10
568.1473541931164
 20
414.0685004453236
 30
0.0
  0
VERTEX
  5
6E9
  8
0
  6
CONTINUOUS
 62
     9
 10
567.961105570068
 20
414.1566755317635
 30
0.0
  0
VERTEX
  5
6EA
  8
0
  6
CONTINUOUS
 62
     9
 10
567.7543443947025
 20
414.1833778531476
 30
0.0
  0
SEQEND
  5
715
  8
0
  6
CONTINUOUS
 62
     9
  0
LINE
  5
499
  8
0
  6
CONTINUOUS
 62
     7
 10
568.2543253562346
 20
413.8797683880392
 30
0.0
 11
568.2543253562346
 21
411.7780673733865
 31
0.0
  0
POLYLINE
  5
49A
  8
0
  6
CONTINUOUS
 62
     9
 66
     1
 10
0.0
 20
0.0
 30
0.0
  0
VERTEX
  5
6EB
  8
0
  6
CONTINUOUS
 62
     9
 10
566.2456556052974
 20
414.1833778531476
 30
0.0
  0
VERTEX
  5
6EC
  8
0
  6
CONTINUOUS
 62
     9
 10
566.0293476032092
 20
414.15400944928
 30
0.0
  0
VERTEX
  5
6ED
  8
0
  6
CONTINUOUS
 62
     9
 10
565.8476960766557
 20
414.0646050014085
 30
0.0
  0
VERTEX
  5
6EE
  8
0
  6
CONTINUOUS
 62
     9
 10
565.7456746437654
 20
413.8797683880392
 30
0.0
  0
SEQEND
  5
716
  8
0
  6
CONTINUOUS
 62
     9
  0
LINE
  5
49B
  8
0
  6
CONTINUOUS
 62
     9
 10
568.7975897493584
 20
412.554042830285
 30
0.0
 11
573.2024102506415
 21
412.554042830285
 31
0.0
  0
ARC
  5
49C
  8
0
  6
CONTINUOUS
 62
     7
 10
568.7163465593197
 20
412.089283124513
 30
0.0
 40
0.4187381881072789
 50
155.9849040481567
 51
179.7619748640305
  0
ARC
  5
49D
  8
0
  6
CONTINUOUS
 62
     7
 10
568.7996407397992
 20
412.0521718668064
 30
0.0
 40
0.5099257198772121
 50
135.312300002846
 51
155.9849040481436
  0
ARC
  5
49E
  8
0
  6
CONTINUOUS
 62
     7
 10
568.764775856557
 20
412.086658733268
 30
0.0
 40
0.4608858988963937
 50
111.1540186742656
 51
135.3123000028637
  0
ARC
  5
49F
  8
0
  6
CONTINUOUS
 62
     7
 10
568.7996107882693
 20
411.9966346988975
 30
0.0
 40
0.5574146471102852
 50
91.22663155336362
 51
111.154018674181
  0
ARC
  5
4A0
  8
0
  6
CONTINUOUS
 62
     7
 10
568.7996107882693
 20
411.9966346988977
 30
0.0
 40
0.5574146471101403
 50
90.20774094577445
 51
91.22663155336448
  0
ARC
  5
4A1
  8
0
  6
CONTINUOUS
 62
     7
 10
24560.39013049842
 20
354.7065797068126
 30
0.0
 40
23986.75619792731
 50
179.9143035255938
 51
179.9558091375768
  0
ARC
  5
4A2
  8
0
  6
CONTINUOUS
 62
     7
 10
15178.6435662087
 20
368.7387337448365
 30
0.0
 40
14604.99913979001
 50
179.8384321752502
 51
179.9143035255939
  0
ARC
  5
4A3
  8
0
  6
CONTINUOUS
 62
     7
 10
576.7163465593198
 20
412.089283124513
 30
0.0
 40
0.4187381881072789
 50
155.9849040481567
 51
179.7619748640305
  0
ARC
  5
4A4
  8
0
  6
CONTINUOUS
 62
     7
 10
576.7996407397992
 20
412.0521718668064
 30
0.0
 40
0.5099257198772121
 50
135.312300002846
 51
155.9849040481436
  0
ARC
  5
4A5
  8
0
  6
CONTINUOUS
 62
     7
 10
576.764775856557
 20
412.086658733268
 30
0.0
 40
0.4608858988963937
 50
111.1540186742656
 51
135.3123000028637
  0
ARC
  5
4A6
  8
0
  6
CONTINUOUS
 62
     7
 10
576.7996107882693
 20
411.9966346988975
 30
0.0
 40
0.5574146471102852
 50
91.22663155336362
 51
111.154018674181
  0
ARC
  5
4A7
  8
0
  6
CONTINUOUS
 62
     7
 10
576.7996107882693
 20
411.9966346988977
 30
0.0
 40
0.5574146471101403
 50
90.20774094577445
 51
91.22663155336448
  0
ARC
  5
4A8
  8
0
  6
CONTINUOUS
 62
     7
 10
582.1415987657552
 20
373.2062618586735
 30
0.0
 40
0.4996821681939241
 50
179.9167654036513
 51
269.9853497097592
  0
LINE
  5
4A9
  8
0
  6
CONTINUOUS
 62
     7
 10
575.8585290008756
 20
372.7065797068144
 30
0.0
 11
574.1414709991243
 21
372.7065797068144
 31
0.0
  0
ARC
  5
4AA
  8
0
  6
CONTINUOUS
 62
     7
 10
565.2003892117308
 20
411.9966346988981
 30
0.0
 40
0.5574146471097212
 50
88.77336844665115
 51
89.792259054262
  0
ARC
  5
4AB
  8
0
  6
CONTINUOUS
 62
     7
 10
565.2003892117308
 20
411.9966346988979
 30
0.0
 40
0.557414647109916
 50
68.84598132581085
 51
88.77336844664644
  0
ARC
  5
4AC
  8
0
  6
CONTINUOUS
 62
     7
 10
565.2352241434436
 20
412.0866587332686
 30
0.0
 40
0.4608858988956048
 50
44.68769999714789
 51
68.84598132578446
  0
ARC
  5
4AD
  8
0
  6
CONTINUOUS
 62
     7
 10
565.2003592602009
 20
412.0521718668066
 30
0.0
 40
0.5099257198770691
 50
24.01509595183904
 51
44.68769999714573
  0
ARC
  5
4AE
  8
0
  6
CONTINUOUS
 62
     7
 10
565.2836534406803
 20
412.0892831245131
 30
0.0
 40
0.418738188107138
 50
0.2380251359671774
 51
24.0150959518441
  0
LINE
  5
4AF
  8
0
  6
CONTINUOUS
 62
     7
 10
576.2940124860874
 20
409.734588433319
 30
0.0
 11
573.7059875139128
 21
409.734588433319
 31
0.0
  0
LINE
  5
4B0
  8
0
  6
CONTINUOUS
 62
     7
 10
568.290983237988
 20
410.2389422098252
 30
0.0
 11
568.2935063075154
 21
409.9231663166928
 31
0.0
  0
ARC
  5
4B1
  8
0
  6
CONTINUOUS
 62
     7
 10
330.1885456630856
 20
416.5177944773109
 30
0.0
 40
251.5993692940318
 50
358.5699890295892
 51
358.9205862250254
  0
LINE
  5
4B2
  8
0
  6
CONTINUOUS
 62
     9
 10
581.7023912121736
 20
412.091022706193
 30
0.0
 11
581.689775864537
 21
410.5121432405315
 31
0.0
  0
LINE
  5
4B3
  8
0
  6
CONTINUOUS
 62
     9
 10
567.7543443947025
 20
414.1833778531476
 30
0.0
 11
566.2456556052974
 21
414.1833778531476
 31
0.0
  0
ARC
  5
4B4
  8
0
  6
CONTINUOUS
 62
     7
 10
576.3851517529675
 20
410.5110001806949
 30
0.0
 40
0.0749451190083349
 50
102.9980008051538
 51
179.1259908355227
  0
ARC
  5
4B5
  8
0
  6
CONTINUOUS
 62
     7
 10
576.2762369420323
 20
410.9828371685559
 30
0.0
 40
0.4092992192702213
 50
282.9980008052448
 51
296.1108017640834
  0
ARC
  5
4B6
  8
0
  6
CONTINUOUS
 62
     7
 10
576.6384164627126
 20
410.2438894349153
 30
0.0
 40
0.4136331948761581
 50
91.08496456418094
 51
116.1108017640926
  0
ARC
  5
4B7
  8
0
  6
CONTINUOUS
 62
     7
 10
576.8394765133056
 20
399.6273995134555
 30
0.0
 40
11.0320268302808
 50
90.15408029937106
 51
91.08496456421199
  0
ARC
  5
4B8
  8
0
  6
CONTINUOUS
 62
     7
 10
576.839476513307
 20
399.6273995129332
 30
0.0
 40
11.03202683080322
 50
90.15202379531489
 51
90.15408029937112
  0
POLYLINE
  5
4B9
  8
0
  6
CONTINUOUS
 62
     9
 66
     1
 10
0.0
 20
0.0
 30
0.0
  0
VERTEX
  5
6EF
  8
0
  6
CONTINUOUS
 62
     9
 10
574.2456556052975
 20
414.1833778531476
 30
0.0
  0
VERTEX
  5
6F0
  8
0
  6
CONTINUOUS
 62
     9
 10
574.0293476032092
 20
414.15400944928
 30
0.0
  0
VERTEX
  5
6F1
  8
0
  6
CONTINUOUS
 62
     9
 10
573.8476960766557
 20
414.0646050014085
 30
0.0
  0
VERTEX
  5
6F2
  8
0
  6
CONTINUOUS
 62
     9
 10
573.7456746437654
 20
413.8797683880392
 30
0.0
  0
SEQEND
  5
717
  8
0
  6
CONTINUOUS
 62
     9
  0
POLYLINE
  5
4BA
  8
0
  6
CONTINUOUS
 62
     9
 66
     1
 10
0.0
 20
0.0
 30
0.0
  0
VERTEX
  5
6F3
  8
0
  6
CONTINUOUS
 62
     9
 10
576.2543253562346
 20
413.8797683880392
 30
0.0
  0
VERTEX
  5
6F4
  8
0
  6
CONTINUOUS
 62
     9
 10
576.1473541931164
 20
414.0685004453236
 30
0.0
  0
VERTEX
  5
6F5
  8
0
  6
CONTINUOUS
 62
     9
 10
575.961105570068
 20
414.1566755317635
 30
0.0
  0
VERTEX
  5
6F6
  8
0
  6
CONTINUOUS
 62
     9
 10
575.7543443947025
 20
414.1833778531476
 30
0.0
  0
SEQEND
  5
718
  8
0
  6
CONTINUOUS
 62
     9
  0
LINE
  5
4BB
  8
0
  6
CONTINUOUS
 62
     9
 10
575.7543443947025
 20
414.1833778531476
 30
0.0
 11
574.2456556052975
 21
414.1833778531476
 31
0.0
  0
ARC
  5
4BC
  8
0
  6
CONTINUOUS
 62
     7
 10
575.8584178335058
 20
373.2062452877469
 30
0.0
 40
0.4996655932989619
 50
270.0127473679414
 51
0.0851375186206837
  0
LINE
  5
4BD
  8
0
  6
CONTINUOUS
 62
     7
 10
576.2543253562346
 20
413.8797683880392
 30
0.0
 11
576.2543253562346
 21
411.7780673733865
 31
0.0
  0
LINE
  5
4BE
  8
0
  6
CONTINUOUS
 62
     9
 10
576.7975897493585
 20
412.554042830285
 30
0.0
 11
581.2024102506415
 21
412.554042830285
 31
0.0
  0
LINE
  5
4BF
  8
0
  6
CONTINUOUS
 62
     7
 10
573.7064936924846
 20
409.9231663166928
 30
0.0
 11
573.709016762012
 21
410.2389422098252
 31
0.0
  0
ARC
  5
4C0
  8
0
  6
CONTINUOUS
 62
     7
 10
573.2003892117308
 20
411.9966346988981
 30
0.0
 40
0.5574146471097212
 50
88.77336844665115
 51
89.792259054262
  0
ARC
  5
4C1
  8
0
  6
CONTINUOUS
 62
     7
 10
573.2003892117308
 20
411.9966346988979
 30
0.0
 40
0.557414647109916
 50
68.84598132581085
 51
88.77336844664644
  0
ARC
  5
4C2
  8
0
  6
CONTINUOUS
 62
     7
 10
573.2352241434436
 20
412.0866587332686
 30
0.0
 40
0.4608858988956048
 50
44.68769999714789
 51
68.84598132578446
  0
ARC
  5
4C3
  8
0
  6
CONTINUOUS
 62
     7
 10
573.2003592602009
 20
412.0521718668066
 30
0.0
 40
0.5099257198770691
 50
24.01509595183904
 51
44.68769999714573
  0
ARC
  5
4C4
  8
0
  6
CONTINUOUS
 62
     7
 10
573.2836534406803
 20
412.0892831245131
 30
0.0
 40
0.418738188107138
 50
0.2380251359671774
 51
24.0150959518441
  0
ARC
  5
4C5
  8
0
  6
CONTINUOUS
 62
     7
 10
583.8584178335058
 20
373.2062452877469
 30
0.0
 40
0.4996655932989619
 50
270.0127473679414
 51
0.0851375186206837
  0
LINE
  5
4C6
  8
0
  6
CONTINUOUS
 62
     7
 10
581.7456746437655
 20
411.7780673733865
 30
0.0
 11
581.7456746437655
 21
413.8797683880392
 31
0.0
  0
LINE
  5
4C7
  8
0
  6
CONTINUOUS
 62
     7
 10
584.2543253562346
 20
413.8797683880392
 30
0.0
 11
584.2543253562346
 21
411.7780673733865
 31
0.0
  0
ARC
  5
4C8
  8
0
  6
CONTINUOUS
 62
     7
 10
573.160523486693
 20
399.6273995129313
 30
0.0
 40
11.03202683080494
 50
89.84591970062915
 51
89.84797620468561
  0
ARC
  5
4C9
  8
0
  6
CONTINUOUS
 62
     7
 10
573.1605234866943
 20
399.6273995134506
 30
0.0
 40
11.03202683028574
 50
88.9150354357879
 51
89.84591970062854
  0
ARC
  5
4CA
  8
0
  6
CONTINUOUS
 62
     7
 10
573.3615835372875
 20
410.2438894349156
 30
0.0
 40
0.41363319487581
 50
63.88919823590799
 51
88.91503543583666
  0
ARC
  5
4CB
  8
0
  6
CONTINUOUS
 62
     7
 10
573.7237630579666
 20
410.9828371685533
 30
0.0
 40
0.4092992192674235
 50
243.8891982359195
 51
257.0019991948497
  0
ARC
  5
4CC
  8
0
  6
CONTINUOUS
 62
     7
 10
573.6148482470323
 20
410.5110001806947
 30
0.0
 40
0.0749451190084698
 50
0.8740091645594248
 51
77.00199919478268
  0
LINE
  5
4CD
  8
0
  6
CONTINUOUS
 62
     9
 10
576.310224135463
 20
410.5121432405315
 30
0.0
 11
576.2976087878264
 21
412.0910227061931
 31
0.0
  0
LINE
  5
4CE
  8
0
  6
CONTINUOUS
 62
     9
 10
573.7023912121736
 20
412.091022706193
 30
0.0
 11
573.689775864537
 21
410.5121432405315
 31
0.0
  0
ARC
  5
4CF
  8
0
  6
CONTINUOUS
 62
     7
 10
581.160523486693
 20
399.6273995129313
 30
0.0
 40
11.03202683080494
 50
89.84591970062915
 51
89.84797620468561
  0
ARC
  5
4D0
  8
0
  6
CONTINUOUS
 62
     7
 10
581.1605234866943
 20
399.6273995134506
 30
0.0
 40
11.03202683028574
 50
88.9150354357879
 51
89.84591970062854
  0
ARC
  5
4D1
  8
0
  6
CONTINUOUS
 62
     7
 10
581.3615835372875
 20
410.2438894349156
 30
0.0
 40
0.41363319487581
 50
63.88919823590799
 51
88.91503543583666
  0
ARC
  5
4D2
  8
0
  6
CONTINUOUS
 62
     7
 10
581.7237630579666
 20
410.9828371685533
 30
0.0
 40
0.4092992192674235
 50
243.8891982359195
 51
257.0019991948497
  0
ARC
  5
4D3
  8
0
  6
CONTINUOUS
 62
     7
 10
581.6148482470323
 20
410.5110001806947
 30
0.0
 40
0.0749451190084698
 50
0.8740091645594248
 51
77.00199919478268
  0
LINE
  5
4D4
  8
0
  6
CONTINUOUS
 62
     7
 10
573.7456746437655
 20
411.7780673733865
 30
0.0
 11
573.7456746437655
 21
413.8797683880392
 31
0.0
  0
ARC
  5
4D5
  8
0
  6
CONTINUOUS
 62
     7
 10
584.7163465593198
 20
412.089283124513
 30
0.0
 40
0.4187381881072789
 50
155.9849040481567
 51
179.7619748640305
  0
ARC
  5
4D6
  8
0
  6
CONTINUOUS
 62
     7
 10
584.7996407397992
 20
412.0521718668064
 30
0.0
 40
0.5099257198772121
 50
135.312300002846
 51
155.9849040481436
  0
ARC
  5
4D7
  8
0
  6
CONTINUOUS
 62
     7
 10
584.764775856557
 20
412.086658733268
 30
0.0
 40
0.4608858988963937
 50
111.1540186742656
 51
135.3123000028637
  0
ARC
  5
4D8
  8
0
  6
CONTINUOUS
 62
     7
 10
584.7996107882693
 20
411.9966346988975
 30
0.0
 40
0.5574146471102852
 50
91.22663155336362
 51
111.154018674181
  0
ARC
  5
4D9
  8
0
  6
CONTINUOUS
 62
     7
 10
584.7996107882693
 20
411.9966346988977
 30
0.0
 40
0.5574146471101403
 50
90.20774094577445
 51
91.22663155336448
  0
LINE
  5
4DA
  8
0
  6
CONTINUOUS
 62
     7
 10
581.7064936924846
 20
409.9231663166928
 30
0.0
 11
581.709016762012
 21
410.2389422098252
 31
0.0
  0
LINE
  5
4DB
  8
0
  6
CONTINUOUS
 62
     7
 10
584.290983237988
 20
410.2389422098252
 30
0.0
 11
584.2935063075154
 21
409.9231663166928
 31
0.0
  0
ARC
  5
4DC
  8
0
  6
CONTINUOUS
 62
     7
 10
581.2003892117308
 20
411.9966346988981
 30
0.0
 40
0.5574146471097212
 50
88.77336844665115
 51
89.792259054262
  0
ARC
  5
4DD
  8
0
  6
CONTINUOUS
 62
     7
 10
581.2003892117308
 20
411.9966346988979
 30
0.0
 40
0.557414647109916
 50
68.84598132581085
 51
88.77336844664644
  0
ARC
  5
4DE
  8
0
  6
CONTINUOUS
 62
     7
 10
581.2352241434436
 20
412.0866587332686
 30
0.0
 40
0.4608858988956048
 50
44.68769999714789
 51
68.84598132578446
  0
ARC
  5
4DF
  8
0
  6
CONTINUOUS
 62
     7
 10
581.2003592602009
 20
412.0521718668066
 30
0.0
 40
0.5099257198770691
 50
24.01509595183904
 51
44.68769999714573
  0
ARC
  5
4E0
  8
0
  6
CONTINUOUS
 62
     7
 10
581.2836534406803
 20
412.0892831245131
 30
0.0
 40
0.418738188107138
 50
0.2380251359671774
 51
24.0150959518441
  0
ARC
  5
4E1
  8
0
  6
CONTINUOUS
 62
     7
 10
584.3851517529675
 20
410.5110001806949
 30
0.0
 40
0.0749451190083349
 50
102.9980008051538
 51
179.1259908355227
  0
ARC
  5
4E2
  8
0
  6
CONTINUOUS
 62
     7
 10
584.2762369420323
 20
410.9828371685559
 30
0.0
 40
0.4092992192702213
 50
282.9980008052448
 51
296.1108017640834
  0
ARC
  5
4E3
  8
0
  6
CONTINUOUS
 62
     7
 10
584.6384164627126
 20
410.2438894349153
 30
0.0
 40
0.4136331948761581
 50
91.08496456418094
 51
116.1108017640926
  0
ARC
  5
4E4
  8
0
  6
CONTINUOUS
 62
     7
 10
584.8394765133056
 20
399.6273995134555
 30
0.0
 40
11.0320268302808
 50
90.15408029937106
 51
91.08496456421199
  0
ARC
  5
4E5
  8
0
  6
CONTINUOUS
 62
     7
 10
584.839476513307
 20
399.6273995129332
 30
0.0
 40
11.03202683080322
 50
90.15202379531489
 51
90.15408029937112
  0
LINE
  5
4E6
  8
0
  6
CONTINUOUS
 62
     9
 10
581.1897949030048
 20
410.6593874714912
 30
0.0
 11
576.8102050969952
 21
410.6593874714912
 31
0.0
  0
ARC
  5
4E7
  8
0
  6
CONTINUOUS
 62
     7
 10
-14028.6435662087
 20
368.7387337448365
 30
0.0
 40
14604.99913979001
 50
0.0856964744061202
 51
0.1615678247497954
  0
ARC
  5
4E8
  8
0
  6
CONTINUOUS
 62
     7
 10
-23410.39013049843
 20
354.7065797068126
 30
0.0
 40
23986.75619792731
 50
0.0441908624233065
 51
0.085696474406177
  0
LINE
  5
4E9
  8
0
  6
CONTINUOUS
 62
     7
 10
576.290983237988
 20
410.2389422098252
 30
0.0
 11
576.2935063075154
 21
409.9231663166928
 31
0.0
  0
LINE
  5
4EA
  8
0
  6
CONTINUOUS
 62
     7
 10
583.8585290008756
 20
372.7065797068144
 30
0.0
 11
582.1414709991243
 21
372.7065797068144
 31
0.0
  0
LINE
  5
4EB
  8
0
  6
CONTINUOUS
 62
     9
 10
584.7975897493585
 20
412.554042830285
 30
0.0
 11
589.2024102506415
 21
412.554042830285
 31
0.0
  0
ARC
  5
4EC
  8
0
  6
CONTINUOUS
 62
     7
 10
24568.39013049842
 20
354.7065797068126
 30
0.0
 40
23986.75619792731
 50
179.9143035255938
 51
179.9558091375768
  0
ARC
  5
4ED
  8
0
  6
CONTINUOUS
 62
     7
 10
15186.6435662087
 20
368.7387337448365
 30
0.0
 40
14604.99913979001
 50
179.8384321752502
 51
179.9143035255939
  0
POLYLINE
  5
4EE
  8
0
  6
CONTINUOUS
 62
     9
 66
     1
 10
0.0
 20
0.0
 30
0.0
  0
VERTEX
  5
6F7
  8
0
  6
CONTINUOUS
 62
     9
 10
584.2543253562346
 20
413.8797683880392
 30
0.0
  0
VERTEX
  5
6F8
  8
0
  6
CONTINUOUS
 62
     9
 10
584.1473541931164
 20
414.0685004453236
 30
0.0
  0
VERTEX
  5
6F9
  8
0
  6
CONTINUOUS
 62
     9
 10
583.961105570068
 20
414.1566755317635
 30
0.0
  0
VERTEX
  5
6FA
  8
0
  6
CONTINUOUS
 62
     9
 10
583.7543443947026
 20
414.1833778531476
 30
0.0
  0
SEQEND
  5
719
  8
0
  6
CONTINUOUS
 62
     9
  0
POLYLINE
  5
4EF
  8
0
  6
CONTINUOUS
 62
     9
 66
     1
 10
0.0
 20
0.0
 30
0.0
  0
VERTEX
  5
6FB
  8
0
  6
CONTINUOUS
 62
     9
 10
582.2456556052975
 20
414.1833778531476
 30
0.0
  0
VERTEX
  5
6FC
  8
0
  6
CONTINUOUS
 62
     9
 10
582.0293476032092
 20
414.15400944928
 30
0.0
  0
VERTEX
  5
6FD
  8
0
  6
CONTINUOUS
 62
     9
 10
581.8476960766557
 20
414.0646050014085
 30
0.0
  0
VERTEX
  5
6FE
  8
0
  6
CONTINUOUS
 62
     9
 10
581.7456746437654
 20
413.8797683880392
 30
0.0
  0
SEQEND
  5
71A
  8
0
  6
CONTINUOUS
 62
     9
  0
LINE
  5
4F0
  8
0
  6
CONTINUOUS
 62
     7
 10
584.2940124860874
 20
409.734588433319
 30
0.0
 11
581.7059875139128
 21
409.734588433319
 31
0.0
  0
ARC
  5
4F1
  8
0
  6
CONTINUOUS
 62
     7
 10
322.1885456630856
 20
416.5177944773109
 30
0.0
 40
251.5993692940318
 50
358.5699890295892
 51
358.9205862250254
  0
LINE
  5
4F2
  8
0
  6
CONTINUOUS
 62
     9
 10
589.1897949030048
 20
410.6593874714912
 30
0.0
 11
584.8102050969952
 21
410.6593874714912
 31
0.0
  0
ARC
  5
4F3
  8
0
  6
CONTINUOUS
 62
     7
 10
574.1415987657552
 20
373.2062618586735
 30
0.0
 40
0.4996821681939241
 50
179.9167654036513
 51
269.9853497097592
  0
LINE
  5
4F4
  8
0
  6
CONTINUOUS
 62
     7
 10
568.2940124860874
 20
409.734588433319
 30
0.0
 11
565.7059875139128
 21
409.734588433319
 31
0.0
  0
ARC
  5
4F5
  8
0
  6
CONTINUOUS
 62
     7
 10
-14020.6435662087
 20
368.7387337448365
 30
0.0
 40
14604.99913979001
 50
0.0856964744061202
 51
0.1615678247497954
  0
ARC
  5
4F6
  8
0
  6
CONTINUOUS
 62
     7
 10
-23402.39013049843
 20
354.7065797068126
 30
0.0
 40
23986.75619792731
 50
0.0441908624233065
 51
0.085696474406177
  0
ARC
  5
4F7
  8
0
  6
CONTINUOUS
 62
     7
 10
827.8114543369302
 20
416.5177944773113
 30
0.0
 40
251.5993692940474
 50
181.0794137749746
 51
181.4300109704108
  0
ARC
  5
4F8
  8
0
  6
CONTINUOUS
 62
     7
 10
819.8114543369302
 20
416.5177944773113
 30
0.0
 40
251.5993692940474
 50
181.0794137749746
 51
181.4300109704108
  0
LINE
  5
4F9
  8
0
  6
CONTINUOUS
 62
     9
 10
583.7543443947026
 20
414.1833778531476
 30
0.0
 11
582.2456556052975
 21
414.1833778531476
 31
0.0
  0
LINE
  5
4FA
  8
0
  6
CONTINUOUS
 62
     9
 10
589.7023912121736
 20
412.091022706193
 30
0.0
 11
589.689775864537
 21
410.5121432405315
 31
0.0
  0
ARC
  5
4FB
  8
0
  6
CONTINUOUS
 62
     7
 10
589.160523486693
 20
399.6273995129313
 30
0.0
 40
11.03202683080494
 50
89.84591970062915
 51
89.84797620468561
  0
ARC
  5
4FC
  8
0
  6
CONTINUOUS
 62
     7
 10
589.1605234866944
 20
399.6273995134506
 30
0.0
 40
11.03202683028574
 50
88.9150354357879
 51
89.84591970062854
  0
ARC
  5
4FD
  8
0
  6
CONTINUOUS
 62
     7
 10
589.3615835372875
 20
410.2438894349156
 30
0.0
 40
0.41363319487581
 50
63.88919823590799
 51
88.91503543583666
  0
ARC
  5
4FE
  8
0
  6
CONTINUOUS
 62
     7
 10
589.7237630579666
 20
410.9828371685533
 30
0.0
 40
0.4092992192674235
 50
243.8891982359195
 51
257.0019991948497
  0
ARC
  5
4FF
  8
0
  6
CONTINUOUS
 62
     7
 10
589.6148482470323
 20
410.5110001806947
 30
0.0
 40
0.0749451190084698
 50
0.8740091645594248
 51
77.00199919478268
  0
ARC
  5
500
  8
0
  6
CONTINUOUS
 62
     7
 10
338.1885456630856
 20
416.5177944773109
 30
0.0
 40
251.5993692940318
 50
358.5699890295892
 51
358.9205862250254
  0
ARC
  5
501
  8
0
  6
CONTINUOUS
 62
     7
 10
24576.39013049842
 20
354.7065797068126
 30
0.0
 40
23986.75619792731
 50
179.9143035255938
 51
179.9558091375768
  0
ARC
  5
502
  8
0
  6
CONTINUOUS
 62
     7
 10
15194.6435662087
 20
368.7387337448365
 30
0.0
 40
14604.99913979001
 50
179.8384321752502
 51
179.9143035255939
  0
ARC
  5
503
  8
0
  6
CONTINUOUS
 62
     7
 10
592.3851517529675
 20
410.5110001806949
 30
0.0
 40
0.0749451190083349
 50
102.9980008051538
 51
179.1259908355227
  0
ARC
  5
504
  8
0
  6
CONTINUOUS
 62
     7
 10
592.2762369420323
 20
410.9828371685559
 30
0.0
 40
0.4092992192702213
 50
282.9980008052448
 51
296.1108017640834
  0
ARC
  5
505
  8
0
  6
CONTINUOUS
 62
     7
 10
592.6384164627126
 20
410.2438894349153
 30
0.0
 40
0.4136331948761581
 50
91.08496456418094
 51
116.1108017640926
  0
ARC
  5
506
  8
0
  6
CONTINUOUS
 62
     7
 10
592.8394765133056
 20
399.6273995134555
 30
0.0
 40
11.0320268302808
 50
90.15408029937106
 51
91.08496456421199
  0
ARC
  5
507
  8
0
  6
CONTINUOUS
 62
     7
 10
592.839476513307
 20
399.6273995129332
 30
0.0
 40
11.03202683080322
 50
90.15202379531489
 51
90.15408029937112
  0
LINE
  5
508
  8
0
  6
CONTINUOUS
 62
     7
 10
592.290983237988
 20
410.2389422098252
 30
0.0
 11
592.2935063075154
 21
409.9231663166928
 31
0.0
  0
ARC
  5
509
  8
0
  6
CONTINUOUS
 62
     7
 10
843.8114543369302
 20
416.5177944773113
 30
0.0
 40
251.5993692940474
 50
181.0794137749746
 51
181.4300109704108
  0
ARC
  5
50A
  8
0
  6
CONTINUOUS
 62
     7
 10
592.7163465593198
 20
412.089283124513
 30
0.0
 40
0.4187381881072789
 50
155.9849040481567
 51
179.7619748640305
  0
ARC
  5
50B
  8
0
  6
CONTINUOUS
 62
     7
 10
592.7996407397992
 20
412.0521718668064
 30
0.0
 40
0.5099257198772121
 50
135.312300002846
 51
155.9849040481436
  0
ARC
  5
50C
  8
0
  6
CONTINUOUS
 62
     7
 10
592.764775856557
 20
412.086658733268
 30
0.0
 40
0.4608858988963937
 50
111.1540186742656
 51
135.3123000028637
  0
ARC
  5
50D
  8
0
  6
CONTINUOUS
 62
     7
 10
592.7996107882693
 20
411.9966346988975
 30
0.0
 40
0.5574146471102852
 50
91.22663155336362
 51
111.154018674181
  0
ARC
  5
50E
  8
0
  6
CONTINUOUS
 62
     7
 10
592.7996107882693
 20
411.9966346988977
 30
0.0
 40
0.5574146471101403
 50
90.20774094577445
 51
91.22663155336448
  0
LINE
  5
50F
  8
0
  6
CONTINUOUS
 62
     7
 10
589.7456746437655
 20
411.7780673733865
 30
0.0
 11
589.7456746437655
 21
413.8797683880392
 31
0.0
  0
ARC
  5
510
  8
0
  6
CONTINUOUS
 62
     7
 10
-14012.6435662087
 20
368.7387337448365
 30
0.0
 40
14604.99913979001
 50
0.0856964744061202
 51
0.1615678247497954
  0
ARC
  5
511
  8
0
  6
CONTINUOUS
 62
     7
 10
-23394.39013049843
 20
354.7065797068126
 30
0.0
 40
23986.75619792731
 50
0.0441908624233065
 51
0.085696474406177
  0
LINE
  5
512
  8
0
  6
CONTINUOUS
 62
     7
 10
592.2543253562346
 20
413.8797683880392
 30
0.0
 11
592.2543253562346
 21
411.7780673733865
 31
0.0
  0
LINE
  5
513
  8
0
  6
CONTINUOUS
 62
     7
 10
591.8585290008756
 20
372.7065797068144
 30
0.0
 11
590.1414709991243
 21
372.7065797068144
 31
0.0
  0
ARC
  5
514
  8
0
  6
CONTINUOUS
 62
     7
 10
590.1415987657552
 20
373.2062618586735
 30
0.0
 40
0.4996821681939241
 50
179.9167654036513
 51
269.9853497097592
  0
LINE
  5
515
  8
0
  6
CONTINUOUS
 62
     9
 10
592.310224135463
 20
410.5121432405315
 30
0.0
 11
592.2976087878264
 21
412.0910227061931
 31
0.0
  0
LINE
  5
516
  8
0
  6
CONTINUOUS
 62
     9
 10
597.1897949030048
 20
410.6593874714912
 30
0.0
 11
592.8102050969952
 21
410.6593874714912
 31
0.0
  0
ARC
  5
517
  8
0
  6
CONTINUOUS
 62
     7
 10
591.8584178335058
 20
373.2062452877469
 30
0.0
 40
0.4996655932989619
 50
270.0127473679414
 51
0.0851375186206837
  0
ARC
  5
518
  8
0
  6
CONTINUOUS
 62
     7
 10
589.2003892117308
 20
411.9966346988981
 30
0.0
 40
0.5574146471097212
 50
88.77336844665115
 51
89.792259054262
  0
ARC
  5
519
  8
0
  6
CONTINUOUS
 62
     7
 10
589.2003892117308
 20
411.9966346988979
 30
0.0
 40
0.557414647109916
 50
68.84598132581085
 51
88.77336844664644
  0
ARC
  5
51A
  8
0
  6
CONTINUOUS
 62
     7
 10
589.2352241434436
 20
412.0866587332686
 30
0.0
 40
0.4608858988956048
 50
44.68769999714789
 51
68.84598132578446
  0
ARC
  5
51B
  8
0
  6
CONTINUOUS
 62
     7
 10
589.2003592602009
 20
412.0521718668066
 30
0.0
 40
0.5099257198770691
 50
24.01509595183904
 51
44.68769999714573
  0
ARC
  5
51C
  8
0
  6
CONTINUOUS
 62
     7
 10
589.2836534406804
 20
412.0892831245131
 30
0.0
 40
0.418738188107138
 50
0.2380251359671774
 51
24.0150959518441
  0
LINE
  5
51D
  8
0
  6
CONTINUOUS
 62
     9
 10
592.7975897493585
 20
412.554042830285
 30
0.0
 11
597.2024102506415
 21
412.554042830285
 31
0.0
  0
LINE
  5
51E
  8
0
  6
CONTINUOUS
 62
     7
 10
589.7064936924846
 20
409.9231663166928
 30
0.0
 11
589.7090167620121
 21
410.2389422098252
 31
0.0
  0
ARC
  5
51F
  8
0
  6
CONTINUOUS
 62
     7
 10
798.638210039514
 20
409.8255244406802
 30
0.0
 40
0.544706295033559
 50
128.1121373545871
 51
148.983615567223
  0
LINE
  5
520
  8
0
  6
CONTINUOUS
 62
     7
 10
731.1999999999998
 20
254.1664657019315
 30
0.0
 11
731.1999999999998
 21
251.003979307109
 31
0.0
  0
LINE
  5
521
  8
0
  6
CONTINUOUS
 62
     7
 10
728.607958614218
 20
413.4964319029204
 30
0.0
 11
728.607958614218
 21
285.0119379213272
 31
0.0
  0
LINE
  5
522
  8
0
  6
CENTER
 62
     1
 10
572.4999999999998
 20
189.3898564676977
 30
0.0
 11
572.4999999999998
 21
208.8000150000001
 31
0.0
  0
LINE
  5
524
  8
0
  6
CONTINUOUS
 62
   253
 10
791.2443065665495
 20
409.308625703061
 30
0.0
 11
791.2443065665495
 21
409.628819921902
 31
0.0
  0
LINE
  5
525
  8
0
  6
CONTINUOUS
 62
     7
 10
798.7604652412954
 20
409.1319880336136
 30
0.0
 11
798.2584829465919
 21
409.1278119513332
 31
0.0
  0
ARC
  5
526
  8
0
  6
CONTINUOUS
 62
     7
 10
791.2002425728263
 20
414.696020692891
 30
0.0
 40
0.2997574271738079
 50
0.0
 51
22.51185377956637
  0
LINE
  5
527
  8
0
  6
CONTINUOUS
 62
     7
 10
791.5000000000001
 20
414.696020692891
 30
0.0
 11
791.5000000000001
 21
414.2697319688146
 31
0.0
  0
LINE
  5
528
  8
0
  6
CONTINUOUS
 62
     7
 10
859.8924525958112
 20
414.996020692891
 30
0.0
 11
859.8924525958112
 21
414.9909526603918
 31
0.0
  0
ARC
  5
529
  8
0
  6
CONTINUOUS
 62
     7
 10
798.684059554096
 20
409.1437489632816
 30
0.0
 40
0.4264324889502458
 50
168.2188613133103
 51
177.7499626428794
  0
LINE
  5
52A
  8
0
  6
CENTER
 62
     1
 10
765.5
 20
375.4539793071092
 30
0.0
 11
778.5000000000001
 21
375.4539793071092
 31
0.0
  0
LINE
  5
52B
  8
0
  6
CONTINUOUS
 62
     7
 10
658.962678720502
 20
175.7000149999935
 30
0.0
 11
658.9268985625599
 21
171.6000149999958
 31
0.0
  0
ARC
  5
52C
  8
0
  6
CONTINUOUS
 62
     7
 10
-836.2533602128561
 20
363.6459074746812
 30
0.0
 40
1635.162354252201
 50
1.593900293986236
 51
1.595046287150185
  0
LINE
  5
52D
  8
0
  6
CENTER
 62
     1
 10
772.0
 20
285.4016074639706
 30
0.0
 11
772.0
 21
298.5063511502474
 31
0.0
  0
LINE
  5
52E
  8
0
  6
CONTINUOUS
 62
   253
 10
798.8
 20
414.696020692891
 30
0.0
 11
798.8
 21
413.9697319688146
 31
0.0
  0
LINE
  5
52F
  8
0
  6
CONTINUOUS
 62
   253
 10
798.7556934334505
 20
409.628819921902
 30
0.0
 11
798.7556934334505
 21
409.308625703061
 31
0.0
  0
ARC
  5
530
  8
0
  6
CONTINUOUS
 62
     7
 10
791.2
 20
414.6957779579976
 30
0.0
 40
0.3001399323862008
 50
67.51185041438612
 51
90.0
  0
ARC
  5
531
  8
0
  6
CONTINUOUS
 62
     7
 10
528.907958614218
 20
175.400015
 30
0.0
 40
0.299999999999967
 50
90.0
 51
181.5
  0
ARC
  5
532
  8
0
  6
CONTINUOUS
 62
     7
 10
-844.611276180756
 20
363.6710425544944
 30
0.0
 40
1644.018364980787
 50
1.584581336139195
 51
1.590739657187044
  0
LINE
  5
533
  8
0
  6
CONTINUOUS
 62
   253
 10
798.7556934334505
 20
409.628819921902
 30
0.0
 11
858.2766170781271
 21
409.628819921902
 31
0.0
  0
LINE
  5
534
  8
0
  6
CONTINUOUS
 62
     7
 10
859.8924525958112
 20
414.996020692891
 30
0.0
 11
798.8
 21
414.996020692891
 31
0.0
  0
ARC
  5
535
  8
0
  6
CONTINUOUS
 62
     7
 10
798.5905997257996
 20
408.8901267283528
 30
0.0
 40
0.4124324544880764
 50
92.51102818819597
 51
117.6143272976557
  0
LINE
  5
536
  8
0
  6
CONTINUOUS
 62
     7
 10
861.392041385782
 20
285.0119379213272
 30
0.0
 11
861.392041385782
 21
413.4964319029204
 31
0.0
  0
LINE
  5
537
  8
0
  6
CONTINUOUS
 62
     7
 10
788.0087275324639
 20
261.2127068395732
 30
0.0
 11
788.0087275324639
 21
277.695251774645
 31
0.0
  0
LINE
  5
538
  8
0
  6
CONTINUOUS
 62
   253
 10
798.8
 20
414.696020692891
 30
0.0
 11
798.5
 21
414.696020692891
 31
0.0
  0
LINE
  5
539
  8
0
  6
CONTINUOUS
 62
     7
 10
802.0
 20
261.203979307109
 30
0.0
 11
801.9912724675359
 21
261.2127068395732
 31
0.0
  0
LINE
  5
53A
  8
0
  6
CONTINUOUS
 62
     7
 10
788.0
 20
261.203979307109
 30
0.0
 11
788.0087275324638
 21
261.2127068395732
 31
0.0
  0
ARC
  5
53B
  8
0
  6
CONTINUOUS
 62
     7
 10
661.0920413857822
 20
175.400015
 30
0.0
 40
0.299999999999967
 50
358.5
 51
90.0
  0
LINE
  5
53C
  8
0
  6
CONTINUOUS
 62
     7
 10
791.2
 20
414.996020692891
 30
0.0
 11
730.1075474041887
 21
414.996020692891
 31
0.0
  0
ARC
  5
53D
  8
0
  6
CONTINUOUS
 62
     7
 10
661.0658554642127
 20
174.400015
 30
0.0
 40
0.299999999999967
 50
270.0
 51
358.5
  0
LINE
  5
53E
  8
0
  6
CONTINUOUS
 62
     7
 10
529.0408240545775
 20
179.2068841741491
 30
0.0
 11
529.7997621953582
 21
179.4102410360765
 31
0.0
  0
LINE
  5
53F
  8
0
  6
CONTINUOUS
 62
     7
 10
635.5000000000001
 20
193.800015
 30
0.0
 11
626.4028104836614
 21
193.800015
 31
0.0
  0
ARC
  5
540
  8
0
  6
CONTINUOUS
 62
     7
 10
791.2000988531323
 20
414.6960167502514
 30
0.0
 40
0.2998814876488121
 50
45.00406699694642
 51
67.51185041444836
  0
LINE
  5
541
  8
0
  6
CONTINUOUS
 62
     7
 10
802.0
 20
277.7039793071092
 30
0.0
 11
801.9912724675359
 21
277.695251774645
 31
0.0
  0
LINE
  5
542
  8
0
  6
CONTINUOUS
 62
     7
 10
528.6342473382946
 20
174.3921619155076
 30
0.0
 11
528.6080614167254
 21
175.3921619155076
 31
0.0
  0
ARC
  5
543
  8
0
  6
CONTINUOUS
 62
     7
 10
2434.611276180722
 20
363.6710425544954
 30
0.0
 40
1644.018364980754
 50
178.4092603428131
 51
178.4154186638608
  0
LINE
  5
544
  8
0
  6
CONTINUOUS
 62
     7
 10
798.1
 20
409.1120035063728
 30
0.0
 11
798.2584829465919
 21
409.1278119513332
 31
0.0
  0
LINE
  5
545
  8
0
  6
CONTINUOUS
 62
     7
 10
798.5
 20
414.2697319688146
 30
0.0
 11
798.8
 21
413.9697319688146
 31
0.0
  0
LINE
  5
546
  8
0
  6
CENTER
 62
     1
 10
772.0
 20
368.9016074639707
 30
0.0
 11
772.0
 21
382.0063511502474
 31
0.0
  0
ARC
  5
547
  8
0
  6
CONTINUOUS
 62
     7
 10
791.4094002742004
 20
408.8901267283528
 30
0.0
 40
0.4124324544880764
 50
62.38567270234438
 51
87.4889718118041
  0
ARC
  5
548
  8
0
  6
CONTINUOUS
 62
     7
 10
798.774856405776
 20
409.0785814277898
 30
0.0
 40
0.550885410120161
 50
91.99461482379498
 51
103.1654993339706
  0
ARC
  5
549
  8
0
  6
CONTINUOUS
 62
     7
 10
798.8
 20
414.6957779579972
 30
0.0
 40
0.300139932386756
 50
90.0
 51
112.4881495855774
  0
LINE
  5
54A
  8
0
  6
CENTER
 62
     1
 10
811.5
 20
291.953979307109
 30
0.0
 11
824.5000000000001
 21
291.953979307109
 31
0.0
  0
LINE
  5
54B
  8
0
  6
CENTER
 62
     1
 10
794.9999999999999
 20
417.4964319029204
 30
0.0
 11
794.9999999999999
 21
241.0119379213271
 31
0.0
  0
LINE
  5
54C
  8
0
  6
CENTER
 62
     1
 10
765.5
 20
291.953979307109
 30
0.0
 11
778.5000000000001
 21
291.953979307109
 31
0.0
  0
LINE
  5
54D
  8
0
  6
CONTINUOUS
 62
   253
 10
791.2
 20
414.696020692891
 30
0.0
 11
791.2
 21
414.996020692891
 31
0.0
  0
LINE
  5
54E
  8
0
  6
CONTINUOUS
 62
     7
 10
658.9268985625598
 20
171.600015
 30
0.0
 11
657.4291145520142
 21
171.600015
 31
0.0
  0
LINE
  5
54F
  8
0
  6
CONTINUOUS
 62
     7
 10
788.0
 20
277.7039793071092
 30
0.0
 11
801.9999999999999
 21
277.7039793071092
 31
0.0
  0
ARC
  5
550
  8
0
  6
CONTINUOUS
 62
     7
 10
790.9570889050161
 20
398.576049590176
 30
0.0
 40
10.7364226127048
 50
87.48897181177826
 51
88.44561466093454
  0
ARC
  5
551
  8
0
  6
CONTINUOUS
 62
     7
 10
790.9570889050079
 20
398.5760495898812
 30
0.0
 40
10.73642261299956
 50
88.44561466093454
 51
88.46705648105079
  0
ARC
  5
552
  8
0
  6
CONTINUOUS
 62
     7
 10
730.1076251533663
 20
413.4963541537428
 30
0.0
 40
1.49956373865634
 50
90.00297066381644
 51
179.9970293361857
  0
ARC
  5
553
  8
0
  6
CONTINUOUS
 62
     7
 10
791.668865632648
 20
409.1489842874039
 30
0.0
 40
0.0752846502884985
 50
8.903773408145412
 51
75.34985968569322
  0
ARC
  5
554
  8
0
  6
CONTINUOUS
 62
     7
 10
799.0429110949839
 20
398.576049590176
 30
0.0
 40
10.73642261270491
 50
91.55438533906549
 51
92.5110281882218
  0
LINE
  5
555
  8
0
  6
CONTINUOUS
 62
     7
 10
791.2
 20
413.9697319688146
 30
0.0
 11
791.5000000000001
 21
414.2697319688146
 31
0.0
  0
LINE
  5
556
  8
0
  6
CONTINUOUS
 62
     7
 10
735.1999999999998
 20
252.1735965668796
 30
0.0
 11
735.1999999999998
 21
251.003979307109
 31
0.0
  0
ARC
  5
557
  8
0
  6
CONTINUOUS
 62
     7
 10
798.774856405776
 20
409.0785814277898
 30
0.0
 40
0.550885410120161
 50
103.1654993339693
 51
123.354410254262
  0
LINE
  5
558
  8
0
  6
CENTER
 62
     1
 10
617.5000000000001
 20
189.3898564676929
 30
0.0
 11
617.5000000000001
 21
208.800015
 31
0.0
  0
LINE
  5
559
  8
0
  6
CONTINUOUS
 62
   253
 10
791.5000000000001
 20
414.696020692891
 30
0.0
 11
791.2
 21
414.696020692891
 31
0.0
  0
LINE
  5
55A
  8
0
  6
CONTINUOUS
 62
     7
 10
528.907958614218
 20
175.700015
 30
0.0
 11
531.0373212794982
 21
175.700015
 31
0.0
  0
ARC
  5
55B
  8
0
  6
CONTINUOUS
 62
     7
 10
798.7273797936431
 20
409.1507083037965
 30
0.0
 40
0.4645354538831414
 50
123.3544102542284
 51
147.3473831007074
  0
LINE
  5
55C
  8
0
  6
CENTER
 62
     1
 10
818.0
 20
368.9016074639707
 30
0.0
 11
818.0
 21
382.0063511502474
 31
0.0
  0
ARC
  5
55D
  8
0
  6
CONTINUOUS
 62
     7
 10
529.5409431502555
 20
180.3761668623656
 30
0.0
 40
1.000000000000001
 50
355.5000000000003
 51
357.4999999999994
  0
ARC
  5
55E
  8
0
  6
CONTINUOUS
 62
     7
 10
798.7999011468683
 20
414.6960167502508
 30
0.0
 40
0.2998814876495892
 50
112.4881495856165
 51
134.9959330030536
  0
LINE
  5
55F
  8
0
  6
CONTINUOUS
 62
     7
 10
791.5000000000001
 20
414.2697319688146
 30
0.0
 11
798.5
 21
414.2697319688146
 31
0.0
  0
ARC
  5
560
  8
0
  6
CONTINUOUS
 62
     7
 10
798.799757427173
 20
414.696020692891
 30
0.0
 40
0.2997574271730308
 50
157.4881462203744
 51
180.0
  0
ARC
  5
561
  8
0
  6
CONTINUOUS
 62
     7
 10
527.7075093472372
 20
416.2041560936494
 30
0.0
 40
1.508296350559046
 50
139.1861914809183
 51
161.5778012781012
  0
LINE
  5
562
  8
0
  6
CONTINUOUS
 62
     7
 10
658.9364981171263
 20
178.7000150003667
 30
0.0
 11
659.5366852537517
 21
178.7000150003625
 31
0.0
  0
ARC
  5
563
  8
0
  6
CONTINUOUS
 62
     7
 10
529.5409431502555
 20
180.3761668623656
 30
0.0
 40
1.000000000000001
 50
285.0000000000003
 51
355.5000000000003
  0
LINE
  5
564
  8
0
  6
CONTINUOUS
 62
     7
 10
529.774776014057
 20
197.5751376227881
 30
0.0
 11
529.8463137690021
 21
197.5763863189455
 31
0.0
  0
LINE
  5
565
  8
0
  6
CONTINUOUS
 62
     7
 10
660.1536862309978
 20
197.5763863189455
 30
0.0
 11
660.225223985943
 21
197.5751376227881
 31
0.0
  0
LINE
  5
566
  8
0
  6
CONTINUOUS
 62
     7
 10
659.8613167396865
 20
197.8385140096224
 30
0.0
 11
660.1536896676165
 21
197.5763873677518
 31
0.0
  0
ARC
  5
567
  8
0
  6
CONTINUOUS
 62
     7
 10
528.6902098608224
 20
172.3146877302479
 30
0.0
 40
0.299999999999967
 50
92.99999999999939
 51
108.0022026681573
  0
LINE
  5
568
  8
0
  6
CONTINUOUS
 62
     7
 10
791.741517053408
 20
409.1278119513332
 30
0.0
 11
791.2395347587046
 21
409.1319880336136
 31
0.0
  0
LINE
  5
569
  8
0
  6
CONTINUOUS
 62
     7
 10
661.3919385832746
 20
175.3921619155076
 30
0.0
 11
661.3657526617056
 21
174.3921619155076
 31
0.0
  0
ARC
  5
56A
  8
0
  6
CONTINUOUS
 62
     7
 10
791.2251435942239
 20
409.0785814277898
 30
0.0
 40
0.550885410119939
 50
76.83450066602938
 51
88.0053851762051
  0
ARC
  5
56B
  8
0
  6
CONTINUOUS
 62
     7
 10
529.1702335771288
 20
178.7239212610046
 30
0.0
 40
0.500000000000056
 50
105.0000000000003
 51
177.5000000000001
  0
LINE
  5
56C
  8
0
  6
CONTINUOUS
 62
     7
 10
529.5924780289582
 20
176.1271772116987
 30
0.0
 11
529.576659451766
 21
175.700015
 31
0.0
  0
LINE
  5
56D
  8
0
  6
CONTINUOUS
 62
     7
 10
660.2252270890709
 20
197.5751375957931
 30
0.0
 11
660.5196620601923
 21
197.2892716923737
 31
0.0
  0
LINE
  5
56E
  8
0
  6
CONTINUOUS
 62
     7
 10
791.9
 20
409.1120035063728
 30
0.0
 11
798.1
 21
409.1120035063728
 31
0.0
  0
LINE
  5
56F
  8
0
  6
CONTINUOUS
 62
     7
 10
791.2395347587046
 20
409.1319880336136
 30
0.0
 11
734.3719531965596
 21
409.1319880336136
 31
0.0
  0
ARC
  5
570
  8
0
  6
CONTINUOUS
 62
     7
 10
798.7643824056934
 20
409.1269962390792
 30
0.0
 40
0.5084837793541963
 50
147.3473831007078
 51
168.2188613133445
  0
LINE
  5
571
  8
0
  6
CONTINUOUS
 62
     7
 10
625.7191778430911
 20
193.300015
 30
0.0
 11
635.5000000000002
 21
193.300015
 31
0.0
  0
ARC
  5
572
  8
0
  6
CONTINUOUS
 62
     7
 10
528.9341445357871
 20
174.400015
 30
0.0
 40
0.300000000000078
 50
181.5
 51
270.0
  0
ARC
  5
573
  8
0
  6
CONTINUOUS
 62
     7
 10
791.2356175943065
 20
409.1269962390792
 30
0.0
 40
0.5084837793541963
 50
11.78113868665548
 51
32.65261689929224
  0
LINE
  5
574
  8
0
  6
CONTINUOUS
 62
     7
 10
532.570885447986
 20
171.600015
 30
0.0
 11
531.0731014374404
 21
171.600015
 31
0.0
  0
LINE
  5
575
  8
0
  6
CONTINUOUS
 62
     7
 10
529.8463103323834
 20
197.5763873677518
 30
0.0
 11
530.1386832603135
 21
197.8385140096224
 31
0.0
  0
ARC
  5
576
  8
0
  6
CONTINUOUS
 62
     7
 10
527.6986415180812
 20
416.2071098442316
 30
0.0
 40
1.498949530969407
 50
161.5778012781014
 51
180.0204766083462
  0
LINE
  5
577
  8
0
  6
CONTINUOUS
 62
     7
 10
531.0731014374403
 20
171.600015
 30
0.0
 11
531.0373212794981
 21
175.7000150000076
 31
0.0
  0
ARC
  5
578
  8
0
  6
CONTINUOUS
 62
     7
 10
791.2251435942239
 20
409.0785814277894
 30
0.0
 40
0.5508854101203831
 50
56.64558974574738
 51
76.83450066603297
  0
LINE
  5
579
  8
0
  6
CONTINUOUS
 62
     7
 10
659.5212703047708
 20
179.0530753777578
 30
0.0
 11
659.648149585568
 21
176.1470620774265
 31
0.0
  0
LINE
  5
57A
  8
0
  6
CONTINUOUS
 62
     7
 10
529.7997621953582
 20
179.4102410360765
 30
0.0
 11
529.8045309115068
 21
179.4115188097174
 31
0.0
  0
ARC
  5
57B
  8
0
  6
CONTINUOUS
 62
     7
 10
791.3159404459041
 20
409.1437489632816
 30
0.0
 40
0.4264324889502458
 50
2.250037357128122
 51
11.78113868668964
  0
LINE
  5
57C
  8
0
  6
CONTINUOUS
 62
     7
 10
531.0635018828735
 20
178.7000150003667
 30
0.0
 11
530.4633147462483
 21
178.7000150003625
 31
0.0
  0
LINE
  5
57D
  8
0
  6
CONTINUOUS
 62
     7
 10
530.2411403383868
 20
189.7885111597931
 30
0.0
 11
529.5530509969327
 21
189.9728841431561
 31
0.0
  0
LINE
  5
57E
  8
0
  6
CONTINUOUS
 62
     7
 10
658.962678720502
 20
175.700015
 30
0.0
 11
661.0920413857822
 21
175.700015
 31
0.0
  0
LINE
  5
57F
  8
0
  6
CONTINUOUS
 62
     7
 10
531.0512842679634
 20
174.100015
 30
0.0
 11
528.9341445357873
 21
174.100015
 31
0.0
  0
LINE
  5
580
  8
0
  6
CONTINUOUS
 62
     7
 10
855.6280468034403
 20
409.1319880336136
 30
0.0
 11
798.7604652412954
 21
409.1319880336136
 31
0.0
  0
LINE
  5
581
  8
0
  6
CONTINUOUS
 62
   253
 10
798.8
 20
414.996020692891
 30
0.0
 11
798.8
 21
414.696020692891
 31
0.0
  0
LINE
  5
582
  8
0
  6
CONTINUOUS
 62
     7
 10
529.4803379398077
 20
197.2892716923737
 30
0.0
 11
529.774772910929
 21
197.5751375957931
 31
0.0
  0
ARC
  5
583
  8
0
  6
CONTINUOUS
 62
     7
 10
791.2726202063566
 20
409.1507083037964
 30
0.0
 40
0.4645354538835855
 50
32.65261689928974
 51
56.64558974574095
  0
LINE
  5
584
  8
0
  6
CONTINUOUS
 62
     7
 10
530.351850414432
 20
176.1470620774265
 30
0.0
 11
530.4787296952293
 21
179.0530753777578
 31
0.0
  0
LINE
  5
585
  8
0
  6
CONTINUOUS
 62
   253
 10
661.1659635837289
 20
410.6593874714911
 30
0.0
 11
661.2038327014566
 21
412.554042830285
 31
0.0
  0
LINE
  5
586
  8
0
  6
CONTINUOUS
 62
     7
 10
625.6407226776997
 20
193.2766471635329
 30
0.0
 11
625.7191778430911
 21
193.300015
 31
0.0
  0
ARC
  5
587
  8
0
  6
CONTINUOUS
 62
     7
 10
791.2000038827143
 20
414.6959217663498
 30
0.0
 40
0.3000158056364333
 50
22.51185377958376
 51
45.00406699694731
  0
LINE
  5
588
  8
0
  6
CONTINUOUS
 62
     7
 10
791.741517053408
 20
409.1278119513332
 30
0.0
 11
791.9
 21
409.1120035063728
 31
0.0
  0
ARC
  5
589
  8
0
  6
CONTINUOUS
 62
     7
 10
798.7999961172848
 20
414.6959217663505
 30
0.0
 40
0.3000158056355451
 50
134.9959330030527
 51
157.4881462204965
  0
LINE
  5
58A
  8
0
  6
CONTINUOUS
 62
     7
 10
659.8614920088064
 20
197.8371827084843
 30
0.0
 11
659.8175837531417
 21
198.1706990220319
 31
0.0
  0
ARC
  5
58B
  8
0
  6
CONTINUOUS
 62
     7
 10
528.780559710054
 20
174.3840394943841
 30
0.0
 40
0.300000000000078
 50
177.4999999999966
 51
267.0000000000007
  0
LINE
  5
58C
  8
0
  6
CONTINUOUS
 62
     7
 10
660.2150129767759
 20
172.6724742739386
 30
0.0
 11
659.4738320218786
 21
172.7113179218317
 31
0.0
  0
CIRCLE
  5
58D
  8
0
  6
CONTINUOUS
 62
     7
 10
419.5999492321774
 20
251.3035164239553
 30
0.0
 40
2.999935796159536
  0
ARC
  5
58E
  8
0
  6
CONTINUOUS
 62
     7
 10
747.0007912246974
 20
370.2041212770482
 30
0.0
 40
1.000791176062332
 50
157.5237028004618
 51
179.988509537379
  0
LINE
  5
58F
  8
0
  6
CONTINUOUS
 62
     7
 10
815.5000000000001
 20
294.453979307109
 30
0.0
 11
820.5000000000001
 21
294.453979307109
 31
0.0
  0
ARC
  5
590
  8
0
  6
CONTINUOUS
 62
     7
 10
842.9992087753029
 20
297.2038373371698
 30
0.0
 40
1.000791176061777
 50
337.523702800457
 51
359.988509537379
  0
ARC
  5
591
  8
0
  6
CONTINUOUS
 62
     7
 10
412.600015000002
 20
251.3914620217782
 30
0.0
 40
5.000000000000004
 50
180.0
 51
262.5
  0
ARC
  5
592
  8
0
  6
CONTINUOUS
 62
     7
 10
659.5000000000001
 20
173.2106326892089
 30
0.0
 40
0.500000000000056
 50
179.9999999999999
 51
267.0000000000007
  0
LINE
  5
593
  8
0
  6
CONTINUOUS
 62
     7
 10
659.8175837531417
 20
198.1706990220319
 30
0.0
 11
658.8343405195143
 21
205.639172857666
 31
0.0
  0
ARC
  5
594
  8
0
  6
CONTINUOUS
 62
     7
 10
791.3617899604852
 20
409.8255244406796
 30
0.0
 40
0.5447062950345583
 50
31.01638443278694
 51
51.88786264538726
  0
LINE
  5
595
  8
0
  6
CONTINUOUS
 62
     7
 10
820.5000000000001
 20
289.453979307109
 30
0.0
 11
815.5000000000001
 21
289.453979307109
 31
0.0
  0
LINE
  5
596
  8
0
  6
CONTINUOUS
 62
     7
 10
798.1
 20
409.834243945283
 30
0.0
 11
798.1
 21
409.1120035063728
 31
0.0
  0
LINE
  5
597
  8
0
  6
CONTINUOUS
 62
   253
 10
791.9
 20
409.834243945283
 30
0.0
 11
791.7424039155954
 21
409.160505037126
 31
0.0
  0
ARC
  5
598
  8
0
  6
CONTINUOUS
 62
     7
 10
843.000800521436
 20
370.2047798285452
 30
0.0
 40
0.9990685774939889
 50
22.47629719951474
 51
45.0
  0
ARC
  5
599
  8
0
  6
CONTINUOUS
 62
     7
 10
815.5000000000001
 20
291.953979307109
 30
0.0
 40
2.500000000000058
 50
89.99999999999943
 51
270.0
  0
LINE
  5
59A
  8
0
  6
CONTINUOUS
 62
     7
 10
774.5
 20
289.453979307109
 30
0.0
 11
769.5
 21
289.453979307109
 31
0.0
  0
ARC
  5
59B
  8
0
  6
CONTINUOUS
 62
     7
 10
661.3016702861319
 20
411.1432834894586
 30
0.0
 40
1.381607616105729
 50
39.80918571543583
 51
63.98344418527915
  0
LINE
  5
59C
  8
0
  6
CONTINUOUS
 62
     7
 10
660.2150129767759
 20
174.0309879856503
 30
0.0
 11
661.2351410768189
 21
174.0844506339577
 31
0.0
  0
ARC
  5
59D
  8
0
  6
CONTINUOUS
 62
     7
 10
746.9998580300608
 20
297.2047705318068
 30
0.0
 40
1.000791176062776
 50
247.5237028004727
 51
269.9885095373758
  0
LINE
  5
59E
  8
0
  6
CONTINUOUS
 62
     7
 10
659.0
 20
173.2106326892089
 30
0.0
 11
659.0
 21
173.4928295703799
 31
0.0
  0
LINE
  5
59F
  8
0
  6
CONTINUOUS
 62
     7
 10
746.9996573249755
 20
371.203979307109
 30
0.0
 11
843.0003426750245
 21
371.203979307109
 31
0.0
  0
LINE
  5
5A0
  8
0
  6
CONTINUOUS
 62
     7
 10
769.5
 20
377.953979307109
 30
0.0
 11
774.5000000000001
 21
377.953979307109
 31
0.0
  0
ARC
  5
5A1
  8
0
  6
CONTINUOUS
 62
     7
 10
588.96969384567
 20
206.200015
 30
0.0
 40
1.499999999999946
 50
191.5369590328155
 51
269.9999999999999
  0
ARC
  5
5A2
  8
0
  6
CONTINUOUS
 62
     7
 10
820.5000000000001
 20
375.4539793071091
 30
0.0
 40
2.499999999999947
 50
270.0000000000007
 51
90.00000000000011
  0
ARC
  5
5A3
  8
0
  6
CONTINUOUS
 62
     7
 10
661.1733431088003
 20
410.8803666284882
 30
0.0
 40
1.674170669522357
 50
63.98344418528342
 51
83.88548369772231
  0
ARC
  5
5A4
  8
0
  6
CONTINUOUS
 62
     7
 10
791.416039796192
 20
409.8946816448174
 30
0.0
 40
0.4568099722537244
 50
76.83450066603808
 51
90.32905673791906
  0
LINE
  5
5A5
  8
0
  6
CONTINUOUS
 62
     7
 10
529.784987023224
 20
174.0309879856503
 30
0.0
 11
530.5261679781213
 21
173.9921443377572
 31
0.0
  0
LINE
  5
5A6
  8
0
  6
CONTINUOUS
 62
     7
 10
407.600015000002
 20
251.3914620217782
 30
0.0
 11
407.600015000002
 21
416.206574253356
 31
0.0
  0
LINE
  5
5A7
  8
0
  6
CONTINUOUS
 62
     7
 10
659.4738320218786
 20
173.9921443377572
 30
0.0
 11
660.2150129767759
 21
174.0309879856503
 31
0.0
  0
ARC
  5
5A8
  8
0
  6
CONTINUOUS
 62
     7
 10
791.3103305350455
 20
409.8384729032114
 30
0.0
 40
0.5901284621425695
 50
359.5890964321519
 51
7.023411586328109
  0
LINE
  5
5A9
  8
0
  6
CONTINUOUS
 62
     7
 10
746.0
 20
297.2036366320846
 30
0.0
 11
746.0
 21
370.2043219821336
 31
0.0
  0
ARC
  5
5AA
  8
0
  6
CONTINUOUS
 62
     7
 10
728.9079586142179
 20
285.0119379213272
 30
0.0
 40
0.299999999999967
 50
180.0
 51
270.0
  0
LINE
  5
5AB
  8
0
  6
CONTINUOUS
 62
     7
 10
407.600015000002
 20
416.206574253356
 30
0.0
 11
407.600015000002
 21
417.7065797068144
 31
0.0
  0
LINE
  5
5AC
  8
0
  6
CONTINUOUS
 62
     7
 10
441.96544408105
 20
242.4822851376319
 30
0.0
 11
411.9473840389018
 21
246.4342377149091
 31
0.0
  0
ARC
  5
5AD
  8
0
  6
CONTINUOUS
 62
     7
 10
661.2194402899461
 20
174.3840394943841
 30
0.0
 40
0.299999999999967
 50
272.999999999999
 51
2.499999999999943
  0
ARC
  5
5AE
  8
0
  6
CONTINUOUS
 62
     7
 10
843.0008005214357
 20
297.2031787856732
 30
0.0
 40
0.999068577494322
 50
292.4762971995145
 51
315.0000000000011
  0
ARC
  5
5AF
  8
0
  6
CONTINUOUS
 62
     7
 10
746.9991994785647
 20
297.2031787856738
 30
0.0
 40
0.9990685774949881
 50
202.4762971995361
 51
225.0000000000011
  0
ARC
  5
5B0
  8
0
  6
CONTINUOUS
 62
     7
 10
843.0001419699392
 20
297.2047705318058
 30
0.0
 40
1.000791176061666
 50
270.0114904626179
 51
292.4762971995416
  0
LINE
  5
5B1
  8
0
  6
CONTINUOUS
 62
     7
 10
530.1824162468583
 20
198.1706990220319
 30
0.0
 11
530.1386832603135
 21
197.8385140096224
 31
0.0
  0
ARC
  5
5B2
  8
0
  6
CONTINUOUS
 62
     7
 10
820.5000000000001
 20
291.953979307109
 30
0.0
 40
2.499999999999947
 50
270.0000000000007
 51
90.0
  0
ARC
  5
5B3
  8
0
  6
CONTINUOUS
 62
     7
 10
432.1075065328234
 20
409.775922085733
 30
0.0
 40
3.000000000000003
 50
17.1268658521451
 51
67.82574192609786
  0
ARC
  5
5B4
  8
0
  6
CONTINUOUS
 62
     7
 10
861.092041385782
 20
285.0119379213272
 30
0.0
 40
0.299999999999967
 50
270.0
 51
0.0
  0
ARC
  5
5B5
  8
0
  6
CONTINUOUS
 62
     7
 10
746.9998580300608
 20
370.2031880824118
 30
0.0
 40
1.000791176062443
 50
90.01149046262418
 51
112.4762971995382
  0
ARC
  5
5B6
  8
0
  6
CONTINUOUS
 62
     7
 10
529.27351008629
 20
377.5534102259584
 30
0.0
 40
33.10889700228636
 50
90.76054264775995
 51
90.77082656188435
  0
ARC
  5
5B7
  8
0
  6
CONTINUOUS
 62
     7
 10
530.5
 20
173.4928295703799
 30
0.0
 40
0.500000000000056
 50
0.0000000000002842
 51
87.00000000000063
  0
LINE
  5
5B8
  8
0
  6
CONTINUOUS
 62
   253
 10
663.8
 20
416.206574253356
 30
0.0
 11
663.5071671738102
 21
415.619790027153
 31
0.0
  0
ARC
  5
5B9
  8
0
  6
CONTINUOUS
 62
     7
 10
746.9991994785647
 20
370.2047798285444
 30
0.0
 40
0.9990685774952102
 50
112.4762971995382
 51
135.0
  0
ARC
  5
5BA
  8
0
  6
CONTINUOUS
 62
     7
 10
-2814.658626056156
 20
364.0977480412757
 30
0.0
 40
3342.321572618042
 50
0.4573364181243536
 51
0.790638226245105
  0
ARC
  5
5BB
  8
0
  6
CONTINUOUS
 62
     7
 10
661.1733431088003
 20
410.8803666284883
 30
0.0
 40
1.674170669522024
 50
83.88548369772292
 51
88.95635023812115
  0
ARC
  5
5BC
  8
0
  6
CONTINUOUS
 62
     7
 10
774.5
 20
291.953979307109
 30
0.0
 40
2.500000000000058
 50
270.0000000000004
 51
90.0
  0
ARC
  5
5BD
  8
0
  6
CONTINUOUS
 62
     7
 10
746.9991994785647
 20
297.2031787856738
 30
0.0
 40
0.9990685774953212
 50
225.0
 51
247.52370280046
  0
ARC
  5
5BE
  8
0
  6
CONTINUOUS
 62
     7
 10
661.4484366118447
 20
411.1387791593294
 30
0.0
 40
1.253996573521987
 50
1.197095502654975
 51
19.15602271190323
  0
LINE
  5
5BF
  8
0
  6
CONTINUOUS
 62
     7
 10
527.7004270371341
 20
242.4822851376319
 30
0.0
 11
526.3898102314095
 21
246.4342377149091
 31
0.0
  0
LINE
  5
5C0
  8
0
  6
CONTINUOUS
 62
     7
 10
662.2995729628658
 20
242.4822851376319
 30
0.0
 11
663.6101897685903
 21
246.4342377149091
 31
0.0
  0
ARC
  5
5C1
  8
0
  6
CONTINUOUS
 62
     7
 10
791.416039796192
 20
409.894681644817
 30
0.0
 40
0.4568099722541685
 50
51.88786264542421
 51
76.83450066603564
  0
LINE
  5
5C2
  8
0
  6
CONTINUOUS
 62
     7
 10
407.600015000002
 20
258.6302527261059
 30
0.0
 11
406.600015000002
 21
258.8065797068143
 31
0.0
  0
ARC
  5
5C3
  8
0
  6
CONTINUOUS
 62
     7
 10
843.0008005214357
 20
370.2047798285448
 30
0.0
 40
0.999068577494433
 50
44.99999999999775
 51
67.52370280048198
  0
LINE
  5
5C4
  8
0
  6
CONTINUOUS
 62
     7
 10
856.7
 20
354.5039793071092
 30
0.0
 11
856.7
 21
255.4859433335528
 31
0.0
  0
ARC
  5
5C5
  8
0
  6
CONTINUOUS
 62
     7
 10
734.3711628699941
 20
408.1301433758316
 30
0.0
 40
1.001844969515053
 50
89.95480100943094
 51
179.7400239100247
  0
ARC
  5
5C6
  8
0
  6
CONTINUOUS
 62
     7
 10
528.3273579929628
 20
409.4073077253224
 30
0.0
 40
1.240950885793235
 50
91.701348714465
 51
116.7260865467564
  0
ARC
  5
5C7
  8
0
  6
CONTINUOUS
 62
     7
 10
391.8682186979626
 20
454.3861002482602
 30
0.0
 40
274.1977028774468
 50
351.3457435735489
 51
351.5063682588011
  0
ARC
  5
5C8
  8
0
  6
CONTINUOUS
 62
     7
 10
4056.53714482243
 20
364.1727470735976
 30
0.0
 40
3395.698662761245
 50
179.2156021380695
 51
179.5462753862374
  0
ARC
  5
5C9
  8
0
  6
CONTINUOUS
 62
     7
 10
774.5
 20
375.4539793071091
 30
0.0
 40
2.500000000000058
 50
270.0000000000004
 51
90.0
  0
LINE
  5
5CA
  8
0
  6
CONTINUOUS
 62
     7
 10
529.198999369507
 20
242.2934202931856
 30
0.0
 11
527.7004270371341
 21
242.4822851376319
 31
0.0
  0
ARC
  5
5CB
  8
0
  6
CONTINUOUS
 62
     7
 10
661.1875134702442
 20
411.0481406058272
 30
0.0
 40
1.530214301417421
 50
19.15602271190096
 51
39.80918571543521
  0
ARC
  5
5CC
  8
0
  6
CONTINUOUS
 62
     7
 10
-3991.1730287862
 20
354.7065797068144
 30
0.0
 40
4518.873455823334
 50
0.0
 51
0.4573364181243278
  0
ARC
  5
5CD
  8
0
  6
CONTINUOUS
 62
     7
 10
527.5589728299437
 20
410.2004997247768
 30
0.0
 40
0.2248210145042728
 50
103.6111837328914
 51
175.6109599547539
  0
ARC
  5
5CE
  8
0
  6
CONTINUOUS
 62
     7
 10
24400.23278194083
 20
354.5039793071074
 30
0.0
 40
23666.93278194084
 50
179.9143035255938
 51
180.0
  0
ARC
  5
5CF
  8
0
  6
CONTINUOUS
 62
     7
 10
855.6629515047936
 20
255.4856503181686
 30
0.0
 40
1.037055717793001
 50
340.8606919591593
 51
0.0161887746587581
  0
ARC
  5
5D0
  8
0
  6
CONTINUOUS
 62
     7
 10
527.0847726378802
 20
416.4262503263512
 30
0.0
 40
1.124546316441877
 50
8.487091340262111
 51
33.59199790101798
  0
ARC
  5
5D1
  8
0
  6
CONTINUOUS
 62
     7
 10
689.6451400944896
 20
409.063103224423
 30
0.0
 40
27.00865325670931
 50
171.3457435735489
 51
173.5892945672667
  0
ARC
  5
5D2
  8
0
  6
CONTINUOUS
 62
     7
 10
658.0111620687863
 20
415.9282002572924
 30
0.0
 40
5.353731838797171
 50
346.0912710706776
 51
351.2131979304876
  0
LINE
  5
5D3
  8
0
  6
CONTINUOUS
 62
   253
 10
660.8010006304929
 20
354.7065797068144
 30
0.0
 11
662.2995729628658
 21
354.7065797068144
 31
0.0
  0
ARC
  5
5D4
  8
0
  6
CONTINUOUS
 62
     7
 10
843.0001419699391
 20
370.2031880824122
 30
0.0
 40
1.000791176061888
 50
67.52370280045675
 51
89.98850953737579
  0
LINE
  5
5D5
  8
0
  6
CONTINUOUS
 62
     7
 10
663.6101897685904
 20
246.4342377149091
 30
0.0
 11
663.8000000000001
 21
251.3914620217782
 31
0.0
  0
LINE
  5
5D6
  8
0
  6
CONTINUOUS
 62
     7
 10
526.2
 20
251.3914620217782
 30
0.0
 11
526.3898102314096
 21
246.4342377149091
 31
0.0
  0
ARC
  5
5D7
  8
0
  6
CONTINUOUS
 62
     7
 10
671.1057444509506
 20
412.6855015374372
 30
0.0
 40
8.136382421320532
 50
166.0912710706777
 51
171.5063682588049
  0
ARC
  5
5D8
  8
0
  6
CONTINUOUS
 62
     7
 10
-13553.57617187399
 20
368.349037957883
 30
0.0
 40
14410.26581794438
 50
0.0856964744062878
 51
0.1581895480236985
  0
LINE
  5
5D9
  8
0
  6
CONTINUOUS
 62
     7
 10
858.7043253562347
 20
253.7864386987189
 30
0.0
 11
858.7020555756793
 21
253.7023269096662
 31
0.0
  0
ARC
  5
5DA
  8
0
  6
CONTINUOUS
 62
     7
 10
-22999.27681995424
 20
354.5039793071114
 30
0.0
 40
23731.07247555954
 50
0.0
 51
0.0854648553557809
  0
ARC
  5
5DB
  8
0
  6
CONTINUOUS
 62
     7
 10
842.9992087753028
 20
370.2041212770482
 30
0.0
 40
1.000791176061888
 50
0.0114904626209977
 51
22.47629719953954
  0
ARC
  5
5DC
  8
0
  6
CONTINUOUS
 62
     7
 10
857.4627023790168
 20
409.8888298925453
 30
0.0
 40
1.500131754609724
 50
67.50263351468402
 51
89.99872215323444
  0
LINE
  5
5DD
  8
0
  6
CONTINUOUS
 62
   253
 10
798.5865853687316
 20
410.351773688899
 30
0.0
 11
798.7556934334505
 21
409.628819921902
 31
0.0
  0
ARC
  5
5DE
  8
0
  6
CONTINUOUS
 62
     7
 10
520.0356655602145
 20
414.114879099509
 30
0.0
 40
8.493241190673961
 50
8.296872388406598
 51
13.60327701288969
  0
ARC
  5
5DF
  8
0
  6
CONTINUOUS
 62
     7
 10
500.6067030808294
 20
410.4066846994268
 30
0.0
 40
28.2551710946044
 50
6.26345018589916
 51
8.45793718157671
  0
ARC
  5
5E0
  8
0
  6
CONTINUOUS
 62
     7
 10
528.7811490190882
 20
417.5529786271682
 30
0.0
 40
0.9119235435322004
 50
209.062917268917
 51
213.5919979010149
  0
LINE
  5
5E1
  8
0
  6
CONTINUOUS
 62
     7
 10
791.9
 20
409.1120035063728
 30
0.0
 11
791.9
 21
409.834243945283
 31
0.0
  0
ARC
  5
5E2
  8
0
  6
CONTINUOUS
 62
     7
 10
-569.955593329509
 20
292.9067093480336
 30
0.0
 40
1105.246292090017
 50
6.214672201740996
 51
6.263450185897968
  0
LINE
  5
5E3
  8
0
  6
CONTINUOUS
 62
     7
 10
662.2995729628658
 20
242.4822851376319
 30
0.0
 11
660.8010006304929
 21
242.2934202931856
 31
0.0
  0
ARC
  5
5E4
  8
0
  6
CONTINUOUS
 62
     7
 10
746.9991994785647
 20
370.2047798285444
 30
0.0
 40
0.9990685774952102
 50
135.0
 51
157.5237028004618
  0
ARC
  5
5E5
  8
0
  6
CONTINUOUS
 62
     7
 10
533.6129227790685
 20
417.4003853185028
 30
0.0
 40
5.475884218669624
 50
188.4870913402717
 51
193.6032770128902
  0
LINE
  5
5E6
  8
0
  6
CONTINUOUS
 62
   253
 10
529.198999369507
 20
354.7065797068144
 30
0.0
 11
529.198999369507
 21
242.2934202931856
 31
0.0
  0
LINE
  5
5E7
  8
0
  6
CONTINUOUS
 62
   253
 10
527.9914051585625
 20
417.1140820742905
 30
0.0
 11
662.0085948414371
 21
417.1140820742905
 31
0.0
  0
ARC
  5
5E8
  8
0
  6
CONTINUOUS
 62
     7
 10
662.7019895993479
 20
416.08085595543
 30
0.0
 40
0.9362474897515183
 50
325.8776585670581
 51
330.2034089485514
  0
ARC
  5
5E9
  8
0
  6
CONTINUOUS
 62
     7
 10
855.6998988779982
 20
255.4728277489251
 30
0.0
 40
0.9979465543048516
 50
318.0155162607242
 51
340.8606919591708
  0
LINE
  5
5EA
  8
0
  6
CONTINUOUS
 62
     7
 10
663.8
 20
416.206574253356
 30
0.0
 11
663.8
 21
251.3914620217782
 31
0.0
  0
ARC
  5
5EB
  8
0
  6
CONTINUOUS
 62
     7
 10
855.6848714735086
 20
255.486351117619
 30
0.0
 40
1.018162992827421
 50
295.8674380541063
 51
318.0155162607226
  0
LINE
  5
5EC
  8
0
  6
CONTINUOUS
 62
     7
 10
526.2
 20
251.3914620217782
 30
0.0
 11
526.2
 21
416.206574253356
 31
0.0
  0
ARC
  5
5ED
  8
0
  6
CONTINUOUS
 62
     7
 10
529.2735100862873
 20
377.5534102261446
 30
0.0
 40
33.10889700210029
 50
90.77082656188435
 51
91.70134871447776
  0
LINE
  5
5EE
  8
0
  6
CONTINUOUS
 62
   253
 10
858.2043443947027
 20
354.5039793071092
 30
0.0
 11
858.7043253562348
 21
354.5039793071092
 31
0.0
  0
ARC
  5
5EF
  8
0
  6
CONTINUOUS
 62
     7
 10
855.7017396915307
 20
255.4515620903545
 30
0.0
 40
0.9795001786869761
 50
272.8334009218913
 51
295.8674380541287
  0
ARC
  5
5F0
  8
0
  6
CONTINUOUS
 62
     7
 10
1699.682863663988
 20
295.578121079704
 30
0.0
 40
1043.40180760489
 50
173.5892945672742
 51
173.6397889944772
  0
ARC
  5
5F1
  8
0
  6
CONTINUOUS
 62
     7
 10
15307.53015388012
 20
368.3490431381134
 30
0.0
 40
14449.3154835364
 50
179.8375829644347
 51
179.9145351446444
  0
ARC
  5
5F2
  8
0
  6
CONTINUOUS
 62
     7
 10
805.2289295959091
 20
455.7041777928388
 30
0.0
 40
279.7165220324623
 50
188.2968723884092
 51
188.4579371815768
  0
ARC
  5
5F3
  8
0
  6
CONTINUOUS
 62
     7
 10
769.5
 20
375.4539793071091
 30
0.0
 40
2.499999999999947
 50
89.99999999999966
 51
270.0
  0
LINE
  5
5F4
  8
0
  6
CONTINUOUS
 62
     7
 10
526.5929484861765
 20
251.3065797068144
 30
0.0
 11
526.7235194864687
 21
248.3065952462818
 31
0.0
  0
LINE
  5
5F5
  8
0
  6
CONTINUOUS
 62
     7
 10
774.5
 20
372.9539793071091
 30
0.0
 11
769.5
 21
372.9539793071091
 31
0.0
  0
LINE
  5
5F6
  8
0
  6
CONTINUOUS
 62
   253
 10
526.4928328261898
 20
415.619790027153
 30
0.0
 11
526.1999999999999
 21
416.206574253356
 31
0.0
  0
LINE
  5
5F7
  8
0
  6
CONTINUOUS
 62
   253
 10
529.198999369507
 20
354.7065797068144
 30
0.0
 11
660.8010006304929
 21
354.7065797068144
 31
0.0
  0
ARC
  5
5F8
  8
0
  6
CONTINUOUS
 62
     7
 10
664.3800933084301
 20
414.943739781082
 30
0.0
 40
1.090835451915906
 50
145.8776585670565
 51
171.2131979304778
  0
ARC
  5
5F9
  8
0
  6
CONTINUOUS
 62
     7
 10
769.5
 20
291.953979307109
 30
0.0
 40
2.499999999999947
 50
89.99999999999966
 51
270.0
  0
ARC
  5
5FA
  8
0
  6
CONTINUOUS
 62
     7
 10
815.5000000000001
 20
375.4539793071091
 30
0.0
 40
2.500000000000058
 50
89.99999999999943
 51
270.0
  0
LINE
  5
5FB
  8
0
  6
CONTINUOUS
 62
   253
 10
856.427645569607
 20
260.9888838553134
 30
0.0
 11
856.7
 21
255.4859433335528
 31
0.0
  0
LINE
  5
5FC
  8
0
  6
CONTINUOUS
 62
     7
 10
815.5000000000001
 20
377.953979307109
 30
0.0
 11
820.5000000000001
 21
377.953979307109
 31
0.0
  0
ARC
  5
5FD
  8
0
  6
CONTINUOUS
 62
     7
 10
527.2171551648039
 20
411.6121988848134
 30
0.0
 40
1.227671269347863
 50
283.6111837328822
 51
296.7260865467571
  0
LINE
  5
5FE
  8
0
  6
CONTINUOUS
 62
   253
 10
791.2443065665495
 20
409.628819921902
 30
0.0
 11
791.4134146312683
 21
410.351773688899
 31
0.0
  0
ARC
  5
5FF
  8
0
  6
CONTINUOUS
 62
     7
 10
5251.88799056274
 20
354.7065797068136
 30
0.0
 40
4591.086989932248
 50
179.5462753862373
 51
180.0
  0
ARC
  5
600
  8
0
  6
CONTINUOUS
 62
     7
 10
24461.67242417978
 20
354.5039793071072
 30
0.0
 40
23602.96809882355
 50
179.9143035255941
 51
180.0
  0
ARC
  5
601
  8
0
  6
CONTINUOUS
 62
     7
 10
857.0543750587947
 20
253.7478678289363
 30
0.0
 40
1.648309758828681
 50
314.2400289994993
 51
358.4167814698471
  0
ARC
  5
602
  8
0
  6
CONTINUOUS
 62
     7
 10
731.7252475708198
 20
409.0805884973702
 30
0.0
 40
0.5482375313097254
 50
91.33660859442439
 51
111.6336094596213
  0
ARC
  5
603
  8
0
  6
CONTINUOUS
 62
     7
 10
734.5726754663104
 20
261.0037818440613
 30
0.0
 40
1.002657780811544
 50
200.2006362103334
 51
222.3487144169354
  0
LINE
  5
604
  8
0
  6
CONTINUOUS
 62
     7
 10
855.7014773263028
 20
254.4720554453235
 30
0.0
 11
803.4999999999999
 21
254.4720554453235
 31
0.0
  0
ARC
  5
605
  8
0
  6
CONTINUOUS
 62
     7
 10
15230.03380489197
 20
368.3116188803894
 30
0.0
 40
14371.31915358973
 50
179.8371428165359
 51
179.9143035255936
  0
LINE
  5
606
  8
0
  6
CONTINUOUS
 62
     7
 10
732.5372641640944
 20
411.388961648056
 30
0.0
 11
857.4627358359057
 21
411.388961648056
 31
0.0
  0
ARC
  5
607
  8
0
  6
CONTINUOUS
 62
     7
 10
731.6530502738505
 20
409.1588640038872
 30
0.0
 40
0.4296482099165333
 50
156.5107884685649
 51
179.7811609671157
  0
ARC
  5
608
  8
0
  6
CONTINUOUS
 62
     7
 10
855.4630566020587
 20
260.9906345522568
 30
0.0
 40
0.9645837477740837
 50
339.7993637896581
 51
359.8960101770879
  0
ARC
  5
609
  8
0
  6
CONTINUOUS
 62
     7
 10
858.2881227252259
 20
409.6830584815636
 30
0.0
 40
0.5079198284534403
 50
23.48921153150616
 51
44.44198323151318
  0
LINE
  5
60A
  8
0
  6
CONTINUOUS
 62
   253
 10
858.2766170781271
 20
409.628819921902
 30
0.0
 11
858.289575729052
 21
410.1842116183178
 31
0.0
  0
ARC
  5
60B
  8
0
  6
CONTINUOUS
 62
     7
 10
734.5369433979412
 20
260.9906345522568
 30
0.0
 40
0.9645837477740837
 50
180.1039898229106
 51
200.2006362103442
  0
ARC
  5
60C
  8
0
  6
CONTINUOUS
 62
     7
 10
858.3180058614448
 20
409.7123651365715
 30
0.0
 40
0.4660643406648735
 50
44.44198323150637
 51
68.3663905404303
  0
ARC
  5
60D
  8
0
  6
CONTINUOUS
 62
     7
 10
855.4420381339709
 20
260.9903706124666
 30
0.0
 40
0.9827492106435631
 50
294.8061098846175
 51
317.6512855830634
  0
LINE
  5
60E
  8
0
  6
CONTINUOUS
 62
   253
 10
858.9626787205019
 20
409.8890187634598
 30
0.0
 11
858.7895566905839
 21
409.715896733542
 31
0.0
  0
ARC
  5
60F
  8
0
  6
CONTINUOUS
 62
     7
 10
855.6288248877797
 20
408.1301310682252
 30
0.0
 40
1.001857267534989
 50
0.2606767725872601
 51
90.04449830795926
  0
ARC
  5
610
  8
0
  6
CONTINUOUS
 62
     7
 10
734.3151285264917
 20
255.4863511176192
 30
0.0
 40
1.018162992827754
 50
221.9844837392772
 51
244.1325619458871
  0
ARC
  5
611
  8
0
  6
CONTINUOUS
 62
     7
 10
858.287711080105
 20
409.6359801937848
 30
0.0
 40
0.5482375313110577
 50
88.66339140561361
 51
89.80512590452769
  0
LINE
  5
612
  8
0
  6
CONTINUOUS
 62
   253
 10
857.313502758932
 20
411.2397285710824
 30
0.0
 11
857.4627358359056
 21
411.388961648056
 31
0.0
  0
ARC
  5
613
  8
0
  6
CONTINUOUS
 62
     7
 10
15143.5761718557
 20
368.3490379579554
 30
0.0
 40
14410.2658179261
 50
179.8418104519764
 51
179.9143035255939
  0
LINE
  5
614
  8
0
  6
CONTINUOUS
 62
   253
 10
731.0373212794981
 20
259.0064866895177
 30
0.0
 11
731.2956746437654
 21
253.7864386987189
 31
0.0
  0
ARC
  5
615
  8
0
  6
CONTINUOUS
 62
     7
 10
734.5741201976498
 20
261.0253306547534
 30
0.0
 40
1.021262795746325
 50
245.1938901153805
 51
267.1665990781081
  0
ARC
  5
616
  8
0
  6
CONTINUOUS
 62
     7
 10
731.6819941385555
 20
409.7123651365713
 30
0.0
 40
0.4660643406650955
 50
111.6336094595863
 51
135.5580167684932
  0
ARC
  5
617
  8
0
  6
CONTINUOUS
 62
     7
 10
732.5372976209829
 20
409.8888298925452
 30
0.0
 40
1.500131754610057
 50
90.00127784676982
 51
112.4973664853063
  0
LINE
  5
618
  8
0
  6
CONTINUOUS
 62
   253
 10
858.2766170781271
 20
409.308625703061
 30
0.0
 11
858.2766170781271
 21
409.628819921902
 31
0.0
  0
ARC
  5
619
  8
0
  6
CONTINUOUS
 62
     7
 10
855.4258798023503
 20
261.0253306547534
 30
0.0
 40
1.021262795746325
 50
272.8334009218919
 51
294.8061098846195
  0
ARC
  5
61A
  8
0
  6
CONTINUOUS
 62
     7
 10
857.4628122489426
 20
409.8890951764965
 30
0.0
 40
1.499844618796375
 50
45.0
 51
67.50263351469152
  0
LINE
  5
61B
  8
0
  6
CONTINUOUS
 62
     7
 10
858.7043253562347
 20
354.5039793071092
 30
0.0
 11
858.7043253562347
 21
253.786438698719
 31
0.0
  0
LINE
  5
61C
  8
0
  6
CONTINUOUS
 62
     7
 10
786.5000000000001
 20
254.4720554453235
 30
0.0
 11
786.5000000000001
 21
252.1735965668796
 31
0.0
  0
LINE
  5
61D
  8
0
  6
CONTINUOUS
 62
     7
 10
731.1999999999998
 20
245.038886778272
 30
0.0
 11
731.1999999999998
 21
251.003979307109
 31
0.0
  0
ARC
  5
61E
  8
0
  6
CONTINUOUS
 62
     7
 10
855.7017396915307
 20
255.4515620903543
 30
0.0
 40
0.9795001786867541
 50
269.9846530700211
 51
272.833400921892
  0
LINE
  5
61F
  8
0
  6
CONTINUOUS
 62
   253
 10
731.7233829218727
 20
409.628819921902
 30
0.0
 11
731.7233829218727
 21
409.308625703061
 31
0.0
  0
ARC
  5
620
  8
0
  6
CONTINUOUS
 62
     7
 10
857.1772503230538
 20
253.69728348403
 30
0.0
 40
1.52724448924213
 50
290.2006362103359
 51
312.2610761330426
  0
LINE
  5
621
  8
0
  6
CONTINUOUS
 62
     7
 10
803.5
 20
252.1735965668796
 30
0.0
 11
803.5
 21
254.4720554453235
 31
0.0
  0
LINE
  5
622
  8
0
  6
CONTINUOUS
 62
     7
 10
786.5000000000001
 20
254.4720554453235
 30
0.0
 11
786.5000000000001
 21
254.6353962652294
 31
0.0
  0
ARC
  5
623
  8
0
  6
CONTINUOUS
 62
     7
 10
857.4625469649912
 20
409.8889853065713
 30
0.0
 40
1.500131754609946
 50
0.0012778467655039
 51
22.49736648530757
  0
ARC
  5
624
  8
0
  6
CONTINUOUS
 62
     7
 10
857.30628612394
 20
409.7559352640554
 30
0.0
 40
1.483810856476975
 50
358.4537670118836
 51
89.72133620962207
  0
ARC
  5
625
  8
0
  6
CONTINUOUS
 62
     7
 10
731.6400916229254
 20
409.7142557003032
 30
0.0
 40
0.4296482099164223
 50
156.5107884685328
 51
179.7811609671231
  0
ARC
  5
626
  8
0
  6
CONTINUOUS
 62
     7
 10
734.2982603084691
 20
255.4515620903546
 30
0.0
 40
0.9795001786870872
 50
267.166599078109
 51
270.0153469299821
  0
LINE
  5
627
  8
0
  6
CONTINUOUS
 62
   253
 10
731.7956556052974
 20
354.5039793071092
 30
0.0
 11
733.3
 21
354.5039793071092
 31
0.0
  0
LINE
  5
628
  8
0
  6
CONTINUOUS
 62
   253
 10
803.5
 20
253.6505885122171
 30
0.0
 11
786.5000000000001
 21
253.6505885122171
 31
0.0
  0
LINE
  5
629
  8
0
  6
CONTINUOUS
 62
   253
 10
855.4276836465426
 20
260.0040761023013
 30
0.0
 11
734.5723163534574
 21
260.0040761023013
 31
0.0
  0
LINE
  5
62A
  8
0
  6
CONTINUOUS
 62
   253
 10
856.7
 20
354.5039793071092
 30
0.0
 11
858.2043443947026
 21
354.5039793071092
 31
0.0
  0
ARC
  5
62B
  8
0
  6
CONTINUOUS
 62
     7
 10
24589.27681990486
 20
354.503979307111
 30
0.0
 40
23731.07247551016
 50
179.9145351446441
 51
180.0
  0
LINE
  5
62C
  8
0
  6
CONTINUOUS
 62
   253
 10
858.7043253562347
 20
253.786438698719
 30
0.0
 11
858.9626787205019
 21
259.0064866895177
 31
0.0
  0
ARC
  5
62D
  8
0
  6
CONTINUOUS
 62
     7
 10
858.2747524291804
 20
409.0805884973698
 30
0.0
 40
0.5482375313101695
 50
68.36639054043678
 51
88.66339140561166
  0
ARC
  5
62E
  8
0
  6
CONTINUOUS
 62
     7
 10
732.8227496769462
 20
253.6972834840301
 30
0.0
 40
1.527244489242241
 50
227.7389238669556
 51
249.7993637896631
  0
ARC
  5
62F
  8
0
  6
CONTINUOUS
 62
     7
 10
734.5741201976498
 20
261.025330654753
 30
0.0
 40
1.021262795745881
 50
267.166599078107
 51
269.8987984421755
  0
ARC
  5
630
  8
0
  6
CONTINUOUS
 62
     7
 10
731.7118772747729
 20
409.6830584815648
 30
0.0
 40
0.507919828451886
 50
135.5580167684886
 51
156.5107884685538
  0
LINE
  5
631
  8
0
  6
CONTINUOUS
 62
     7
 10
858.9626787205019
 20
409.8890187634598
 30
0.0
 11
858.9626787205019
 21
403.7888972784008
 31
0.0
  0
ARC
  5
632
  8
0
  6
CONTINUOUS
 62
     7
 10
732.8027237724534
 20
253.6428565344261
 30
0.0
 40
1.469250268030464
 50
249.7993637896597
 51
269.9846530700189
  0
ARC
  5
633
  8
0
  6
CONTINUOUS
 62
     7
 10
857.4628122489422
 20
409.8890951764964
 30
0.0
 40
1.49984461879682
 50
22.4973664853087
 51
44.99999999999853
  0
ARC
  5
634
  8
0
  6
CONTINUOUS
 62
     7
 10
855.4273245336897
 20
261.0037818440613
 30
0.0
 40
1.002657780811322
 50
317.6512855830629
 51
339.7993637896693
  0
ARC
  5
635
  8
0
  6
CONTINUOUS
 62
     7
 10
-22810.232781983
 20
354.503979307113
 30
0.0
 40
23666.932781983
 50
0.0
 51
0.0856964744060633
  0
LINE
  5
636
  8
0
  6
CONTINUOUS
 62
   253
 10
732.6864972410681
 20
411.2397285710824
 30
0.0
 11
857.313502758932
 21
411.2397285710824
 31
0.0
  0
ARC
  5
637
  8
0
  6
CONTINUOUS
 62
     7
 10
-13717.53015388799
 20
368.3490431380692
 30
0.0
 40
14449.31548354426
 50
0.0854648553556672
 51
0.1624170355654542
  0
ARC
  5
638
  8
0
  6
CONTINUOUS
 62
     7
 10
855.4258798023503
 20
261.0253306547532
 30
0.0
 40
1.021262795745992
 50
270.1012015578215
 51
272.8334009218926
  0
ARC
  5
639
  8
0
  6
CONTINUOUS
 62
     7
 10
857.1972762275464
 20
253.6428565344262
 30
0.0
 40
1.469250268030686
 50
270.0153469299789
 51
290.2006362103419
  0
ARC
  5
63A
  8
0
  6
CONTINUOUS
 62
     7
 10
734.5579618660289
 20
260.9903706124668
 30
0.0
 40
0.9827492106437852
 50
222.3487144169337
 51
245.1938901153764
  0
LINE
  5
63B
  8
0
  6
CONTINUOUS
 62
     7
 10
786.5000000000001
 20
254.4720554453235
 30
0.0
 11
734.2985226736972
 21
254.4720554453235
 31
0.0
  0
ARC
  5
63C
  8
0
  6
CONTINUOUS
 62
     7
 10
731.7248359256976
 20
409.127666785149
 30
0.0
 40
0.507919828451886
 50
135.5580167685107
 51
156.5107884685792
  0
ARC
  5
63D
  8
0
  6
CONTINUOUS
 62
     7
 10
732.69371387606
 20
409.7559352640554
 30
0.0
 40
1.483810856476864
 50
90.27866379037789
 51
181.5462329881165
  0
LINE
  5
63E
  8
0
  6
CONTINUOUS
 62
   253
 10
731.2234019603409
 20
409.160505037126
 30
0.0
 11
731.2104433094157
 21
409.715896733542
 31
0.0
  0
ARC
  5
63F
  8
0
  6
CONTINUOUS
 62
     7
 10
731.6949527894798
 20
409.1569734401558
 30
0.0
 40
0.4660643406646514
 50
111.6336094595836
 51
135.5580167685131
  0
LINE
  5
640
  8
0
  6
CONTINUOUS
 62
   253
 10
786.5000000000001
 20
253.3829828575446
 30
0.0
 11
803.5
 21
253.3829828575446
 31
0.0
  0
LINE
  5
641
  8
0
  6
CONTINUOUS
 62
     7
 10
732.8023302246115
 20
252.1735965668796
 30
0.0
 11
786.5000000000001
 21
252.1735965668796
 31
0.0
  0
ARC
  5
642
  8
0
  6
CONTINUOUS
 62
     7
 10
731.7122889198948
 20
409.6359801937856
 30
0.0
 40
0.5482375313101695
 50
90.19487409547837
 51
91.33660859439993
  0
LINE
  5
643
  8
0
  6
CONTINUOUS
 62
   253
 10
733.3000000000001
 20
255.4859433335528
 30
0.0
 11
733.5723544303933
 21
260.9888838553134
 31
0.0
  0
LINE
  5
644
  8
0
  6
CENTER
 62
    10
 10
595.0
 20
232.3914620217782
 30
0.0
 11
595.0
 21
420.206574253356
 31
0.0
  0
LINE
  5
645
  8
0
  6
CONTINUOUS
 62
   253
 10
858.7895566905839
 20
409.715896733542
 30
0.0
 11
858.7765980396593
 21
409.160505037126
 31
0.0
  0
LINE
  5
646
  8
0
  6
CONTINUOUS
 62
     7
 10
731.0373212794981
 20
403.7888972784008
 30
0.0
 11
731.0373212794981
 21
409.8890187634598
 31
0.0
  0
LINE
  5
647
  8
0
  6
CONTINUOUS
 62
   253
 10
732.5372641640944
 20
411.388961648056
 30
0.0
 11
732.6864972410681
 21
411.2397285710824
 31
0.0
  0
LINE
  5
648
  8
0
  6
CONTINUOUS
 62
     7
 10
803.5
 20
254.6353962652293
 30
0.0
 11
803.5
 21
254.4720554453235
 31
0.0
  0
ARC
  5
649
  8
0
  6
CONTINUOUS
 62
     7
 10
858.2751640743032
 20
409.1276667851498
 30
0.0
 40
0.5079198284506647
 50
23.4892115313935
 51
44.44198323150562
  0
LINE
  5
64A
  8
0
  6
CONTINUOUS
 62
     7
 10
733.3000000000001
 20
255.4859433335528
 30
0.0
 11
733.3000000000001
 21
354.5039793071092
 31
0.0
  0
LINE
  5
64B
  8
0
  6
CONTINUOUS
 62
     7
 10
858.7020555580804
 20
253.7023265540711
 30
0.0
 11
858.9609020714419
 21
258.9323386571884
 31
0.0
  0
ARC
  5
64C
  8
0
  6
CONTINUOUS
 62
     7
 10
798.5839602038076
 20
409.8946816448184
 30
0.0
 40
0.4568099722528363
 50
103.165499333967
 51
128.1121373546504
  0
ARC
  5
64D
  8
0
  6
CONTINUOUS
 62
     7
 10
798.5839602038078
 20
409.894681644818
 30
0.0
 40
0.4568099722532803
 50
89.67094326207359
 51
103.1654993339679
  0
LINE
  5
64E
  8
0
  6
CONTINUOUS
 62
   253
 10
791.2
 20
413.9697319688146
 30
0.0
 11
791.2
 21
414.696020692891
 31
0.0
  0
ARC
  5
64F
  8
0
  6
CONTINUOUS
 62
     7
 10
858.3599083770731
 20
409.7142557003032
 30
0.0
 40
0.4296482099178656
 50
0.2188390328687433
 51
23.4892115313778
  0
ARC
  5
650
  8
0
  6
CONTINUOUS
 62
     7
 10
734.3370484952068
 20
255.4856503181687
 30
0.0
 40
1.037055717793445
 50
179.9838112253444
 51
199.1393080408399
  0
LINE
  5
651
  8
0
  6
CONTINUOUS
 62
   253
 10
786.5000000000001
 20
254.6353962652293
 30
0.0
 11
803.5
 21
254.6353962652293
 31
0.0
  0
LINE
  5
652
  8
0
  6
CONTINUOUS
 62
     7
 10
803.5
 20
252.1735965668796
 30
0.0
 11
857.1976697753885
 21
252.1735965668796
 31
0.0
  0
LINE
  5
653
  8
0
  6
CONTINUOUS
 62
   253
 10
731.2956746437653
 20
354.5039793071092
 30
0.0
 11
731.7956556052974
 21
354.5039793071092
 31
0.0
  0
LINE
  5
654
  8
0
  6
CONTINUOUS
 62
     7
 10
731.2956746437653
 20
253.7864386987189
 30
0.0
 11
731.2956746437653
 21
354.5039793071093
 31
0.0
  0
ARC
  5
655
  8
0
  6
CONTINUOUS
 62
     7
 10
858.3469497261505
 20
409.1588640038872
 30
0.0
 40
0.4296482099157561
 50
0.2188390328772698
 51
23.48921153151531
  0
ARC
  5
656
  8
0
  6
CONTINUOUS
 62
     7
 10
732.9494085050504
 20
253.7495264843142
 30
0.0
 40
1.652138451696317
 50
181.6370660628508
 51
225.7060978296137
  0
ARC
  5
657
  8
0
  6
CONTINUOUS
 62
     7
 10
732.5371877510578
 20
409.8890951764964
 30
0.0
 40
1.49984461879682
 50
112.4973664853095
 51
135.0
  0
ARC
  5
658
  8
0
  6
CONTINUOUS
 62
     7
 10
858.287711080105
 20
409.6359801937854
 30
0.0
 40
0.5482375313103915
 50
68.36639054044315
 51
88.66339140561206
  0
LINE
  5
659
  8
0
  6
CONTINUOUS
 62
     7
 10
798.5
 20
414.2697319688146
 30
0.0
 11
798.5
 21
414.696020692891
 31
0.0
  0
LINE
  5
65A
  8
0
  6
CONTINUOUS
 62
   253
 10
857.313502758932
 20
411.2080624943262
 30
0.0
 11
732.6864972410681
 21
411.2080624943262
 31
0.0
  0
LINE
  5
65B
  8
0
  6
CONTINUOUS
 62
     7
 10
788.0087275324639
 20
277.695251774645
 30
0.0
 11
801.9912724675357
 21
277.695251774645
 31
0.0
  0
LINE
  5
65C
  8
0
  6
CONTINUOUS
 62
     7
 10
731.2979443857803
 20
253.7023276883855
 30
0.0
 11
731.2956746437653
 21
253.7864386987189
 31
0.0
  0
LINE
  5
65D
  8
0
  6
CONTINUOUS
 62
   253
 10
857.313502758932
 20
411.2080624943262
 30
0.0
 11
857.313502758932
 21
411.2397285710824
 31
0.0
  0
LINE
  5
65E
  8
0
  6
CONTINUOUS
 62
     7
 10
858.9626787205019
 20
284.7039793071092
 30
0.0
 11
858.9626787205019
 21
259.0041786040336
 31
0.0
  0
LINE
  5
65F
  8
0
  6
CENTER
 62
     1
 10
818.0
 20
285.4016074639706
 30
0.0
 11
818.0
 21
298.5063511502474
 31
0.0
  0
LINE
  5
660
  8
0
  6
CONTINUOUS
 62
     7
 10
788.0
 20
277.7039793071092
 30
0.0
 11
788.0087275324638
 21
277.695251774645
 31
0.0
  0
LINE
  5
661
  8
0
  6
CONTINUOUS
 62
     7
 10
801.9912724675357
 20
261.2127068395732
 30
0.0
 11
788.0087275324639
 21
261.2127068395732
 31
0.0
  0
LINE
  5
662
  8
0
  6
CONTINUOUS
 62
     7
 10
735.1999999999998
 20
251.003979307109
 30
0.0
 11
735.1999999999998
 21
245.003979307109
 31
0.0
  0
LINE
  5
663
  8
0
  6
CONTINUOUS
 62
   253
 10
798.8
 20
413.9697319688146
 30
0.0
 11
791.1999999999999
 21
413.9697319688146
 31
0.0
  0
LINE
  5
664
  8
0
  6
CONTINUOUS
 62
   253
 10
731.710424270948
 20
410.1842116183178
 30
0.0
 11
731.7233829218727
 21
409.628819921902
 31
0.0
  0
LINE
  5
665
  8
0
  6
CONTINUOUS
 62
   253
 10
731.2104433094157
 20
409.715896733542
 30
0.0
 11
731.0373212794981
 21
409.8890187634598
 31
0.0
  0
ARC
  5
666
  8
0
  6
CONTINUOUS
 62
     7
 10
732.5371877510578
 20
409.8890951764964
 30
0.0
 40
1.49984461879682
 50
135.0
 51
157.5026335146905
  0
ARC
  5
667
  8
0
  6
CONTINUOUS
 62
     7
 10
731.7122889198948
 20
409.635980193785
 30
0.0
 40
0.5482375313108356
 50
91.33660859439831
 51
111.6336094595484
  0
ARC
  5
668
  8
0
  6
CONTINUOUS
 62
     7
 10
734.3001011220023
 20
255.4728277489254
 30
0.0
 40
0.9979465543055177
 50
199.1393080408418
 51
221.9844837392775
  0
ARC
  5
669
  8
0
  6
CONTINUOUS
 62
     7
 10
732.5374530350091
 20
409.8889853065713
 30
0.0
 40
1.500131754609946
 50
157.5026335146937
 51
179.9987221532324
  0
LINE
  5
66A
  8
0
  6
CONTINUOUS
 62
     7
 10
786.5000000000001
 20
252.3829828575446
 30
0.0
 11
803.5
 21
252.3829828575446
 31
0.0
  0
ARC
  5
66B
  8
0
  6
CONTINUOUS
 62
     7
 10
731.7252475708198
 20
409.0805884973698
 30
0.0
 40
0.5482375313101695
 50
90.19487409547253
 51
91.33660859442314
  0
LINE
  5
66C
  8
0
  6
CONTINUOUS
 62
     7
 10
731.1999999999998
 20
245.038886778272
 30
0.0
 11
735.1999999999998
 21
245.003979307109
 31
0.0
  0
LINE
  5
66D
  8
0
  6
CONTINUOUS
 62
   253
 10
731.7233829218727
 20
409.628819921902
 30
0.0
 11
791.2443065665495
 21
409.628819921902
 31
0.0
  0
ARC
  5
66E
  8
0
  6
CONTINUOUS
 62
     7
 10
2426.253360212888
 20
363.6459074746801
 30
0.0
 40
1635.162354252234
 50
178.4049537128498
 51
178.4060997060138
  0
ARC
  5
66F
  8
0
  6
CONTINUOUS
 62
     7
 10
732.6937636157086
 20
410.2239474584952
 30
0.0
 40
0.9841418616992614
 50
90.4230450896739
 51
182.3140108868844
  0
LINE
  5
670
  8
0
  6
CONTINUOUS
 62
     7
 10
731.0390979285578
 20
258.9323386571884
 30
0.0
 11
731.2979444186591
 21
253.7023270240483
 31
0.0
  0
LINE
  5
671
  8
0
  6
CENTER
 62
     1
 10
811.5
 20
375.4539793071092
 30
0.0
 11
824.5000000000001
 21
375.4539793071092
 31
0.0
  0
LINE
  5
672
  8
0
  6
CONTINUOUS
 62
     7
 10
801.9912724675357
 20
277.695251774645
 30
0.0
 11
801.9912724675357
 21
261.2127068395732
 31
0.0
  0
ARC
  5
673
  8
0
  6
CONTINUOUS
 62
     7
 10
857.3062363842913
 20
410.2239474584954
 30
0.0
 40
0.9841418616993725
 50
357.6859891131121
 51
89.57695491033253
  0
LINE
  5
674
  8
0
  6
CONTINUOUS
 62
     7
 10
731.0373212794981
 20
259.0041786040323
 30
0.0
 11
731.0373212794981
 21
284.703979307109
 31
0.0
  0
ARC
  5
675
  8
0
  6
CONTINUOUS
 62
     7
 10
734.2982603084691
 20
255.4515620903542
 30
0.0
 40
0.9795001786867541
 50
244.132561945867
 51
267.166599078108
  0
LINE
  5
676
  8
0
  6
CONTINUOUS
 62
     7
 10
802.0
 20
261.203979307109
 30
0.0
 11
788.0000000000001
 21
261.203979307109
 31
0.0
  0
LINE
  5
677
  8
0
  6
CONTINUOUS
 62
     7
 10
802.0
 20
277.7039793071092
 30
0.0
 11
802.0
 21
261.203979307109
 31
0.0
  0
ARC
  5
678
  8
0
  6
CONTINUOUS
 62
     7
 10
798.2072094673824
 20
409.6230382193069
 30
0.0
 40
0.4146995445434287
 50
284.6501403142634
 51
297.6143272976522
  0
ARC
  5
679
  8
0
  6
CONTINUOUS
 62
     7
 10
791.7927905326176
 20
409.6230382193069
 30
0.0
 40
0.4146995445433177
 50
242.3856727023478
 51
255.3498596857366
  0
LINE
  5
67A
  8
0
  6
CONTINUOUS
 62
   253
 10
798.2575960844046
 20
409.160505037126
 30
0.0
 11
798.1
 21
409.834243945283
 31
0.0
  0
ARC
  5
67B
  8
0
  6
CONTINUOUS
 62
     7
 10
858.3050472105205
 20
409.156973440156
 30
0.0
 40
0.4660643406644294
 50
44.44198323151091
 51
68.36639054046339
  0
ARC
  5
67C
  8
0
  6
CONTINUOUS
 62
     7
 10
798.597862359118
 20
409.8497834790874
 30
0.0
 40
0.497627252373678
 50
148.9836155672209
 51
172.9765884136852
  0
ARC
  5
67D
  8
0
  6
CONTINUOUS
 62
     7
 10
859.8935785301019
 20
413.497557837211
 30
0.0
 40
1.493395237935236
 50
359.9568022668511
 51
90.04319773314681
  0
LINE
  5
67E
  8
0
  6
CONTINUOUS
 62
   253
 10
732.6864972410681
 20
411.2080624943262
 30
0.0
 11
732.6864972410681
 21
411.2397285710824
 31
0.0
  0
ARC
  5
67F
  8
0
  6
CONTINUOUS
 62
     7
 10
858.2747524291804
 20
409.0805884973698
 30
0.0
 40
0.5482375313100585
 50
88.66339140561138
 51
89.80512590453901
  0
ARC
  5
680
  8
0
  6
CONTINUOUS
 62
     7
 10
-13640.03380485819
 20
368.3116188805042
 30
0.0
 40
14371.31915355595
 50
0.0856964744061594
 51
0.1628571834640644
  0
ARC
  5
681
  8
0
  6
CONTINUOUS
 62
     7
 10
-22871.67242412372
 20
354.503979307112
 30
0.0
 40
23602.9680987675
 50
0.0
 51
0.0856964744061202
  0
ARC
  5
682
  8
0
  6
CONTINUOUS
 62
     7
 10
798.331134367352
 20
409.1489842874039
 30
0.0
 40
0.0752846502884985
 50
104.6501403143068
 51
171.0962265918546
  0
LINE
  5
683
  8
0
  6
CENTER
 62
     1
 10
742.9472854818372
 20
333.703979307109
 30
0.0
 11
847.0527145181627
 21
333.703979307109
 31
0.0
  0
ARC
  5
684
  8
0
  6
CONTINUOUS
 62
     7
 10
799.0429110949917
 20
398.5760495898812
 30
0.0
 40
10.73642261299956
 50
91.5329435189492
 51
91.55438533906545
  0
ARC
  5
685
  8
0
  6
CONTINUOUS
 62
     7
 10
798.6896694649545
 20
409.8384729032114
 30
0.0
 40
0.5901284621424585
 50
172.9765884136719
 51
180.410903567848
  0
LINE
  5
686
  8
0
  6
CONTINUOUS
 62
     7
 10
861.392041385782
 20
413.4964319029204
 30
0.0
 11
861.3869733532944
 21
413.4964319029204
 31
0.0
  0
LINE
  5
687
  8
0
  6
CONTINUOUS
 62
     7
 10
788.0
 20
261.203979307109
 30
0.0
 11
788.0
 21
277.7039793071092
 31
0.0
  0
ENDSEC
  0
EOF
