  0
SECTION
  2
HEADER
  9
$ACADVER
  1
AC1006
  9
$DWGCODEPAGE
  3
ansi_932
  9
$INSBASE
 10
0.0
 20
0.0
 30
0.0
  9
$EXTMIN
 10
-132.329035
 20
104.4022727272727
  9
$EXTMAX
 10
-6.645561
 20
253.404087
  9
$LIMMIN
 10
0.0
 20
0.0
  9
$LIMMAX
 10
12.0
 20
9.0
  9
$ORTHOMODE
 70
     0
  9
$REGENMODE
 70
     1
  9
$FILLMODE
 70
     1
  9
$QTEXTMODE
 70
     0
  9
$MIRRTEXT
 70
     1
  9
$DRAGMODE
 70
     2
  9
$LTSCALE
 40
1.0
  9
$OSMODE
 70
    37
  9
$ATTMODE
 70
     1
  9
$TEXTSIZE
 40
0.2
  9
$TRACEWID
 40
0.05
  9
$TEXTSTYLE
  7
STANDARD
  9
$CLAYER
  8
0
  9
$CELTYPE
  6
BYLAYER
  9
$CECOLOR
 62
   256
  9
$DIMSCALE
 40
1.0
  9
$DIMASZ
 40
0.9
  9
$DIMEXO
 40
0.0625
  9
$DIMDLI
 40
0.38
  9
$DIMRND
 40
0.0
  9
$DIMDLE
 40
0.0
  9
$DIMEXE
 40
0.18
  9
$DIMTP
 40
0.0
  9
$DIMTM
 40
0.0
  9
$DIMTXT
 40
3.0
  9
$DIMCEN
 40
0.09
  9
$DIMTSZ
 40
0.0
  9
$DIMTOL
 70
     0
  9
$DIMLIM
 70
     0
  9
$DIMTIH
 70
     1
  9
$DIMTOH
 70
     1
  9
$DIMSE1
 70
     0
  9
$DIMSE2
 70
     0
  9
$DIMTAD
 70
     1
  9
$DIMZIN
 70
     0
  9
$DIMBLK
  1

  9
$DIMASO
 70
     1
  9
$DIMSHO
 70
     1
  9
$DIMPOST
  1

  9
$DIMAPOST
  1

  9
$DIMALT
 70
     0
  9
$DIMALTD
 70
     2
  9
$DIMALTF
 40
25.4
  9
$DIMLFAC
 40
1.0
  9
$DIMTOFL
 70
     0
  9
$DIMTVP
 40
0.0
  9
$DIMTIX
 70
     0
  9
$DIMSOXD
 70
     0
  9
$DIMSAH
 70
     0
  9
$DIMBLK1
  1

  9
$DIMBLK2
  1

  9
$LUNITS
 70
     2
  9
$LUPREC
 70
     4
  9
$SKETCHINC
 40
0.1
  9
$FILLETRAD
 40
0.5
  9
$AUNITS
 70
     0
  9
$AUPREC
 70
     0
  9
$MENU
  1
.
  9
$ELEVATION
 40
0.0
  9
$THICKNESS
 40
0.0
  9
$LIMCHECK
 70
     0
  9
$CHAMFERA
 40
0.5
  9
$CHAMFERB
 40
0.5
  9
$SKPOLY
 70
     0
  9
$TDCREATE
 40
2460698.578814317
  9
$TDUPDATE
 40
2460698.578814329
  9
$TDINDWG
 40
0.0000000116
  9
$TDUSRTIMER
 40
0.0000000116
  9
$USRTIMER
 70
     1
  9
$ANGBASE
 50
0.0
  9
$ANGDIR
 70
     0
  9
$PDMODE
 70
     0
  9
$PDSIZE
 40
0.0
  9
$PLINEWID
 40
0.0
  9
$COORDS
 70
     1
  9
$SPLFRAME
 70
     0
  9
$SPLINETYPE
 70
     6
  9
$SPLINESEGS
 70
     8
  9
$ATTDIA
 70
     0
  9
$ATTREQ
 70
     1
  9
$HANDLING
 70
     1
  9
$HANDSEED
  5
12E
  9
$SURFTAB1
 70
     6
  9
$SURFTAB2
 70
     6
  9
$SURFTYPE
 70
     6
  9
$SURFU
 70
     6
  9
$SURFV
 70
     6
  9
$UCSNAME
  2

  9
$UCSORG
 10
0.0
 20
0.0
 30
0.0
  9
$UCSXDIR
 10
1.0
 20
0.0
 30
0.0
  9
$UCSYDIR
 10
0.0
 20
1.0
 30
0.0
  9
$USERI1
 70
     0
  9
$USERI2
 70
     0
  9
$USERI3
 70
     0
  9
$USERI4
 70
     0
  9
$USERI5
 70
     0
  9
$USERR1
 40
0.0
  9
$USERR2
 40
0.0
  9
$USERR3
 40
0.0
  9
$USERR4
 40
0.0
  9
$USERR5
 40
0.0
  9
$WORLDVIEW
 70
     1
  0
ENDSEC
  0
SECTION
  2
TABLES
  0
TABLE
  2
VPORT
 70
     1
  0
VPORT
  2
*ACTIVE
 70
     0
 10
0.0
 20
0.0
 11
1.0
 21
1.0
 12
-69.487298
 22
178.9031798636364
 13
0.0
 23
0.0
 14
0.5
 24
0.5
 15
0.5
 25
0.5
 16
0.0
 26
0.0
 36
1.0
 17
0.0
 27
0.0
 37
0.0
 40
149.0018142727273
 41
1.6
 42
50.0
 43
0.0
 44
0.0
 50
0.0
 51
0.0
 71
     0
 72
   100
 73
     1
 74
     3
 75
     0
 76
     0
 77
     0
 78
     0
  0
ENDTAB
  0
TABLE
  2
LTYPE
 70
     2
  0
LTYPE
  2
CONTINUOUS
 70
     0
  3
Solid line
 72
    65
 73
     0
 40
0.0
  0
LTYPE
  2
________________
 70
     0
  3

 72
    65
 73
     0
 40
0.0
  0
ENDTAB
  0
TABLE
  2
LAYER
 70
     2
  0
LAYER
  2
0
 70
     0
 62
     7
  6
CONTINUOUS
  0
LAYER
  2
1
 70
     0
 62
     7
  6
CONTINUOUS
  0
ENDTAB
  0
TABLE
  2
STYLE
 70
     2
  0
STYLE
  2
STANDARD
 70
     0
 40
0.0
 41
1.0
 50
0.0
 71
     0
 42
0.2
  3
txt
  4

  0
STYLE
  2
EXPLODED0
 70
     0
 40
0.2
 41
1.0
 50
0.0
 71
     0
 42
0.2
  3
ＭＳ ゴシック
  4

  0
ENDTAB
  0
TABLE
  2
VIEW
 70
     0
  0
ENDTAB
  0
TABLE
  2
UCS
 70
     0
  0
ENDTAB
  0
ENDSEC
  0
SECTION
  2
BLOCKS
  0
ENDSEC
  0
SECTION
  2
ENTITIES
  0
LINE
  5
3C
  8
1
  6
________________
 62
     7
 10
-85.929035
 20
139.635853
 30
0.0
 11
-95.429035
 21
139.635853
 31
0.0
  0
LINE
  5
3E
  8
1
  6
________________
 62
     7
 10
-95.429035
 20
139.635853
 30
0.0
 11
-95.429035
 21
164.635853
 31
0.0
  0
LINE
  5
3F
  8
1
  6
________________
 62
     7
 10
-93.429035
 20
164.635853
 30
0.0
 11
-93.429035
 21
139.635853
 31
0.0
  0
LINE
  5
40
  8
1
  6
________________
 62
     7
 10
-95.429035
 20
164.635853
 30
0.0
 11
-85.929035
 21
164.635853
 31
0.0
  0
LINE
  5
41
  8
1
  6
________________
 62
     7
 10
-85.929035
 20
164.635853
 30
0.0
 11
-85.929035
 21
139.635853
 31
0.0
  0
LINE
  5
42
  8
1
  6
________________
 62
     7
 10
-93.979035
 20
123.835853
 30
0.0
 11
-116.879035
 21
123.835853
 31
0.0
  0
LINE
  5
43
  8
1
  6
________________
 62
     7
 10
-93.979035
 20
124.135853
 30
0.0
 11
-116.879035
 21
124.135853
 31
0.0
  0
LINE
  5
44
  8
1
  6
________________
 62
     7
 10
-93.979035
 20
123.135853
 30
0.0
 11
-116.879035
 21
123.135853
 31
0.0
  0
LINE
  5
45
  8
1
  6
________________
 62
     7
 10
-93.979035
 20
110.935853
 30
0.0
 11
-116.879035
 21
110.935853
 31
0.0
  0
LINE
  5
46
  8
1
  6
________________
 62
     7
 10
-93.979035
 20
113.635853
 30
0.0
 11
-116.879035
 21
113.635853
 31
0.0
  0
LINE
  5
47
  8
1
  6
________________
 62
     7
 10
-94.279035
 20
110.635853
 30
0.0
 11
-116.579035
 21
110.635853
 31
0.0
  0
LINE
  5
48
  8
1
  6
________________
 62
     7
 10
-113.829035
 20
157.05465
 30
0.0
 11
-113.829035
 21
152.217055
 31
0.0
  0
LINE
  5
49
  8
1
  6
________________
 62
     7
 10
-115.829035
 20
152.217055
 30
0.0
 11
-115.829035
 21
157.05465
 31
0.0
  0
ARC
  5
4A
  8
1
  6
________________
 62
     7
 10
-114.344063
 20
157.065538
 30
0.0
 40
0.515143
 50
358.788923
 51
88.32834700000002
  0
ARC
  5
4B
  8
1
  6
________________
 62
     7
 10
-115.316002
 20
157.067435
 30
0.0
 40
0.513192
 50
91.455257
 51
181.427473
  0
LINE
  5
4C
  8
1
  6
________________
 62
     7
 10
-114.329035
 20
157.580462
 30
0.0
 11
-115.329035
 21
157.580462
 31
0.0
  0
ARC
  5
4D
  8
1
  6
________________
 62
     7
 10
-115.313781
 20
152.206383
 30
0.0
 40
0.515364
 50
178.813374
 51
268.303896
  0
ARC
  5
4E
  8
1
  6
________________
 62
     7
 10
-114.342571
 20
152.204749
 30
0.0
 40
0.513684
 50
271.5099880000001
 51
1.372742000000073
  0
LINE
  5
4F
  8
1
  6
________________
 62
     7
 10
-115.329035
 20
151.691244
 30
0.0
 11
-114.329035
 21
151.691244
 31
0.0
  0
LINE
  5
50
  8
1
  6
________________
 62
     7
 10
-131.329035
 20
168.635853
 30
0.0
 11
-131.329035
 21
140.635853
 31
0.0
  0
LINE
  5
51
  8
1
  6
________________
 62
     7
 10
-115.329035
 20
168.322682
 30
0.0
 11
-115.829035
 21
168.425321
 31
0.0
  0
LINE
  5
52
  8
1
  6
________________
 62
     7
 10
-115.329035
 20
168.322682
 30
0.0
 11
-114.329035
 21
168.322682
 31
0.0
  0
LINE
  5
53
  8
1
  6
________________
 62
     7
 10
-113.829035
 20
168.425321
 30
0.0
 11
-114.329035
 21
168.322682
 31
0.0
  0
ARC
  5
54
  8
1
  6
________________
 62
     7
 10
-109.828986
 20
150.135804
 30
0.0
 40
2.000049
 50
90.001403
 51
179.998597
  0
ARC
  5
55
  8
1
  6
________________
 62
     7
 10
-109.829035
 20
159.135853
 30
0.0
 40
2.0
 50
180.0
 51
270.0
  0
LINE
  5
56
  8
1
  6
________________
 62
     7
 10
-132.329035
 20
141.635853
 30
0.0
 11
-132.329035
 21
167.635853
 31
0.0
  0
LINE
  5
57
  8
1
  6
________________
 62
     7
 10
-109.829035
 20
157.135853
 30
0.0
 11
-95.429035
 21
157.135853
 31
0.0
  0
LINE
  5
58
  8
1
  6
________________
 62
     7
 10
-95.429035
 20
152.135853
 30
0.0
 11
-109.829035
 21
152.135853
 31
0.0
  0
LINE
  5
59
  8
1
  6
________________
 62
     7
 10
-111.829035
 20
150.135853
 30
0.0
 11
-111.829035
 21
140.635853
 31
0.0
  0
LINE
  5
5A
  8
1
  6
________________
 62
     7
 10
-111.829035
 20
166.635853
 30
0.0
 11
-111.829035
 21
159.135853
 31
0.0
  0
LINE
  5
5B
  8
1
  6
________________
 62
     7
 10
-116.879035
 20
130.135853
 30
0.0
 11
-93.979035
 21
130.135853
 31
0.0
  0
LINE
  5
5C
  8
1
  6
________________
 62
     7
 10
-114.429035
 20
136.635853
 30
0.0
 11
-96.429035
 21
136.635853
 31
0.0
  0
LINE
  5
5D
  8
1
  6
________________
 62
     7
 10
-113.829035
 20
170.535853
 30
0.0
 11
-113.829035
 21
168.425321
 31
0.0
  0
LINE
  5
5E
  8
1
  6
________________
 62
     7
 10
-115.829035
 20
168.425321
 30
0.0
 11
-115.829035
 21
170.535853
 31
0.0
  0
LINE
  5
5F
  8
1
  6
________________
 62
     7
 10
-85.829035
 20
139.635853
 30
0.0
 11
-85.829035
 21
164.635853
 31
0.0
  0
LINE
  5
60
  8
1
  6
________________
 62
     7
 10
-85.329035
 20
156.435853
 30
0.0
 11
-85.329035
 21
152.835853
 31
0.0
  0
LINE
  5
61
  8
1
  6
________________
 62
     7
 10
-93.979035
 20
123.835853
 30
0.0
 11
-94.279035
 21
124.135853
 31
0.0
  0
LINE
  5
62
  8
1
  6
________________
 62
     7
 10
-116.579035
 20
124.135853
 30
0.0
 11
-116.879035
 21
123.835853
 31
0.0
  0
LINE
  5
63
  8
1
  6
________________
 62
     7
 10
-93.979035
 20
123.135853
 30
0.0
 11
-93.979035
 21
130.135853
 31
0.0
  0
LINE
  5
64
  8
1
  6
________________
 62
     7
 10
-116.879035
 20
130.135853
 30
0.0
 11
-116.879035
 21
123.135853
 31
0.0
  0
LINE
  5
65
  8
1
  6
________________
 62
     7
 10
-93.979035
 20
110.935853
 30
0.0
 11
-93.979035
 21
113.635853
 31
0.0
  0
LINE
  5
66
  8
1
  6
________________
 62
     7
 10
-116.879035
 20
113.635853
 30
0.0
 11
-116.879035
 21
110.935853
 31
0.0
  0
LINE
  5
67
  8
1
  6
________________
 62
     7
 10
-116.879035
 20
110.935853
 30
0.0
 11
-116.579035
 21
110.635853
 31
0.0
  0
LINE
  5
68
  8
1
  6
________________
 62
     7
 10
-94.279035
 20
110.635853
 30
0.0
 11
-93.979035
 21
110.935853
 31
0.0
  0
LINE
  5
69
  8
1
  6
________________
 62
     7
 10
-94.179035
 20
110.935853
 30
0.0
 11
-94.179035
 21
123.835853
 31
0.0
  0
LINE
  5
6A
  8
1
  6
________________
 62
     7
 10
-116.679035
 20
123.835853
 30
0.0
 11
-116.679035
 21
110.935853
 31
0.0
  0
LINE
  5
6B
  8
1
  6
________________
 62
     7
 10
-131.329035
 20
168.635853
 30
0.0
 11
-132.329035
 21
167.635853
 31
0.0
  0
LINE
  5
6C
  8
1
  6
________________
 62
     7
 10
-132.329035
 20
141.635853
 30
0.0
 11
-131.329035
 21
140.635853
 31
0.0
  0
ARC
  5
6D
  8
1
  6
________________
 62
     7
 10
-113.829035
 20
166.635853
 30
0.0
 40
2.0
 50
0.0
 51
90.0
  0
LINE
  5
6E
  8
1
  6
________________
 62
     7
 10
-96.429035
 20
136.635853
 30
0.0
 11
-96.429035
 21
137.636549
 31
0.0
  0
LINE
  5
6F
  8
1
  6
________________
 62
     7
 10
-114.429035
 20
140.637202
 30
0.0
 11
-114.429035
 21
136.635853
 31
0.0
  0
ARC
  5
70
  8
1
  6
________________
 62
     7
 10
-114.429035
 20
145.635853
 30
0.0
 40
18.0
 50
58.21069999999999
 51
81.37260999999998
  0
LINE
  5
71
  8
1
  6
________________
 62
     7
 10
-96.529035
 20
130.135853
 30
0.0
 11
-96.529035
 21
137.636549
 31
0.0
  0
LINE
  5
72
  8
1
  6
________________
 62
     7
 10
-114.329035
 20
140.637202
 30
0.0
 11
-114.329035
 21
130.135853
 31
0.0
  0
ARC
  5
73
  8
1
  6
________________
 62
     7
 10
-94.429035
 20
137.635853
 30
0.0
 40
2.0
 50
90.0
 51
180.0
  0
ARC
  5
74
  8
1
  6
________________
 62
     7
 10
-103.893381
 20
162.635853
 30
0.0
 40
2.0
 50
238.211669
 51
270.0
  0
LINE
  5
75
  8
1
  6
________________
 62
     7
 10
-95.429035
 20
160.635853
 30
0.0
 11
-103.893129
 21
160.635853
 31
0.0
  0
LINE
  5
76
  8
1
  6
________________
 62
     7
 10
-85.829035
 20
156.935853
 30
0.0
 11
-85.929035
 21
156.935853
 31
0.0
  0
LINE
  5
77
  8
1
  6
________________
 62
     7
 10
-85.929035
 20
152.335853
 30
0.0
 11
-85.829035
 21
152.335853
 31
0.0
  0
LINE
  5
78
  8
1
  6
________________
 62
     7
 10
-85.829035
 20
152.335853
 30
0.0
 11
-85.329035
 21
152.835853
 31
0.0
  0
LINE
  5
79
  8
1
  6
________________
 62
     7
 10
-85.329035
 20
156.435853
 30
0.0
 11
-85.829035
 21
156.935853
 31
0.0
  0
ARC
  5
7A
  8
1
  6
________________
 62
     7
 10
-114.329035
 20
170.535853
 30
0.0
 40
0.5
 50
0.0
 51
90.0
  0
LINE
  5
7B
  8
1
  6
________________
 62
     7
 10
-114.329035
 20
171.035853
 30
0.0
 11
-115.329035
 21
171.035853
 31
0.0
  0
ARC
  5
7C
  8
1
  6
________________
 62
     7
 10
-115.329035
 20
170.535853
 30
0.0
 40
0.5
 50
90.0
 51
180.0
  0
LINE
  5
7D
  8
1
  6
________________
 62
     7
 10
-39.395561
 20
144.135853
 30
0.0
 11
-37.945561
 21
144.135853
 31
0.0
  0
ARC
  5
7E
  8
1
  6
________________
 62
     7
 10
-37.945561
 20
143.335853
 30
0.0
 40
0.8
 50
0.0
 51
90.0
  0
LINE
  5
7F
  8
1
  6
________________
 62
     7
 10
-37.145561
 20
143.335853
 30
0.0
 11
-37.145561
 21
142.442112
 31
0.0
  0
ARC
  5
80
  8
1
  6
________________
 62
     7
 10
-36.645561
 20
144.635853
 30
0.0
 40
2.25
 50
257.160412
 51
282.8395879999999
  0
LINE
  5
81
  8
1
  6
________________
 62
     7
 10
-36.145561
 20
142.442112
 30
0.0
 11
-36.145561
 21
143.335853
 31
0.0
  0
ARC
  5
82
  8
1
  6
________________
 62
     7
 10
-35.345561
 20
143.335853
 30
0.0
 40
0.8
 50
90.0
 51
180.0
  0
LINE
  5
83
  8
1
  6
________________
 62
     7
 10
-35.345561
 20
144.135853
 30
0.0
 11
-33.895561
 21
144.135853
 31
0.0
  0
LINE
  5
84
  8
1
  6
________________
 62
     7
 10
-33.895561
 20
144.135853
 30
0.0
 11
-33.895561
 21
145.135853
 31
0.0
  0
LINE
  5
85
  8
1
  6
________________
 62
     7
 10
-33.895561
 20
145.135853
 30
0.0
 11
-35.345561
 21
145.135853
 31
0.0
  0
ARC
  5
86
  8
1
  6
________________
 62
     7
 10
-35.345561
 20
145.935853
 30
0.0
 40
0.8
 50
180.0
 51
270.0
  0
LINE
  5
87
  8
1
  6
________________
 62
     7
 10
-36.145561
 20
145.935853
 30
0.0
 11
-36.145561
 21
146.829594
 31
0.0
  0
ARC
  5
88
  8
1
  6
________________
 62
     7
 10
-36.645561
 20
144.635853
 30
0.0
 40
2.25
 50
77.16041200000001
 51
102.839588
  0
LINE
  5
89
  8
1
  6
________________
 62
     7
 10
-37.145561
 20
146.829594
 30
0.0
 11
-37.145561
 21
145.935853
 31
0.0
  0
ARC
  5
8A
  8
1
  6
________________
 62
     7
 10
-37.945561
 20
145.935853
 30
0.0
 40
0.8
 50
270.0
 51
0.0
  0
LINE
  5
8B
  8
1
  6
________________
 62
     7
 10
-37.945561
 20
145.135853
 30
0.0
 11
-39.395561
 21
145.135853
 31
0.0
  0
LINE
  5
8C
  8
1
  6
________________
 62
     7
 10
-39.395561
 20
145.135853
 30
0.0
 11
-39.395561
 21
144.135853
 31
0.0
  0
CIRCLE
  5
8D
  8
1
  6
________________
 62
     7
 10
-36.645561
 20
144.635853
 30
0.0
 40
4.0
  0
ARC
  5
8E
  8
1
  6
________________
 62
     7
 10
-36.645561
 20
144.635853
 30
0.0
 40
1.801277
 50
163.884121
 51
196.115879
  0
ARC
  5
8F
  8
1
  6
________________
 62
     7
 10
-36.645561
 20
144.635853
 30
0.0
 40
1.801277
 50
343.8841210000001
 51
16.115879
  0
LINE
  5
90
  8
1
  6
________________
 62
     7
 10
-63.645561
 20
164.635853
 30
0.0
 11
-9.645560999999997
 21
164.635853
 31
0.0
  0
LINE
  5
91
  8
1
  6
________________
 62
     7
 10
-19.645561
 20
164.635853
 30
0.0
 11
-19.645561
 21
139.635853
 31
0.0
  0
LINE
  5
92
  8
1
  6
________________
 62
     7
 10
-9.645561
 20
139.635853
 30
0.0
 11
-63.645561
 21
139.635853
 31
0.0
  0
LINE
  5
93
  8
1
  6
________________
 62
     7
 10
-53.645561
 20
139.635853
 30
0.0
 11
-53.645561
 21
164.635853
 31
0.0
  0
CIRCLE
  5
94
  8
1
  6
________________
 62
     7
 10
-36.645561
 20
154.635853
 30
0.0
 40
2.4
  0
ARC
  5
95
  8
1
  6
________________
 62
     7
 10
-9.645561
 20
142.635853
 30
0.0
 40
3.0
 50
270.0
 51
0.0
  0
ARC
  5
96
  8
1
  6
________________
 62
     7
 10
-9.645561
 20
161.635853
 30
0.0
 40
3.0
 50
0.0
 51
90.0
  0
LINE
  5
97
  8
1
  6
________________
 62
     7
 10
-6.645561
 20
142.635853
 30
0.0
 11
-6.645561
 21
161.635853
 31
0.0
  0
CIRCLE
  5
98
  8
1
  6
________________
 62
     7
 10
-10.645561
 20
154.635853
 30
0.0
 40
2.5
  0
CIRCLE
  5
99
  8
1
  6
________________
 62
     7
 10
-62.645561
 20
154.635853
 30
0.0
 40
2.5
  0
ARC
  5
9A
  8
1
  6
________________
 62
     7
 10
-63.645561
 20
142.635853
 30
0.0
 40
3.0
 50
180.0
 51
270.0
  0
LINE
  5
9B
  8
1
  6
________________
 62
     7
 10
-66.645561
 20
142.635853
 30
0.0
 11
-66.645561
 21
161.635853
 31
0.0
  0
ARC
  5
9C
  8
1
  6
________________
 62
     7
 10
-63.645561
 20
161.635853
 30
0.0
 40
3.0
 50
90.0
 51
180.0
  0
LINE
  5
9D
  8
1
  6
________________
 62
     7
 10
-25.195561
 20
123.135853
 30
0.0
 11
-48.095561
 21
123.135853
 31
0.0
  0
LINE
  5
9E
  8
1
  6
________________
 62
     7
 10
-25.195561
 20
123.835853
 30
0.0
 11
-48.095561
 21
123.835853
 31
0.0
  0
LINE
  5
9F
  8
1
  6
________________
 62
     7
 10
-25.195561
 20
110.935853
 30
0.0
 11
-48.095561
 21
110.935853
 31
0.0
  0
LINE
  5
A0
  8
1
  6
________________
 62
     7
 10
-25.195561
 20
113.635853
 30
0.0
 11
-48.095561
 21
113.635853
 31
0.0
  0
LINE
  5
A1
  8
1
  6
________________
 62
     7
 10
-25.495561
 20
110.635853
 30
0.0
 11
-47.795561
 21
110.635853
 31
0.0
  0
CIRCLE
  5
A2
  8
1
  6
________________
 62
     7
 10
-36.645561
 20
154.635853
 30
0.0
 40
2.3
  0
CIRCLE
  5
A3
  8
1
  6
________________
 62
     7
 10
-36.645561
 20
154.635853
 30
0.0
 40
1.8
  0
LINE
  5
A4
  8
1
  6
________________
 62
     7
 10
-48.095561
 20
124.723311
 30
0.0
 11
-48.07931
 21
124.135853
 31
0.0
  0
LINE
  5
A5
  8
1
  6
________________
 62
     7
 10
-48.095561
 20
130.135853
 30
0.0
 11
-25.195561
 21
130.135853
 31
0.0
  0
LINE
  5
A6
  8
1
  6
________________
 62
     7
 10
-25.211812
 20
124.135853
 30
0.0
 11
-25.195561
 21
124.722881
 31
0.0
  0
LINE
  5
A7
  8
1
  6
________________
 62
     7
 10
-48.07931
 20
124.135853
 30
0.0
 11
-25.211812
 21
124.135853
 31
0.0
  0
LINE
  5
A8
  8
1
  6
________________
 62
     7
 10
-45.645561
 20
136.635853
 30
0.0
 11
-27.645561
 21
136.635853
 31
0.0
  0
ARC
  5
A9
  8
1
  6
________________
 62
     7
 10
-36.645561
 20
154.635853
 30
0.0
 40
14.0
 50
45.584691
 51
134.415309
  0
LINE
  5
AA
  8
1
  6
________________
 62
     7
 10
-39.59017
 20
168.322682
 30
0.0
 11
-39.208492
 21
170.487287
 31
0.0
  0
LINE
  5
AB
  8
1
  6
________________
 62
     7
 10
-34.082631
 20
170.487287
 30
0.0
 11
-33.700952
 21
168.322682
 31
0.0
  0
ARC
  5
AC
  8
1
  6
________________
 62
     7
 10
-34.575034
 20
170.400463
 30
0.0
 40
0.5
 50
10.0
 51
82.51758999999998
  0
ARC
  5
AD
  8
1
  6
________________
 62
     7
 10
-36.645561
 20
154.635853
 30
0.0
 40
16.4
 50
82.51759
 51
97.48241000000003
  0
ARC
  5
AE
  8
1
  6
________________
 62
     7
 10
-38.716088
 20
170.400463
 30
0.0
 40
0.5
 50
97.48241
 51
170.0
  0
LINE
  5
AF
  8
1
  6
________________
 62
     7
 10
-25.195561
 20
123.135853
 30
0.0
 11
-25.195561
 21
130.135853
 31
0.0
  0
LINE
  5
B0
  8
1
  6
________________
 62
     7
 10
-48.095561
 20
130.135853
 30
0.0
 11
-48.095561
 21
123.135853
 31
0.0
  0
LINE
  5
B1
  8
1
  6
________________
 62
     7
 10
-25.195561
 20
110.935853
 30
0.0
 11
-25.195561
 21
113.635853
 31
0.0
  0
LINE
  5
B2
  8
1
  6
________________
 62
     7
 10
-48.095561
 20
113.635853
 30
0.0
 11
-48.095561
 21
110.935853
 31
0.0
  0
LINE
  5
B3
  8
1
  6
________________
 62
     7
 10
-25.195561
 20
123.835853
 30
0.0
 11
-25.495561
 21
124.135853
 31
0.0
  0
LINE
  5
B4
  8
1
  6
________________
 62
     7
 10
-47.795561
 20
124.135853
 30
0.0
 11
-48.095561
 21
123.835853
 31
0.0
  0
LINE
  5
B5
  8
1
  6
________________
 62
     7
 10
-48.095561
 20
110.935853
 30
0.0
 11
-47.795561
 21
110.635853
 31
0.0
  0
LINE
  5
B6
  8
1
  6
________________
 62
     7
 10
-25.495561
 20
110.635853
 30
0.0
 11
-25.195561
 21
110.935853
 31
0.0
  0
LINE
  5
B7
  8
1
  6
________________
 62
     7
 10
-25.395561
 20
110.935853
 30
0.0
 11
-25.395561
 21
124.722881
 31
0.0
  0
LINE
  5
B8
  8
1
  6
________________
 62
     7
 10
-47.895561
 20
124.723311
 30
0.0
 11
-47.895561
 21
110.935853
 31
0.0
  0
LINE
  5
B9
  8
1
  6
________________
 62
     7
 10
-27.645561
 20
136.635853
 30
0.0
 11
-27.645561
 21
139.635853
 31
0.0
  0
LINE
  5
BA
  8
1
  6
________________
 62
     7
 10
-45.645561
 20
139.635853
 30
0.0
 11
-45.645561
 21
136.635853
 31
0.0
  0
LINE
  5
BB
  8
1
  6
________________
 62
     7
 10
-27.745561
 20
130.135853
 30
0.0
 11
-27.745561
 21
139.635853
 31
0.0
  0
LINE
  5
BC
  8
1
  6
________________
 62
     7
 10
-45.545561
 20
139.635853
 30
0.0
 11
-45.545561
 21
130.135853
 31
0.0
  0
LINE
  5
BD
  8
1
  6
________________
 62
     7
 10
-93.429035
 20
253.404087
 30
0.0
 11
-93.429035
 21
241.404087
 31
0.0
  0
ARC
  5
BE
  8
1
  6
________________
 62
     7
 10
-92.429035
 20
241.404087
 30
0.0
 40
1.0
 50
180.0
 51
270.0
  0
LINE
  5
BF
  8
1
  6
________________
 62
     7
 10
-88.929035
 20
240.404087
 30
0.0
 11
-92.429035
 21
240.404087
 31
0.0
  0
ARC
  5
C0
  8
1
  6
________________
 62
     7
 10
-88.929035
 20
237.404087
 30
0.0
 40
3.0
 50
0.0
 51
90.0
  0
LINE
  5
C1
  8
1
  6
________________
 62
     7
 10
-85.929035
 20
237.404087
 30
0.0
 11
-85.929035
 21
209.404087
 31
0.0
  0
ARC
  5
C2
  8
1
  6
________________
 62
     7
 10
-88.929035
 20
209.404087
 30
0.0
 40
3.0
 50
270.0
 51
0.0
  0
LINE
  5
C3
  8
1
  6
________________
 62
     7
 10
-88.929035
 20
206.404087
 30
0.0
 11
-92.429035
 21
206.404087
 31
0.0
  0
ARC
  5
C4
  8
1
  6
________________
 62
     7
 10
-92.429035
 20
205.404087
 30
0.0
 40
1.0
 50
90.0
 51
180.0
  0
LINE
  5
C5
  8
1
  6
________________
 62
     7
 10
-93.429035
 20
193.404087
 30
0.0
 11
-93.429035
 21
205.404087
 31
0.0
  0
LINE
  5
C6
  8
1
  6
________________
 62
     7
 10
-95.429035
 20
193.404087
 30
0.0
 11
-95.429035
 21
205.404087
 31
0.0
  0
ARC
  5
C7
  8
1
  6
________________
 62
     7
 10
-92.429035
 20
205.404087
 30
0.0
 40
3.0
 50
90.0
 51
180.0
  0
LINE
  5
C8
  8
1
  6
________________
 62
     7
 10
-88.929035
 20
208.404087
 30
0.0
 11
-92.429035
 21
208.404087
 31
0.0
  0
ARC
  5
C9
  8
1
  6
________________
 62
     7
 10
-88.929035
 20
209.404087
 30
0.0
 40
1.0
 50
270.0
 51
0.0
  0
LINE
  5
CA
  8
1
  6
________________
 62
     7
 10
-87.929035
 20
237.404087
 30
0.0
 11
-87.929035
 21
209.404087
 31
0.0
  0
ARC
  5
CB
  8
1
  6
________________
 62
     7
 10
-88.929035
 20
237.404087
 30
0.0
 40
1.0
 50
0.0
 51
90.0
  0
LINE
  5
CC
  8
1
  6
________________
 62
     7
 10
-88.929035
 20
238.404087
 30
0.0
 11
-92.429035
 21
238.404087
 31
0.0
  0
ARC
  5
CD
  8
1
  6
________________
 62
     7
 10
-92.429035
 20
241.404087
 30
0.0
 40
3.0
 50
180.0
 51
270.0
  0
LINE
  5
CE
  8
1
  6
________________
 62
     7
 10
-95.429035
 20
253.404087
 30
0.0
 11
-95.429035
 21
241.404087
 31
0.0
  0
LINE
  5
CF
  8
1
  6
________________
 62
     7
 10
-95.429035
 20
253.404087
 30
0.0
 11
-93.429035
 21
253.404087
 31
0.0
  0
LINE
  5
D0
  8
1
  6
________________
 62
     7
 10
-93.429035
 20
193.404087
 30
0.0
 11
-95.429035
 21
193.404087
 31
0.0
  0
LINE
  5
D1
  8
1
  6
________________
 62
     7
 10
-113.829035
 20
225.822885
 30
0.0
 11
-113.829035
 21
220.98529
 31
0.0
  0
LINE
  5
D2
  8
1
  6
________________
 62
     7
 10
-115.829035
 20
220.98529
 30
0.0
 11
-115.8290356933
 21
225.8228849096
 31
0.0
  0
ARC
  5
D3
  8
1
  6
________________
 62
     7
 10
-115.316004
 20
225.835671
 30
0.0
 40
0.513191
 50
91.455065
 51
181.4276650023
  0
LINE
  5
D4
  8
1
  6
________________
 62
     7
 10
-114.329035
 20
226.348696
 30
0.0
 11
-115.329035
 21
226.348696
 31
0.0
  0
ARC
  5
D5
  8
1
  6
________________
 62
     7
 10
-114.342571
 20
220.972983
 30
0.0
 40
0.513683
 50
271.509911
 51
1.372818999999993
  0
ARC
  5
D6
  8
1
  6
________________
 62
     7
 10
-114.344554
 20
225.833305
 30
0.0
 40
0.515624
 50
358.841988
 51
88.27528200000006
  0
ARC
  5
D7
  8
1
  6
________________
 62
     7
 10
-115.313781
 20
220.974617
 30
0.0
 40
0.515364
 50
178.813374
 51
268.303896
  0
LINE
  5
D8
  8
1
  6
________________
 62
     7
 10
-115.329035
 20
220.459478
 30
0.0
 11
-114.329035
 21
220.459478
 31
0.0
  0
LINE
  5
D9
  8
1
  6
________________
 62
     7
 10
-131.329035
 20
237.404087
 30
0.0
 11
-131.329035
 21
209.404087
 31
0.0
  0
LINE
  5
DA
  8
1
  6
________________
 62
     7
 10
-115.329035
 20
237.090916
 30
0.0
 11
-115.829035
 21
237.193555
 31
0.0
  0
LINE
  5
DB
  8
1
  6
________________
 62
     7
 10
-115.329035
 20
237.090916
 30
0.0
 11
-114.329035
 21
237.090916
 31
0.0
  0
LINE
  5
DC
  8
1
  6
________________
 62
     7
 10
-113.829035
 20
237.193555
 30
0.0
 11
-114.329035
 21
237.090916
 31
0.0
  0
LINE
  5
DD
  8
1
  6
________________
 62
     7
 10
-114.329035
 20
209.717258
 30
0.0
 11
-113.829035
 21
209.614619
 31
0.0
  0
LINE
  5
DE
  8
1
  6
________________
 62
     7
 10
-114.329035
 20
209.717258
 30
0.0
 11
-115.329035
 21
209.717258
 31
0.0
  0
LINE
  5
DF
  8
1
  6
________________
 62
     7
 10
-115.829035
 20
209.614619
 30
0.0
 11
-115.329035
 21
209.717258
 31
0.0
  0
LINE
  5
E0
  8
1
  6
________________
 62
     7
 10
-132.329035
 20
210.404087
 30
0.0
 11
-132.329035
 21
236.404087
 31
0.0
  0
LINE
  5
E1
  8
1
  6
________________
 62
     7
 10
-111.829035
 20
234.528385
 30
0.0
 11
-111.829035
 21
212.279789
 31
0.0
  0
LINE
  5
E2
  8
1
  6
________________
 62
     7
 10
-113.829035
 20
239.304087
 30
0.0
 11
-113.829035
 21
237.193555
 31
0.0
  0
LINE
  5
E3
  8
1
  6
________________
 62
     7
 10
-115.829035
 20
207.504087
 30
0.0
 11
-115.829035
 21
209.614619
 31
0.0
  0
LINE
  5
E4
  8
1
  6
________________
 62
     7
 10
-115.829035
 20
237.193555
 30
0.0
 11
-115.829035
 21
239.304087
 31
0.0
  0
LINE
  5
E5
  8
1
  6
________________
 62
     7
 10
-113.829035
 20
209.614619
 30
0.0
 11
-113.829035
 21
207.504087
 31
0.0
  0
LINE
  5
E6
  8
1
  6
________________
 62
     7
 10
-85.829035
 20
209.404087
 30
0.0
 11
-85.829035
 21
237.404087
 31
0.0
  0
LINE
  5
E7
  8
1
  6
________________
 62
     7
 10
-85.329035
 20
225.204087
 30
0.0
 11
-85.329035
 21
221.604087
 31
0.0
  0
LINE
  5
E8
  8
1
  6
________________
 62
     7
 10
-113.829035
 20
209.404087
 30
0.0
 11
-87.929035
 21
209.404087
 31
0.0
  0
LINE
  5
E9
  8
1
  6
________________
 62
     7
 10
-122.329035
 20
209.404087
 30
0.0
 11
-115.829035
 21
209.404087
 31
0.0
  0
LINE
  5
EA
  8
1
  6
________________
 62
     7
 10
-115.829035
 20
237.404087
 30
0.0
 11
-122.329035
 21
237.404087
 31
0.0
  0
LINE
  5
EB
  8
1
  6
________________
 62
     7
 10
-87.929035
 20
237.404087
 30
0.0
 11
-113.829035
 21
237.404087
 31
0.0
  0
LINE
  5
EC
  8
1
  6
________________
 62
     7
 10
-131.329035
 20
237.404087
 30
0.0
 11
-132.329035
 21
236.404087
 31
0.0
  0
LINE
  5
ED
  8
1
  6
________________
 62
     7
 10
-132.329035
 20
210.404087
 30
0.0
 11
-131.329035
 21
209.404087
 31
0.0
  0
LINE
  5
EE
  8
1
  6
________________
 62
     7
 10
-85.829035
 20
221.104087
 30
0.0
 11
-85.329035
 21
221.604087
 31
0.0
  0
LINE
  5
EF
  8
1
  6
________________
 62
     7
 10
-85.329035
 20
225.204087
 30
0.0
 11
-85.829035
 21
225.704087
 31
0.0
  0
LINE
  5
F0
  8
1
  6
________________
 62
     7
 10
-85.829035
 20
225.704087
 30
0.0
 11
-85.929035
 21
225.704087
 31
0.0
  0
LINE
  5
F1
  8
1
  6
________________
 62
     7
 10
-85.929035
 20
221.104087
 30
0.0
 11
-85.829035
 21
221.104087
 31
0.0
  0
LINE
  5
F2
  8
1
  6
________________
 62
     7
 10
-114.329035
 20
239.804087
 30
0.0
 11
-115.329035
 21
239.804087
 31
0.0
  0
ARC
  5
F3
  8
1
  6
________________
 62
     7
 10
-114.329035
 20
239.304087
 30
0.0
 40
0.5
 50
0.0
 51
90.0
  0
ARC
  5
F4
  8
1
  6
________________
 62
     7
 10
-115.329035
 20
239.304087
 30
0.0
 40
0.5
 50
90.0
 51
180.0
  0
ARC
  5
F5
  8
1
  6
________________
 62
     7
 10
-115.329035
 20
207.504087
 30
0.0
 40
0.5
 50
180.0
 51
270.0
  0
ARC
  5
F6
  8
1
  6
________________
 62
     7
 10
-114.329035
 20
207.504087
 30
0.0
 40
0.5
 50
270.0
 51
0.0
  0
LINE
  5
F7
  8
1
  6
________________
 62
     7
 10
-115.329035
 20
207.004087
 30
0.0
 11
-114.329035
 21
207.004087
 31
0.0
  0
TEXT
  5
F8
  8
0
 62
     7
 10
-82.50272727272728
 20
104.0613636363636
 30
0.0
 40
3.0
  1
WKE-13A-15T
  7
EXPLODED0
  0
LINE
  5
F9
  8
0
  6
________________
 62
     7
 10
-122.329035
 20
168.635853
 30
0.0
 11
-122.329035
 21
140.635853
 31
0.0
  0
LINE
  5
FA
  8
0
  6
________________
 62
     7
 10
-125.829035
 20
168.635853
 30
0.0
 11
-125.829035
 21
140.635853
 31
0.0
  0
LINE
  5
FB
  8
0
  6
________________
 62
     7
 10
-125.829035
 20
141.385853
 30
0.0
 11
-122.329035
 21
141.385853
 31
0.0
  0
LINE
  5
FC
  8
0
  6
________________
 62
     7
 10
-122.329035
 20
167.885853
 30
0.0
 11
-125.829035
 21
167.885853
 31
0.0
  0
LINE
  5
FD
  8
0
  6
________________
 62
     7
 10
-125.829035
 20
168.635853
 30
0.0
 11
-131.329035
 21
168.635853
 31
0.0
  0
LINE
  5
FE
  8
0
  6
________________
 62
     7
 10
-115.829035
 20
168.635853
 30
0.0
 11
-122.329035
 21
168.635853
 31
0.0
  0
LINE
  5
FF
  8
0
  6
________________
 62
     7
 10
-122.329035
 20
140.635853
 30
0.0
 11
-114.329035
 21
140.635853
 31
0.0
  0
LINE
  5
100
  8
0
  6
________________
 62
     7
 10
-131.329035
 20
140.635853
 30
0.0
 11
-125.829035
 21
140.635853
 31
0.0
  0
LINE
  5
101
  8
0
  6
________________
 62
     7
 10
-122.329035
 20
237.404087
 30
0.0
 11
-122.329035
 21
209.404087
 31
0.0
  0
LINE
  5
102
  8
0
  6
________________
 62
     7
 10
-125.829035
 20
237.404087
 30
0.0
 11
-125.829035
 21
209.404087
 31
0.0
  0
LINE
  5
103
  8
0
  6
________________
 62
     7
 10
-125.829035
 20
210.154087
 30
0.0
 11
-122.329035
 21
210.154087
 31
0.0
  0
LINE
  5
104
  8
0
  6
________________
 62
     7
 10
-122.329035
 20
236.654087
 30
0.0
 11
-125.829035
 21
236.654087
 31
0.0
  0
LINE
  5
105
  8
0
  6
________________
 62
     7
 10
-125.829035
 20
237.404087
 30
0.0
 11
-131.329035
 21
237.404087
 31
0.0
  0
LINE
  5
106
  8
0
  6
________________
 62
     7
 10
-131.329035
 20
209.404087
 30
0.0
 11
-125.829035
 21
209.404087
 31
0.0
  0
ENDSEC
  0
EOF
