  0
SECTION
  2
HEADER
  9
$ACADVER
  1
AC1006
  9
$DWGCODEPAGE
  3
ansi_932
  9
$INSBASE
 10
0.0
 20
0.0
 30
0.0
  9
$EXTMIN
 10
-126.682685
 20
93.77727272727272
  9
$EXTMAX
 10
-15.482684
 20
220.7911376936
  9
$LIMMIN
 10
0.0
 20
0.0
  9
$LIMMAX
 10
12.0
 20
9.0
  9
$ORTHOMODE
 70
     0
  9
$REGENMODE
 70
     1
  9
$FILLMODE
 70
     1
  9
$QTEXTMODE
 70
     0
  9
$MIRRTEXT
 70
     1
  9
$DRAGMODE
 70
     2
  9
$LTSCALE
 40
1.0
  9
$OSMODE
 70
    37
  9
$ATTMODE
 70
     1
  9
$TEXTSIZE
 40
0.2
  9
$TRACEWID
 40
0.05
  9
$TEXTSTYLE
  7
STANDARD
  9
$CLAYER
  8
0
  9
$CELTYPE
  6
BYLAYER
  9
$CECOLOR
 62
   256
  9
$DIMSCALE
 40
1.0
  9
$DIMASZ
 40
0.9
  9
$DIMEXO
 40
0.0625
  9
$DIMDLI
 40
0.38
  9
$DIMRND
 40
0.0
  9
$DIMDLE
 40
0.0
  9
$DIMEXE
 40
0.18
  9
$DIMTP
 40
0.0
  9
$DIMTM
 40
0.0
  9
$DIMTXT
 40
3.0
  9
$DIMCEN
 40
0.09
  9
$DIMTSZ
 40
0.0
  9
$DIMTOL
 70
     0
  9
$DIMLIM
 70
     0
  9
$DIMTIH
 70
     1
  9
$DIMTOH
 70
     1
  9
$DIMSE1
 70
     0
  9
$DIMSE2
 70
     0
  9
$DIMTAD
 70
     1
  9
$DIMZIN
 70
     0
  9
$DIMBLK
  1

  9
$DIMASO
 70
     1
  9
$DIMSHO
 70
     1
  9
$DIMPOST
  1

  9
$DIMAPOST
  1

  9
$DIMALT
 70
     0
  9
$DIMALTD
 70
     2
  9
$DIMALTF
 40
25.4
  9
$DIMLFAC
 40
1.0
  9
$DIMTOFL
 70
     0
  9
$DIMTVP
 40
0.0
  9
$DIMTIX
 70
     0
  9
$DIMSOXD
 70
     0
  9
$DIMSAH
 70
     0
  9
$DIMBLK1
  1

  9
$DIMBLK2
  1

  9
$LUNITS
 70
     2
  9
$LUPREC
 70
     4
  9
$SKETCHINC
 40
0.1
  9
$FILLETRAD
 40
0.5
  9
$AUNITS
 70
     0
  9
$AUPREC
 70
     0
  9
$MENU
  1
.
  9
$ELEVATION
 40
0.0
  9
$THICKNESS
 40
0.0
  9
$LIMCHECK
 70
     0
  9
$CHAMFERA
 40
0.5
  9
$CHAMFERB
 40
0.5
  9
$SKPOLY
 70
     0
  9
$TDCREATE
 40
2460698.580823958
  9
$TDUPDATE
 40
2460698.58082397
  9
$TDINDWG
 40
0.0000000116
  9
$TDUSRTIMER
 40
0.0000000116
  9
$USRTIMER
 70
     1
  9
$ANGBASE
 50
0.0
  9
$ANGDIR
 70
     0
  9
$PDMODE
 70
     0
  9
$PDSIZE
 40
0.0
  9
$PLINEWID
 40
0.0
  9
$COORDS
 70
     1
  9
$SPLFRAME
 70
     0
  9
$SPLINETYPE
 70
     6
  9
$SPLINESEGS
 70
     8
  9
$ATTDIA
 70
     0
  9
$ATTREQ
 70
     1
  9
$HANDLING
 70
     1
  9
$HANDSEED
  5
15B
  9
$SURFTAB1
 70
     6
  9
$SURFTAB2
 70
     6
  9
$SURFTYPE
 70
     6
  9
$SURFU
 70
     6
  9
$SURFV
 70
     6
  9
$UCSNAME
  2

  9
$UCSORG
 10
0.0
 20
0.0
 30
0.0
  9
$UCSXDIR
 10
1.0
 20
0.0
 30
0.0
  9
$UCSYDIR
 10
0.0
 20
1.0
 30
0.0
  9
$USERI1
 70
     0
  9
$USERI2
 70
     0
  9
$USERI3
 70
     0
  9
$USERI4
 70
     0
  9
$USERI5
 70
     0
  9
$USERR1
 40
0.0
  9
$USERR2
 40
0.0
  9
$USERR3
 40
0.0
  9
$USERR4
 40
0.0
  9
$USERR5
 40
0.0
  9
$WORLDVIEW
 70
     1
  0
ENDSEC
  0
SECTION
  2
TABLES
  0
TABLE
  2
VPORT
 70
     1
  0
VPORT
  2
*ACTIVE
 70
     0
 10
0.0
 20
0.0
 11
1.0
 21
1.0
 12
-71.08268450000001
 22
157.2842052104364
 13
0.0
 23
0.0
 14
0.5
 24
0.5
 15
0.5
 25
0.5
 16
0.0
 26
0.0
 36
1.0
 17
0.0
 27
0.0
 37
0.0
 40
127.0138649663273
 41
1.6
 42
50.0
 43
0.0
 44
0.0
 50
0.0
 51
0.0
 71
     0
 72
   100
 73
     1
 74
     3
 75
     0
 76
     0
 77
     0
 78
     0
  0
ENDTAB
  0
TABLE
  2
LTYPE
 70
     2
  0
LTYPE
  2
CONTINUOUS
 70
     0
  3
Solid line
 72
    65
 73
     0
 40
0.0
  0
LTYPE
  2
________________
 70
     0
  3

 72
    65
 73
     0
 40
0.0
  0
ENDTAB
  0
TABLE
  2
LAYER
 70
     2
  0
LAYER
  2
0
 70
     0
 62
     7
  6
CONTINUOUS
  0
LAYER
  2
1
 70
     0
 62
     7
  6
CONTINUOUS
  0
ENDTAB
  0
TABLE
  2
STYLE
 70
     2
  0
STYLE
  2
STANDARD
 70
     0
 40
0.0
 41
1.0
 50
0.0
 71
     0
 42
0.2
  3
txt
  4

  0
STYLE
  2
EXPLODED0
 70
     0
 40
0.2
 41
1.0
 50
0.0
 71
     0
 42
0.2
  3
ＭＳ ゴシック
  4

  0
ENDTAB
  0
TABLE
  2
VIEW
 70
     0
  0
ENDTAB
  0
TABLE
  2
UCS
 70
     0
  0
ENDTAB
  0
ENDSEC
  0
SECTION
  2
BLOCKS
  0
ENDSEC
  0
SECTION
  2
ENTITIES
  0
ARC
  5
3C
  8
1
  6
________________
 62
     7
 10
-99.489783
 20
143.647834
 30
0.0
 40
0.5
 50
315.0
 51
45.0
  0
LINE
  5
3E
  8
1
  6
________________
 62
     7
 10
-99.63623
 20
144.501388
 30
0.0
 11
-99.13623
 21
144.001388
 31
0.0
  0
ARC
  5
3F
  8
1
  6
________________
 62
     7
 10
-99.282676
 20
144.854941
 30
0.0
 40
0.5
 50
180.0
 51
225.0
  0
LINE
  5
40
  8
1
  6
________________
 62
     7
 10
-99.782676
 20
149.647834
 30
0.0
 11
-99.782676
 21
144.854941
 31
0.0
  0
ARC
  5
41
  8
1
  6
________________
 62
     7
 10
-96.782676
 20
147.06179
 30
0.0
 40
1.0
 50
204.453578
 51
224.415309
  0
ARC
  5
42
  8
1
  6
________________
 62
     7
 10
-99.282676
 20
144.6123
 30
0.0
 40
2.5
 50
0.0
 51
44.41530899999999
  0
LINE
  5
43
  8
1
  6
________________
 62
     7
 10
-96.782676
 20
142.683368
 30
0.0
 11
-96.782676
 21
144.6123
 31
0.0
  0
ARC
  5
44
  8
1
  6
________________
 62
     7
 10
-99.282676
 20
142.683368
 30
0.0
 40
2.5
 50
315.584691
 51
0.0
  0
LINE
  5
45
  8
1
  6
________________
 62
     7
 10
-97.782676
 20
140.233878
 30
0.0
 11
-97.782676
 21
111.647834
 31
0.0
  0
LINE
  5
46
  8
1
  6
________________
 62
     7
 10
-99.782676
 20
142.440727
 30
0.0
 11
-99.782676
 21
111.647834
 31
0.0
  0
ARC
  5
47
  8
1
  6
________________
 62
     7
 10
-99.282676
 20
142.440727
 30
0.0
 40
0.5
 50
135.0
 51
180.0
  0
LINE
  5
48
  8
1
  6
________________
 62
     7
 10
-99.13623
 20
143.294281
 30
0.0
 11
-99.63623
 21
142.794281
 31
0.0
  0
ARC
  5
49
  8
1
  6
________________
 62
     7
 10
-96.782676
 20
140.233878
 30
0.0
 40
1.0
 50
135.584691
 51
180.0
  0
LINE
  5
4A
  8
1
  6
________________
 62
     7
 10
-99.782676
 20
149.647834
 30
0.0
 11
-80.282676
 21
149.647834
 31
0.0
  0
LINE
  5
4B
  8
1
  6
________________
 62
     7
 10
-97.782676
 20
149.647834
 30
0.0
 11
-97.782676
 21
147.06179
 31
0.0
  0
LINE
  5
4C
  8
1
  6
________________
 62
     7
 10
-97.692973
 20
146.647834
 30
0.0
 11
-97.782676
 21
147.06179
 31
0.0
  0
LINE
  5
4D
  8
1
  6
________________
 62
     7
 10
-97.782676
 20
111.647834
 30
0.0
 11
-99.782676
 21
111.647834
 31
0.0
  0
LINE
  5
4E
  8
1
  6
________________
 62
     7
 10
-97.782676
 20
127.647834
 30
0.0
 11
-80.282676
 21
127.647834
 31
0.0
  0
LINE
  5
4F
  8
1
  6
________________
 62
     7
 10
-80.282676
 20
149.647834
 30
0.0
 11
-80.282676
 21
127.647834
 31
0.0
  0
LINE
  5
50
  8
1
  6
________________
 62
     7
 10
-88.332685
 20
112.147834
 30
0.0
 11
-97.782676
 21
112.147834
 31
0.0
  0
LINE
  5
51
  8
1
  6
________________
 62
     7
 10
-99.782676
 20
112.147834
 30
0.0
 11
-111.232685
 21
112.147834
 31
0.0
  0
LINE
  5
52
  8
1
  6
________________
 62
     7
 10
-88.332685
 20
112.847834
 30
0.0
 11
-97.782676
 21
112.847834
 31
0.0
  0
LINE
  5
53
  8
1
  6
________________
 62
     7
 10
-99.782676
 20
112.847834
 30
0.0
 11
-111.232685
 21
112.847834
 31
0.0
  0
LINE
  5
54
  8
1
  6
________________
 62
     7
 10
-88.332685
 20
99.947834
 30
0.0
 11
-111.232685
 21
99.947834
 31
0.0
  0
LINE
  5
55
  8
1
  6
________________
 62
     7
 10
-88.332685
 20
102.647834
 30
0.0
 11
-111.232685
 21
102.647834
 31
0.0
  0
LINE
  5
56
  8
1
  6
________________
 62
     7
 10
-88.632685
 20
99.647834
 30
0.0
 11
-110.932685
 21
99.647834
 31
0.0
  0
LINE
  5
57
  8
1
  6
________________
 62
     7
 10
-99.782676
 20
113.147834
 30
0.0
 11
-111.232685
 21
113.147834
 31
0.0
  0
LINE
  5
58
  8
1
  6
________________
 62
     7
 10
-108.182685
 20
146.066632
 30
0.0
 11
-108.182685
 21
141.229037
 31
0.0
  0
LINE
  5
59
  8
1
  6
________________
 62
     7
 10
-110.182685
 20
141.229037
 30
0.0
 11
-110.182685
 21
146.066632
 31
0.0
  0
ARC
  5
5A
  8
1
  6
________________
 62
     7
 10
-109.669653
 20
146.079418
 30
0.0
 40
0.513191
 50
91.455091
 51
181.427639
  0
ARC
  5
5B
  8
1
  6
________________
 62
     7
 10
-108.698204
 20
146.077052
 30
0.0
 40
0.515624
 50
358.841988
 51
88.27528200000006
  0
LINE
  5
5C
  8
1
  6
________________
 62
     7
 10
-108.682685
 20
146.592443
 30
0.0
 11
-109.682685
 21
146.592443
 31
0.0
  0
LINE
  5
5D
  8
1
  6
________________
 62
     7
 10
-109.682685
 20
140.703225
 30
0.0
 11
-108.682685
 21
140.703225
 31
0.0
  0
ARC
  5
5E
  8
1
  6
________________
 62
     7
 10
-108.69622
 20
141.21673
 30
0.0
 40
0.513683
 50
271.509938
 51
1.372792000000004
  0
ARC
  5
5F
  8
1
  6
________________
 62
     7
 10
-109.667431
 20
141.218364
 30
0.0
 40
0.515364
 50
178.813374
 51
268.303896
  0
LINE
  5
60
  8
1
  6
________________
 62
     7
 10
-125.682685
 20
157.647834
 30
0.0
 11
-125.682685
 21
129.647834
 31
0.0
  0
LINE
  5
61
  8
1
  6
________________
 62
     7
 10
-106.182685
 20
131.1718294473
 30
0.0
 11
-108.782685
 21
129.647834
 31
0.0
  0
LINE
  5
62
  8
1
  6
________________
 62
     7
 10
-109.682685
 20
157.334663
 30
0.0
 11
-110.182685
 21
157.437302
 31
0.0
  0
LINE
  5
63
  8
1
  6
________________
 62
     7
 10
-109.682685
 20
157.334663
 30
0.0
 11
-108.682685
 21
157.334663
 31
0.0
  0
LINE
  5
64
  8
1
  6
________________
 62
     7
 10
-108.182685
 20
157.437302
 30
0.0
 11
-108.682685
 21
157.334663
 31
0.0
  0
ARC
  5
65
  8
1
  6
________________
 62
     7
 10
-104.182685
 20
139.147834
 30
0.0
 40
2.0
 50
90.0
 51
180.0
  0
ARC
  5
66
  8
1
  6
________________
 62
     7
 10
-104.182685
 20
148.147834
 30
0.0
 40
2.0
 50
180.0
 51
270.0
  0
LINE
  5
67
  8
1
  6
________________
 62
     7
 10
-126.682685
 20
130.647834
 30
0.0
 11
-126.682685
 21
156.647834
 31
0.0
  0
LINE
  5
68
  8
1
  6
________________
 62
     7
 10
-104.182685
 20
146.147834
 30
0.0
 11
-99.782676
 21
146.147834
 31
0.0
  0
LINE
  5
69
  8
1
  6
________________
 62
     7
 10
-99.782676
 20
141.147834
 30
0.0
 11
-104.182685
 21
141.147834
 31
0.0
  0
LINE
  5
6A
  8
1
  6
________________
 62
     7
 10
-106.182685
 20
139.147834
 30
0.0
 11
-106.182685
 21
131.1718294473
 31
0.0
  0
LINE
  5
6B
  8
1
  6
________________
 62
     7
 10
-106.182685
 20
155.647834
 30
0.0
 11
-106.182685
 21
148.147834
 31
0.0
  0
LINE
  5
6C
  8
1
  6
________________
 62
     7
 10
-111.232685
 20
119.147834
 30
0.0
 11
-99.782676
 21
119.147834
 31
0.0
  0
LINE
  5
6D
  8
1
  6
________________
 62
     7
 10
-97.782676
 20
119.147834
 30
0.0
 11
-88.332685
 21
119.147834
 31
0.0
  0
LINE
  5
6E
  8
1
  6
________________
 62
     7
 10
-97.782676
 20
113.147834
 30
0.0
 11
-88.332685
 21
113.147834
 31
0.0
  0
LINE
  5
6F
  8
1
  6
________________
 62
     7
 10
-108.782685
 20
125.647834
 30
0.0
 11
-99.782676
 21
125.647834
 31
0.0
  0
LINE
  5
70
  8
1
  6
________________
 62
     7
 10
-97.782676
 20
125.647834
 30
0.0
 11
-90.782685
 21
125.647834
 31
0.0
  0
LINE
  5
71
  8
1
  6
________________
 62
     7
 10
-108.182685
 20
159.547834
 30
0.0
 11
-108.182685
 21
157.437302
 31
0.0
  0
LINE
  5
72
  8
1
  6
________________
 62
     7
 10
-110.182685
 20
157.437302
 30
0.0
 11
-110.182685
 21
159.547834
 31
0.0
  0
LINE
  5
73
  8
1
  6
________________
 62
     7
 10
-80.182685
 20
127.647834
 30
0.0
 11
-80.182685
 21
149.647834
 31
0.0
  0
LINE
  5
74
  8
1
  6
________________
 62
     7
 10
-79.682685
 20
145.447834
 30
0.0
 11
-79.682685
 21
141.847834
 31
0.0
  0
LINE
  5
75
  8
1
  6
________________
 62
     7
 10
-88.332685
 20
112.147834
 30
0.0
 11
-88.332685
 21
119.147834
 31
0.0
  0
LINE
  5
76
  8
1
  6
________________
 62
     7
 10
-111.232685
 20
119.147834
 30
0.0
 11
-111.232685
 21
112.147834
 31
0.0
  0
LINE
  5
77
  8
1
  6
________________
 62
     7
 10
-88.332685
 20
99.947834
 30
0.0
 11
-88.332685
 21
102.647834
 31
0.0
  0
LINE
  5
78
  8
1
  6
________________
 62
     7
 10
-111.232685
 20
102.647834
 30
0.0
 11
-111.232685
 21
99.947834
 31
0.0
  0
LINE
  5
79
  8
1
  6
________________
 62
     7
 10
-111.232685
 20
99.947834
 30
0.0
 11
-110.932685
 21
99.647834
 31
0.0
  0
LINE
  5
7A
  8
1
  6
________________
 62
     7
 10
-88.632685
 20
99.647834
 30
0.0
 11
-88.332685
 21
99.947834
 31
0.0
  0
LINE
  5
7B
  8
1
  6
________________
 62
     7
 10
-88.332685
 20
112.847834
 30
0.0
 11
-88.632685
 21
113.147834
 31
0.0
  0
LINE
  5
7C
  8
1
  6
________________
 62
     7
 10
-110.932685
 20
113.147834
 30
0.0
 11
-111.232685
 21
112.847834
 31
0.0
  0
LINE
  5
7D
  8
1
  6
________________
 62
     7
 10
-88.532685
 20
102.647834
 30
0.0
 11
-88.532685
 21
112.147834
 31
0.0
  0
LINE
  5
7E
  8
1
  6
________________
 62
     7
 10
-111.032685
 20
112.147834
 30
0.0
 11
-111.032685
 21
99.947834
 31
0.0
  0
LINE
  5
7F
  8
1
  6
________________
 62
     7
 10
-110.182685
 20
157.647834
 30
0.0
 11
-116.682685
 21
157.647834
 31
0.0
  0
LINE
  5
80
  8
1
  6
________________
 62
     7
 10
-125.682685
 20
157.647834
 30
0.0
 11
-126.682685
 21
156.647834
 31
0.0
  0
LINE
  5
81
  8
1
  6
________________
 62
     7
 10
-126.682685
 20
130.647834
 30
0.0
 11
-125.682685
 21
129.647834
 31
0.0
  0
ARC
  5
82
  8
1
  6
________________
 62
     7
 10
-108.182685
 20
155.647834
 30
0.0
 40
2.0
 50
0.0
 51
90.0
  0
LINE
  5
83
  8
1
  6
________________
 62
     7
 10
-90.782685
 20
125.647834
 30
0.0
 11
-90.782685
 21
126.647844
 31
0.0
  0
LINE
  5
84
  8
1
  6
________________
 62
     7
 10
-108.782685
 20
129.649174
 30
0.0
 11
-108.782685
 21
125.647834
 31
0.0
  0
ARC
  5
85
  8
1
  6
________________
 62
     7
 10
-108.782685
 20
134.647834
 30
0.0
 40
18.0
 50
58.21057200000001
 51
81.37274400000001
  0
LINE
  5
86
  8
1
  6
________________
 62
     7
 10
-90.882685
 20
119.147834
 30
0.0
 11
-90.882685
 21
126.647844
 31
0.0
  0
LINE
  5
87
  8
1
  6
________________
 62
     7
 10
-108.682685
 20
129.649174
 30
0.0
 11
-108.682685
 21
119.147834
 31
0.0
  0
ARC
  5
88
  8
1
  6
________________
 62
     7
 10
-88.782685
 20
126.647834
 30
0.0
 40
2.0
 50
150.0
 51
180.0
  0
ARC
  5
89
  8
1
  6
________________
 62
     7
 10
-98.247031
 20
151.647834
 30
0.0
 40
2.0
 50
238.211669
 51
270.0
  0
LINE
  5
8A
  8
1
  6
________________
 62
     7
 10
-80.182685
 20
145.947834
 30
0.0
 11
-80.282676
 21
145.947834
 31
0.0
  0
LINE
  5
8B
  8
1
  6
________________
 62
     7
 10
-80.282676
 20
141.347834
 30
0.0
 11
-80.182685
 21
141.347834
 31
0.0
  0
LINE
  5
8C
  8
1
  6
________________
 62
     7
 10
-80.182685
 20
141.347834
 30
0.0
 11
-79.682685
 21
141.847834
 31
0.0
  0
LINE
  5
8D
  8
1
  6
________________
 62
     7
 10
-79.682685
 20
145.447834
 30
0.0
 11
-80.182685
 21
145.947834
 31
0.0
  0
LINE
  5
8E
  8
1
  6
________________
 62
     7
 10
-108.682685
 20
160.047834
 30
0.0
 11
-109.682685
 21
160.047834
 31
0.0
  0
ARC
  5
8F
  8
1
  6
________________
 62
     7
 10
-108.682685
 20
159.547834
 30
0.0
 40
0.5
 50
0.0
 51
90.0
  0
ARC
  5
90
  8
1
  6
________________
 62
     7
 10
-109.682685
 20
159.547834
 30
0.0
 40
0.5
 50
90.0
 51
180.0
  0
LINE
  5
91
  8
1
  6
________________
 62
     7
 10
-41.732684
 20
133.147834
 30
0.0
 11
-40.282684
 21
133.147834
 31
0.0
  0
ARC
  5
92
  8
1
  6
________________
 62
     7
 10
-40.282684
 20
132.347834
 30
0.0
 40
0.8
 50
0.0
 51
90.0
  0
LINE
  5
93
  8
1
  6
________________
 62
     7
 10
-39.482684
 20
132.347834
 30
0.0
 11
-39.482684
 21
131.454093
 31
0.0
  0
ARC
  5
94
  8
1
  6
________________
 62
     7
 10
-38.982684
 20
133.647834
 30
0.0
 40
2.25
 50
257.160412
 51
282.8395879999999
  0
LINE
  5
95
  8
1
  6
________________
 62
     7
 10
-38.482684
 20
131.454093
 30
0.0
 11
-38.482684
 21
132.347834
 31
0.0
  0
ARC
  5
96
  8
1
  6
________________
 62
     7
 10
-37.682684
 20
132.347834
 30
0.0
 40
0.8
 50
90.0
 51
180.0
  0
LINE
  5
97
  8
1
  6
________________
 62
     7
 10
-37.682684
 20
133.147834
 30
0.0
 11
-36.232684
 21
133.147834
 31
0.0
  0
LINE
  5
98
  8
1
  6
________________
 62
     7
 10
-36.232684
 20
133.147834
 30
0.0
 11
-36.232684
 21
134.147834
 31
0.0
  0
LINE
  5
99
  8
1
  6
________________
 62
     7
 10
-36.232684
 20
134.147834
 30
0.0
 11
-37.682684
 21
134.147834
 31
0.0
  0
ARC
  5
9A
  8
1
  6
________________
 62
     7
 10
-37.682684
 20
134.947834
 30
0.0
 40
0.8
 50
180.0
 51
270.0
  0
LINE
  5
9B
  8
1
  6
________________
 62
     7
 10
-38.482684
 20
134.947834
 30
0.0
 11
-38.482684
 21
135.841575
 31
0.0
  0
ARC
  5
9C
  8
1
  6
________________
 62
     7
 10
-38.982684
 20
133.647834
 30
0.0
 40
2.25
 50
77.16041200000001
 51
102.839588
  0
LINE
  5
9D
  8
1
  6
________________
 62
     7
 10
-39.482684
 20
135.841575
 30
0.0
 11
-39.482684
 21
134.947834
 31
0.0
  0
ARC
  5
9E
  8
1
  6
________________
 62
     7
 10
-40.282684
 20
134.947834
 30
0.0
 40
0.8
 50
270.0
 51
0.0
  0
LINE
  5
9F
  8
1
  6
________________
 62
     7
 10
-40.282684
 20
134.147834
 30
0.0
 11
-41.732684
 21
134.147834
 31
0.0
  0
LINE
  5
A0
  8
1
  6
________________
 62
     7
 10
-41.732684
 20
134.147834
 30
0.0
 11
-41.732684
 21
133.147834
 31
0.0
  0
CIRCLE
  5
A1
  8
1
  6
________________
 62
     7
 10
-38.982684
 20
133.647834
 30
0.0
 40
4.0
  0
ARC
  5
A2
  8
1
  6
________________
 62
     7
 10
-38.982684
 20
133.647834
 30
0.0
 40
1.801277
 50
163.884121
 51
196.115879
  0
ARC
  5
A3
  8
1
  6
________________
 62
     7
 10
-38.982684
 20
133.647834
 30
0.0
 40
1.801277
 50
343.8841210000001
 51
16.115879
  0
LINE
  5
A4
  8
1
  6
________________
 62
     7
 10
-55.982684
 20
127.647834
 30
0.0
 11
-21.982684
 21
127.647834
 31
0.0
  0
LINE
  5
A5
  8
1
  6
________________
 62
     7
 10
-18.482684
 20
149.647834
 30
0.0
 11
-59.482684
 21
149.647834
 31
0.0
  0
CIRCLE
  5
A6
  8
1
  6
________________
 62
     7
 10
-38.982684
 20
143.647834
 30
0.0
 40
2.4
  0
LINE
  5
A7
  8
1
  6
________________
 62
     7
 10
-55.982684
 20
125.147834
 30
0.0
 11
-55.982684
 21
149.647834
 31
0.0
  0
LINE
  5
A8
  8
1
  6
________________
 62
     7
 10
-21.982684
 20
149.647834
 30
0.0
 11
-21.982684
 21
125.147834
 31
0.0
  0
LINE
  5
A9
  8
1
  6
________________
 62
     7
 10
-62.482684
 20
114.647834
 30
0.0
 11
-62.482684
 21
147.06179
 31
0.0
  0
LINE
  5
AA
  8
1
  6
________________
 62
     7
 10
-15.482684
 20
147.06179
 30
0.0
 11
-15.482684
 21
114.647834
 31
0.0
  0
LINE
  5
AB
  8
1
  6
________________
 62
     7
 10
-62.482684
 20
146.647834
 30
0.0
 11
-62.453987
 21
147.06179
 31
0.0
  0
LINE
  5
AC
  8
1
  6
________________
 62
     7
 10
-15.511381
 20
147.06179
 30
0.0
 11
-15.482684
 21
146.647834
 31
0.0
  0
ARC
  5
AD
  8
1
  6
________________
 62
     7
 10
-18.482684
 20
114.647834
 30
0.0
 40
3.0
 50
270.0
 51
0.0
  0
LINE
  5
AE
  8
1
  6
________________
 62
     7
 10
-18.482684
 20
111.647834
 30
0.0
 11
-22.782684
 21
111.647834
 31
0.0
  0
ARC
  5
AF
  8
1
  6
________________
 62
     7
 10
-22.782684
 20
114.647834
 30
0.0
 40
3.0
 50
180.0
 51
270.0
  0
LINE
  5
B0
  8
1
  6
________________
 62
     7
 10
-25.782684
 20
114.647834
 30
0.0
 11
-25.782684
 21
124.147834
 31
0.0
  0
ARC
  5
B1
  8
1
  6
________________
 62
     7
 10
-25.282684
 20
124.147834
 30
0.0
 40
0.5
 50
90.0
 51
180.0
  0
LINE
  5
B2
  8
1
  6
________________
 62
     7
 10
-25.282684
 20
124.647834
 30
0.0
 11
-22.482684
 21
124.647834
 31
0.0
  0
ARC
  5
B3
  8
1
  6
________________
 62
     7
 10
-22.482684
 20
125.147834
 30
0.0
 40
0.5
 50
270.0
 51
0.0
  0
CIRCLE
  5
B4
  8
1
  6
________________
 62
     7
 10
-21.482684
 20
118.647834
 30
0.0
 40
2.5
  0
ARC
  5
B5
  8
1
  6
________________
 62
     7
 10
-55.482684
 20
125.147834
 30
0.0
 40
0.5
 50
180.0
 51
270.0
  0
LINE
  5
B6
  8
1
  6
________________
 62
     7
 10
-52.682684
 20
124.647834
 30
0.0
 11
-55.482684
 21
124.647834
 31
0.0
  0
ARC
  5
B7
  8
1
  6
________________
 62
     7
 10
-52.682684
 20
124.147834
 30
0.0
 40
0.5
 50
0.0
 51
90.0
  0
LINE
  5
B8
  8
1
  6
________________
 62
     7
 10
-52.182684
 20
114.647834
 30
0.0
 11
-52.182684
 21
124.147834
 31
0.0
  0
ARC
  5
B9
  8
1
  6
________________
 62
     7
 10
-55.182684
 20
114.647834
 30
0.0
 40
3.0
 50
270.0
 51
0.0
  0
LINE
  5
BA
  8
1
  6
________________
 62
     7
 10
-59.482684
 20
111.647834
 30
0.0
 11
-55.182684
 21
111.647834
 31
0.0
  0
ARC
  5
BB
  8
1
  6
________________
 62
     7
 10
-59.482684
 20
114.647834
 30
0.0
 40
3.0
 50
180.0
 51
270.0
  0
CIRCLE
  5
BC
  8
1
  6
________________
 62
     7
 10
-56.482684
 20
118.647834
 30
0.0
 40
2.5
  0
ARC
  5
BD
  8
1
  6
________________
 62
     7
 10
-18.482684
 20
146.647834
 30
0.0
 40
3.0
 50
7.931280000000003
 51
90.0
  0
ARC
  5
BE
  8
1
  6
________________
 62
     7
 10
-59.482684
 20
146.647834
 30
0.0
 40
3.0
 50
90.0
 51
172.06872
  0
LINE
  5
BF
  8
1
  6
________________
 62
     7
 10
-27.532684
 20
112.147834
 30
0.0
 11
-50.432684
 21
112.147834
 31
0.0
  0
LINE
  5
C0
  8
1
  6
________________
 62
     7
 10
-27.532684
 20
112.847834
 30
0.0
 11
-50.432684
 21
112.847834
 31
0.0
  0
LINE
  5
C1
  8
1
  6
________________
 62
     7
 10
-27.532684
 20
99.947834
 30
0.0
 11
-50.432684
 21
99.947834
 31
0.0
  0
LINE
  5
C2
  8
1
  6
________________
 62
     7
 10
-27.532684
 20
102.647834
 30
0.0
 11
-50.432684
 21
102.647834
 31
0.0
  0
LINE
  5
C3
  8
1
  6
________________
 62
     7
 10
-27.832684
 20
99.647834
 30
0.0
 11
-50.132684
 21
99.647834
 31
0.0
  0
CIRCLE
  5
C4
  8
1
  6
________________
 62
     7
 10
-38.982684
 20
143.647834
 30
0.0
 40
2.3
  0
CIRCLE
  5
C5
  8
1
  6
________________
 62
     7
 10
-38.982684
 20
143.647834
 30
0.0
 40
1.8
  0
LINE
  5
C6
  8
1
  6
________________
 62
     7
 10
-50.432684
 20
113.735293
 30
0.0
 11
-50.416433
 21
113.147834
 31
0.0
  0
LINE
  5
C7
  8
1
  6
________________
 62
     7
 10
-50.432684
 20
119.147834
 30
0.0
 11
-27.532684
 21
119.147834
 31
0.0
  0
LINE
  5
C8
  8
1
  6
________________
 62
     7
 10
-27.548935
 20
113.147834
 30
0.0
 11
-27.532684
 21
113.734863
 31
0.0
  0
LINE
  5
C9
  8
1
  6
________________
 62
     7
 10
-50.416433
 20
113.147834
 30
0.0
 11
-27.548935
 21
113.147834
 31
0.0
  0
LINE
  5
CA
  8
1
  6
________________
 62
     7
 10
-47.982684
 20
125.647834
 30
0.0
 11
-29.982684
 21
125.647834
 31
0.0
  0
ARC
  5
CB
  8
1
  6
________________
 62
     7
 10
-38.982684
 20
143.647834
 30
0.0
 40
14.0
 50
25.376934
 51
154.623066
  0
LINE
  5
CC
  8
1
  6
________________
 62
     7
 10
-41.927293
 20
157.334663
 30
0.0
 11
-41.545614
 21
159.499268
 31
0.0
  0
LINE
  5
CD
  8
1
  6
________________
 62
     7
 10
-36.419753
 20
159.499268
 30
0.0
 11
-36.038075
 21
157.334663
 31
0.0
  0
ARC
  5
CE
  8
1
  6
________________
 62
     7
 10
-38.982684
 20
143.647834
 30
0.0
 40
16.4
 50
82.51759
 51
97.48241000000003
  0
ARC
  5
CF
  8
1
  6
________________
 62
     7
 10
-41.053211
 20
159.412444
 30
0.0
 40
0.5
 50
97.48241
 51
170.0
  0
ARC
  5
D0
  8
1
  6
________________
 62
     7
 10
-36.912157
 20
159.412444
 30
0.0
 40
0.5
 50
10.0
 51
82.51758999999998
  0
LINE
  5
D1
  8
1
  6
________________
 62
     7
 10
-27.532684
 20
112.147834
 30
0.0
 11
-27.532684
 21
119.147834
 31
0.0
  0
LINE
  5
D2
  8
1
  6
________________
 62
     7
 10
-50.432684
 20
119.147834
 30
0.0
 11
-50.432684
 21
112.147834
 31
0.0
  0
LINE
  5
D3
  8
1
  6
________________
 62
     7
 10
-27.532684
 20
112.847834
 30
0.0
 11
-27.832684
 21
113.147834
 31
0.0
  0
LINE
  5
D4
  8
1
  6
________________
 62
     7
 10
-50.132684
 20
113.147834
 30
0.0
 11
-50.432684
 21
112.847834
 31
0.0
  0
LINE
  5
D5
  8
1
  6
________________
 62
     7
 10
-27.532684
 20
99.947834
 30
0.0
 11
-27.532684
 21
102.647834
 31
0.0
  0
LINE
  5
D6
  8
1
  6
________________
 62
     7
 10
-50.432684
 20
102.647834
 30
0.0
 11
-50.432684
 21
99.947834
 31
0.0
  0
LINE
  5
D7
  8
1
  6
________________
 62
     7
 10
-50.432684
 20
99.947834
 30
0.0
 11
-50.132684
 21
99.647834
 31
0.0
  0
LINE
  5
D8
  8
1
  6
________________
 62
     7
 10
-27.832684
 20
99.647834
 30
0.0
 11
-27.532684
 21
99.947834
 31
0.0
  0
LINE
  5
D9
  8
1
  6
________________
 62
     7
 10
-27.732684
 20
99.947834
 30
0.0
 11
-27.732684
 21
112.147834
 31
0.0
  0
LINE
  5
DA
  8
1
  6
________________
 62
     7
 10
-50.232684
 20
112.147834
 30
0.0
 11
-50.232684
 21
99.947834
 31
0.0
  0
LINE
  5
DB
  8
1
  6
________________
 62
     7
 10
-29.982684
 20
125.647834
 30
0.0
 11
-29.982684
 21
127.647834
 31
0.0
  0
LINE
  5
DC
  8
1
  6
________________
 62
     7
 10
-47.982684
 20
127.647834
 30
0.0
 11
-47.982684
 21
125.647834
 31
0.0
  0
LINE
  5
DD
  8
1
  6
________________
 62
     7
 10
-30.082684
 20
119.147834
 30
0.0
 11
-30.082684
 21
127.647834
 31
0.0
  0
LINE
  5
DE
  8
1
  6
________________
 62
     7
 10
-47.882684
 20
127.647834
 30
0.0
 11
-47.882684
 21
119.147834
 31
0.0
  0
ARC
  5
DF
  8
1
  6
________________
 62
     7
 10
-83.282676
 20
211.2911376936
 30
0.0
 40
1.0
 50
0.0
 51
90.0
  0
LINE
  5
E0
  8
1
  6
________________
 62
     7
 10
-83.282676
 20
212.2911376936
 30
0.0
 11
-94.782676
 21
212.2911376936
 31
0.0
  0
ARC
  5
E1
  8
1
  6
________________
 62
     7
 10
-94.782676
 20
217.2911376936
 30
0.0
 40
5.0
 50
180.0
 51
270.0
  0
LINE
  5
E2
  8
1
  6
________________
 62
     7
 10
-99.782676
 20
211.2911376936
 30
0.0
 11
-99.782676
 21
220.7911376936
 31
0.0
  0
LINE
  5
E3
  8
1
  6
________________
 62
     7
 10
-97.782676
 20
217.2911376936
 30
0.0
 11
-97.782676
 21
220.7624406936
 31
0.0
  0
ARC
  5
E4
  8
1
  6
________________
 62
     7
 10
-94.782676
 20
217.2911376936
 30
0.0
 40
3.0
 50
180.0
 51
270.0
  0
LINE
  5
E5
  8
1
  6
________________
 62
     7
 10
-83.282676
 20
214.2911376936
 30
0.0
 11
-94.782676
 21
214.2911376936
 31
0.0
  0
ARC
  5
E6
  8
1
  6
________________
 62
     7
 10
-83.282676
 20
211.2911376936
 30
0.0
 40
3.0
 50
0.0
 51
90.0
  0
LINE
  5
E7
  8
1
  6
________________
 62
     7
 10
-80.282676
 20
211.2911376936
 30
0.0
 11
-80.282676
 21
183.2911376936
 31
0.0
  0
ARC
  5
E8
  8
1
  6
________________
 62
     7
 10
-83.282676
 20
183.2911376936
 30
0.0
 40
3.0
 50
270.0
 51
0.0
  0
LINE
  5
E9
  8
1
  6
________________
 62
     7
 10
-83.282676
 20
180.2911376936
 30
0.0
 11
-94.782676
 21
180.2911376936
 31
0.0
  0
ARC
  5
EA
  8
1
  6
________________
 62
     7
 10
-94.782676
 20
177.2911376936
 30
0.0
 40
3.0
 50
90.0
 51
180.0
  0
LINE
  5
EB
  8
1
  6
________________
 62
     7
 10
-97.782676
 20
177.2911376936
 30
0.0
 11
-97.782676
 21
173.8198346936
 31
0.0
  0
LINE
  5
EC
  8
1
  6
________________
 62
     7
 10
-99.782676
 20
183.2911376936
 30
0.0
 11
-99.782676
 21
173.7911376936
 31
0.0
  0
ARC
  5
ED
  8
1
  6
________________
 62
     7
 10
-94.782676
 20
177.2911376936
 30
0.0
 40
5.0
 50
90.0
 51
180.0
  0
LINE
  5
EE
  8
1
  6
________________
 62
     7
 10
-83.282676
 20
182.2911376936
 30
0.0
 11
-94.782676
 21
182.2911376936
 31
0.0
  0
ARC
  5
EF
  8
1
  6
________________
 62
     7
 10
-83.282676
 20
183.2911376936
 30
0.0
 40
1.0
 50
270.0
 51
0.0
  0
LINE
  5
F0
  8
1
  6
________________
 62
     7
 10
-82.282676
 20
211.2911376936
 30
0.0
 11
-82.282685
 21
197.2911376936
 31
0.0
  0
LINE
  5
F1
  8
1
  6
________________
 62
     7
 10
-82.282694
 20
211.2911376936
 30
0.0
 11
-82.282676
 21
183.2911376936
 31
0.0
  0
LINE
  5
F2
  8
1
  6
________________
 62
     7
 10
-97.692973
 20
173.7911376936
 30
0.0
 11
-97.782676
 21
173.8198346936
 31
0.0
  0
LINE
  5
F3
  8
1
  6
________________
 62
     7
 10
-96.782676
 20
173.7911376936
 30
0.0
 11
-99.782676
 21
173.7911376936
 31
0.0
  0
LINE
  5
F4
  8
1
  6
________________
 62
     7
 10
-99.782676
 20
220.7911376936
 30
0.0
 11
-96.782676
 21
220.7911376936
 31
0.0
  0
LINE
  5
F5
  8
1
  6
________________
 62
     7
 10
-97.782676
 20
220.7624406936
 30
0.0
 11
-97.692973
 21
220.7911376936
 31
0.0
  0
ARC
  5
F6
  8
1
  6
________________
 62
     7
 10
-95.782676
 20
215.5590866936
 30
0.0
 40
1.0
 50
180.0
 51
240.0
  0
ARC
  5
F7
  8
1
  6
________________
 62
     7
 10
-95.782676
 20
179.0231886936
 30
0.0
 40
1.0
 50
120.0
 51
180.0
  0
LINE
  5
F8
  8
1
  6
________________
 62
     7
 10
-96.782676
 20
220.7911376936
 30
0.0
 11
-96.782676
 21
215.5590866936
 31
0.0
  0
LINE
  5
F9
  8
1
  6
________________
 62
     7
 10
-96.782676
 20
179.0231886936
 30
0.0
 11
-96.782676
 21
173.7911376936
 31
0.0
  0
LINE
  5
FA
  8
1
  6
________________
 62
     7
 10
-97.782676
 20
183.2911376936
 30
0.0
 11
-97.782676
 21
181.2911376936
 31
0.0
  0
LINE
  5
FB
  8
1
  6
________________
 62
     7
 10
-97.782676
 20
211.2911376936
 30
0.0
 11
-97.782676
 21
213.2911376936
 31
0.0
  0
LINE
  5
FC
  8
1
  6
________________
 62
     7
 10
-110.182685
 20
194.8723396936
 30
0.0
 11
-110.182685
 21
199.7099356936
 31
0.0
  0
LINE
  5
FD
  8
1
  6
________________
 62
     7
 10
-108.182685
 20
199.7099356936
 30
0.0
 11
-108.182685
 21
194.8723396936
 31
0.0
  0
ARC
  5
FE
  8
1
  6
________________
 62
     7
 10
-109.669653
 20
199.7227206936
 30
0.0
 40
0.513191
 50
91.455091
 51
181.427639
  0
ARC
  5
FF
  8
1
  6
________________
 62
     7
 10
-108.698204
 20
199.7203556936
 30
0.0
 40
0.515624
 50
358.841988
 51
88.27528200000006
  0
ARC
  5
100
  8
1
  6
________________
 62
     7
 10
-108.69622
 20
194.8600336936
 30
0.0
 40
0.513683
 50
271.509938
 51
1.372792000000004
  0
LINE
  5
101
  8
1
  6
________________
 62
     7
 10
-108.682685
 20
200.2357466936
 30
0.0
 11
-109.682685
 21
200.2357466936
 31
0.0
  0
ARC
  5
102
  8
1
  6
________________
 62
     7
 10
-109.667431
 20
194.8616676936
 30
0.0
 40
0.515364
 50
178.813374
 51
268.303896
  0
LINE
  5
103
  8
1
  6
________________
 62
     7
 10
-109.682685
 20
194.3465286936
 30
0.0
 11
-108.682685
 21
194.3465286936
 31
0.0
  0
LINE
  5
104
  8
1
  6
________________
 62
     7
 10
-125.682685
 20
211.2911376936
 30
0.0
 11
-125.682685
 21
183.2911376936
 31
0.0
  0
LINE
  5
105
  8
1
  6
________________
 62
     7
 10
-126.682685
 20
184.2911376936
 30
0.0
 11
-126.682685
 21
210.2911376936
 31
0.0
  0
LINE
  5
106
  8
1
  6
________________
 62
     7
 10
-109.682685
 20
210.9779666936
 30
0.0
 11
-110.182685
 21
211.0806056936
 31
0.0
  0
LINE
  5
107
  8
1
  6
________________
 62
     7
 10
-109.682685
 20
210.9779666936
 30
0.0
 11
-108.682685
 21
210.9779666936
 31
0.0
  0
LINE
  5
108
  8
1
  6
________________
 62
     7
 10
-108.182685
 20
211.0806056936
 30
0.0
 11
-108.682685
 21
210.9779666936
 31
0.0
  0
LINE
  5
109
  8
1
  6
________________
 62
     7
 10
-108.682685
 20
183.6043086936
 30
0.0
 11
-108.182685
 21
183.5016696936
 31
0.0
  0
LINE
  5
10A
  8
1
  6
________________
 62
     7
 10
-108.682685
 20
183.6043086936
 30
0.0
 11
-109.682685
 21
183.6043086936
 31
0.0
  0
LINE
  5
10B
  8
1
  6
________________
 62
     7
 10
-110.182685
 20
183.5016696936
 30
0.0
 11
-109.682685
 21
183.6043086936
 31
0.0
  0
LINE
  5
10C
  8
1
  6
________________
 62
     7
 10
-106.182685
 20
208.4154356936
 30
0.0
 11
-106.182685
 21
186.1668396936
 31
0.0
  0
LINE
  5
10D
  8
1
  6
________________
 62
     7
 10
-108.182685
 20
213.1911376936
 30
0.0
 11
-108.182685
 21
211.0806056936
 31
0.0
  0
LINE
  5
10E
  8
1
  6
________________
 62
     7
 10
-110.182685
 20
181.3911376936
 30
0.0
 11
-110.182685
 21
183.5016696936
 31
0.0
  0
LINE
  5
10F
  8
1
  6
________________
 62
     7
 10
-110.182685
 20
211.0806056936
 30
0.0
 11
-110.182685
 21
213.1911376936
 31
0.0
  0
LINE
  5
110
  8
1
  6
________________
 62
     7
 10
-108.182685
 20
183.5016696936
 30
0.0
 11
-108.182685
 21
181.3911376936
 31
0.0
  0
LINE
  5
111
  8
1
  6
________________
 62
     7
 10
-80.182685
 20
183.2911376936
 30
0.0
 11
-80.182685
 21
211.2911376936
 31
0.0
  0
LINE
  5
112
  8
1
  6
________________
 62
     7
 10
-79.682685
 20
199.0911376936
 30
0.0
 11
-79.682685
 21
195.4911376936
 31
0.0
  0
LINE
  5
113
  8
1
  6
________________
 62
     7
 10
-125.682685
 20
211.2911376936
 30
0.0
 11
-126.682685
 21
210.2911376936
 31
0.0
  0
LINE
  5
114
  8
1
  6
________________
 62
     7
 10
-126.682685
 20
184.2911376936
 30
0.0
 11
-125.682685
 21
183.2911376936
 31
0.0
  0
LINE
  5
115
  8
1
  6
________________
 62
     7
 10
-108.182685
 20
183.2911376936
 30
0.0
 11
-82.282685
 21
183.2911376936
 31
0.0
  0
LINE
  5
116
  8
1
  6
________________
 62
     7
 10
-82.282685
 20
211.2911376936
 30
0.0
 11
-108.182685
 21
211.2911376936
 31
0.0
  0
LINE
  5
117
  8
1
  6
________________
 62
     7
 10
-80.182685
 20
194.9911376936
 30
0.0
 11
-79.682685
 21
195.4911376936
 31
0.0
  0
LINE
  5
118
  8
1
  6
________________
 62
     7
 10
-79.682685
 20
199.0911376936
 30
0.0
 11
-80.182685
 21
199.5911376936
 31
0.0
  0
LINE
  5
119
  8
1
  6
________________
 62
     7
 10
-80.182685
 20
199.5911376936
 30
0.0
 11
-80.282676
 21
199.5911376936
 31
0.0
  0
LINE
  5
11A
  8
1
  6
________________
 62
     7
 10
-80.282676
 20
194.9911376936
 30
0.0
 11
-80.182685
 21
194.9911376936
 31
0.0
  0
ARC
  5
11B
  8
1
  6
________________
 62
     7
 10
-109.682685
 20
213.1911376936
 30
0.0
 40
0.5
 50
90.0
 51
180.0
  0
ARC
  5
11C
  8
1
  6
________________
 62
     7
 10
-108.682685
 20
213.1911376936
 30
0.0
 40
0.5
 50
0.0
 51
90.0
  0
LINE
  5
11D
  8
1
  6
________________
 62
     7
 10
-108.682685
 20
213.6911376936
 30
0.0
 11
-109.682685
 21
213.6911376936
 31
0.0
  0
ARC
  5
11E
  8
1
  6
________________
 62
     7
 10
-109.682685
 20
181.3911376936
 30
0.0
 40
0.5
 50
180.0
 51
270.0
  0
ARC
  5
11F
  8
1
  6
________________
 62
     7
 10
-108.682685
 20
181.3911376936
 30
0.0
 40
0.5
 50
270.0
 51
0.0
  0
LINE
  5
120
  8
1
  6
________________
 62
     7
 10
-109.682685
 20
180.8911376936
 30
0.0
 11
-108.682685
 21
180.8911376936
 31
0.0
  0
LINE
  5
121
  8
0
  6
________________
 62
     7
 10
-120.182685
 20
157.647834
 30
0.0
 11
-125.682685
 21
157.647834
 31
0.0
  0
LINE
  5
122
  8
0
  6
________________
 62
     7
 10
-116.682685
 20
157.647834
 30
0.0
 11
-116.682685
 21
129.647834
 31
0.0
  0
LINE
  5
123
  8
0
  6
________________
 62
     7
 10
-120.182685
 20
157.647834
 30
0.0
 11
-120.182685
 21
129.647834
 31
0.0
  0
LINE
  5
124
  8
0
  6
________________
 62
     7
 10
-120.182685
 20
130.397834
 30
0.0
 11
-116.682685
 21
130.397834
 31
0.0
  0
LINE
  5
125
  8
0
  6
________________
 62
     7
 10
-116.682685
 20
156.897834
 30
0.0
 11
-120.182685
 21
156.897834
 31
0.0
  0
LINE
  5
126
  8
1
  6
________________
 62
     7
 10
-108.682685
 20
129.649183
 30
0.0
 11
-108.682685
 21
119.147834
 31
0.0
  0
LINE
  5
127
  8
0
  6
________________
 62
     7
 10
-116.682685
 20
129.647834
 30
0.0
 11
-108.682685
 21
129.647834
 31
0.0
  0
LINE
  5
128
  8
0
  6
________________
 62
     7
 10
-125.682685
 20
129.647834
 30
0.0
 11
-120.182685
 21
129.647834
 31
0.0
  0
LINE
  5
129
  8
0
  6
________________
 62
     7
 10
-120.182685
 20
211.2911376936
 30
0.0
 11
-120.182685
 21
183.2911376936
 31
0.0
  0
LINE
  5
12A
  8
0
  6
________________
 62
     7
 10
-120.182685
 20
184.0411376936
 30
0.0
 11
-116.682685
 21
184.0411376936
 31
0.0
  0
LINE
  5
12B
  8
0
  6
________________
 62
     7
 10
-116.682685
 20
210.5411376936
 30
0.0
 11
-120.182685
 21
210.5411376936
 31
0.0
  0
LINE
  5
12C
  8
0
  6
________________
 62
     7
 10
-120.182685
 20
211.2911376936
 30
0.0
 11
-125.682685
 21
211.2911376936
 31
0.0
  0
LINE
  5
12D
  8
0
  6
________________
 62
     7
 10
-125.682685
 20
183.2911376936
 30
0.0
 11
-120.182685
 21
183.2911376936
 31
0.0
  0
LINE
  5
12E
  8
0
  6
________________
 62
     7
 10
-116.682685
 20
211.2911376936
 30
0.0
 11
-116.682685
 21
183.2911376936
 31
0.0
  0
LINE
  5
12F
  8
1
  6
________________
 62
     7
 10
-116.682685
 20
183.2911376936
 30
0.0
 11
-110.182685
 21
183.2911376936
 31
0.0
  0
LINE
  5
130
  8
1
  6
________________
 62
     7
 10
-110.182685
 20
211.2911376936
 30
0.0
 11
-116.682685
 21
211.2911376936
 31
0.0
  0
POINT
  5
131
  8
0
 62
     7
 10
-125.682685
 20
198.416068
 30
0.0
  0
POINT
  5
132
  8
0
 62
     7
 10
-125.682685
 20
183.2911376936
 30
0.0
  0
TEXT
  5
133
  8
0
 62
     7
 10
-81.25272727272728
 20
93.43636363636364
 30
0.0
 40
3.0
  1
WKE3-13A-15T
  7
EXPLODED0
  0
ENDSEC
  0
EOF
